  0
SECTION
  2
HEADER
  9
$ACADVER
  1
AC1009
  9
$DWGCODEPAGE
  3
dos932
  9
$INSBASE
 10
0.0
 20
0.0
 30
0.0
  9
$EXTMIN
 10
-138.3999939
 20
-94.80000305
 30
0.0
  9
$EXTMAX
 10
138.3500061
 20
94.5
 30
0.0
  9
$LIMMIN
 10
-138.3999939
 20
-94.80000305
  9
$LIMMAX
 10
138.3500061
 20
94.5
  9
$ORTHOMODE
 70
       0
  9
$REGENMODE
 70
       1
  9
$FILLMODE
 70
       1
  9
$QTEXTMODE
 70
       0
  9
$MIRRTEXT
 70
       1
  9
$DRAGMODE
 70
       2
  9
$LTSCALE
 40
1.0
  9
$OSMODE
 70
       0
  9
$ATTMODE
 70
       1
  9
$TEXTSIZE
 40
3.20000005
  9
$TRACEWID
 40
0.05
  9
$TEXTSTYLE
  7
MX_NOTE_STANDARD
  9
$CLAYER
  8
0
  9
$CELTYPE
  6
CONTINUOUS
  9
$CECOLOR
 62
     256
  9
$DIMSCALE
 40
1.0
  9
$DIMASZ
 40
2.5
  9
$DIMEXO
 40
1.5
  9
$DIMDLI
 40
3.75
  9
$DIMRND
 40
0.0
  9
$DIMDLE
 40
0.0
  9
$DIMEXE
 40
1.5
  9
$DIMTP
 40
0.0
  9
$DIMTM
 40
0.0
  9
$DIMTXT
 40
3.20000005
  9
$DIMCEN
 40
2.5
  9
$DIMTSZ
 40
0.0
  9
$DIMTOL
 70
       0
  9
$DIMLIM
 70
       0
  9
$DIMTIH
 70
       0
  9
$DIMTOH
 70
       0
  9
$DIMSE1
 70
       0
  9
$DIMSE2
 70
       0
  9
$DIMTAD
 70
       1
  9
$DIMZIN
 70
       8
  9
$DIMBLK
  1

  9
$DIMASO
 70
       1
  9
$DIMSHO
 70
       1
  9
$DIMPOST
  1

  9
$DIMAPOST
  1

  9
$DIMALT
 70
       0
  9
$DIMALTD
 70
       4
  9
$DIMALTF
 40
0.03937008
  9
$DIMLFAC
 40
1.0
  9
$DIMTOFL
 70
       1
  9
$DIMTVP
 40
0.0
  9
$DIMTIX
 70
       0
  9
$DIMSOXD
 70
       0
  9
$DIMSAH
 70
       0
  9
$DIMBLK1
  1

  9
$DIMBLK2
  1

  9
$DIMSTYLE
  2
MXDIMSTYLE
  9
$DIMCLRD
 70
       0
  9
$DIMCLRE
 70
       0
  9
$DIMCLRT
 70
       0
  9
$DIMTFAC
 40
1.0
  9
$DIMGAP
 40
1.0
  9
$LUNITS
 70
       2
  9
$LUPREC
 70
       4
  9
$AXISMODE
 70
       0
  9
$AXISUNIT
 10
0.0
 20
0.0
  9
$SKETCHINC
 40
0.1
  9
$FILLETRAD
 40
0.0
  9
$AUNITS
 70
       0
  9
$AUPREC
 70
       0
  9
$MENU
  1
acad
  9
$ELEVATION
 40
0.0
  9
$PELEVATION
 40
0.0
  9
$THICKNESS
 40
0.0
  9
$LIMCHECK
 70
       0
  9
$BLIPMODE
 70
       1
  9
$CHAMFERA
 40
0.0
  9
$CHAMFERB
 40
0.0
  9
$SKPOLY
 70
       0
  9
$TDCREATE
 40
2453588.568564815
  9
$TDUPDATE
 40
2453588.568564815
  9
$TDINDWG
 40
0.0000000000
  9
$TDUSRTIMER
 40
0.0000000000
  9
$USRTIMER
 70
       1
  9
$ANGBASE
 50
0.0
  9
$ANGDIR
 70
       0
  9
$PDMODE
 70
       0
  9
$PDSIZE
 40
0.0
  9
$PLINEWID
 40
0.0
  9
$COORDS
 70
       1
  9
$SPLFRAME
 70
       0
  9
$SPLINETYPE
 70
       6
  9
$SPLINESEGS
 70
       8
  9
$ATTDIA
 70
       0
  9
$ATTREQ
 70
       1
  9
$HANDLING
 70
       1
  9
$HANDSEED
  5
F4
  9
$SURFTAB1
 70
       6
  9
$SURFTAB2
 70
       6
  9
$SURFTYPE
 70
       6
  9
$SURFU
 70
       6
  9
$SURFV
 70
       6
  9
$UCSNAME
  2

  9
$UCSORG
 10
0.0
 20
0.0
 30
0.0
  9
$UCSXDIR
 10
1.0
 20
0.0
 30
0.0
  9
$UCSYDIR
 10
0.0
 20
1.0
 30
0.0
  9
$PUCSNAME
  2

  9
$PUCSORG
 10
0.0
 20
0.0
 30
0.0
  9
$PUCSXDIR
 10
1.0
 20
0.0
 30
0.0
  9
$PUCSYDIR
 10
0.0
 20
1.0
 30
0.0
  9
$USERI1
 70
       0
  9
$USERI2
 70
       0
  9
$USERI3
 70
       0
  9
$USERI4
 70
       0
  9
$USERI5
 70
       0
  9
$USERR1
 40
0.0
  9
$USERR2
 40
0.0
  9
$USERR3
 40
0.0
  9
$USERR4
 40
0.0
  9
$USERR5
 40
0.0
  9
$WORLDVIEW
 70
       1
  9
$SHADEDGE
 70
       3
  9
$SHADEDIF
 70
      70
  9
$TILEMODE
 70
       1
  9
$MAXACTVP
 70
      16
  9
$PINSBASE
 10
0.0
 20
0.0
 30
0.0
  9
$PLIMCHECK
 70
       0
  9
$PEXTMIN
 10
1.00000000E+20
 20
1.00000000E+20
 30
1.00000000E+20
  9
$PEXTMAX
 10
-1.00000000E+20
 20
-1.00000000E+20
 30
-1.00000000E+20
  9
$PLIMMIN
 10
0.0
 20
0.0
  9
$PLIMMAX
 10
12.0
 20
9.0
  9
$UNITMODE
 70
       0
  9
$VISRETAIN
 70
       0
  9
$PLINEGEN
 70
       1
  9
$PSLTSCALE
 70
       0
  9
$TREEDEPTH
 70
    3020
  9
$DWGCODEPAGE
  3
dos932
  0
ENDSEC
  0
SECTION
  2
TABLES
  0
TABLE
  2
VPORT
 70
       1
  0
VPORT
  2
*ACTIVE
 70
       0
 10
0.0
 20
0.0
 11
1.0
 21
1.0
 12
-0.0249939
 22
-0.15000153
 13
0.0
 23
0.0
 14
1.0
 24
1.0
 15
0.0
 25
0.0
 16
0.0
 26
0.0
 36
1.0
 17
0.0
 27
0.0
 37
0.0
 40
191.19300308
 41
1.73205081
 42
50.0
 43
0.0
 44
0.0
 50
0.0
 51
0.0
 71
       0
 72
     100
 73
       1
 74
       1
 75
       0
 76
       0
 77
       0
 78
       0
  0
ENDTAB
  0
TABLE
  2
LTYPE
 70
       2
  0
LTYPE
  2
CONTINUOUS
 70
      64
  3
Solid line
 72
      65
 73
       0
 40
0.0
  0
LTYPE
  2
CENTER
 70
      64
  3
Center ____ _ ____ _ ____ _ ____ _ ____ _ ____
 72
      65
 73
       4
 40
26.0
 49
20.0
 49
-2.0
 49
2.0
 49
-2.0
  0
ENDTAB
  0
TABLE
  2
LAYER
 70
       2
  0
LAYER
  2
0
 70
       0
 62
       7
  6
CONTINUOUS
  0
LAYER
  2
DEFPOINTS
 70
       0
 62
       7
  6
CONTINUOUS
  0
ENDTAB
  0
TABLE
  2
STYLE
 70
       1
  0
STYLE
  2
MX_NOTE_STANDARD
 70
       0
 40
0.0
 41
1.0
 50
0.0
 71
       0
 42
3.20000005
  3
txt.shx
  4
extfont.shx
  0
ENDTAB
  0
TABLE
  2
VIEW
 70
       0
  0
ENDTAB
  0
TABLE
  2
UCS
 70
       0
  0
ENDTAB
  0
TABLE
  2
APPID
 70
       1
  0
APPID
  2
ACAD
 70
       0
  0
ENDTAB
  0
TABLE
  2
DIMSTYLE
 70
       1
  0
DIMSTYLE
  2
MXDIMSTYLE
 70
       0
  3

  4

  5

  6

  7

 40
1.0
 41
2.5
 42
1.5
 43
3.75
 44
1.5
 45
0.0
 46
0.0
 47
0.0
 48
0.0
 71
       0
 72
       0
 73
       0
 74
       0
 75
       0
 76
       0
 77
       1
 78
       8
140
3.20000005
141
2.5
142
0.0
143
0.03937008
144
1.0
145
0.0
146
1.0
147
1.0
170
       0
171
       4
172
       1
173
       0
174
       0
175
       0
176
       0
177
       0
178
       0
  0
ENDTAB
  0
ENDSEC
  0
SECTION
  2
BLOCKS
  0
ENDSEC
  0
SECTION
  2
ENTITIES
  0
LINE
  8
0
  6
CONTINUOUS
 62
       7
  5
1E
 10
-71.6
 20
-15.8
 30
0.0
 11
-71.6
 21
15.8
 31
0.0
  0
LINE
  8
0
  6
CONTINUOUS
 62
       7
  5
1F
 10
-71.59999997
 20
15.8
 30
0.0
 11
-40.0
 21
15.8
 31
0.0
  0
LINE
  8
0
  6
CONTINUOUS
 62
       7
  5
20
 10
-71.59999997
 20
-15.8
 30
0.0
 11
-60.2
 21
-15.8
 31
0.0
  0
LINE
  8
0
  6
CONTINUOUS
 62
       7
  5
21
 10
-40.0
 20
-15.8
 30
0.0
 11
-40.0
 21
15.8
 31
0.0
  0
LINE
  8
0
  6
CONTINUOUS
 62
       7
  5
22
 10
-10.0
 20
-14.5
 30
0.0
 11
-10.0
 21
14.5
 31
0.0
  0
LINE
  8
0
  6
CONTINUOUS
 62
       7
  5
23
 10
28.5
 20
-5.8
 30
0.0
 11
28.5
 21
5.8
 31
0.0
  0
LINE
  8
0
  6
CONTINUOUS
 62
       7
  5
24
 10
53.5
 20
-15.8
 30
0.0
 11
53.5
 21
15.8
 31
0.0
  0
LINE
  8
0
  6
CONTINUOUS
 62
       7
  5
25
 10
85.1
 20
-15.8
 30
0.0
 11
85.1
 21
15.8
 31
0.0
  0
LINE
  8
0
  6
CONTINUOUS
 62
       7
  5
26
 10
13.7
 20
15.8
 30
0.0
 11
18.3
 21
15.8
 31
0.0
  0
LINE
  8
0
  6
CONTINUOUS
 62
       7
  5
27
 10
13.7
 20
-15.8
 30
0.0
 11
18.3
 21
-15.8
 31
0.0
  0
LINE
  8
0
  6
CONTINUOUS
 62
       7
  5
28
 10
53.5
 20
15.8
 30
0.0
 11
85.1
 21
15.8
 31
0.0
  0
LINE
  8
0
  6
CONTINUOUS
 62
       7
  5
29
 10
53.5
 20
-15.8
 30
0.0
 11
63.3
 21
-15.8
 31
0.0
  0
LINE
  8
0
  6
CENTER
 62
       2
  5
2B
 10
-55.8
 20
-18.20878498
 30
0.0
 11
-55.8
 21
18.54751935
 31
0.0
  0
LINE
  8
0
  6
CENTER
 62
       2
  5
2C
 10
69.3
 20
-35.3603876
 30
0.0
 11
69.3
 21
18.65249612
 31
0.0
  0
LINE
  8
0
  6
CENTER
 62
       2
  5
2D
 10
49.24931794
 20
0.0
 30
0.0
 11
89.72444911
 21
0.0
 31
0.0
  0
LINE
  8
0
  6
CENTER
 62
       2
  5
2E
 10
-74.27585693
 20
0.0
 30
0.0
 11
-37.11711131
 21
0.0
 31
0.0
  0
LINE
  8
0
  6
CONTINUOUS
 62
       7
  5
2F
 10
-70.3
 20
15.0
 30
0.0
 11
-41.3
 21
15.0
 31
0.0
  0
LINE
  8
0
  6
CONTINUOUS
 62
       7
  5
30
 10
-70.3
 20
-15.0
 30
0.0
 11
-41.3
 21
-15.0
 31
0.0
  0
LINE
  8
0
  6
CENTER
 62
       2
  5
31
 10
-13.31092601
 20
0.0
 30
0.0
 11
33.19823477
 21
0.0
 31
0.0
  0
LINE
  8
0
  6
CONTINUOUS
 62
       7
  5
32
 10
13.5
 20
-15.6
 30
0.0
 11
13.5
 21
15.6
 31
0.0
  0
LINE
  8
0
  6
CONTINUOUS
 62
       7
  5
33
 10
18.5
 20
-15.6
 30
0.0
 11
18.5
 21
15.6
 31
0.0
  0
LINE
  8
0
  6
CENTER
 62
       2
  5
34
 10
59.3
 20
-13.86343321
 30
0.0
 11
59.3
 21
13.78421359
 31
0.0
  0
LINE
  8
0
  6
CENTER
 62
       2
  5
35
 10
79.3
 20
-13.86343321
 30
0.0
 11
79.3
 21
13.78421359
 31
0.0
  0
LINE
  8
0
  6
CENTER
 62
       2
  5
36
 10
14.98116271
 20
10.0
 30
0.0
 11
24.99506215
 21
10.0
 31
0.0
  0
LINE
  8
0
  6
CENTER
 62
       2
  5
37
 10
55.04149081
 20
-10.0
 30
0.0
 11
83.08523571
 21
-10.0
 31
0.0
  0
LINE
  8
0
  6
CONTINUOUS
 62
       7
  5
38
 10
63.3
 20
-18.8
 30
0.0
 11
63.3
 21
2.5
 31
0.0
  0
LINE
  8
0
  6
CONTINUOUS
 62
       7
  5
39
 10
75.3
 20
-18.8
 30
0.0
 11
75.3
 21
2.5
 31
0.0
  0
LINE
  8
0
  6
CONTINUOUS
 62
       7
  5
3A
 10
66.8
 20
6.0
 30
0.0
 11
71.8
 21
6.0
 31
0.0
  0
LINE
  8
0
  6
CONTINUOUS
 62
       7
  5
3B
 10
66.8
 20
-6.0
 30
0.0
 11
71.8
 21
-6.0
 31
0.0
  0
LINE
  8
0
  6
CONTINUOUS
 62
       7
  5
3C
 10
58.05
 20
10.72168803
 30
0.0
 11
58.05
 21
9.27831197
 31
0.0
  0
LINE
  8
0
  6
CONTINUOUS
 62
       7
  5
3D
 10
60.55
 20
10.72168791
 30
0.0
 11
60.55
 21
9.27831209
 31
0.0
  0
LINE
  8
0
  6
CONTINUOUS
 62
       7
  5
3E
 10
58.05000008
 20
10.72168796
 30
0.0
 11
59.30000007
 21
11.44337566
 31
0.0
  0
LINE
  8
0
  6
CONTINUOUS
 62
       7
  5
3F
 10
59.29999945
 20
8.55662516
 30
0.0
 11
60.54999944
 21
9.27831287
 31
0.0
  0
LINE
  8
0
  6
CONTINUOUS
 62
       7
  5
40
 10
59.29999945
 20
11.44337484
 30
0.0
 11
60.54999944
 21
10.72168713
 31
0.0
  0
LINE
  8
0
  6
CONTINUOUS
 62
       7
  5
41
 10
58.05000008
 20
9.27831204
 30
0.0
 11
59.30000007
 21
8.55662434
 31
0.0
  0
CIRCLE
  8
0
  6
CONTINUOUS
 62
       7
  5
42
 10
59.3
 20
10.0
 30
0.0
 40
2.75
  0
CIRCLE
  8
0
  6
CONTINUOUS
 62
       7
  5
43
 10
59.3
 20
10.00000012
 30
0.0
 40
2.40358925
  0
LINE
  8
0
  6
CONTINUOUS
 62
       7
  5
44
 10
78.05
 20
-9.27831197
 30
0.0
 11
78.05
 21
-10.72168803
 31
0.0
  0
LINE
  8
0
  6
CONTINUOUS
 62
       7
  5
45
 10
80.55
 20
-9.27831209
 30
0.0
 11
80.55
 21
-10.72168791
 31
0.0
  0
LINE
  8
0
  6
CONTINUOUS
 62
       7
  5
46
 10
78.05000008
 20
-9.27831204
 30
0.0
 11
79.30000007
 21
-8.55662434
 31
0.0
  0
LINE
  8
0
  6
CONTINUOUS
 62
       7
  5
47
 10
79.29999945
 20
-11.44337484
 30
0.0
 11
80.54999944
 21
-10.72168713
 31
0.0
  0
LINE
  8
0
  6
CONTINUOUS
 62
       7
  5
48
 10
79.29999945
 20
-8.55662516
 30
0.0
 11
80.54999944
 21
-9.27831287
 31
0.0
  0
LINE
  8
0
  6
CONTINUOUS
 62
       7
  5
49
 10
78.05000008
 20
-10.72168796
 30
0.0
 11
79.30000007
 21
-11.44337566
 31
0.0
  0
CIRCLE
  8
0
  6
CONTINUOUS
 62
       7
  5
4A
 10
79.3
 20
-10.0
 30
0.0
 40
2.75
  0
CIRCLE
  8
0
  6
CONTINUOUS
 62
       7
  5
4B
 10
79.3
 20
-9.99999988
 30
0.0
 40
2.40358925
  0
CIRCLE
  8
0
  6
CONTINUOUS
 62
       7
  5
4C
 10
79.3
 20
10.0
 30
0.0
 40
1.621
  0
CIRCLE
  8
0
  6
CONTINUOUS
 62
       7
  5
4D
 10
59.3
 20
-10.0
 30
0.0
 40
1.621
  0
CIRCLE
  8
0
  6
CONTINUOUS
 62
       2
  5
4E
 10
79.3
 20
10.0
 30
0.0
 40
2.0
  0
CIRCLE
  8
0
  6
CONTINUOUS
 62
       2
  5
4F
 10
59.3
 20
-10.0
 30
0.0
 40
2.0
  0
CIRCLE
  8
0
  6
CONTINUOUS
 62
       7
  5
50
 10
79.3
 20
10.0
 30
0.0
 40
2.5
  0
CIRCLE
  8
0
  6
CONTINUOUS
 62
       7
  5
51
 10
59.3
 20
-10.0
 30
0.0
 40
2.5
  0
LINE
  8
0
  6
CONTINUOUS
 62
       7
  5
52
 10
63.3
 20
-18.8
 30
0.0
 11
75.3
 21
-18.8
 31
0.0
  0
LINE
  8
0
  6
CONTINUOUS
 62
       7
  5
53
 10
75.3
 20
-15.8
 30
0.0
 11
85.1
 21
-15.8
 31
0.0
  0
LINE
  8
0
  6
CONTINUOUS
 62
       7
  5
54
 10
64.9
 20
-20.8
 30
0.0
 11
73.7
 21
-20.8
 31
0.0
  0
LINE
  8
0
  6
CONTINUOUS
 62
       7
  5
55
 10
64.9
 20
-20.8
 30
0.0
 11
64.9
 21
-18.8
 31
0.0
  0
LINE
  8
0
  6
CONTINUOUS
 62
       7
  5
56
 10
73.7
 20
-20.8
 30
0.0
 11
73.7
 21
-18.8
 31
0.0
  0
LINE
  8
0
  6
CONTINUOUS
 62
       7
  5
57
 10
73.5
 20
-20.8
 30
0.0
 11
73.5
 21
-18.8
 31
0.0
  0
LINE
  8
0
  6
CONTINUOUS
 62
       7
  5
58
 10
65.1
 20
-20.8
 30
0.0
 11
65.1
 21
-18.8
 31
0.0
  0
LINE
  8
0
  6
CONTINUOUS
 62
       7
  5
59
 10
67.45
 20
-32.08394544
 30
0.0
 11
67.45
 21
-20.8
 31
0.0
  0
LINE
  8
0
  6
CONTINUOUS
 62
       7
  5
5A
 10
71.15
 20
-32.08394544
 30
0.0
 11
71.15
 21
-20.8
 31
0.0
  0
ARC
  8
0
  6
CONTINUOUS
 62
       7
  5
5B
 10
67.75
 20
-32.08394544
 30
0.0
 40
0.3
 50
128.88189909
 51
231.11810091
  0
ARC
  8
0
  6
CONTINUOUS
 62
       7
  5
5C
 10
70.85
 20
-32.08394544
 30
0.0
 40
0.3
 50
308.88189909
 51
0.0
  0
ARC
  8
0
  6
CONTINUOUS
 62
       7
  5
5D
 10
68.32016486
 20
-32.79101545
 30
0.0
 40
1.20831491
 50
35.81502292
 51
128.88189909
  0
ARC
  8
0
  6
CONTINUOUS
 62
       7
  5
5E
 10
70.27983514
 20
-31.37687542
 30
0.0
 40
1.20831491
 50
215.81502292
 51
308.88189909
  0
ARC
  8
0
  6
CONTINUOUS
 62
       7
  5
5F
 10
68.32016486
 20
-31.37687542
 30
0.0
 40
1.20831491
 50
231.11810091
 51
324.18497708
  0
CIRCLE
  8
0
  6
CONTINUOUS
 62
       7
  5
60
 10
69.3
 20
0.0
 30
0.0
 40
2.0
  0
CIRCLE
  8
0
  6
CONTINUOUS
 62
       7
  5
61
 10
69.3
 20
0.0
 30
0.0
 40
0.5
  0
LINE
  8
0
  6
CONTINUOUS
 62
       7
  5
62
 10
-9.5
 20
15.0
 30
0.0
 11
13.5
 21
15.0
 31
0.0
  0
LINE
  8
0
  6
CONTINUOUS
 62
       7
  5
63
 10
-9.5
 20
-15.0
 30
0.0
 11
13.5
 21
-15.0
 31
0.0
  0
LINE
  8
0
  6
CONTINUOUS
 62
       7
  5
64
 10
18.49999999
 20
6.0
 30
0.0
 11
28.3
 21
6.0
 31
0.0
  0
LINE
  8
0
  6
CONTINUOUS
 62
       7
  5
65
 10
66.8
 20
-18.8
 30
0.0
 11
66.8
 21
-6.0
 31
0.0
  0
LINE
  8
0
  6
CONTINUOUS
 62
       7
  5
66
 10
71.8
 20
-18.8
 30
0.0
 11
71.8
 21
-6.0
 31
0.0
  0
LINE
  8
0
  6
CONTINUOUS
 62
       7
  5
67
 10
63.3
 20
2.5
 30
0.0
 11
66.8
 21
6.0
 31
0.0
  0
LINE
  8
0
  6
CONTINUOUS
 62
       7
  5
68
 10
75.3
 20
2.5
 30
0.0
 11
71.8
 21
6.0
 31
0.0
  0
LINE
  8
0
  6
CONTINUOUS
 62
       7
  5
69
 10
63.3
 20
-2.5
 30
0.0
 11
66.8
 21
-6.0
 31
0.0
  0
LINE
  8
0
  6
CONTINUOUS
 62
       7
  5
6A
 10
71.8
 20
-6.0
 30
0.0
 11
75.3
 21
-2.5
 31
0.0
  0
LINE
  8
0
  6
CONTINUOUS
 62
       7
  5
6B
 10
25.5
 20
-6.0
 30
0.0
 11
28.3
 21
-6.0
 31
0.0
  0
LINE
  8
0
  6
CONTINUOUS
 62
       7
  5
6C
 10
18.49999999
 20
2.5
 30
0.0
 11
28.49999999
 21
2.5
 31
0.0
  0
LINE
  8
0
  6
CONTINUOUS
 62
       7
  5
6D
 10
22.0
 20
-2.5
 30
0.0
 11
28.49999999
 21
-2.5
 31
0.0
  0
ARC
  8
0
  6
CONTINUOUS
 62
       7
  5
6E
 10
-9.5
 20
14.5
 30
0.0
 40
0.5
 50
90.0
 51
180.0
  0
ARC
  8
0
  6
CONTINUOUS
 62
       7
  5
6F
 10
-9.5
 20
-14.5
 30
0.0
 40
0.5
 50
180.0
 51
270.0
  0
ARC
  8
0
  6
CONTINUOUS
 62
       7
  5
70
 10
13.7
 20
15.6
 30
0.0
 40
0.2
 50
90.0
 51
180.0
  0
ARC
  8
0
  6
CONTINUOUS
 62
       7
  5
71
 10
18.3
 20
15.6
 30
0.0
 40
0.2
 50
0.0
 51
90.0
  0
ARC
  8
0
  6
CONTINUOUS
 62
       7
  5
72
 10
13.7
 20
-15.6
 30
0.0
 40
0.2
 50
180.0
 51
270.0
  0
ARC
  8
0
  6
CONTINUOUS
 62
       7
  5
73
 10
18.3
 20
-15.6
 30
0.0
 40
0.2
 50
270.0
 51
0.0
  0
ARC
  8
0
  6
CONTINUOUS
 62
       7
  5
74
 10
28.3
 20
5.8
 30
0.0
 40
0.2
 50
0.0
 51
90.0
  0
ARC
  8
0
  6
CONTINUOUS
 62
       7
  5
75
 10
28.3
 20
-5.8
 30
0.0
 40
0.2
 50
270.0
 51
0.0
  0
LINE
  8
0
  6
CENTER
 62
       2
  5
76
 10
5.5
 20
-34.26756312
 30
0.0
 11
5.5
 21
-7.15684928
 31
0.0
  0
LINE
  8
0
  6
CONTINUOUS
 62
       7
  5
77
 10
2.0
 20
-19.8
 30
0.0
 11
2.0
 21
-19.0
 31
0.0
  0
LINE
  8
0
  6
CONTINUOUS
 62
       7
  5
78
 10
9.0
 20
-19.8
 30
0.0
 11
9.0
 21
-15.0
 31
0.0
  0
LINE
  8
0
  6
CONTINUOUS
 62
       7
  5
79
 10
2.2
 20
-20.0
 30
0.0
 11
8.8
 21
-20.0
 31
0.0
  0
ARC
  8
0
  6
CONTINUOUS
 62
       7
  5
7A
 10
2.2
 20
-19.8
 30
0.0
 40
0.2
 50
180.0
 51
270.0
  0
ARC
  8
0
  6
CONTINUOUS
 62
       7
  5
7B
 10
8.8
 20
-19.8
 30
0.0
 40
0.2
 50
270.0
 51
0.0
  0
LINE
  8
0
  6
CONTINUOUS
 62
       7
  5
7C
 10
3.65
 20
-31.28394544
 30
0.0
 11
3.65
 21
-20.0
 31
0.0
  0
LINE
  8
0
  6
CONTINUOUS
 62
       7
  5
7D
 10
7.35
 20
-31.28394544
 30
0.0
 11
7.35
 21
-20.0
 31
0.0
  0
ARC
  8
0
  6
CONTINUOUS
 62
       7
  5
7E
 10
4.52016486
 20
-30.57687542
 30
0.0
 40
1.20831491
 50
231.11810091
 51
324.18497708
  0
ARC
  8
0
  6
CONTINUOUS
 62
       7
  5
7F
 10
6.47983514
 20
-30.57687542
 30
0.0
 40
1.20831491
 50
215.81502292
 51
308.88189909
  0
ARC
  8
0
  6
CONTINUOUS
 62
       7
  5
80
 10
4.52016486
 20
-31.99101545
 30
0.0
 40
1.20831491
 50
35.81502292
 51
128.88189909
  0
ARC
  8
0
  6
CONTINUOUS
 62
       7
  5
81
 10
7.05
 20
-31.28394544
 30
0.0
 40
0.3
 50
308.88189909
 51
0.0
  0
ARC
  8
0
  6
CONTINUOUS
 62
       7
  5
82
 10
3.95
 20
-31.28394544
 30
0.0
 40
0.3
 50
128.88189909
 51
231.11810091
  0
LINE
  8
0
  6
CONTINUOUS
 62
       7
  5
83
 10
1.8
 20
-19.0
 30
0.0
 11
8.0
 21
-19.0
 31
0.0
  0
LINE
  8
0
  6
CONTINUOUS
 62
       7
  5
84
 10
1.8
 20
-15.5
 30
0.0
 11
8.0
 21
-15.5
 31
0.0
  0
LINE
  8
0
  6
CONTINUOUS
 62
       7
  5
85
 10
1.8
 20
-19.0
 30
0.0
 11
1.8
 21
-15.5
 31
0.0
  0
LINE
  8
0
  6
CONTINUOUS
 62
       7
  5
86
 10
2.0
 20
-15.5
 30
0.0
 11
2.0
 21
-15.0
 31
0.0
  0
LINE
  8
0
  6
CONTINUOUS
 62
       7
  5
87
 10
8.5
 20
-18.5
 30
0.0
 11
8.5
 21
-16.0
 31
0.0
  0
ARC
  8
0
  6
CONTINUOUS
 62
       7
  5
88
 10
8.0
 20
-16.0
 30
0.0
 40
0.5
 50
0.0
 51
90.0
  0
ARC
  8
0
  6
CONTINUOUS
 62
       7
  5
89
 10
8.0
 20
-18.5
 30
0.0
 40
0.5
 50
270.0
 51
0.0
  0
LINE
  8
0
  6
CONTINUOUS
 62
       7
  5
8A
 10
7.5
 20
-18.0
 30
0.0
 11
7.5
 21
-16.5
 31
0.0
  0
LINE
  8
0
  6
CONTINUOUS
 62
       7
  5
8B
 10
6.0
 20
-16.5
 30
0.0
 11
7.5
 21
-16.5
 31
0.0
  0
LINE
  8
0
  6
CONTINUOUS
 62
       7
  5
8C
 10
6.0
 20
-18.0
 30
0.0
 11
7.5
 21
-18.0
 31
0.0
  0
LINE
  8
0
  6
CONTINUOUS
 62
       7
  5
8D
 10
6.0
 20
-18.0
 30
0.0
 11
6.0
 21
-16.5
 31
0.0
  0
LINE
  8
0
  6
CONTINUOUS
 62
       7
  5
8E
 10
6.5
 20
-18.0
 30
0.0
 11
6.5
 21
-16.5
 31
0.0
  0
LINE
  8
0
  6
CENTER
 62
       2
  5
8F
 10
19.5
 20
-24.18635887
 30
0.0
 11
19.5
 21
-1.43962106
 31
0.0
  0
LINE
  8
0
  6
CONTINUOUS
 62
       7
  5
90
 10
13.49999999
 20
-18.8
 30
0.0
 11
25.49999999
 21
-18.8
 31
0.0
  0
LINE
  8
0
  6
CONTINUOUS
 62
       7
  5
91
 10
13.5
 20
-18.8
 30
0.0
 11
13.5
 21
-15.6
 31
0.0
  0
LINE
  8
0
  6
CONTINUOUS
 62
       7
  5
92
 10
17.0
 20
-18.8
 30
0.0
 11
17.0
 21
-15.8
 31
0.0
  0
LINE
  8
0
  6
CONTINUOUS
 62
       7
  5
93
 10
22.0
 20
-18.8
 30
0.0
 11
22.0
 21
-2.5
 31
0.0
  0
LINE
  8
0
  6
CONTINUOUS
 62
       7
  5
94
 10
25.5
 20
-18.8
 30
0.0
 11
25.5
 21
-6.0
 31
0.0
  0
LINE
  8
0
  6
CONTINUOUS
 62
       7
  5
95
 10
25.5
 20
-6.0
 30
0.0
 11
22.0
 21
-2.5
 31
0.0
  0
LINE
  8
0
  6
CONTINUOUS
 62
       7
  5
96
 10
11.0
 20
-15.0
 30
0.0
 11
11.0
 21
15.0
 31
0.0
  0
LINE
  8
0
  6
CONTINUOUS
 62
       7
  5
97
 10
10.7
 20
-15.0
 30
0.0
 11
10.7
 21
15.0
 31
0.0
  0
LINE
  8
0
  6
CONTINUOUS
 62
       7
  5
98
 10
19.20000029
 20
7.05000019
 30
0.0
 11
19.20000029
 21
12.94999981
 31
0.0
  0
LINE
  8
0
  6
CONTINUOUS
 62
       7
  5
99
 10
18.49999988
 20
10.35000046
 30
0.0
 11
19.20000035
 21
10.53756501
 31
0.0
  0
LINE
  8
0
  6
CONTINUOUS
 62
       7
  5
9A
 10
19.20000026
 20
9.65000028
 30
0.0
 11
18.50000025
 21
9.46243589
 31
0.0
  0
LINE
  8
0
  6
CONTINUOUS
 62
       7
  5
9B
 10
19.20000029
 20
7.05000019
 30
0.0
 11
18.5
 21
7.05000019
 31
0.0
  0
LINE
  8
0
  6
CONTINUOUS
 62
       7
  5
9C
 10
19.20000029
 20
12.94999981
 30
0.0
 11
18.5
 21
12.94999981
 31
0.0
  0
LINE
  8
0
  6
CONTINUOUS
 62
       7
  5
9D
 10
22.00000048
 20
7.25
 30
0.0
 11
19.20000029
 21
7.25
 31
0.0
  0
LINE
  8
0
  6
CONTINUOUS
 62
       7
  5
9E
 10
21.99999932
 20
7.24999979
 30
0.0
 11
22.19999968
 21
7.59641042
 31
0.0
  0
LINE
  8
0
  6
CONTINUOUS
 62
       7
  5
9F
 10
22.20000029
 20
7.59641075
 30
0.0
 11
22.20000029
 21
12.40358925
 31
0.0
  0
LINE
  8
0
  6
CONTINUOUS
 62
       7
  5
A0
 10
22.00000048
 20
7.25
 30
0.0
 11
22.00000048
 21
12.75
 31
0.0
  0
LINE
  8
0
  6
CONTINUOUS
 62
       7
  5
A1
 10
22.00000005
 20
12.74999966
 30
0.0
 11
22.20000005
 21
12.40358938
 31
0.0
  0
LINE
  8
0
  6
CONTINUOUS
 62
       7
  5
A2
 10
22.00000048
 20
12.75
 30
0.0
 11
19.20000029
 21
12.75
 31
0.0
  0
LINE
  8
0
  6
CENTER
 62
       2
  5
A3
 10
54.92959286
 20
10.0
 30
0.0
 11
83.08523571
 21
10.0
 31
0.0
  0
LINE
  8
0
  6
CONTINUOUS
 62
       7
  5
A4
 10
-70.8
 20
-14.5
 30
0.0
 11
-70.8
 21
14.5
 31
0.0
  0
LINE
  8
0
  6
CONTINUOUS
 62
       7
  5
A5
 10
-40.8
 20
-14.5
 30
0.0
 11
-40.8
 21
14.5
 31
0.0
  0
ARC
  8
0
  6
CONTINUOUS
 62
       7
  5
A6
 10
-41.3
 20
14.5
 30
0.0
 40
0.5
 50
0.0
 51
90.0
  0
ARC
  8
0
  6
CONTINUOUS
 62
       7
  5
A7
 10
-70.3
 20
14.5
 30
0.0
 40
0.5
 50
90.0
 51
180.0
  0
ARC
  8
0
  6
CONTINUOUS
 62
       7
  5
A8
 10
-70.3
 20
-14.5
 30
0.0
 40
0.5
 50
180.0
 51
270.0
  0
ARC
  8
0
  6
CONTINUOUS
 62
       7
  5
A9
 10
-41.3
 20
-14.5
 30
0.0
 40
0.5
 50
270.0
 51
0.0
  0
LINE
  8
0
  6
CONTINUOUS
 62
       7
  5
AA
 10
-70.05
 20
-13.5
 30
0.0
 11
-70.05
 21
13.5
 31
0.0
  0
LINE
  8
0
  6
CONTINUOUS
 62
       7
  5
AB
 10
-69.05
 20
14.5
 30
0.0
 11
-42.55
 21
14.5
 31
0.0
  0
LINE
  8
0
  6
CONTINUOUS
 62
       7
  5
AC
 10
-69.05
 20
-14.5
 30
0.0
 11
-42.55
 21
-14.5
 31
0.0
  0
ARC
  8
0
  6
CONTINUOUS
 62
       7
  5
AD
 10
-69.05
 20
-13.5
 30
0.0
 40
1.0
 50
180.0
 51
270.0
  0
ARC
  8
0
  6
CONTINUOUS
 62
       7
  5
AE
 10
-69.05
 20
13.5
 30
0.0
 40
1.0
 50
90.0
 51
180.0
  0
LINE
  8
0
  6
CONTINUOUS
 62
       7
  5
AF
 10
-70.05
 20
10.15
 30
0.0
 11
-41.55
 21
10.15
 31
0.0
  0
LINE
  8
0
  6
CONTINUOUS
 62
       7
  5
B0
 10
-70.05
 20
9.65
 30
0.0
 11
-41.55
 21
9.65
 31
0.0
  0
LINE
  8
0
  6
CONTINUOUS
 62
       7
  5
B1
 10
-68.7
 20
-1.35
 30
0.0
 11
-42.9
 21
-1.35
 31
0.0
  0
LINE
  8
0
  6
CONTINUOUS
 62
       7
  5
B2
 10
-61.5
 20
-5.3
 30
0.0
 11
-61.5
 21
-3.7
 31
0.0
  0
LINE
  8
0
  6
CONTINUOUS
 62
       7
  5
B3
 10
-59.1
 20
-5.3
 30
0.0
 11
-59.1
 21
-3.7
 31
0.0
  0
LINE
  8
0
  6
CONTINUOUS
 62
       7
  5
B4
 10
-52.5
 20
-5.3
 30
0.0
 11
-52.5
 21
-3.7
 31
0.0
  0
LINE
  8
0
  6
CONTINUOUS
 62
       7
  5
B5
 10
-50.1
 20
-5.3
 30
0.0
 11
-50.1
 21
-3.7
 31
0.0
  0
LINE
  8
0
  6
CONTINUOUS
 62
       7
  5
B6
 10
-61.5
 20
-5.3
 30
0.0
 11
-59.1
 21
-5.3
 31
0.0
  0
LINE
  8
0
  6
CONTINUOUS
 62
       7
  5
B7
 10
-61.5
 20
-3.7
 30
0.0
 11
-59.1
 21
-3.7
 31
0.0
  0
LINE
  8
0
  6
CONTINUOUS
 62
       7
  5
B8
 10
-52.5
 20
-3.7
 30
0.0
 11
-50.1
 21
-3.7
 31
0.0
  0
LINE
  8
0
  6
CONTINUOUS
 62
       7
  5
B9
 10
-52.5
 20
-5.3
 30
0.0
 11
-50.1
 21
-5.3
 31
0.0
  0
LINE
  8
0
  6
CONTINUOUS
 62
       7
  5
BA
 10
-48.8
 20
-10.75
 30
0.0
 11
-44.8
 21
-10.75
 31
0.0
  0
LINE
  8
0
  6
CONTINUOUS
 62
       7
  5
BB
 10
-57.675
 20
-7.25
 30
0.0
 11
-53.925
 21
-7.25
 31
0.0
  0
LINE
  8
0
  6
CONTINUOUS
 62
       7
  5
BC
 10
-64.8
 20
-7.25
 30
0.0
 11
-66.675
 21
-10.75
 31
0.0
  0
LINE
  8
0
  6
CONTINUOUS
 62
       7
  5
BD
 10
-62.925
 20
-10.75
 30
0.0
 11
-64.8
 21
-7.25
 31
0.0
  0
LINE
  8
0
  6
CONTINUOUS
 62
       7
  5
BE
 10
-57.675
 20
-7.25
 30
0.0
 11
-55.8
 21
-10.75
 31
0.0
  0
LINE
  8
0
  6
CONTINUOUS
 62
       7
  5
BF
 10
-53.925
 20
-7.25
 30
0.0
 11
-55.8
 21
-10.75
 31
0.0
  0
LINE
  8
0
  6
CONTINUOUS
 62
       7
  5
C0
 10
-48.8
 20
-7.0
 30
0.0
 11
-44.8
 21
-7.0
 31
0.0
  0
LINE
  8
0
  6
CONTINUOUS
 62
       7
  5
C1
 10
-49.8
 20
-9.75
 30
0.0
 11
-49.8
 21
-8.0
 31
0.0
  0
LINE
  8
0
  6
CONTINUOUS
 62
       7
  5
C2
 10
-43.8
 20
-9.75
 30
0.0
 11
-43.8
 21
-8.0
 31
0.0
  0
ARC
  8
0
  6
CONTINUOUS
 62
       7
  5
C3
 10
-44.8
 20
-8.0
 30
0.0
 40
1.0
 50
0.0
 51
90.0
  0
ARC
  8
0
  6
CONTINUOUS
 62
       7
  5
C4
 10
-44.8
 20
-9.75
 30
0.0
 40
1.0
 50
270.0
 51
0.0
  0
ARC
  8
0
  6
CONTINUOUS
 62
       7
  5
C5
 10
-48.8
 20
-8.0
 30
0.0
 40
1.0
 50
90.0
 51
180.0
  0
ARC
  8
0
  6
CONTINUOUS
 62
       7
  5
C6
 10
-48.8
 20
-9.75
 30
0.0
 40
1.0
 50
180.0
 51
270.0
  0
LINE
  8
0
  6
CONTINUOUS
 62
       7
  5
C7
 10
-66.675
 20
-10.75
 30
0.0
 11
-62.925
 21
-10.75
 31
0.0
  0
LINE
  8
0
  6
CONTINUOUS
 62
       7
  5
C8
 10
-41.55
 20
-13.5
 30
0.0
 11
-41.55
 21
13.5
 31
0.0
  0
ARC
  8
0
  6
CONTINUOUS
 62
       7
  5
C9
 10
-42.55
 20
13.5
 30
0.0
 40
1.0
 50
0.0
 51
90.0
  0
ARC
  8
0
  6
CONTINUOUS
 62
       7
  5
CA
 10
-42.55
 20
-13.5
 30
0.0
 40
1.0
 50
270.0
 51
0.0
  0
LINE
  8
0
  6
CONTINUOUS
 62
       7
  5
CB
 10
-68.7
 20
-1.35
 30
0.0
 11
-68.7
 21
9.65
 31
0.0
  0
LINE
  8
0
  6
CONTINUOUS
 62
       7
  5
CC
 10
-42.9
 20
-1.35
 30
0.0
 11
-42.9
 21
9.65
 31
0.0
  0
LINE
  8
0
  6
CONTINUOUS
 62
       7
  5
CD
 10
-44.77300033
 20
-5.5
 30
0.0
 11
-52.5
 21
-5.5
 31
0.0
  0
LINE
  8
0
  6
CONTINUOUS
 62
       7
  5
CE
 10
-66.26676891
 20
-5.5
 30
0.0
 11
-59.1
 21
-5.5
 31
0.0
  0
LINE
  8
0
  6
CENTER
 62
       2
  5
CF
 10
-69.45666921
 20
4.15
 30
0.0
 11
-41.7000108
 21
4.15
 31
0.0
  0
CIRCLE
  8
0
  6
CONTINUOUS
 62
       2
  5
D0
 10
69.3
 20
0.0
 30
0.0
 40
4.86399937
  0
CIRCLE
  8
0
  6
CONTINUOUS
 62
       7
  5
D1
 10
69.3
 20
0.0
 30
0.0
 40
4.27799988
  0
LINE
  8
0
  6
CONTINUOUS
 62
       7
  5
D2
 10
-60.2
 20
-19.0
 30
0.0
 11
-60.2
 21
-15.5
 31
0.0
  0
LINE
  8
0
  6
CONTINUOUS
 62
       7
  5
D3
 10
-51.4
 20
-19.0
 30
0.0
 11
-51.4
 21
-15.5
 31
0.0
  0
LINE
  8
0
  6
CONTINUOUS
 62
       7
  5
D4
 10
-60.0
 20
-20.8
 30
0.0
 11
-51.6
 21
-20.8
 31
0.0
  0
LINE
  8
0
  6
CONTINUOUS
 62
       7
  5
D5
 10
-60.2
 20
-19.0
 30
0.0
 11
-51.39999999
 21
-19.0
 31
0.0
  0
ARC
  8
0
  6
CONTINUOUS
 62
       7
  5
D6
 10
-54.25
 20
-32.08394544
 30
0.0
 40
0.3
 50
308.88189909
 51
0.0
  0
ARC
  8
0
  6
CONTINUOUS
 62
       7
  5
D7
 10
-57.35
 20
-32.08394544
 30
0.0
 40
0.3
 50
128.88189909
 51
231.11810091
  0
ARC
  8
0
  6
CONTINUOUS
 62
       7
  5
D8
 10
-56.77983514
 20
-31.37687542
 30
0.0
 40
1.20831491
 50
231.11810091
 51
324.18497708
  0
ARC
  8
0
  6
CONTINUOUS
 62
       7
  5
D9
 10
-54.82016486
 20
-31.37687542
 30
0.0
 40
1.20831491
 50
215.81502292
 51
308.88189909
  0
ARC
  8
0
  6
CONTINUOUS
 62
       7
  5
DA
 10
-56.77983514
 20
-32.79101545
 30
0.0
 40
1.20831491
 50
35.81502292
 51
128.88189909
  0
LINE
  8
0
  6
CONTINUOUS
 62
       7
  5
DB
 10
-53.95
 20
-32.08394544
 30
0.0
 11
-53.95
 21
-20.8
 31
0.0
  0
LINE
  8
0
  6
CONTINUOUS
 62
       7
  5
DC
 10
-57.65
 20
-32.08394544
 30
0.0
 11
-57.65
 21
-20.8
 31
0.0
  0
LINE
  8
0
  6
CONTINUOUS
 62
       7
  5
DD
 10
-60.0
 20
-20.8
 30
0.0
 11
-60.0
 21
-19.0
 31
0.0
  0
LINE
  8
0
  6
CONTINUOUS
 62
       7
  5
DE
 10
-51.6
 20
-20.8
 30
0.0
 11
-51.6
 21
-19.0
 31
0.0
  0
LINE
  8
0
  6
CONTINUOUS
 62
       7
  5
DF
 10
-60.2
 20
-15.5
 30
0.0
 11
-51.4
 21
-15.5
 31
0.0
  0
LINE
  8
0
  6
CONTINUOUS
 62
       7
  5
E0
 10
-51.6
 20
-15.5
 30
0.0
 11
-51.6
 21
-15.0
 31
0.0
  0
LINE
  8
0
  6
CONTINUOUS
 62
       7
  5
E1
 10
-60.0
 20
-15.5
 30
0.0
 11
-60.0
 21
-15.0
 31
0.0
  0
LINE
  8
0
  6
CONTINUOUS
 62
       7
  5
E2
 10
-51.4
 20
-15.8
 30
0.0
 11
-40.0
 21
-15.8
 31
0.0
  0
LINE
  8
0
  6
CONTINUOUS
 62
       7
  5
E3
 10
-61.80000002
 20
-18.8
 30
0.0
 11
-60.2
 21
-18.8
 31
0.0
  0
LINE
  8
0
  6
CONTINUOUS
 62
       7
  5
E4
 10
-61.8
 20
-18.8
 30
0.0
 11
-61.8
 21
-15.8
 31
0.0
  0
LINE
  8
0
  6
CONTINUOUS
 62
       7
  5
E5
 10
-49.8
 20
-18.8
 30
0.0
 11
-49.8
 21
-15.8
 31
0.0
  0
LINE
  8
0
  6
CONTINUOUS
 62
       7
  5
E6
 10
-51.4
 20
-18.8
 30
0.0
 11
-49.8
 21
-18.8
 31
0.0
  0
LINE
  8
0
  6
CONTINUOUS
 62
       7
  5
E7
 10
-61.05
 20
-9.5
 30
0.0
 11
-61.05
 21
-8.5
 31
0.0
  0
LINE
  8
0
  6
CONTINUOUS
 62
       7
  5
E8
 10
-59.05
 20
-9.5
 30
0.0
 11
-59.05
 21
-8.5
 31
0.0
  0
LINE
  8
0
  6
CONTINUOUS
 62
       7
  5
E9
 10
-62.8
 20
-9.0
 30
0.0
 11
-61.05
 21
-8.5
 31
0.0
  0
LINE
  8
0
  6
CONTINUOUS
 62
       7
  5
EA
 10
-61.05
 20
-9.5
 30
0.0
 11
-62.8
 21
-9.0
 31
0.0
  0
LINE
  8
0
  6
CONTINUOUS
 62
       7
  5
EB
 10
-59.05
 20
-9.5
 30
0.0
 11
-57.3
 21
-9.0
 31
0.0
  0
LINE
  8
0
  6
CONTINUOUS
 62
       7
  5
EC
 10
-59.05
 20
-8.5
 30
0.0
 11
-57.3
 21
-9.0
 31
0.0
  0
LINE
  8
0
  6
CONTINUOUS
 62
       7
  5
ED
 10
-138.3999939
 20
94.5
 30
0.0
 11
138.3500061
 21
94.5
 31
0.0
  0
LINE
  8
0
  6
CONTINUOUS
 62
       7
  5
EE
 10
138.3500061
 20
94.5
 30
0.0
 11
138.3500061
 21
-94.80000305
 31
0.0
  0
LINE
  8
0
  6
CONTINUOUS
 62
       7
  5
EF
 10
-138.3999939
 20
-94.80000305
 30
0.0
 11
138.3500061
 21
-94.80000305
 31
0.0
  0
LINE
  8
0
  6
CONTINUOUS
 62
       7
  5
F0
 10
-138.3999939
 20
94.5
 30
0.0
 11
-138.3999939
 21
-94.80000305
 31
0.0
  0
TEXT
  8
0
  6
CONTINUOUS
 62
       7
  5
F1
 10
-129.40338374
 20
72.89999998
 30
0.0
 40
3.20000005
  1
MODEL:GS510
 41
1.11864407
  7
MX_NOTE_STANDARD
 11
-129.40338374
 21
74.5
 31
0.0
 73
       2
  0
ENDSEC
  0
EOF
