  0
SECTION
  2
HEADER
  9
$ACADVER
  1
AC1012
  9
$DWGCODEPAGE
  3
dos932
  9
$INSBASE
 10
0.0
 20
0.0
 30
0.0
  9
$EXTMIN
 10
-138.39999389648437
 20
-94.800003051757812
 30
0.0
  9
$EXTMAX
 10
138.35000610351562
 20
94.5
 30
0.0
  9
$LIMMIN
 10
-148.5
 20
-105.00000000000001
  9
$LIMMAX
 10
148.5
 20
105.00000000000001
  9
$ORTHOMODE
 70
               0
  9
$REGENMODE
 70
               1
  9
$FILLMODE
 70
               1
  9
$QTEXTMODE
 70
               0
  9
$MIRRTEXT
 70
               1
  9
$DRAGMODE
 70
               2
  9
$LTSCALE
 40
1.0
  9
$OSMODE
 70
               0
  9
$ATTMODE
 70
               1
  9
$TEXTSIZE
 40
3.2000000476837158
  9
$TRACEWID
 40
0.05
  9
$TEXTSTYLE
  7
MX_NOTE_STANDARD
  9
$CLAYER
  8
0
  9
$CELTYPE
  6
CONTINUOUS
  9
$CECOLOR
 62
             256
  9
$CELTSCALE
 40
1.0
  9
$DELOBJ
 70
               1
  9
$DISPSILH
 70
               0
  9
$DIMSCALE
 40
1.0
  9
$DIMASZ
 40
2.5
  9
$DIMEXO
 40
1.5
  9
$DIMDLI
 40
3.75
  9
$DIMRND
 40
0.0
  9
$DIMDLE
 40
0.0
  9
$DIMEXE
 40
1.5
  9
$DIMTP
 40
0.0
  9
$DIMTM
 40
0.0
  9
$DIMTXT
 40
3.2000000476837158
  9
$DIMCEN
 40
2.5
  9
$DIMTSZ
 40
0.0
  9
$DIMTOL
 70
               0
  9
$DIMLIM
 70
               0
  9
$DIMTIH
 70
               0
  9
$DIMTOH
 70
               0
  9
$DIMSE1
 70
               0
  9
$DIMSE2
 70
               0
  9
$DIMTAD
 70
               1
  9
$DIMZIN
 70
               8
  9
$DIMBLK
  1

  9
$DIMASO
 70
               1
  9
$DIMSHO
 70
               1
  9
$DIMPOST
  1

  9
$DIMAPOST
  1

  9
$DIMALT
 70
               0
  9
$DIMALTD
 70
               4
  9
$DIMALTF
 40
0.03937007874016
  9
$DIMLFAC
 40
1.0
  9
$DIMTOFL
 70
               1
  9
$DIMTVP
 40
0.0
  9
$DIMTIX
 70
               0
  9
$DIMSOXD
 70
               0
  9
$DIMSAH
 70
               1
  9
$DIMBLK1
  1
_OPEN30
  9
$DIMBLK2
  1
_OPEN30
  9
$DIMSTYLE
  2
MXDIMSTYLE
  9
$DIMCLRD
 70
               0
  9
$DIMCLRE
 70
               0
  9
$DIMCLRT
 70
               0
  9
$DIMTFAC
 40
1.0
  9
$DIMGAP
 40
1.0
  9
$DIMJUST
 70
               0
  9
$DIMSD1
 70
               0
  9
$DIMSD2
 70
               0
  9
$DIMTOLJ
 70
               0
  9
$DIMTZIN
 70
               0
  9
$DIMALTZ
 70
               0
  9
$DIMALTTZ
 70
               0
  9
$DIMFIT
 70
               3
  9
$DIMUPT
 70
               1
  9
$DIMUNIT
 70
               2
  9
$DIMDEC
 70
               2
  9
$DIMTDEC
 70
               2
  9
$DIMALTU
 70
               2
  9
$DIMALTTD
 70
               4
  9
$DIMTXSTY
  7
MX_NOTE_STANDARD
  9
$DIMAUNIT
 70
               0
  9
$LUNITS
 70
               2
  9
$LUPREC
 70
               4
  9
$SKETCHINC
 40
0.1
  9
$FILLETRAD
 40
0.0
  9
$AUNITS
 70
               0
  9
$AUPREC
 70
               0
  9
$MENU
  1
acad
  9
$ELEVATION
 40
0.0
  9
$PELEVATION
 40
0.0
  9
$THICKNESS
 40
0.0
  9
$LIMCHECK
 70
               0
  9
$BLIPMODE
 70
               1
  9
$CHAMFERA
 40
0.0
  9
$CHAMFERB
 40
0.0
  9
$CHAMFERC
 40
0.0
  9
$CHAMFERD
 40
0.0
  9
$SKPOLY
 70
               0
  9
$TDCREATE
 40
2453984.744710648
  9
$TDUPDATE
 40
2453984.744710648
  9
$TDINDWG
 40
0.0000000000
  9
$TDUSRTIMER
 40
0.0000000000
  9
$USRTIMER
 70
               1
  9
$ANGBASE
 50
0.0
  9
$ANGDIR
 70
               0
  9
$PDMODE
 70
               0
  9
$PDSIZE
 40
0.0
  9
$PLINEWID
 40
0.0
  9
$COORDS
 70
               1
  9
$SPLFRAME
 70
               0
  9
$SPLINETYPE
 70
               6
  9
$SPLINESEGS
 70
               8
  9
$ATTDIA
 70
               0
  9
$ATTREQ
 70
               1
  9
$HANDLING
 70
               1
  9
$HANDSEED
  5
3A2
  9
$SURFTAB1
 70
               6
  9
$SURFTAB2
 70
               6
  9
$SURFTYPE
 70
               6
  9
$SURFU
 70
               6
  9
$SURFV
 70
               6
  9
$UCSNAME
  2

  9
$UCSORG
 10
0.0
 20
0.0
 30
0.0
  9
$UCSXDIR
 10
1.0
 20
0.0
 30
0.0
  9
$UCSYDIR
 10
0.0
 20
1.0
 30
0.0
  9
$PUCSNAME
  2

  9
$PUCSORG
 10
0.0
 20
0.0
 30
0.0
  9
$PUCSXDIR
 10
1.0
 20
0.0
 30
0.0
  9
$PUCSYDIR
 10
0.0
 20
1.0
 30
0.0
  9
$USERI1
 70
               0
  9
$USERI2
 70
               0
  9
$USERI3
 70
               0
  9
$USERI4
 70
               0
  9
$USERI5
 70
               0
  9
$USERR1
 40
0.0
  9
$USERR2
 40
0.0
  9
$USERR3
 40
0.0
  9
$USERR4
 40
0.0
  9
$USERR5
 40
0.0
  9
$WORLDVIEW
 70
               1
  9
$SHADEDGE
 70
               3
  9
$SHADEDIF
 70
              70
  9
$TILEMODE
 70
               1
  9
$MAXACTVP
 70
              16
  9
$PINSBASE
 10
0.0
 20
0.0
 30
0.0
  9
$PLIMCHECK
 70
               0
  9
$PEXTMIN
 10
1.0000000000000000E+20
 20
1.0000000000000000E+20
 30
1.0000000000000000E+20
  9
$PEXTMAX
 10
-1.0000000000000000E+20
 20
-1.0000000000000000E+20
 30
-1.0000000000000000E+20
  9
$PLIMMIN
 10
0.0
 20
0.0
  9
$PLIMMAX
 10
12.0
 20
9.0
  9
$UNITMODE
 70
               0
  9
$VISRETAIN
 70
               0
  9
$PLINEGEN
 70
               1
  9
$PSLTSCALE
 70
               0
  9
$TREEDEPTH
 70
            3020
  9
$PICKSTYLE
 70
               1
  9
$CMLSTYLE
  2
Standard
  9
$CMLJUST
 70
               0
  9
$CMLSCALE
 40
1.0
  9
$SAVEIMAGES
 70
               0
  0
ENDSEC
  0
SECTION
  2
CLASSES
  0
CLASS
  1
LWPOLYLINE
  2
AcDbPolyline
  3
"AutoCAD"
 90
    32768
280
               0
281
               1
  0
CLASS
  1
IMAGE
  2
AcDbRasterImage
  3
ISM
 90
    32895
280
               0
281
               1
  0
CLASS
  1
OLE2FRAME
  2
AcDbOle2Frame
  3
""
 90
    32768
280
               0
281
               1
  0
CLASS
  1
HATCH
  2
AcDbHatch
  3
"ACAD_SEDONA"
 90
    32768
280
               0
281
               1
  0
CLASS
  1
DICTIONARYVAR
  2
AcDbDictionaryVar
  3
"AutoCAD"
 90
    32768
280
               0
281
               0
  0
CLASS
  1
RASTERVARIABLES
  2
AcDbRasterVariables
  3
ISM
 90
    32768
280
               0
281
               0
  0
CLASS
  1
IMAGEDEF
  2
AcDbRasterImageDef
  3
ISM
 90
    32768
280
               0
281
               0
  0
CLASS
  1
IMAGEDEF_REACTOR
  2
AcDbRasterImageDefReactor
  3
ISM
 90
    32769
280
               0
281
               0
  0
CLASS
  1
IDBUFFER
  2
AcDbIdBuffer
  3
"Acad"
 90
    32768
280
               0
281
               0
  0
CLASS
  1
SPATIAL_FILTER
  2
AcDbSpatialFilter
  3
"Acad"
 90
    32768
280
               0
281
               0
  0
CLASS
  1
XRECORD
  2
AcDbXrecord
  3
"<Built In>"
 90
    32768
280
               0
281
               0
  0
CLASS
  1
SORTENTSTABLE
  2
AcDbSortentsTable
  3
"AutoCAD"
 90
    32768
280
               0
281
               0
  0
CLASS
  1
LAYER_INDEX
  2
AcDbLayerIndex
  3
"Acad"
 90
    32768
280
               0
281
               0
  0
CLASS
  1
SPATIAL_INDEX
  2
AcDbSpatialIndex
  3
"Acad"
 90
    32768
280
               0
281
               0
  0
CLASS
  1
OBJECT_PTR
  2
CAseDLPNTableRecord
  3
"ASE-LPNTableRecord"
 90
    32769
280
               0
281
               0
  0
CLASS
  1
LAYOUT
  2
AcDbLayout
  3
"AutoCAD 2000"
 90
    32768
280
               0
281
               0
  0
CLASS
  1
PLOTSETTINGS
  2
AcDbPlotSettings
  3
"AutoCAD 2000"
 90
    32768
280
               0
281
               0
  0
CLASS
  1
ACDBDICTIONARYWDFLT
  2
AcDbDictionaryWithDefault
  3
"AutoCAD 2000"
 90
    32768
280
               0
281
               0
  0
CLASS
  1
ACDBPLACEHOLDER
  2
AcDbPlaceHolder
  3
"AutoCAD 2000"
 90
    32768
280
               0
281
               0
  0
ENDSEC
  0
SECTION
  2
TABLES
  0
TABLE
  2
VPORT
  5
7
100
AcDbSymbolTable
 70
               1
  0
VPORT
  5
15
100
AcDbSymbolTableRecord
100
AcDbViewportTableRecord
  2
*ACTIVE
 70
               0
 10
0.0
 20
0.0
 11
1.0
 21
1.0
 12
0.0
 22
0.0
 13
0.0
 23
0.0
 14
1.0
 24
1.0
 15
0.0
 25
0.0
 16
0.0
 26
0.0
 36
1.0
 17
0.0
 27
0.0
 37
0.0
 40
212.10000000000002
 41
1.7320508075688772
 42
50.0
 43
0.0
 44
0.0
 50
0.0
 51
0.0
 71
               0
 72
             100
 73
               1
 74
               1
 75
               0
 76
               0
 77
               0
 78
               0
  0
ENDTAB
  0
TABLE
  2
LTYPE
  5
4
100
AcDbSymbolTable
 70
               4
  0
LTYPE
  5
11
100
AcDbSymbolTableRecord
100
AcDbLinetypeTableRecord
  2
BYBLOCK
 70
              64
  3

 72
              65
 73
               0
 40
0.0
  0
LTYPE
  5
12
100
AcDbSymbolTableRecord
100
AcDbLinetypeTableRecord
  2
BYLAYER
 70
              64
  3

 72
              65
 73
               0
 40
0.0
  0
LTYPE
  5
13
100
AcDbSymbolTableRecord
100
AcDbLinetypeTableRecord
  2
CONTINUOUS
 70
              64
  3
Solid line
 72
              65
 73
               0
 40
0.0
  0
LTYPE
  5
2D
100
AcDbSymbolTableRecord
100
AcDbLinetypeTableRecord
  2
CENTER
 70
              64
  3
Center ____ _ ____ _ ____ _ ____ _ ____ _ ____
 72
              65
 73
               4
 40
50.800000000000004
 49
31.75
 74
               0
 49
-6.3499999999999996
 74
               0
 49
6.3499999999999996
 74
               0
 49
-6.3499999999999996
 74
               0
  0
ENDTAB
  0
TABLE
  2
LAYER
  5
2
100
AcDbSymbolTable
 70
               2
  0
LAYER
  5
14
100
AcDbSymbolTableRecord
100
AcDbLayerTableRecord
  2
0
 70
               0
 62
               7
  6
CONTINUOUS
  0
LAYER
  5
1D
100
AcDbSymbolTableRecord
100
AcDbLayerTableRecord
  2
DEFPOINTS
 70
               0
 62
               7
  6
CONTINUOUS
  0
ENDTAB
  0
TABLE
  2
STYLE
  5
3
100
AcDbSymbolTable
 70
               1
  0
STYLE
  5
17
100
AcDbSymbolTableRecord
100
AcDbTextStyleTableRecord
  2
MX_NOTE_STANDARD
 70
               0
 40
0.0
 41
1.0
 50
0.0
 71
               0
 42
3.2000000476837158
  3
txt.shx
  4
extfont.shx
  0
ENDTAB
  0
TABLE
  2
VIEW
  5
5
100
AcDbSymbolTable
 70
               0
  0
ENDTAB
  0
TABLE
  2
UCS
  5
6
100
AcDbSymbolTable
 70
               0
  0
ENDTAB
  0
TABLE
  2
APPID
  5
8
100
AcDbSymbolTable
 70
               1
  0
APPID
  5
16
100
AcDbSymbolTableRecord
100
AcDbRegAppTableRecord
  2
ACAD
 70
               0
  0
ENDTAB
  0
TABLE
  2
DIMSTYLE
  5
9
100
AcDbSymbolTable
 70
               1
  0
DIMSTYLE
105
18
100
AcDbSymbolTableRecord
100
AcDbDimStyleTableRecord
  2
MXDIMSTYLE
 70
               0
  3

  4

  5

  6
_OPEN30
  7
_OPEN30
 40
1.0
 41
2.5
 42
1.5
 43
3.75
 44
1.5
 45
0.0
 46
0.0
 47
0.0
 48
0.0
 71
               0
 72
               0
 73
               0
 74
               0
 75
               0
 76
               0
 77
               1
 78
               8
140
3.2000000476837158
141
2.5
142
0.0
143
0.03937007874016
144
1.0
145
0.0
146
1.0
147
1.0
170
               0
171
               4
172
               1
173
               1
174
               0
175
               0
176
               0
177
               0
178
               0
270
               2
271
               2
272
               2
273
               2
274
               4
275
               0
280
               0
281
               0
282
               0
283
               0
284
               0
285
               0
286
               0
287
               3
288
               1
340
17
  0
ENDTAB
  0
TABLE
  2
BLOCK_RECORD
  5
1
100
AcDbSymbolTable
 70
               4
  0
BLOCK_RECORD
  5
A
100
AcDbSymbolTableRecord
100
AcDbBlockTableRecord
  2
*MODEL_SPACE
  0
BLOCK_RECORD
  5
B
100
AcDbSymbolTableRecord
100
AcDbBlockTableRecord
  2
*PAPER_SPACE
  0
BLOCK_RECORD
  5
1E
100
AcDbSymbolTableRecord
100
AcDbBlockTableRecord
  2
MS_1
  0
BLOCK_RECORD
  5
1F
100
AcDbSymbolTableRecord
100
AcDbBlockTableRecord
  2
MS_2
  0
BLOCK_RECORD
  5
20
100
AcDbSymbolTableRecord
100
AcDbBlockTableRecord
  2
MS_3
  0
BLOCK_RECORD
  5
21
100
AcDbSymbolTableRecord
100
AcDbBlockTableRecord
  2
_OPEN30
  0
ENDTAB
  0
ENDSEC
  0
SECTION
  2
BLOCKS
  0
BLOCK
  5
D
100
AcDbEntity
  8
0
100
AcDbBlockBegin
  2
*MODEL_SPACE
 70
               0
 10
0.0
 20
0.0
 30
0.0
  3
*MODEL_SPACE
  1

  0
ENDBLK
  5
E
100
AcDbEntity
  8
0
100
AcDbBlockEnd
  0
BLOCK
  5
F
100
AcDbEntity
 67
               1
  8
0
100
AcDbBlockBegin
  2
*PAPER_SPACE
 70
               0
 10
0.0
 20
0.0
 30
0.0
  3
*PAPER_SPACE
  1

  0
ENDBLK
  5
10
100
AcDbEntity
 67
               1
  8
0
100
AcDbBlockEnd
  0
BLOCK
  5
27
100
AcDbEntity
  8
0
100
AcDbBlockBegin
  2
MS_1
 70
               0
 10
0.0
 20
0.0
 30
0.0
  3
MS_1
  1

  0
ARC
  5
28
100
AcDbEntity
  8
0
  6
CONTINUOUS
 62
               7
100
AcDbCircle
 10
12.0
 20
11.700000000000387
 30
0.0
 40
0.8
100
AcDbArc
 50
0.0
 51
90.0
  0
ARC
  5
29
100
AcDbEntity
  8
0
  6
CONTINUOUS
 62
               7
100
AcDbCircle
 10
11.500031000000035
 20
-11.752024654444071
 30
0.0
 40
0.8
100
AcDbArc
 50
290.31767387037991
 51
0.0
  0
ARC
  5
2A
100
AcDbEntity
  8
0
  6
CONTINUOUS
 62
               7
100
AcDbCircle
 10
12.0
 20
-6.8999999999993946
 30
0.0
 40
0.8
100
AcDbArc
 50
270.0
 51
0.0
  0
LINE
  5
2B
100
AcDbEntity
  8
0
  6
CONTINUOUS
 62
               7
100
AcDbLine
 10
-13.5
 20
-14.999999999999986
 30
0.0
 11
13.5
 21
-15.000000000000327
 31
0.0
  0
LINE
  5
2C
100
AcDbEntity
  8
0
  6
CONTINUOUS
 62
               7
100
AcDbLine
 10
13.5
 20
15.0
 30
0.0
 11
-13.5
 21
15.0
 31
0.0
  0
LINE
  5
2E
100
AcDbEntity
  8
0
  6
CENTER
 62
               2
100
AcDbLine
 10
18.0
 20
0.0
 30
0.0
 11
-18.0
 21
0.0
 31
0.0
  0
LINE
  5
2F
100
AcDbEntity
  8
0
  6
CONTINUOUS
 62
               2
100
AcDbLine
 10
-1.6977223703705704
 20
8.4000000000003183
 30
0.0
 11
-0.899542992014176
 21
9.1981793783568264
 31
0.0
  0
ARC
  5
30
100
AcDbEntity
  8
0
  6
CONTINUOUS
 62
               2
100
AcDbCircle
 10
-1.9018645728752972
 20
0.8000000000004093
 30
0.0
 40
0.5
100
AcDbArc
 50
270.0
 51
299.9796088757509
  0
LINE
  5
31
100
AcDbEntity
  8
0
  6
CONTINUOUS
 62
               2
100
AcDbLine
 10
-1.652018694572007
 20
0.3668983524684109
 30
0.0
 11
-2.485120342103869
 21
1.2000000000003865
 31
0.0
  0
LINE
  5
32
100
AcDbEntity
  8
0
  6
CONTINUOUS
 62
               2
100
AcDbLine
 10
-2.2630777235250434
 20
1.2608000938961368
 30
0.0
 11
-1.5020416593710024
 21
0.4997640297420958
 31
0.0
  0
LINE
  5
33
100
AcDbEntity
  8
0
  6
CONTINUOUS
 62
               2
100
AcDbLine
 10
-1.4585786437627348
 20
4.9414213562378109
 30
0.0
 11
-1.9022489648957617
 21
5.3850916773709514
 31
0.0
  0
LINE
  5
34
100
AcDbEntity
  8
0
  6
CONTINUOUS
 62
               2
100
AcDbLine
 10
-2.0144423960284712
 20
4.1027148914974987
 30
0.0
 11
-1.4585786437627348
 21
4.6585786437630077
 31
0.0
  0
LINE
  5
35
100
AcDbEntity
  8
0
  6
CONTINUOUS
 62
               2
100
AcDbLine
 10
-2.0499999999999545
 20
4.3500000000005912
 30
0.0
 11
-1.6000000000000227
 21
4.8000000000004093
 31
0.0
  0
LINE
  5
36
100
AcDbEntity
  8
0
  6
CONTINUOUS
 62
               2
100
AcDbLine
 10
-1.6000000000000227
 20
4.8000000000004093
 30
0.0
 11
-2.0499999999999545
 21
5.2500000000003411
 31
0.0
  0
LINE
  5
37
100
AcDbEntity
  8
0
  6
CONTINUOUS
 62
               2
100
AcDbLine
 10
-1.6599166215611376
 20
8.1549630363351753
 30
0.0
 11
-1.9022489648957617
 21
5.3850916773709514
 31
0.0
  0
LINE
  5
38
100
AcDbEntity
  8
0
  6
CONTINUOUS
 62
               2
100
AcDbLine
 10
-2.0214901821270814
 20
-4.0500000000003951
 30
0.0
 11
-1.3496180162452447
 21
-4.0500000000003951
 31
0.0
  0
LINE
  5
39
100
AcDbEntity
  8
0
  6
CONTINUOUS
 62
               2
100
AcDbLine
 10
-2.5569727338988741
 20
-2.0000000000002274
 30
0.0
 11
-1.2398154463731998
 21
-2.0000000000002274
 31
0.0
  0
LINE
  5
3A
100
AcDbEntity
  8
0
  6
CONTINUOUS
 62
               2
100
AcDbLine
 10
-1.0349174905635437
 20
-1.5
 30
0.0
 11
-2.8318616205289118
 21
-1.5
 31
0.0
  0
LINE
  5
3B
100
AcDbEntity
  8
0
  6
CONTINUOUS
 62
               2
100
AcDbLine
 10
-1.3496180162454721
 20
-3.5500000000004093
 30
0.0
 11
-1.9777458503641583
 21
-3.5500000000004093
 31
0.0
  0
LINE
  5
3C
100
AcDbEntity
  8
0
  6
CONTINUOUS
 62
               7
100
AcDbLine
 10
-2.7000309999999672
 20
-12.800000000000168
 30
0.0
 11
2.7000000000000455
 21
-12.800000000000168
 31
0.0
  0
ARC
  5
3D
100
AcDbEntity
  8
0
  6
CONTINUOUS
 62
               7
100
AcDbCircle
 10
-0.000015499999904
 20
-17.400077499998787
 30
0.0
 40
8.0000775000144273
100
AcDbArc
 50
69.682589183651217
 51
110.3174108163487
  0
ARC
  5
3E
100
AcDbEntity
  8
0
  6
CONTINUOUS
 62
               7
100
AcDbCircle
 10
-0.000015499999904
 20
-17.400077499999014
 30
0.0
 40
7.8000775000144253
100
AcDbArc
 50
69.972919751227039
 51
110.02708024877739
  0
LINE
  5
3F
100
AcDbEntity
  8
0
  6
CONTINUOUS
 62
               7
100
AcDbLine
 10
-2.8000309999999899
 20
-12.999999999999986
 30
0.0
 11
2.8000000000000682
 21
-12.999999999999986
 31
0.0
  0
LINE
  5
40
100
AcDbEntity
  8
0
  6
CONTINUOUS
 62
               2
100
AcDbLine
 10
-1.642263298592411
 20
-5.6000000000001222
 30
0.0
 11
-2.9594205861177443
 21
-5.6000000000001222
 31
0.0
  0
LINE
  5
41
100
AcDbEntity
  8
0
  6
CONTINUOUS
 62
               2
100
AcDbLine
 10
-11.600000000000023
 20
0.0000000000004547
 30
0.0
 11
11.600000000000023
 21
0.0000000000004547
 31
0.0
  0
LINE
  5
42
100
AcDbEntity
  8
0
  6
CONTINUOUS
 62
               2
100
AcDbLine
 10
-11.600000000000023
 20
9.7000000000003865
 30
0.0
 11
11.600000000000023
 21
9.7000000000003865
 31
0.0
  0
LINE
  5
43
100
AcDbEntity
  8
0
  6
CONTINUOUS
 62
               7
100
AcDbLine
 10
12.0
 20
-7.6999999999993491
 30
0.0
 11
-12.0
 21
-7.6999999999993491
 31
0.0
  0
LINE
  5
44
100
AcDbEntity
  8
0
  6
CONTINUOUS
 62
               7
100
AcDbLine
 10
-12.0
 20
12.500000000000455
 30
0.0
 11
12.0
 21
12.500000000000455
 31
0.0
  0
LINE
  5
45
100
AcDbEntity
  8
0
  6
CONTINUOUS
 62
               2
100
AcDbLine
 10
-4.1000000000000227
 20
-1.2000000000000455
 30
0.0
 11
11.600000000000023
 21
-1.2000000000000455
 31
0.0
  0
LINE
  5
46
100
AcDbEntity
  8
0
  6
CONTINUOUS
 62
               2
100
AcDbLine
 10
11.600000000000023
 20
-6.4999999999999858
 30
0.0
 11
-4.1000000000000227
 21
-6.4999999999999858
 31
0.0
  0
LINE
  5
47
100
AcDbEntity
  8
0
  6
CONTINUOUS
 62
               2
100
AcDbLine
 10
-3.1643185419272868
 20
-6.1000000000000085
 30
0.0
 11
-1.367374411962146
 21
-6.1000000000000085
 31
0.0
  0
LINE
  5
48
100
AcDbEntity
  8
0
  6
CONTINUOUS
 62
               2
100
AcDbLine
 10
-1.2019552646679585
 20
9.3000000000006366
 30
0.0
 11
-4.4981354271246801
 21
9.3000000000004093
 31
0.0
  0
LINE
  5
49
100
AcDbEntity
  8
0
  6
CONTINUOUS
 62
               2
100
AcDbLine
 10
-2.0144423960284712
 20
4.1027148914974987
 30
0.0
 11
-2.2630777235250434
 21
1.2608000938961368
 31
0.0
  0
LINE
  5
4A
100
AcDbEntity
  8
0
  6
CONTINUOUS
 62
               2
100
AcDbLine
 10
-4.740083378438726
 20
1.4450369636659843
 30
0.0
 11
-4.4977510351042156
 21
4.2149083226302082
 31
0.0
  0
LINE
  5
4B
100
AcDbEntity
  8
0
  6
CONTINUOUS
 62
               2
100
AcDbLine
 10
-7.6144423960283802
 20
4.1027148914974987
 30
0.0
 11
-7.8630777235250662
 21
1.2608000938961368
 31
0.0
  0
LINE
  5
4C
100
AcDbEntity
  8
0
  6
CONTINUOUS
 62
               2
100
AcDbLine
 10
-7.0037672238294135
 20
0.7564221286264683
 30
0.0
 11
-6.6942476014261274
 21
4.2942476014267186
 31
0.0
  0
LINE
  5
4D
100
AcDbEntity
  8
0
  6
CONTINUOUS
 62
               2
100
AcDbLine
 10
-5.4027322379632778
 20
4.1972677620373133
 30
0.0
 11
-5.6961420843779251
 21
0.8435778713742366
 31
0.0
  0
LINE
  5
4E
100
AcDbEntity
  8
0
  6
CONTINUOUS
 62
               2
100
AcDbLine
 10
-10.340083378438635
 20
1.4450369636659843
 30
0.0
 11
-10.097751035104125
 21
4.2149083226302082
 31
0.0
  0
LINE
  5
4F
100
AcDbEntity
  8
0
  6
CONTINUOUS
 62
               2
100
AcDbLine
 10
-11.002732237963301
 20
4.1972677620373133
 30
0.0
 11
-11.296142084377834
 21
0.8435778713742366
 31
0.0
  0
LINE
  5
50
100
AcDbEntity
  8
0
  6
CONTINUOUS
 62
               2
100
AcDbLine
 10
-11.600000000000023
 20
9.7000000000003865
 30
0.0
 11
-11.600000000000023
 21
0.0000000000004547
 31
0.0
  0
LINE
  5
51
100
AcDbEntity
  8
0
  6
CONTINUOUS
 62
               7
100
AcDbLine
 10
-12.799999999999955
 20
-6.8999999999993946
 30
0.0
 11
-12.799999999999955
 21
11.700000000000387
 31
0.0
  0
LINE
  5
52
100
AcDbEntity
  8
0
  6
CONTINUOUS
 62
               7
100
AcDbLine
 10
-15.0
 20
-30.0
 30
0.0
 11
-15.0
 21
13.5
 31
0.0
  0
LINE
  5
53
100
AcDbEntity
  8
0
  6
CONTINUOUS
 62
               2
100
AcDbLine
 10
-8.0851203421037781
 20
1.2000000000003865
 30
0.0
 11
-10.30227762962943
 21
1.2000000000003865
 31
0.0
  0
LINE
  5
54
100
AcDbEntity
  8
0
  6
CONTINUOUS
 62
               2
100
AcDbLine
 10
-10.798044735331928
 20
0.3000000000006367
 30
0.0
 11
-7.5018645728753199
 21
0.3000000000004093
 31
0.0
  0
LINE
  5
55
100
AcDbEntity
  8
0
  6
CONTINUOUS
 62
               7
100
AcDbLine
 10
-11.700030999999967
 20
-12.800000000000168
 30
0.0
 11
-6.2999999999999545
 21
-12.800000000000168
 31
0.0
  0
LINE
  5
56
100
AcDbEntity
  8
0
  6
CONTINUOUS
 62
               2
100
AcDbLine
 10
-9.6999999999999318
 20
-1.5
 30
0.0
 11
-5.6999999999999318
 21
-1.5
 31
0.0
  0
LINE
  5
57
100
AcDbEntity
  8
0
  6
CONTINUOUS
 62
               7
100
AcDbLine
 10
-11.999999999999773
 20
-7.8000000000001677
 30
0.0
 11
-4.9000000000003183
 21
-7.8000000000003951
 31
0.0
  0
LINE
  5
58
100
AcDbEntity
  8
0
  6
CONTINUOUS
 62
               7
100
AcDbLine
 10
-11.799999999999955
 20
-12.999999999999986
 30
0.0
 11
-6.1999690000000101
 21
-12.999999999999986
 31
0.0
  0
LINE
  5
59
100
AcDbEntity
  8
0
  6
CONTINUOUS
 62
               7
100
AcDbLine
 10
-6.1999690000000101
 20
-9.4000000000000767
 30
0.0
 11
-11.800000000000068
 21
-9.4000000000000767
 31
0.0
  0
LINE
  5
5A
100
AcDbEntity
  8
0
  6
CONTINUOUS
 62
               7
100
AcDbLine
 10
-6.2999999999999545
 20
-9.6000000000001222
 30
0.0
 11
-11.700030999999967
 21
-9.6000000000003496
 31
0.0
  0
LINE
  5
5B
100
AcDbEntity
  8
0
  6
CONTINUOUS
 62
               7
100
AcDbLine
 10
-12.859767410409063
 20
-8.4999999999999858
 30
0.0
 11
-5.8999999999997499
 21
-8.4999999999999858
 31
0.0
  0
LINE
  5
5C
100
AcDbEntity
  8
0
  6
CONTINUOUS
 62
               7
100
AcDbLine
 10
-11.999999999999773
 20
-8.8000000000001677
 30
0.0
 11
-5.9000000000003183
 21
-8.8000000000001677
 31
0.0
  0
LINE
  5
5D
100
AcDbEntity
  8
0
  6
CONTINUOUS
 62
               2
100
AcDbLine
 10
-9.6999999999999318
 20
-3.0
 30
0.0
 11
-5.6999999999999318
 21
-3.0
 31
0.0
  0
ARC
  5
5E
100
AcDbEntity
  8
0
  6
CONTINUOUS
 62
               7
100
AcDbCircle
 10
-11.799999999999955
 20
-9.9000000000000767
 30
0.0
 40
0.5
100
AcDbArc
 50
90.000000000003226
 51
180.0
  0
ARC
  5
5F
100
AcDbEntity
  8
0
  6
CONTINUOUS
 62
               7
100
AcDbCircle
 10
-11.799999999999955
 20
-12.499999999999986
 30
0.0
 40
0.5
100
AcDbArc
 50
180.0
 51
270.0
  0
LINE
  5
60
100
AcDbEntity
  8
0
  6
CONTINUOUS
 62
               7
100
AcDbLine
 10
-12.299999999999955
 20
-12.499999999999986
 30
0.0
 11
-12.299999999999955
 21
-9.9000000000000767
 31
0.0
  0
ARC
  5
61
100
AcDbEntity
  8
0
  6
CONTINUOUS
 62
               7
100
AcDbCircle
 10
-13.5
 20
-13.499999999999986
 30
0.0
 40
1.5
100
AcDbArc
 50
179.99999100000031
 51
270.00000099999812
  0
LINE
  5
62
100
AcDbEntity
  8
0
  6
CONTINUOUS
 62
               7
100
AcDbLine
 10
-12.000030999999922
 20
-12.500000000000213
 30
0.0
 11
-12.000030999999922
 21
-9.9000000000003041
 31
0.0
  0
ARC
  5
63
100
AcDbEntity
  8
0
  6
CONTINUOUS
 62
               7
100
AcDbCircle
 10
-11.700030999999967
 20
-9.9000000000003041
 30
0.0
 40
0.3
100
AcDbArc
 50
90.0
 51
180.0
  0
ARC
  5
64
100
AcDbEntity
  8
0
  6
CONTINUOUS
 62
               7
100
AcDbCircle
 10
-11.700030999999967
 20
-12.500000000000213
 30
0.0
 40
0.3
100
AcDbArc
 50
180.0
 51
270.0
  0
ARC
  5
65
100
AcDbEntity
  8
0
  6
CONTINUOUS
 62
               7
100
AcDbCircle
 10
-12.0
 20
-6.8999999999993946
 30
0.0
 40
0.8
100
AcDbArc
 50
180.0
 51
270.0
  0
ARC
  5
66
100
AcDbEntity
  8
0
  6
CONTINUOUS
 62
               2
100
AcDbCircle
 10
-10.798044735331928
 20
0.8000000000006367
 30
0.0
 40
0.5
100
AcDbArc
 50
175.00000000000011
 51
209.65890166442139
  0
ARC
  5
67
100
AcDbEntity
  8
0
  6
CONTINUOUS
 62
               2
100
AcDbCircle
 10
-10.798044735331928
 20
0.8000000000006367
 30
0.0
 40
0.5
100
AcDbArc
 50
232.78378265448592
 51
270.0
  0
LINE
  5
68
100
AcDbEntity
  8
0
  6
CONTINUOUS
 62
               2
100
AcDbLine
 10
-11.23253807737035
 20
0.5525822647339282
 30
0.0
 11
-10.340083378438635
 21
1.4450369636659843
 31
0.0
  0
LINE
  5
69
100
AcDbEntity
  8
0
  6
CONTINUOUS
 62
               2
100
AcDbLine
 10
-10.30227762962943
 20
1.2000000000003865
 30
0.0
 11
-11.10045700798571
 21
0.4018206216439921
 31
0.0
  0
LINE
  5
6A
100
AcDbEntity
  8
0
  6
CONTINUOUS
 62
               2
100
AcDbLine
 10
-9.6999999999999318
 20
-1.5
 30
0.0
 11
-9.6999999999999318
 21
-3.0
 31
0.0
  0
ARC
  5
6B
100
AcDbEntity
  8
0
  6
CONTINUOUS
 62
               7
100
AcDbCircle
 10
-5.9000000000003183
 20
-9.4999999999999858
 30
0.0
 40
0.7
100
AcDbArc
 50
0.0
 51
90.0
  0
ARC
  5
6C
100
AcDbEntity
  8
0
  6
CONTINUOUS
 62
               7
100
AcDbCircle
 10
-5.8999999999997499
 20
-9.4999999999999858
 30
0.0
 40
1.0
100
AcDbArc
 50
0.0
 51
90.000000000001606
  0
ARC
  5
6D
100
AcDbEntity
  8
0
  6
CONTINUOUS
 62
               7
100
AcDbCircle
 10
-4.9000000000003183
 20
-9.8000000000003951
 30
0.0
 40
2.0
100
AcDbArc
 50
0.0
 51
90.0
  0
LINE
  5
6E
100
AcDbEntity
  8
0
  6
CONTINUOUS
 62
               7
100
AcDbLine
 10
-5.2000000000002728
 20
-9.4999999999999858
 30
0.0
 11
-5.2000000000002728
 21
-13.534856756823487
 31
0.0
  0
ARC
  5
6F
100
AcDbEntity
  8
0
  6
CONTINUOUS
 62
               7
100
AcDbCircle
 10
-6.1999690000000101
 20
-9.9000000000000767
 30
0.0
 40
0.5
100
AcDbArc
 50
0.0
 51
90.000000000003226
  0
ARC
  5
70
100
AcDbEntity
  8
0
  6
CONTINUOUS
 62
               7
100
AcDbCircle
 10
-6.2999999999999545
 20
-9.9000000000000767
 30
0.0
 40
0.3
100
AcDbArc
 50
0.0
 51
90.000000000003226
  0
LINE
  5
71
100
AcDbEntity
  8
0
  6
CONTINUOUS
 62
               7
100
AcDbLine
 10
-5.6999690000000101
 20
-12.499999999999986
 30
0.0
 11
-5.6999690000000101
 21
-9.9000000000000767
 31
0.0
  0
LINE
  5
72
100
AcDbEntity
  8
0
  6
CONTINUOUS
 62
               7
100
AcDbLine
 10
-6.0
 20
-12.500000000000213
 30
0.0
 11
-6.0
 21
-9.9000000000000767
 31
0.0
  0
ARC
  5
73
100
AcDbEntity
  8
0
  6
CONTINUOUS
 62
               7
100
AcDbCircle
 10
-6.1999690000000101
 20
-12.499999999999986
 30
0.0
 40
0.5
100
AcDbArc
 50
270.0
 51
0.0
  0
ARC
  5
74
100
AcDbEntity
  8
0
  6
CONTINUOUS
 62
               7
100
AcDbCircle
 10
-6.2999999999999545
 20
-12.500000000000213
 30
0.0
 40
0.3
100
AcDbArc
 50
270.0
 51
0.0
  0
LINE
  5
75
100
AcDbEntity
  8
0
  6
CONTINUOUS
 62
               7
100
AcDbLine
 10
-2.9000000000003183
 20
-9.8000000000003951
 30
0.0
 11
-2.9000000000003183
 21
-9.9441181448258789
 31
0.0
  0
LINE
  5
76
100
AcDbEntity
  8
0
  6
CONTINUOUS
 62
               7
100
AcDbLine
 10
-3.3000309999998763
 20
-12.499999999999986
 30
0.0
 11
-3.3000309999998763
 21
-10.647963867516395
 31
0.0
  0
LINE
  5
77
100
AcDbEntity
  8
0
  6
CONTINUOUS
 62
               7
100
AcDbLine
 10
-3.0000309999999217
 20
-12.500000000000213
 30
0.0
 11
-3.0000309999999217
 21
-10.541429382041073
 31
0.0
  0
LINE
  5
78
100
AcDbEntity
  8
0
  6
CONTINUOUS
 62
               7
100
AcDbLine
 10
-4.7000000000002728
 20
-14.248999599677845
 30
0.0
 11
-4.4000000000003183
 21
-14.248999599677845
 31
0.0
  0
LINE
  5
79
100
AcDbEntity
  8
0
  6
CONTINUOUS
 62
               7
100
AcDbLine
 10
-4.8999999999997499
 20
-9.4999999999999858
 30
0.0
 11
-4.8999999999997499
 21
-14.189379483701927
 31
0.0
  0
ARC
  5
7A
100
AcDbEntity
  8
0
  6
CONTINUOUS
 62
               7
100
AcDbCircle
 10
-2.8000309999999899
 20
-12.499999999999986
 30
0.0
 40
0.5
100
AcDbArc
 50
180.0
 51
270.0
  0
ARC
  5
7B
100
AcDbEntity
  8
0
  6
CONTINUOUS
 62
               7
100
AcDbCircle
 10
-2.7000309999999672
 20
-12.500000000000213
 30
0.0
 40
0.3
100
AcDbArc
 50
180.0
 51
270.0
  0
ARC
  5
7C
100
AcDbEntity
  8
0
  6
CONTINUOUS
 62
               7
100
AcDbCircle
 10
-2.5000309999999217
 20
-10.647963867516395
 30
0.0
 40
0.8
100
AcDbArc
 50
110.3174108163487
 51
180.0
  0
ARC
  5
7D
100
AcDbEntity
  8
0
  6
CONTINUOUS
 62
               7
100
AcDbCircle
 10
-2.5000309999999217
 20
-10.541429382041073
 30
0.0
 40
0.5
100
AcDbArc
 50
110.0270802487729
 51
180.0
  0
ARC
  5
7E
100
AcDbEntity
  8
0
  6
CONTINUOUS
 62
               7
100
AcDbCircle
 10
-4.4000000000003183
 20
-12.748999599677958
 30
0.0
 40
1.5
100
AcDbArc
 50
270.0
 51
350.92110620262667
  0
LINE
  5
7F
100
AcDbEntity
  8
0
  6
CONTINUOUS
 62
               2
100
AcDbLine
 10
-5.6325380773703273
 20
0.5525822647339282
 30
0.0
 11
-4.740083378438726
 21
1.4450369636659843
 31
0.0
  0
LINE
  5
80
100
AcDbEntity
  8
0
  6
CONTINUOUS
 62
               2
100
AcDbLine
 10
-4.7022776296295206
 20
1.2000000000003865
 30
0.0
 11
-5.5004570079858013
 21
0.4018206216439921
 31
0.0
  0
LINE
  5
81
100
AcDbEntity
  8
0
  6
CONTINUOUS
 62
               2
100
AcDbLine
 10
-5.1980447353320187
 20
0.3000000000006367
 30
0.0
 11
-1.9018645728752972
 21
0.3000000000004093
 31
0.0
  0
ARC
  5
82
100
AcDbEntity
  8
0
  6
CONTINUOUS
 62
               2
100
AcDbCircle
 10
-7.5018645728753199
 20
0.8000000000004093
 30
0.0
 40
0.5
100
AcDbArc
 50
323.09629462179902
 51
355.00000000000028
  0
ARC
  5
83
100
AcDbEntity
  8
0
  6
CONTINUOUS
 62
               2
100
AcDbCircle
 10
-5.1980447353320187
 20
0.8000000000006367
 30
0.0
 40
0.5
100
AcDbArc
 50
175.00000000000011
 51
209.65890166442139
  0
CIRCLE
  5
84
100
AcDbEntity
  8
0
  6
CONTINUOUS
 62
               2
100
AcDbCircle
 10
-6.3499999999997954
 20
0.6000000000001364
 30
0.0
 40
0.4
  0
ARC
  5
85
100
AcDbEntity
  8
0
  6
CONTINUOUS
 62
               2
100
AcDbCircle
 10
-7.5018645728753199
 20
0.8000000000004093
 30
0.0
 40
0.5
100
AcDbArc
 50
270.0
 51
299.9796088757509
  0
LINE
  5
86
100
AcDbEntity
  8
0
  6
CONTINUOUS
 62
               2
100
AcDbLine
 10
-7.8630777235250662
 20
1.2608000938961368
 30
0.0
 11
-7.1020416593709115
 21
0.4997640297420958
 31
0.0
  0
ARC
  5
87
100
AcDbEntity
  8
0
  6
CONTINUOUS
 62
               2
100
AcDbCircle
 10
-5.1980447353320187
 20
0.8000000000006367
 30
0.0
 40
0.5
100
AcDbArc
 50
232.78378265448592
 51
270.0
  0
LINE
  5
88
100
AcDbEntity
  8
0
  6
CONTINUOUS
 62
               2
100
AcDbLine
 10
-7.2520186945719161
 20
0.3668983524684109
 30
0.0
 11
-8.0851203421037781
 21
1.2000000000003865
 31
0.0
  0
LINE
  5
89
100
AcDbEntity
  8
0
  6
CONTINUOUS
 62
               2
100
AcDbLine
 10
-5.6999999999999318
 20
-1.5
 30
0.0
 11
-5.6999999999999318
 21
-3.0
 31
0.0
  0
LINE
  5
8A
100
AcDbEntity
  8
0
  6
CONTINUOUS
 62
               2
100
AcDbLine
 10
-2.1785098178728504
 20
-3.5500000000004093
 30
0.0
 11
-2.2222541496357735
 21
-4.0500000000003951
 31
0.0
  0
LINE
  5
8B
100
AcDbEntity
  8
0
  6
CONTINUOUS
 62
               2
100
AcDbLine
 10
-1.9777458503641583
 20
-3.5500000000004093
 30
0.0
 11
-2.0214901821270814
 21
-4.0500000000003951
 31
0.0
  0
LINE
  5
8C
100
AcDbEntity
  8
0
  6
CONTINUOUS
 62
               2
100
AcDbLine
 10
-2.2222541496357735
 20
-4.0500000000003951
 30
0.0
 11
-2.8496180162456994
 21
-4.0500000000003951
 31
0.0
  0
LINE
  5
8D
100
AcDbEntity
  8
0
  6
CONTINUOUS
 62
               2
100
AcDbLine
 10
-2.8496180162454721
 20
-3.5500000000004093
 30
0.0
 11
-2.1785098178728504
 21
-3.5500000000004093
 31
0.0
  0
LINE
  5
8E
100
AcDbEntity
  8
0
  6
CONTINUOUS
 62
               2
100
AcDbLine
 10
-2.8512315681931568
 20
-3.2687708394732908
 30
0.0
 11
-2.7482402910762858
 21
-2.0915751552973916
 31
0.0
  0
ARC
  5
8F
100
AcDbEntity
  8
0
  6
CONTINUOUS
 62
               2
100
AcDbCircle
 10
-2.8318616205289118
 20
-1.9000000000000909
 30
0.0
 40
0.4
100
AcDbArc
 50
146.0016465938152
 51
175.00000000000674
  0
LINE
  5
90
100
AcDbEntity
  8
0
  6
CONTINUOUS
 62
               2
100
AcDbLine
 10
-3.4348198807105064
 20
-4.2023591519908763
 30
0.0
 11
-3.2074607287200934
 21
-3.9750000000005912
 31
0.0
  0
LINE
  5
91
100
AcDbEntity
  8
0
  6
CONTINUOUS
 62
               2
100
AcDbLine
 10
-3.2074607287200934
 20
-3.9750000000005912
 30
0.0
 11
-2.9367065360514744
 21
-4.2457541926689686
 31
0.0
  0
LINE
  5
92
100
AcDbEntity
  8
0
  6
CONTINUOUS
 62
               2
100
AcDbLine
 10
-3.5217754000606192
 20
-5.8795121014681939
 30
0.0
 11
-3.0372514819778189
 21
-5.394988183385621
 31
0.0
  0
LINE
  5
93
100
AcDbEntity
  8
0
  6
CONTINUOUS
 62
               2
100
AcDbLine
 10
-3.4348198807105064
 20
-4.2023591519908763
 30
0.0
 11
-3.5627964211639664
 21
-5.6651377029012195
 31
0.0
  0
ARC
  5
94
100
AcDbEntity
  8
0
  6
CONTINUOUS
 62
               2
100
AcDbCircle
 10
-3.1643185419274005
 20
-5.7000000000002586
 30
0.0
 40
0.4
100
AcDbArc
 50
175.00000000000674
 51
206.66545318758119
  0
LINE
  5
95
100
AcDbEntity
  8
0
  6
CONTINUOUS
 62
               2
100
AcDbLine
 10
-3.0372514819778189
 20
-5.394988183385621
 30
0.0
 11
-2.9367065360514744
 21
-4.2457541926689686
 31
0.0
  0
ARC
  5
96
100
AcDbEntity
  8
0
  6
CONTINUOUS
 62
               2
100
AcDbCircle
 10
-3.1643185419274005
 20
-5.7000000000002586
 30
0.0
 40
0.4
100
AcDbArc
 50
235.68650304162912
 51
270.0
  0
LINE
  5
97
100
AcDbEntity
  8
0
  6
CONTINUOUS
 62
               2
100
AcDbLine
 10
-2.9594205861177443
 20
-5.6000000000001222
 30
0.0
 11
-3.3898067956356499
 21
-6.0303862095179142
 31
0.0
  0
LINE
  5
98
100
AcDbEntity
  8
0
  6
CONTINUOUS
 62
               2
100
AcDbLine
 10
-3.2074607287203207
 20
-3.6250000000002274
 30
0.0
 11
-3.3700801447561162
 21
-3.4623805839644319
 31
0.0
  0
LINE
  5
99
100
AcDbEntity
  8
0
  6
CONTINUOUS
 62
               2
100
AcDbLine
 10
-4.1000000000000227
 20
-1.2000000000000455
 30
0.0
 11
-4.1000000000000227
 21
-6.4999999999999858
 31
0.0
  0
LINE
  5
9A
100
AcDbEntity
  8
0
  6
CONTINUOUS
 62
               2
100
AcDbLine
 10
-3.2303394997655914
 20
-1.8651377029010519
 30
0.0
 11
-3.3700801447561162
 21
-3.4623805839644319
 31
0.0
  0
ARC
  5
9B
100
AcDbEntity
  8
0
  6
CONTINUOUS
 62
               2
100
AcDbCircle
 10
-2.8318616205289118
 20
-1.9000000000000909
 30
0.0
 40
0.4
100
AcDbArc
 50
89.999999999996732
 51
116.99121616429331
  0
LINE
  5
9C
100
AcDbEntity
  8
0
  6
CONTINUOUS
 62
               2
100
AcDbLine
 10
-3.0134031793280656
 20
-1.543569554571036
 30
0.0
 11
-2.5569727338988741
 21
-2.0000000000002274
 31
0.0
  0
LINE
  5
9D
100
AcDbEntity
  8
0
  6
CONTINUOUS
 62
               2
100
AcDbLine
 10
-2.7482402910762858
 20
-2.0915751552973916
 30
0.0
 11
-3.1634830775564069
 21
-1.6763323688172704
 31
0.0
  0
LINE
  5
9E
100
AcDbEntity
  8
0
  6
CONTINUOUS
 62
               2
100
AcDbLine
 10
-2.485120342103869
 20
1.2000000000003865
 30
0.0
 11
-4.7022776296295206
 21
1.2000000000003865
 31
0.0
  0
LINE
  5
9F
100
AcDbEntity
  8
0
  6
CONTINUOUS
 62
               2
100
AcDbLine
 10
-3.0996180162455857
 20
-3.8000000000004093
 30
0.0
 11
-2.8496180162456994
 21
-4.0500000000003951
 31
0.0
  0
LINE
  5
A0
100
AcDbEntity
  8
0
  6
CONTINUOUS
 62
               2
100
AcDbLine
 10
-2.8512315681931568
 20
-3.2687708394732908
 30
0.0
 11
-3.2074607287203207
 21
-3.6250000000002274
 31
0.0
  0
LINE
  5
A1
100
AcDbEntity
  8
0
  6
CONTINUOUS
 62
               2
100
AcDbLine
 10
-2.8496180162454721
 20
-3.5500000000004093
 30
0.0
 11
-3.0996180162455857
 21
-3.8000000000004093
 31
0.0
  0
LINE
  5
A2
100
AcDbEntity
  8
0
  6
CONTINUOUS
 62
               2
100
AcDbLine
 10
-8.6602481176588526
 20
5.2500000000003411
 30
0.0
 11
-8.738987914832137
 21
4.3500000000005912
 31
0.0
  0
LINE
  5
A3
100
AcDbEntity
  8
0
  6
CONTINUOUS
 62
               2
100
AcDbLine
 10
-6.8019552646679813
 20
9.3000000000006366
 30
0.0
 11
-10.098135427124589
 21
9.3000000000004093
 31
0.0
  0
LINE
  5
A4
100
AcDbEntity
  8
0
  6
CONTINUOUS
 62
               2
100
AcDbLine
 10
-8.738987914832137
 20
4.3500000000005912
 30
0.0
 11
-7.6499999999999773
 21
4.3500000000005912
 31
0.0
  0
LINE
  5
A5
100
AcDbEntity
  8
0
  6
CONTINUOUS
 62
               2
100
AcDbLine
 10
-9.5148796578960173
 20
8.4000000000003183
 30
0.0
 11
-7.2977223703704794
 21
8.4000000000003183
 31
0.0
  0
ARC
  5
A6
100
AcDbEntity
  8
0
  6
CONTINUOUS
 62
               7
100
AcDbCircle
 10
-12.0
 20
11.700000000000387
 30
0.0
 40
0.8
100
AcDbArc
 50
90.0
 51
180.0
  0
ARC
  5
A7
100
AcDbEntity
  8
0
  6
CONTINUOUS
 62
               2
100
AcDbCircle
 10
-10.098135427124589
 20
8.8000000000004093
 30
0.0
 40
0.5
100
AcDbArc
 50
90.0
 51
119.97960887575078
  0
LINE
  5
A8
100
AcDbEntity
  8
0
  6
CONTINUOUS
 62
               2
100
AcDbLine
 10
-10.347981305427879
 20
9.233101647532294
 30
0.0
 11
-9.5148796578960173
 21
8.4000000000003183
 31
0.0
  0
ARC
  5
A9
100
AcDbEntity
  8
0
  6
CONTINUOUS
 62
               2
100
AcDbCircle
 10
-10.098135427124589
 20
8.8000000000004093
 30
0.0
 40
0.5
100
AcDbArc
 50
143.096294621807
 51
175.00000000000011
  0
LINE
  5
AA
100
AcDbEntity
  8
0
  6
CONTINUOUS
 62
               2
100
AcDbLine
 10
-9.7369222764748429
 20
8.3391999061045681
 30
0.0
 11
-10.497958340628998
 21
9.1002359702586091
 31
0.0
  0
LINE
  5
AB
100
AcDbEntity
  8
0
  6
CONTINUOUS
 62
               2
100
AcDbLine
 10
-9.2723244955875543
 20
5.4500000000006139
 30
0.0
 11
-9.2722948982802791
 21
5.4500000000006139
 31
0.0
  0
LINE
  5
AC
100
AcDbEntity
  8
0
  6
CONTINUOUS
 62
               2
100
AcDbLine
 10
-8.9397518823408291
 20
4.3500000000005912
 30
0.0
 11
-8.8610120851675447
 21
5.2500000000003411
 31
0.0
  0
LINE
  5
AD
100
AcDbEntity
  8
0
  6
CONTINUOUS
 62
               2
100
AcDbLine
 10
-9.9499999999999318
 20
5.2500000000003411
 30
0.0
 11
-8.8610120851675447
 21
5.2500000000003411
 31
0.0
  0
LINE
  5
AE
100
AcDbEntity
  8
0
  6
CONTINUOUS
 62
               2
100
AcDbLine
 10
-8.9397518823408291
 20
4.3500000000005912
 30
0.0
 11
-9.9499999999999318
 21
4.3500000000005912
 31
0.0
  0
LINE
  5
AF
100
AcDbEntity
  8
0
  6
CONTINUOUS
 62
               2
100
AcDbLine
 10
-10.399999999999864
 20
4.8000000000004093
 30
0.0
 11
-9.9499999999999318
 21
5.2500000000003411
 31
0.0
  0
LINE
  5
B0
100
AcDbEntity
  8
0
  6
CONTINUOUS
 62
               2
100
AcDbLine
 10
-9.9499999999999318
 20
4.3500000000005912
 30
0.0
 11
-10.399999999999864
 21
4.8000000000004093
 31
0.0
  0
LINE
  5
B1
100
AcDbEntity
  8
0
  6
CONTINUOUS
 62
               2
100
AcDbLine
 10
-10.541421356237265
 20
4.9414213562378109
 30
0.0
 11
-10.905752398573668
 21
5.3057523985742137
 31
0.0
  0
LINE
  5
B2
100
AcDbEntity
  8
0
  6
CONTINUOUS
 62
               2
100
AcDbLine
 10
-11.002732237963301
 20
4.1972677620373133
 30
0.0
 11
-10.541421356237265
 21
4.6585786437630077
 31
0.0
  0
LINE
  5
B3
100
AcDbEntity
  8
0
  6
CONTINUOUS
 62
               2
100
AcDbLine
 10
-10.541421356237265
 20
4.9414213562378109
 30
0.0
 11
-9.9855576039714151
 21
5.4972851085032062
 31
0.0
  0
LINE
  5
B4
100
AcDbEntity
  8
0
  6
CONTINUOUS
 62
               2
100
AcDbLine
 10
-10.097751035104125
 20
4.2149083226302082
 30
0.0
 11
-10.541421356237265
 21
4.6585786437630077
 31
0.0
  0
LINE
  5
B5
100
AcDbEntity
  8
0
  6
CONTINUOUS
 62
               2
100
AcDbLine
 10
-9.9855576039714151
 20
5.4972851085032062
 30
0.0
 11
-9.7369222764748429
 21
8.3391999061045681
 31
0.0
  0
LINE
  5
B6
100
AcDbEntity
  8
0
  6
CONTINUOUS
 62
               2
100
AcDbLine
 10
-10.596232776170496
 20
8.8435778713741229
 30
0.0
 11
-10.905752398573668
 21
5.3057523985742137
 31
0.0
  0
ARC
  5
B7
100
AcDbEntity
  8
0
  6
CONTINUOUS
 62
               7
100
AcDbCircle
 10
-13.5
 20
13.5
 30
0.0
 40
1.5
100
AcDbArc
 50
90.000001999999569
 51
180.0000050000005
  0
LINE
  5
B8
100
AcDbEntity
  8
0
  6
CONTINUOUS
 62
               2
100
AcDbLine
 10
-4.9414213562371287
 20
4.9414213562378109
 30
0.0
 11
-5.3057523985737589
 21
5.3057523985742137
 31
0.0
  0
LINE
  5
B9
100
AcDbEntity
  8
0
  6
CONTINUOUS
 62
               2
100
AcDbLine
 10
-5.4027322379632778
 20
4.1972677620373133
 30
0.0
 11
-4.9414213562371287
 21
4.6585786437630077
 31
0.0
  0
LINE
  5
BA
100
AcDbEntity
  8
0
  6
CONTINUOUS
 62
               2
100
AcDbLine
 10
-4.9962327761704728
 20
8.8435778713741229
 30
0.0
 11
-5.3057523985737589
 21
5.3057523985742137
 31
0.0
  0
ARC
  5
BB
100
AcDbEntity
  8
0
  6
CONTINUOUS
 62
               2
100
AcDbCircle
 10
-6.8019552646679813
 20
8.8000000000004093
 30
0.0
 40
0.5
100
AcDbArc
 50
355.00000000000028
 51
29.658901664421379
  0
ARC
  5
BC
100
AcDbEntity
  8
0
  6
CONTINUOUS
 62
               2
100
AcDbCircle
 10
-6.8019552646679813
 20
8.8000000000004093
 30
0.0
 40
0.5
100
AcDbArc
 50
52.783782654485918
 51
90.0
  0
LINE
  5
BD
100
AcDbEntity
  8
0
  6
CONTINUOUS
 62
               2
100
AcDbLine
 10
-6.367461922629559
 20
9.0474177352668903
 30
0.0
 11
-7.2599166215611604
 21
8.1549630363351753
 31
0.0
  0
LINE
  5
BE
100
AcDbEntity
  8
0
  6
CONTINUOUS
 62
               2
100
AcDbLine
 10
-7.2977223703704794
 20
8.4000000000003183
 30
0.0
 11
-6.499542992014085
 21
9.1981793783568264
 31
0.0
  0
LINE
  5
BF
100
AcDbEntity
  8
0
  6
CONTINUOUS
 62
               2
100
AcDbLine
 10
-7.0585786437626439
 20
4.9414213562378109
 30
0.0
 11
-7.5022489648956707
 21
5.3850916773709514
 31
0.0
  0
LINE
  5
C0
100
AcDbEntity
  8
0
  6
CONTINUOUS
 62
               2
100
AcDbLine
 10
-7.1999999999999318
 20
4.8000000000004093
 30
0.0
 11
-7.6499999999999773
 21
5.2500000000003411
 31
0.0
  0
LINE
  5
C1
100
AcDbEntity
  8
0
  6
CONTINUOUS
 62
               2
100
AcDbLine
 10
-7.6499999999999773
 20
4.3500000000005912
 30
0.0
 11
-7.1999999999999318
 21
4.8000000000004093
 31
0.0
  0
LINE
  5
C2
100
AcDbEntity
  8
0
  6
CONTINUOUS
 62
               2
100
AcDbLine
 10
-7.6144423960283802
 20
4.1027148914974987
 30
0.0
 11
-7.0585786437626439
 21
4.6585786437630077
 31
0.0
  0
LINE
  5
C3
100
AcDbEntity
  8
0
  6
CONTINUOUS
 62
               2
100
AcDbLine
 10
-7.0585786437626439
 20
4.9414213562378109
 30
0.0
 11
-6.5972677620364948
 21
5.4027322379638463
 31
0.0
  0
LINE
  5
C4
100
AcDbEntity
  8
0
  6
CONTINUOUS
 62
               2
100
AcDbLine
 10
-6.6942476014261274
 20
4.2942476014267186
 30
0.0
 11
-7.0585786437626439
 21
4.6585786437630077
 31
0.0
  0
LINE
  5
C5
100
AcDbEntity
  8
0
  6
CONTINUOUS
 62
               2
100
AcDbLine
 10
-7.2599166215611604
 20
8.1549630363351753
 30
0.0
 11
-7.5022489648956707
 21
5.3850916773709514
 31
0.0
  0
LINE
  5
C6
100
AcDbEntity
  8
0
  6
CONTINUOUS
 62
               2
100
AcDbLine
 10
-6.5972677620364948
 20
5.4027322379638463
 30
0.0
 11
-6.3038579156220749
 21
8.7564221286268094
 31
0.0
  0
LINE
  5
C7
100
AcDbEntity
  8
0
  6
CONTINUOUS
 62
               2
100
AcDbLine
 10
-7.6499999999999773
 20
5.2500000000003411
 30
0.0
 11
-8.6602481176588526
 21
5.2500000000003411
 31
0.0
  0
ARC
  5
C8
100
AcDbEntity
  8
0
  6
CONTINUOUS
 62
               2
100
AcDbCircle
 10
-4.4981354271246801
 20
8.8000000000004093
 30
0.0
 40
0.5
100
AcDbArc
 50
143.096294621807
 51
175.00000000000011
  0
ARC
  5
C9
100
AcDbEntity
  8
0
  6
CONTINUOUS
 62
               2
100
AcDbCircle
 10
-4.4981354271246801
 20
8.8000000000004093
 30
0.0
 40
0.5
100
AcDbArc
 50
90.0
 51
119.97960887575078
  0
LINE
  5
CA
100
AcDbEntity
  8
0
  6
CONTINUOUS
 62
               2
100
AcDbLine
 10
-4.7479813054279703
 20
9.233101647532294
 30
0.0
 11
-3.9148796578959946
 21
8.4000000000003183
 31
0.0
  0
LINE
  5
CB
100
AcDbEntity
  8
0
  6
CONTINUOUS
 62
               2
100
AcDbLine
 10
-4.1369222764748201
 20
8.3391999061045681
 30
0.0
 11
-4.8979583406289748
 21
9.1002359702586091
 31
0.0
  0
LINE
  5
CC
100
AcDbEntity
  8
0
  6
CONTINUOUS
 62
               2
100
AcDbLine
 10
-3.3397518823408063
 20
4.3500000000005912
 30
0.0
 11
-3.2610120851675219
 21
5.2500000000003411
 31
0.0
  0
LINE
  5
CD
100
AcDbEntity
  8
0
  6
CONTINUOUS
 62
               2
100
AcDbLine
 10
-3.0602481176589436
 20
5.2500000000003411
 30
0.0
 11
-3.1389879148322279
 21
4.3500000000005912
 31
0.0
  0
LINE
  5
CE
100
AcDbEntity
  8
0
  6
CONTINUOUS
 62
               2
100
AcDbLine
 10
-4.9414213562371287
 20
4.9414213562378109
 30
0.0
 11
-4.3855576039715061
 21
5.4972851085032062
 31
0.0
  0
LINE
  5
CF
100
AcDbEntity
  8
0
  6
CONTINUOUS
 62
               2
100
AcDbLine
 10
-4.4977510351042156
 20
4.2149083226302082
 30
0.0
 11
-4.9414213562371287
 21
4.6585786437630077
 31
0.0
  0
LINE
  5
D0
100
AcDbEntity
  8
0
  6
CONTINUOUS
 62
               2
100
AcDbLine
 10
-4.7999999999999545
 20
4.8000000000004093
 30
0.0
 11
-4.3499999999997954
 21
5.2500000000003411
 31
0.0
  0
LINE
  5
D1
100
AcDbEntity
  8
0
  6
CONTINUOUS
 62
               2
100
AcDbLine
 10
-3.6723244955876453
 20
5.4500000000006139
 30
0.0
 11
-3.6722948982802563
 21
5.4500000000006139
 31
0.0
  0
LINE
  5
D2
100
AcDbEntity
  8
0
  6
CONTINUOUS
 62
               2
100
AcDbLine
 10
-4.3500000000000227
 20
4.3500000000005912
 30
0.0
 11
-4.7999999999999545
 21
4.8000000000004093
 31
0.0
  0
LINE
  5
D3
100
AcDbEntity
  8
0
  6
CONTINUOUS
 62
               2
100
AcDbLine
 10
-4.3499999999997954
 20
5.2500000000003411
 30
0.0
 11
-3.2610120851675219
 21
5.2500000000003411
 31
0.0
  0
LINE
  5
D4
100
AcDbEntity
  8
0
  6
CONTINUOUS
 62
               2
100
AcDbLine
 10
-3.3397518823408063
 20
4.3500000000005912
 30
0.0
 11
-4.3500000000000227
 21
4.3500000000005912
 31
0.0
  0
LINE
  5
D5
100
AcDbEntity
  8
0
  6
CONTINUOUS
 62
               2
100
AcDbLine
 10
-4.3855576039715061
 20
5.4972851085032062
 30
0.0
 11
-4.1369222764748201
 21
8.3391999061045681
 31
0.0
  0
LINE
  5
D6
100
AcDbEntity
  8
0
  6
CONTINUOUS
 62
               2
100
AcDbLine
 10
-2.0499999999999545
 20
5.2500000000003411
 30
0.0
 11
-3.0602481176589436
 21
5.2500000000003411
 31
0.0
  0
LINE
  5
D7
100
AcDbEntity
  8
0
  6
CONTINUOUS
 62
               2
100
AcDbLine
 10
-3.1389879148322279
 20
4.3500000000005912
 30
0.0
 11
-2.0499999999999545
 21
4.3500000000005912
 31
0.0
  0
LINE
  5
D8
100
AcDbEntity
  8
0
  6
CONTINUOUS
 62
               2
100
AcDbLine
 10
-3.9148796578959946
 20
8.4000000000003183
 30
0.0
 11
-1.6977223703705704
 21
8.4000000000003183
 31
0.0
  0
LINE
  5
D9
100
AcDbEntity
  8
0
  6
CONTINUOUS
 62
               2
100
AcDbLine
 10
9.796232776170541
 20
0.7564221286264683
 30
0.0
 11
10.105752398573713
 21
4.2942476014267186
 31
0.0
  0
LINE
  5
DA
100
AcDbEntity
  8
0
  6
CONTINUOUS
 62
               2
100
AcDbLine
 10
9.1855576039714606
 20
4.1027148914974987
 30
0.0
 11
8.9369222764748883
 21
1.2608000938961368
 31
0.0
  0
LINE
  5
DB
100
AcDbEntity
  8
0
  6
CONTINUOUS
 62
               2
100
AcDbLine
 10
11.600000000000023
 20
9.7000000000003865
 30
0.0
 11
11.600000000000023
 21
0.0000000000004547
 31
0.0
  0
LINE
  5
DC
100
AcDbEntity
  8
0
  6
CONTINUOUS
 62
               2
100
AcDbLine
 10
6.4599166215612058
 20
1.4450369636659843
 30
0.0
 11
6.7022489648957162
 21
4.2149083226302082
 31
0.0
  0
LINE
  5
DD
100
AcDbEntity
  8
0
  6
CONTINUOUS
 62
               2
100
AcDbLine
 10
5.7972677620365403
 20
4.1972677620373133
 30
0.0
 11
5.5038579156220067
 21
0.8435778713742366
 31
0.0
  0
LINE
  5
DE
100
AcDbEntity
  8
0
  6
CONTINUOUS
 62
               2
100
AcDbLine
 10
3.5855576039715515
 20
4.1027148914974987
 30
0.0
 11
3.3369222764749793
 21
1.2608000938961368
 31
0.0
  0
LINE
  5
DF
100
AcDbEntity
  8
0
  6
CONTINUOUS
 62
               2
100
AcDbLine
 10
4.196232776170632
 20
0.7564221286264683
 30
0.0
 11
4.5057523985739181
 21
4.2942476014267186
 31
0.0
  0
LINE
  5
E0
100
AcDbEntity
  8
0
  6
CONTINUOUS
 62
               2
100
AcDbLine
 10
0.1972677620366312
 20
4.1972677620373133
 30
0.0
 11
-0.0961420843779024
 21
0.8435778713742366
 31
0.0
  0
LINE
  5
E1
100
AcDbEntity
  8
0
  6
CONTINUOUS
 62
               2
100
AcDbLine
 10
0.8599166215612968
 20
1.4450369636659843
 30
0.0
 11
1.1022489648958071
 21
4.2149083226302082
 31
0.0
  0
LINE
  5
E2
100
AcDbEntity
  8
0
  6
CONTINUOUS
 62
               2
100
AcDbLine
 10
-1.4037672238292771
 20
0.7564221286264683
 30
0.0
 11
-1.0942476014262184
 21
4.2942476014267186
 31
0.0
  0
LINE
  5
E3
100
AcDbEntity
  8
0
  6
CONTINUOUS
 62
               2
100
AcDbLine
 10
4.8430272661011031
 20
-2.0000000000002274
 30
0.0
 11
6.1601845536268911
 21
-2.0000000000002274
 31
0.0
  0
LINE
  5
E4
100
AcDbEntity
  8
0
  6
CONTINUOUS
 62
               2
100
AcDbLine
 10
6.3650825094365473
 20
-1.5
 30
0.0
 11
4.5681383794711792
 21
-1.5
 31
0.0
  0
LINE
  5
E5
100
AcDbEntity
  8
0
  6
CONTINUOUS
 62
               2
100
AcDbLine
 10
4.2356814580726905
 20
-6.1000000000000085
 30
0.0
 11
6.0326255880379449
 21
-6.1000000000000085
 31
0.0
  0
LINE
  5
E6
100
AcDbEntity
  8
0
  6
CONTINUOUS
 62
               2
100
AcDbLine
 10
5.7577367014076799
 20
-5.6000000000001222
 30
0.0
 11
4.4405794138823467
 21
-5.6000000000001222
 31
0.0
  0
ARC
  5
E7
100
AcDbEntity
  8
0
  6
CONTINUOUS
 62
               7
100
AcDbCircle
 10
1.3000000000000682
 20
-12.100000000000009
 30
0.0
 40
0.1
100
AcDbArc
 50
270.0
 51
35.837652954269494
  0
ARC
  5
E8
100
AcDbEntity
  8
0
  6
CONTINUOUS
 62
               7
100
AcDbCircle
 10
0.0
 20
-10.300000000000395
 30
0.0
 40
0.1
100
AcDbArc
 50
35.83765295428578
 51
144.1623470457142
  0
LINE
  5
E9
100
AcDbEntity
  8
0
  6
CONTINUOUS
 62
               7
100
AcDbLine
 10
0.0810679228400204
 20
-10.241450944615721
 30
0.0
 11
1.3810679228400886
 21
-12.041450944615562
 31
0.0
  0
ARC
  5
EA
100
AcDbEntity
  8
0
  6
CONTINUOUS
 62
               7
100
AcDbCircle
 10
-1.2999999999999545
 20
-12.100000000000009
 30
0.0
 40
0.1
100
AcDbArc
 50
144.1623470457142
 51
270.0
  0
LINE
  5
EB
100
AcDbEntity
  8
0
  6
CONTINUOUS
 62
               7
100
AcDbLine
 10
-0.0810679228399067
 20
-10.241450944615721
 30
0.0
 11
-1.3810679228399749
 21
-12.041450944615562
 31
0.0
  0
LINE
  5
EC
100
AcDbEntity
  8
0
  6
CONTINUOUS
 62
               7
100
AcDbLine
 10
-1.2999999999999545
 20
-12.200000000000372
 30
0.0
 11
1.3000000000000682
 21
-12.200000000000372
 31
0.0
  0
LINE
  5
ED
100
AcDbEntity
  8
0
  6
CONTINUOUS
 62
               7
100
AcDbLine
 10
3.3000000000000682
 20
-12.499999999999986
 30
0.0
 11
3.3000000000000682
 21
-10.647963867516395
 31
0.0
  0
LINE
  5
EE
100
AcDbEntity
  8
0
  6
CONTINUOUS
 62
               7
100
AcDbLine
 10
3.0
 20
-12.500000000000213
 30
0.0
 11
3.0
 21
-10.541429382041073
 31
0.0
  0
ARC
  5
EF
100
AcDbEntity
  8
0
  6
CONTINUOUS
 62
               7
100
AcDbCircle
 10
2.8000000000000682
 20
-12.499999999999986
 30
0.0
 40
0.5
100
AcDbArc
 50
270.0
 51
0.0
  0
ARC
  5
F0
100
AcDbEntity
  8
0
  6
CONTINUOUS
 62
               7
100
AcDbCircle
 10
2.7000000000000455
 20
-12.500000000000213
 30
0.0
 40
0.3
100
AcDbArc
 50
270.0
 51
0.0
  0
ARC
  5
F1
100
AcDbEntity
  8
0
  6
CONTINUOUS
 62
               7
100
AcDbCircle
 10
2.5000000000001137
 20
-10.647963867516395
 30
0.0
 40
0.8
100
AcDbArc
 50
0.0
 51
69.682589183651217
  0
ARC
  5
F2
100
AcDbEntity
  8
0
  6
CONTINUOUS
 62
               7
100
AcDbCircle
 10
2.5
 20
-10.541429382041073
 30
0.0
 40
0.5
100
AcDbArc
 50
0.0
 51
69.972919751227039
  0
LINE
  5
F3
100
AcDbEntity
  8
0
  6
CONTINUOUS
 62
               2
100
AcDbLine
 10
3.1148796578961537
 20
1.2000000000003865
 30
0.0
 11
0.8977223703705022
 21
1.2000000000003865
 31
0.0
  0
LINE
  5
F4
100
AcDbEntity
  8
0
  6
CONTINUOUS
 62
               2
100
AcDbLine
 10
0.401955264668004
 20
0.3000000000006367
 30
0.0
 11
3.6981354271247255
 21
0.3000000000004093
 31
0.0
  0
LINE
  5
F5
100
AcDbEntity
  8
0
  6
CONTINUOUS
 62
               2
100
AcDbLine
 10
2.0577367014076344
 20
-5.6000000000001222
 30
0.0
 11
0.7405794138821875
 21
-5.6000000000001222
 31
0.0
  0
LINE
  5
F6
100
AcDbEntity
  8
0
  6
CONTINUOUS
 62
               2
100
AcDbLine
 10
1.1430272661010576
 20
-2.0000000000002274
 30
0.0
 11
2.4601845536268456
 21
-2.0000000000002274
 31
0.0
  0
LINE
  5
F7
100
AcDbEntity
  8
0
  6
CONTINUOUS
 62
               2
100
AcDbLine
 10
2.6650825094365018
 20
-1.5
 30
0.0
 11
0.8681383794711337
 21
-1.5
 31
0.0
  0
LINE
  5
F8
100
AcDbEntity
  8
0
  6
CONTINUOUS
 62
               2
100
AcDbLine
 10
0.535681458072645
 20
-6.1000000000000085
 30
0.0
 11
2.3326255880378994
 21
-6.1000000000000085
 31
0.0
  0
LINE
  5
F9
100
AcDbEntity
  8
0
  6
CONTINUOUS
 62
               2
100
AcDbLine
 10
1.6785098178728504
 20
-4.0500000000003951
 30
0.0
 11
2.3503819837548008
 21
-4.0500000000003951
 31
0.0
  0
LINE
  5
FA
100
AcDbEntity
  8
0
  6
CONTINUOUS
 62
               2
100
AcDbLine
 10
2.3503819837545734
 20
-3.5500000000004093
 30
0.0
 11
1.7222541496358872
 21
-3.5500000000004093
 31
0.0
  0
ARC
  5
FB
100
AcDbEntity
  8
0
  6
CONTINUOUS
 62
               2
100
AcDbCircle
 10
0.401955264668004
 20
0.8000000000006367
 30
0.0
 40
0.5
100
AcDbArc
 50
175.00000000000011
 51
209.65890166442139
  0
LINE
  5
FC
100
AcDbEntity
  8
0
  6
CONTINUOUS
 62
               2
100
AcDbLine
 10
-0.0325380773703046
 20
0.5525822647339282
 30
0.0
 11
0.8599166215612968
 21
1.4450369636659843
 31
0.0
  0
LINE
  5
FD
100
AcDbEntity
  8
0
  6
CONTINUOUS
 62
               2
100
AcDbLine
 10
0.8977223703705022
 20
1.2000000000003865
 30
0.0
 11
0.0995429920143351
 21
0.4018206216439921
 31
0.0
  0
ARC
  5
FE
100
AcDbEntity
  8
0
  6
CONTINUOUS
 62
               2
100
AcDbCircle
 10
0.401955264668004
 20
0.8000000000006367
 30
0.0
 40
0.5
100
AcDbArc
 50
232.78378265448592
 51
270.0
  0
ARC
  5
FF
100
AcDbEntity
  8
0
  6
CONTINUOUS
 62
               2
100
AcDbCircle
 10
-1.9018645728752972
 20
0.8000000000004093
 30
0.0
 40
0.5
100
AcDbArc
 50
323.09629462179902
 51
355.00000000000028
  0
CIRCLE
  5
100
100
AcDbEntity
  8
0
  6
CONTINUOUS
 62
               2
100
AcDbCircle
 10
-0.7499999999998863
 20
0.6000000000001364
 30
0.0
 40
0.4
  0
ARC
  5
101
100
AcDbEntity
  8
0
  6
CONTINUOUS
 62
               2
100
AcDbCircle
 10
0.8681383794711337
 20
-1.9000000000000909
 30
0.0
 40
0.4
100
AcDbArc
 50
89.999999999996732
 51
116.99121616429331
  0
ARC
  5
102
100
AcDbEntity
  8
0
  6
CONTINUOUS
 62
               2
100
AcDbCircle
 10
0.8681383794711337
 20
-1.9000000000000909
 30
0.0
 40
0.4
100
AcDbArc
 50
146.0016465938152
 51
175.00000000000674
  0
LINE
  5
103
100
AcDbEntity
  8
0
  6
CONTINUOUS
 62
               2
100
AcDbLine
 10
0.6865968206719799
 20
-1.543569554571036
 30
0.0
 11
1.1430272661010576
 21
-2.0000000000002274
 31
0.0
  0
LINE
  5
104
100
AcDbEntity
  8
0
  6
CONTINUOUS
 62
               2
100
AcDbLine
 10
0.9517597089237597
 20
-2.0915751552973916
 30
0.0
 11
0.5365169224436386
 21
-1.6763323688172704
 31
0.0
  0
LINE
  5
105
100
AcDbEntity
  8
0
  6
CONTINUOUS
 62
               2
100
AcDbLine
 10
1.5214901821271951
 20
-3.5500000000004093
 30
0.0
 11
1.477745850364272
 21
-4.0500000000003951
 31
0.0
  0
LINE
  5
106
100
AcDbEntity
  8
0
  6
CONTINUOUS
 62
               2
100
AcDbLine
 10
1.7222541496358872
 20
-3.5500000000004093
 30
0.0
 11
1.6785098178728504
 21
-4.0500000000003951
 31
0.0
  0
LINE
  5
107
100
AcDbEntity
  8
0
  6
CONTINUOUS
 62
               2
100
AcDbLine
 10
0.6003819837544597
 20
-3.8000000000004093
 30
0.0
 11
0.850381983754346
 21
-4.0500000000003951
 31
0.0
  0
LINE
  5
108
100
AcDbEntity
  8
0
  6
CONTINUOUS
 62
               2
100
AcDbLine
 10
0.2651801192894254
 20
-4.2023591519908763
 30
0.0
 11
0.4925392712799521
 21
-3.9750000000005912
 31
0.0
  0
LINE
  5
109
100
AcDbEntity
  8
0
  6
CONTINUOUS
 62
               2
100
AcDbLine
 10
0.4925392712799521
 20
-3.9750000000005912
 30
0.0
 11
0.7632934639485711
 21
-4.2457541926689686
 31
0.0
  0
LINE
  5
10A
100
AcDbEntity
  8
0
  6
CONTINUOUS
 62
               2
100
AcDbLine
 10
0.1782245999394263
 20
-5.8795121014681939
 30
0.0
 11
0.6627485180221129
 21
-5.394988183385621
 31
0.0
  0
LINE
  5
10B
100
AcDbEntity
  8
0
  6
CONTINUOUS
 62
               2
100
AcDbLine
 10
0.2651801192894254
 20
-4.2023591519908763
 30
0.0
 11
0.1372035788359654
 21
-5.6651377029012195
 31
0.0
  0
ARC
  5
10C
100
AcDbEntity
  8
0
  6
CONTINUOUS
 62
               2
100
AcDbCircle
 10
0.535681458072645
 20
-5.7000000000002586
 30
0.0
 40
0.4
100
AcDbArc
 50
175.00000000000674
 51
206.66545318758119
  0
LINE
  5
10D
100
AcDbEntity
  8
0
  6
CONTINUOUS
 62
               2
100
AcDbLine
 10
0.6627485180221129
 20
-5.394988183385621
 30
0.0
 11
0.7632934639485711
 21
-4.2457541926689686
 31
0.0
  0
ARC
  5
10E
100
AcDbEntity
  8
0
  6
CONTINUOUS
 62
               2
100
AcDbCircle
 10
0.535681458072645
 20
-5.7000000000002586
 30
0.0
 40
0.4
100
AcDbArc
 50
235.68650304162912
 51
270.0
  0
LINE
  5
10F
100
AcDbEntity
  8
0
  6
CONTINUOUS
 62
               2
100
AcDbLine
 10
0.7405794138821875
 20
-5.6000000000001222
 30
0.0
 11
0.3101932043643956
 21
-6.0303862095179142
 31
0.0
  0
LINE
  5
110
100
AcDbEntity
  8
0
  6
CONTINUOUS
 62
               2
100
AcDbLine
 10
1.477745850364272
 20
-4.0500000000003951
 30
0.0
 11
0.850381983754346
 21
-4.0500000000003951
 31
0.0
  0
LINE
  5
111
100
AcDbEntity
  8
0
  6
CONTINUOUS
 62
               2
100
AcDbLine
 10
0.4925392712797247
 20
-3.6250000000002274
 30
0.0
 11
0.3299198552439293
 21
-3.4623805839644319
 31
0.0
  0
LINE
  5
112
100
AcDbEntity
  8
0
  6
CONTINUOUS
 62
               2
100
AcDbLine
 10
0.848768431806775
 20
-3.2687708394732908
 30
0.0
 11
0.4925392712797247
 21
-3.6250000000002274
 31
0.0
  0
LINE
  5
113
100
AcDbEntity
  8
0
  6
CONTINUOUS
 62
               2
100
AcDbLine
 10
0.8503819837544597
 20
-3.5500000000004093
 30
0.0
 11
0.6003819837544597
 21
-3.8000000000004093
 31
0.0
  0
LINE
  5
114
100
AcDbEntity
  8
0
  6
CONTINUOUS
 62
               2
100
AcDbLine
 10
0.8503819837544597
 20
-3.5500000000004093
 30
0.0
 11
1.5214901821271951
 21
-3.5500000000004093
 31
0.0
  0
LINE
  5
115
100
AcDbEntity
  8
0
  6
CONTINUOUS
 62
               2
100
AcDbLine
 10
0.4696605002344541
 20
-1.8651377029010519
 30
0.0
 11
0.3299198552439293
 21
-3.4623805839644319
 31
0.0
  0
LINE
  5
116
100
AcDbEntity
  8
0
  6
CONTINUOUS
 62
               2
100
AcDbLine
 10
0.848768431806775
 20
-3.2687708394732908
 30
0.0
 11
0.9517597089237597
 21
-2.0915751552973916
 31
0.0
  0
ARC
  5
117
100
AcDbEntity
  8
0
  6
CONTINUOUS
 62
               2
100
AcDbCircle
 10
-1.0349174905635437
 20
-1.9000000000000909
 30
0.0
 40
0.4
100
AcDbArc
 50
355.00000000000671
 51
26.665453187573981
  0
ARC
  5
118
100
AcDbEntity
  8
0
  6
CONTINUOUS
 62
               2
100
AcDbCircle
 10
-1.0349174905635437
 20
-1.9000000000000909
 30
0.0
 40
0.4
100
AcDbArc
 50
55.686503041629202
 51
89.999999999996732
  0
LINE
  5
119
100
AcDbEntity
  8
0
  6
CONTINUOUS
 62
               2
100
AcDbLine
 10
-1.2398154463731998
 20
-2.0000000000002274
 30
0.0
 11
-0.8094292368552942
 21
-1.5696137904822081
 31
0.0
  0
LINE
  5
11A
100
AcDbEntity
  8
0
  6
CONTINUOUS
 62
               2
100
AcDbLine
 10
-0.677460632430325
 20
-1.7204878985319283
 30
0.0
 11
-1.1619845505131252
 21
-2.2050118166149559
 31
0.0
  0
LINE
  5
11B
100
AcDbEntity
  8
0
  6
CONTINUOUS
 62
               2
100
AcDbLine
 10
-1.0996180162452447
 20
-3.8000000000004093
 30
0.0
 11
-1.3496180162452447
 21
-4.0500000000003951
 31
0.0
  0
LINE
  5
11C
100
AcDbEntity
  8
0
  6
CONTINUOUS
 62
               2
100
AcDbLine
 10
-0.9581966600080705
 20
-3.9414213562374698
 30
0.0
 11
-1.3480044642976736
 21
-4.3312291605270588
 31
0.0
  0
LINE
  5
11D
100
AcDbEntity
  8
0
  6
CONTINUOUS
 62
               2
100
AcDbLine
 10
-0.9581966600080705
 20
-3.9414213562374698
 30
0.0
 11
-0.8237530715688308
 21
-4.0758649446766952
 31
0.0
  0
LINE
  5
11E
100
AcDbEntity
  8
0
  6
CONTINUOUS
 62
               2
100
AcDbLine
 10
-0.9688965327254664
 20
-5.734862297099184
 30
0.0
 11
-0.8237530715688308
 21
-4.0758649446766952
 31
0.0
  0
LINE
  5
11F
100
AcDbEntity
  8
0
  6
CONTINUOUS
 62
               2
100
AcDbLine
 10
-1.3480044642976736
 20
-4.3312291605270588
 30
0.0
 11
-1.4509957414146584
 21
-5.5084248447030717
 31
0.0
  0
LINE
  5
120
100
AcDbEntity
  8
0
  6
CONTINUOUS
 62
               2
100
AcDbLine
 10
-1.4509957414146584
 20
-5.5084248447030717
 30
0.0
 11
-1.0357529549347646
 21
-5.9236676311830792
 31
0.0
  0
ARC
  5
121
100
AcDbEntity
  8
0
  6
CONTINUOUS
 62
               2
100
AcDbCircle
 10
-1.367374411962146
 20
-5.7000000000002586
 30
0.0
 40
0.4
100
AcDbArc
 50
270.0
 51
296.99121616424958
  0
ARC
  5
122
100
AcDbEntity
  8
0
  6
CONTINUOUS
 62
               2
100
AcDbCircle
 10
-1.367374411962146
 20
-5.7000000000002586
 30
0.0
 40
0.4
100
AcDbArc
 50
326.00164659378362
 51
355.00000000000671
  0
LINE
  5
123
100
AcDbEntity
  8
0
  6
CONTINUOUS
 62
               2
100
AcDbLine
 10
-1.2625294964394698
 20
-3.3542458073316084
 30
0.0
 11
-0.9581966600080705
 21
-3.658578643762894
 31
0.0
  0
LINE
  5
124
100
AcDbEntity
  8
0
  6
CONTINUOUS
 62
               2
100
AcDbLine
 10
-1.3496180162454721
 20
-3.5500000000004093
 30
0.0
 11
-1.0996180162452447
 21
-3.8000000000004093
 31
0.0
  0
LINE
  5
125
100
AcDbEntity
  8
0
  6
CONTINUOUS
 62
               2
100
AcDbLine
 10
-0.7708549773564073
 20
-3.4712369611111171
 30
0.0
 11
-0.9581966600080705
 21
-3.658578643762894
 31
0.0
  0
LINE
  5
126
100
AcDbEntity
  8
0
  6
CONTINUOUS
 62
               2
100
AcDbLine
 10
-0.7708549773564073
 20
-3.4712369611111171
 30
0.0
 11
-0.636439611326864
 21
-1.9348622970990164
 31
0.0
  0
LINE
  5
127
100
AcDbEntity
  8
0
  6
CONTINUOUS
 62
               2
100
AcDbLine
 10
-1.1619845505131252
 20
-2.2050118166149559
 30
0.0
 11
-1.2625294964394698
 21
-3.3542458073316084
 31
0.0
  0
LINE
  5
128
100
AcDbEntity
  8
0
  6
CONTINUOUS
 62
               2
100
AcDbLine
 10
-1.1858328531632196
 20
-6.0564304454291999
 30
0.0
 11
-1.642263298592411
 21
-5.6000000000001222
 31
0.0
  0
CIRCLE
  5
129
100
AcDbEntity
  8
0
  6
CONTINUOUS
 62
               2
100
AcDbCircle
 10
-0.42999999999995
 20
-5.9000000000000767
 30
0.0
 40
0.3
  0
ARC
  5
12A
100
AcDbEntity
  8
0
  6
CONTINUOUS
 62
               2
100
AcDbCircle
 10
3.6981354271247255
 20
0.8000000000004093
 30
0.0
 40
0.5
100
AcDbArc
 50
270.0
 51
299.9796088757509
  0
LINE
  5
12B
100
AcDbEntity
  8
0
  6
CONTINUOUS
 62
               2
100
AcDbLine
 10
3.3369222764749793
 20
1.2608000938961368
 30
0.0
 11
4.097958340629134
 21
0.4997640297420958
 31
0.0
  0
ARC
  5
12C
100
AcDbEntity
  8
0
  6
CONTINUOUS
 62
               2
100
AcDbCircle
 10
3.6981354271247255
 20
0.8000000000004093
 30
0.0
 40
0.5
100
AcDbArc
 50
323.09629462179902
 51
355.00000000000028
  0
LINE
  5
12D
100
AcDbEntity
  8
0
  6
CONTINUOUS
 62
               2
100
AcDbLine
 10
3.9479813054280157
 20
0.3668983524684109
 30
0.0
 11
3.1148796578961537
 21
1.2000000000003865
 31
0.0
  0
CIRCLE
  5
12E
100
AcDbEntity
  8
0
  6
CONTINUOUS
 62
               2
100
AcDbCircle
 10
4.8500000000001364
 20
0.6000000000001364
 30
0.0
 40
0.4
  0
LINE
  5
12F
100
AcDbEntity
  8
0
  6
CONTINUOUS
 62
               2
100
AcDbLine
 10
5.2214901821272406
 20
-3.5500000000004093
 30
0.0
 11
5.1777458503642038
 21
-4.0500000000003951
 31
0.0
  0
ARC
  5
130
100
AcDbEntity
  8
0
  6
CONTINUOUS
 62
               2
100
AcDbCircle
 10
4.5681383794711792
 20
-1.9000000000000909
 30
0.0
 40
0.4
100
AcDbArc
 50
89.999999999996732
 51
116.99121616429331
  0
ARC
  5
131
100
AcDbEntity
  8
0
  6
CONTINUOUS
 62
               2
100
AcDbCircle
 10
4.5681383794711792
 20
-1.9000000000000909
 30
0.0
 40
0.4
100
AcDbArc
 50
146.0016465938152
 51
175.00000000000674
  0
ARC
  5
132
100
AcDbEntity
  8
0
  6
CONTINUOUS
 62
               2
100
AcDbCircle
 10
2.6650825094365018
 20
-1.9000000000000909
 30
0.0
 40
0.4
100
AcDbArc
 50
55.686503041629202
 51
89.999999999996732
  0
LINE
  5
133
100
AcDbEntity
  8
0
  6
CONTINUOUS
 62
               2
100
AcDbLine
 10
2.4601845536268456
 20
-2.0000000000002274
 30
0.0
 11
2.8905707631447513
 21
-1.5696137904822081
 31
0.0
  0
LINE
  5
134
100
AcDbEntity
  8
0
  6
CONTINUOUS
 62
               2
100
AcDbLine
 10
3.0225393675697205
 20
-1.7204878985319283
 30
0.0
 11
2.5380154494869203
 21
-2.2050118166149559
 31
0.0
  0
ARC
  5
135
100
AcDbEntity
  8
0
  6
CONTINUOUS
 62
               2
100
AcDbCircle
 10
2.6650825094365018
 20
-1.9000000000000909
 30
0.0
 40
0.4
100
AcDbArc
 50
355.00000000000671
 51
26.665453187573981
  0
LINE
  5
136
100
AcDbEntity
  8
0
  6
CONTINUOUS
 62
               2
100
AcDbLine
 10
4.3003819837545052
 20
-3.8000000000004093
 30
0.0
 11
4.5503819837543915
 21
-4.0500000000003951
 31
0.0
  0
LINE
  5
137
100
AcDbEntity
  8
0
  6
CONTINUOUS
 62
               2
100
AcDbLine
 10
2.6003819837546871
 20
-3.8000000000004093
 30
0.0
 11
2.3503819837548008
 21
-4.0500000000003951
 31
0.0
  0
LINE
  5
138
100
AcDbEntity
  8
0
  6
CONTINUOUS
 62
               2
100
AcDbLine
 10
3.9651801192895846
 20
-4.2023591519908763
 30
0.0
 11
4.1925392712799976
 21
-3.9750000000005912
 31
0.0
  0
LINE
  5
139
100
AcDbEntity
  8
0
  6
CONTINUOUS
 62
               2
100
AcDbLine
 10
4.1925392712799976
 20
-3.9750000000005912
 30
0.0
 11
4.4632934639486166
 21
-4.2457541926689686
 31
0.0
  0
LINE
  5
13A
100
AcDbEntity
  8
0
  6
CONTINUOUS
 62
               2
100
AcDbLine
 10
3.8782245999394718
 20
-5.8795121014681939
 30
0.0
 11
4.3627485180221584
 21
-5.394988183385621
 31
0.0
  0
LINE
  5
13B
100
AcDbEntity
  8
0
  6
CONTINUOUS
 62
               2
100
AcDbLine
 10
3.9651801192895846
 20
-4.2023591519908763
 30
0.0
 11
3.8372035788360108
 21
-5.6651377029012195
 31
0.0
  0
ARC
  5
13C
100
AcDbEntity
  8
0
  6
CONTINUOUS
 62
               2
100
AcDbCircle
 10
4.2356814580726905
 20
-5.7000000000002586
 30
0.0
 40
0.4
100
AcDbArc
 50
175.00000000000674
 51
206.66545318758119
  0
LINE
  5
13D
100
AcDbEntity
  8
0
  6
CONTINUOUS
 62
               2
100
AcDbLine
 10
4.3627485180221584
 20
-5.394988183385621
 30
0.0
 11
4.4632934639486166
 21
-4.2457541926689686
 31
0.0
  0
ARC
  5
13E
100
AcDbEntity
  8
0
  6
CONTINUOUS
 62
               2
100
AcDbCircle
 10
4.2356814580726905
 20
-5.7000000000002586
 30
0.0
 40
0.4
100
AcDbArc
 50
235.68650304162912
 51
270.0
  0
LINE
  5
13F
100
AcDbEntity
  8
0
  6
CONTINUOUS
 62
               2
100
AcDbLine
 10
4.4405794138823467
 20
-5.6000000000001222
 30
0.0
 11
4.010193204364441
 21
-6.0303862095179142
 31
0.0
  0
LINE
  5
140
100
AcDbEntity
  8
0
  6
CONTINUOUS
 62
               2
100
AcDbLine
 10
2.741803339991975
 20
-3.9414213562374698
 30
0.0
 11
2.3519955357023719
 21
-4.3312291605270588
 31
0.0
  0
LINE
  5
141
100
AcDbEntity
  8
0
  6
CONTINUOUS
 62
               2
100
AcDbLine
 10
2.741803339991975
 20
-3.9414213562374698
 30
0.0
 11
2.8762469284312147
 21
-4.0758649446766952
 31
0.0
  0
LINE
  5
142
100
AcDbEntity
  8
0
  6
CONTINUOUS
 62
               2
100
AcDbLine
 10
2.7311034672745791
 20
-5.734862297099184
 30
0.0
 11
2.8762469284312147
 21
-4.0758649446766952
 31
0.0
  0
LINE
  5
143
100
AcDbEntity
  8
0
  6
CONTINUOUS
 62
               2
100
AcDbLine
 10
2.3519955357023719
 20
-4.3312291605270588
 30
0.0
 11
2.2490042585852734
 21
-5.5084248447030717
 31
0.0
  0
LINE
  5
144
100
AcDbEntity
  8
0
  6
CONTINUOUS
 62
               2
100
AcDbLine
 10
2.2490042585852734
 20
-5.5084248447030717
 30
0.0
 11
2.6642470450652809
 21
-5.9236676311830792
 31
0.0
  0
ARC
  5
145
100
AcDbEntity
  8
0
  6
CONTINUOUS
 62
               2
100
AcDbCircle
 10
2.3326255880378994
 20
-5.7000000000002586
 30
0.0
 40
0.4
100
AcDbArc
 50
270.0
 51
296.99121616424958
  0
ARC
  5
146
100
AcDbEntity
  8
0
  6
CONTINUOUS
 62
               2
100
AcDbCircle
 10
2.3326255880378994
 20
-5.7000000000002586
 30
0.0
 40
0.4
100
AcDbArc
 50
326.00164659378362
 51
355.00000000000671
  0
CIRCLE
  5
147
100
AcDbEntity
  8
0
  6
CONTINUOUS
 62
               2
100
AcDbCircle
 10
3.2700000000000955
 20
-5.9000000000000767
 30
0.0
 40
0.3
  0
LINE
  5
148
100
AcDbEntity
  8
0
  6
CONTINUOUS
 62
               2
100
AcDbLine
 10
4.1925392712797702
 20
-3.6250000000002274
 30
0.0
 11
4.0299198552439748
 21
-3.4623805839644319
 31
0.0
  0
LINE
  5
149
100
AcDbEntity
  8
0
  6
CONTINUOUS
 62
               2
100
AcDbLine
 10
4.5487684318068204
 20
-3.2687708394732908
 30
0.0
 11
4.1925392712797702
 21
-3.6250000000002274
 31
0.0
  0
LINE
  5
14A
100
AcDbEntity
  8
0
  6
CONTINUOUS
 62
               2
100
AcDbLine
 10
4.5503819837545052
 20
-3.5500000000004093
 30
0.0
 11
4.3003819837545052
 21
-3.8000000000004093
 31
0.0
  0
LINE
  5
14B
100
AcDbEntity
  8
0
  6
CONTINUOUS
 62
               2
100
AcDbLine
 10
2.4374705035605757
 20
-3.3542458073316084
 30
0.0
 11
2.741803339991975
 21
-3.658578643762894
 31
0.0
  0
LINE
  5
14C
100
AcDbEntity
  8
0
  6
CONTINUOUS
 62
               2
100
AcDbLine
 10
2.3503819837545734
 20
-3.5500000000004093
 30
0.0
 11
2.6003819837546871
 21
-3.8000000000004093
 31
0.0
  0
LINE
  5
14D
100
AcDbEntity
  8
0
  6
CONTINUOUS
 62
               2
100
AcDbLine
 10
2.9291450226436382
 20
-3.4712369611111171
 30
0.0
 11
2.741803339991975
 21
-3.658578643762894
 31
0.0
  0
LINE
  5
14E
100
AcDbEntity
  8
0
  6
CONTINUOUS
 62
               2
100
AcDbLine
 10
2.9291450226436382
 20
-3.4712369611111171
 30
0.0
 11
3.0635603886731815
 21
-1.9348622970990164
 31
0.0
  0
LINE
  5
14F
100
AcDbEntity
  8
0
  6
CONTINUOUS
 62
               2
100
AcDbLine
 10
2.5380154494869203
 20
-2.2050118166149559
 30
0.0
 11
2.4374705035605757
 21
-3.3542458073316084
 31
0.0
  0
LINE
  5
150
100
AcDbEntity
  8
0
  6
CONTINUOUS
 62
               2
100
AcDbLine
 10
4.1696605002344995
 20
-1.8651377029010519
 30
0.0
 11
4.0299198552439748
 21
-3.4623805839644319
 31
0.0
  0
LINE
  5
151
100
AcDbEntity
  8
0
  6
CONTINUOUS
 62
               2
100
AcDbLine
 10
4.3865968206720254
 20
-1.543569554571036
 30
0.0
 11
4.8430272661011031
 21
-2.0000000000002274
 31
0.0
  0
LINE
  5
152
100
AcDbEntity
  8
0
  6
CONTINUOUS
 62
               2
100
AcDbLine
 10
4.6517597089238052
 20
-2.0915751552973916
 30
0.0
 11
4.2365169224436841
 21
-1.6763323688172704
 31
0.0
  0
LINE
  5
153
100
AcDbEntity
  8
0
  6
CONTINUOUS
 62
               2
100
AcDbLine
 10
5.1777458503642038
 20
-4.0500000000003951
 30
0.0
 11
4.5503819837543915
 21
-4.0500000000003951
 31
0.0
  0
LINE
  5
154
100
AcDbEntity
  8
0
  6
CONTINUOUS
 62
               2
100
AcDbLine
 10
4.5503819837545052
 20
-3.5500000000004093
 30
0.0
 11
5.2214901821272406
 21
-3.5500000000004093
 31
0.0
  0
LINE
  5
155
100
AcDbEntity
  8
0
  6
CONTINUOUS
 62
               2
100
AcDbLine
 10
4.5487684318068204
 20
-3.2687708394732908
 30
0.0
 11
4.6517597089238052
 21
-2.0915751552973916
 31
0.0
  0
LINE
  5
156
100
AcDbEntity
  8
0
  6
CONTINUOUS
 62
               2
100
AcDbLine
 10
2.5141671468368259
 20
-6.0564304454291999
 30
0.0
 11
2.0577367014076344
 21
-5.6000000000001222
 31
0.0
  0
LINE
  5
157
100
AcDbEntity
  8
0
  6
CONTINUOUS
 62
               7
100
AcDbLine
 10
8.9189320771600933
 20
-12.158549055384569
 30
0.0
 11
7.6189320771600251
 21
-10.358549055384842
 31
0.0
  0
LINE
  5
158
100
AcDbEntity
  8
0
  6
CONTINUOUS
 62
               7
100
AcDbLine
 10
10.300000000000068
 20
-10.200000000000372
 30
0.0
 11
7.7000000000000455
 21
-10.200000000000372
 31
0.0
  0
ARC
  5
159
100
AcDbEntity
  8
0
  6
CONTINUOUS
 62
               7
100
AcDbCircle
 10
9.0000155000000177
 20
-4.9999225000014889
 30
0.0
 40
7.8000775000144253
100
AcDbArc
 50
249.9729197512269
 51
290.02708024877279
  0
ARC
  5
15A
100
AcDbEntity
  8
0
  6
CONTINUOUS
 62
               7
100
AcDbCircle
 10
8.999984500000096
 20
-4.9999225000012615
 30
0.0
 40
8.0000775000144273
100
AcDbArc
 50
249.68285223723149
 51
290.31767387037991
  0
LINE
  5
15B
100
AcDbEntity
  8
0
  6
CONTINUOUS
 62
               7
100
AcDbLine
 10
11.80003099999999
 20
-9.4000000000000767
 30
0.0
 11
6.1999999999999318
 21
-9.4000000000000767
 31
0.0
  0
LINE
  5
15C
100
AcDbEntity
  8
0
  6
CONTINUOUS
 62
               7
100
AcDbLine
 10
11.700031000000195
 20
-9.6000000000003496
 30
0.0
 11
6.3000000000000682
 21
-9.6000000000003496
 31
0.0
  0
ARC
  5
15D
100
AcDbEntity
  8
0
  6
CONTINUOUS
 62
               7
100
AcDbCircle
 10
7.7000000000000455
 20
-10.300000000000395
 30
0.0
 40
0.1
100
AcDbArc
 50
90.0
 51
215.83765295426949
  0
ARC
  5
15E
100
AcDbEntity
  8
0
  6
CONTINUOUS
 62
               7
100
AcDbCircle
 10
6.2000000000000455
 20
-9.9000000000000767
 30
0.0
 40
0.5
100
AcDbArc
 50
90.000000000003226
 51
180.0
  0
ARC
  5
15F
100
AcDbEntity
  8
0
  6
CONTINUOUS
 62
               7
100
AcDbCircle
 10
6.3000000000000682
 20
-9.9000000000003041
 30
0.0
 40
0.3
100
AcDbArc
 50
90.0
 51
180.0
  0
ARC
  5
160
100
AcDbEntity
  8
0
  6
CONTINUOUS
 62
               7
100
AcDbCircle
 10
6.5
 20
-11.752047610361373
 30
0.0
 40
0.8
100
AcDbArc
 50
180.0
 51
249.68285223723149
  0
LINE
  5
161
100
AcDbEntity
  8
0
  6
CONTINUOUS
 62
               7
100
AcDbLine
 10
5.7000000000000455
 20
-11.752047610361373
 30
0.0
 11
5.7000000000000455
 21
-9.9000000000000767
 31
0.0
  0
LINE
  5
162
100
AcDbEntity
  8
0
  6
CONTINUOUS
 62
               7
100
AcDbLine
 10
6.0
 20
-9.9000000000003041
 30
0.0
 11
6.0
 21
-11.858570617959671
 31
0.0
  0
ARC
  5
163
100
AcDbEntity
  8
0
  6
CONTINUOUS
 62
               7
100
AcDbCircle
 10
6.5
 20
-11.858570617959671
 30
0.0
 40
0.5
100
AcDbArc
 50
180.0
 51
249.9729197512269
  0
LINE
  5
164
100
AcDbEntity
  8
0
  6
CONTINUOUS
 62
               7
100
AcDbLine
 10
12.30003099999999
 20
-11.752024654444071
 30
0.0
 11
12.30003099999999
 21
-9.9000000000000767
 31
0.0
  0
ARC
  5
165
100
AcDbEntity
  8
0
  6
CONTINUOUS
 62
               7
100
AcDbCircle
 10
11.700031000000195
 20
-9.9000000000003041
 30
0.0
 40
0.3
100
AcDbArc
 50
0.0
 51
90.0
  0
ARC
  5
166
100
AcDbEntity
  8
0
  6
CONTINUOUS
 62
               7
100
AcDbCircle
 10
11.500031000000035
 20
-11.858570617959671
 30
0.0
 40
0.5
100
AcDbArc
 50
290.02708024877279
 51
0.0
  0
ARC
  5
167
100
AcDbEntity
  8
0
  6
CONTINUOUS
 62
               7
100
AcDbCircle
 10
10.300000000000068
 20
-10.300000000000395
 30
0.0
 40
0.1
100
AcDbArc
 50
324.16234704571423
 51
90.0
  0
LINE
  5
168
100
AcDbEntity
  8
0
  6
CONTINUOUS
 62
               7
100
AcDbLine
 10
12.000031000000035
 20
-9.9000000000003041
 30
0.0
 11
12.000031000000035
 21
-11.858570617959671
 31
0.0
  0
ARC
  5
169
100
AcDbEntity
  8
0
  6
CONTINUOUS
 62
               7
100
AcDbCircle
 10
9.0
 20
-12.100000000000009
 30
0.0
 40
0.1
100
AcDbArc
 50
215.8376529542856
 51
324.16234704571423
  0
LINE
  5
16A
100
AcDbEntity
  8
0
  6
CONTINUOUS
 62
               7
100
AcDbLine
 10
9.0810679228401341
 20
-12.158549055384569
 30
0.0
 11
10.381067922840089
 21
-10.358549055384842
 31
0.0
  0
ARC
  5
16B
100
AcDbEntity
  8
0
  6
CONTINUOUS
 62
               7
100
AcDbCircle
 10
11.80003099999999
 20
-9.9000000000000767
 30
0.0
 40
0.5
100
AcDbArc
 50
0.0
 51
90.000000000003226
  0
LINE
  5
16C
100
AcDbEntity
  8
0
  6
CONTINUOUS
 62
               2
100
AcDbLine
 10
9.5479813054279248
 20
0.3668983524684109
 30
0.0
 11
8.7148796578961765
 21
1.2000000000003865
 31
0.0
  0
LINE
  5
16D
100
AcDbEntity
  8
0
  6
CONTINUOUS
 62
               2
100
AcDbLine
 10
8.9214901821271724
 20
-3.5500000000004093
 30
0.0
 11
8.8777458503642492
 21
-4.0500000000003951
 31
0.0
  0
LINE
  5
16E
100
AcDbEntity
  8
0
  6
CONTINUOUS
 62
               2
100
AcDbLine
 10
9.4577367014077254
 20
-5.6000000000001222
 30
0.0
 11
8.1405794138822785
 21
-5.6000000000001222
 31
0.0
  0
LINE
  5
16F
100
AcDbEntity
  8
0
  6
CONTINUOUS
 62
               2
100
AcDbLine
 10
8.2503819837545507
 20
-3.5500000000004093
 30
0.0
 11
8.9214901821271724
 21
-3.5500000000004093
 31
0.0
  0
LINE
  5
170
100
AcDbEntity
  8
0
  6
CONTINUOUS
 62
               2
100
AcDbLine
 10
10.065082509436479
 20
-1.5
 30
0.0
 11
8.2681383794712247
 21
-1.5
 31
0.0
  0
LINE
  5
171
100
AcDbEntity
  8
0
  6
CONTINUOUS
 62
               2
100
AcDbLine
 10
8.5430272661011486
 20
-2.0000000000002274
 30
0.0
 11
9.8601845536268229
 21
-2.0000000000002274
 31
0.0
  0
LINE
  5
172
100
AcDbEntity
  8
0
  6
CONTINUOUS
 62
               2
100
AcDbLine
 10
7.9356814580727359
 20
-6.1000000000000085
 30
0.0
 11
9.7326255880378767
 21
-6.1000000000000085
 31
0.0
  0
LINE
  5
173
100
AcDbEntity
  8
0
  6
CONTINUOUS
 62
               2
100
AcDbLine
 10
6.0019552646679131
 20
0.3000000000006367
 30
0.0
 11
9.2981354271246346
 21
0.3000000000004093
 31
0.0
  0
LINE
  5
174
100
AcDbEntity
  8
0
  6
CONTINUOUS
 62
               2
100
AcDbLine
 10
8.0865968206720709
 20
-1.543569554571036
 30
0.0
 11
8.5430272661011486
 21
-2.0000000000002274
 31
0.0
  0
ARC
  5
175
100
AcDbEntity
  8
0
  6
CONTINUOUS
 62
               2
100
AcDbCircle
 10
8.2681383794712247
 20
-1.9000000000000909
 30
0.0
 40
0.4
100
AcDbArc
 50
89.999999999996732
 51
116.99121616429331
  0
ARC
  5
176
100
AcDbEntity
  8
0
  6
CONTINUOUS
 62
               2
100
AcDbCircle
 10
8.2681383794712247
 20
-1.9000000000000909
 30
0.0
 40
0.4
100
AcDbArc
 50
146.0016465938152
 51
175.00000000000674
  0
LINE
  5
177
100
AcDbEntity
  8
0
  6
CONTINUOUS
 62
               2
100
AcDbLine
 10
8.3517597089238507
 20
-2.0915751552973916
 30
0.0
 11
7.9365169224436158
 21
-1.6763323688172704
 31
0.0
  0
LINE
  5
178
100
AcDbEntity
  8
0
  6
CONTINUOUS
 62
               2
100
AcDbLine
 10
8.000381983754437
 20
-3.8000000000004093
 30
0.0
 11
8.2503819837543233
 21
-4.0500000000003951
 31
0.0
  0
LINE
  5
179
100
AcDbEntity
  8
0
  6
CONTINUOUS
 62
               2
100
AcDbLine
 10
7.6651801192895164
 20
-4.2023591519908763
 30
0.0
 11
7.8925392712799294
 21
-3.9750000000005912
 31
0.0
  0
LINE
  5
17A
100
AcDbEntity
  8
0
  6
CONTINUOUS
 62
               2
100
AcDbLine
 10
7.8925392712799294
 20
-3.9750000000005912
 30
0.0
 11
8.1632934639485484
 21
-4.2457541926689686
 31
0.0
  0
LINE
  5
17B
100
AcDbEntity
  8
0
  6
CONTINUOUS
 62
               2
100
AcDbLine
 10
7.5782245999394036
 20
-5.8795121014681939
 30
0.0
 11
8.0627485180222038
 21
-5.394988183385621
 31
0.0
  0
LINE
  5
17C
100
AcDbEntity
  8
0
  6
CONTINUOUS
 62
               2
100
AcDbLine
 10
7.6651801192895164
 20
-4.2023591519908763
 30
0.0
 11
7.5372035788360563
 21
-5.6651377029012195
 31
0.0
  0
ARC
  5
17D
100
AcDbEntity
  8
0
  6
CONTINUOUS
 62
               2
100
AcDbCircle
 10
7.9356814580726223
 20
-5.7000000000002586
 30
0.0
 40
0.4
100
AcDbArc
 50
175.00000000000674
 51
206.66545318758119
  0
LINE
  5
17E
100
AcDbEntity
  8
0
  6
CONTINUOUS
 62
               2
100
AcDbLine
 10
8.0627485180222038
 20
-5.394988183385621
 30
0.0
 11
8.1632934639485484
 21
-4.2457541926689686
 31
0.0
  0
ARC
  5
17F
100
AcDbEntity
  8
0
  6
CONTINUOUS
 62
               2
100
AcDbCircle
 10
7.9356814580726223
 20
-5.7000000000002586
 30
0.0
 40
0.4
100
AcDbArc
 50
235.68650304162912
 51
270.0
  0
LINE
  5
180
100
AcDbEntity
  8
0
  6
CONTINUOUS
 62
               2
100
AcDbLine
 10
8.1405794138822785
 20
-5.6000000000001222
 30
0.0
 11
7.7101932043643728
 21
-6.0303862095179142
 31
0.0
  0
LINE
  5
181
100
AcDbEntity
  8
0
  6
CONTINUOUS
 62
               2
100
AcDbLine
 10
7.8925392712798157
 20
-3.6250000000002274
 30
0.0
 11
7.7299198552439066
 21
-3.4623805839644319
 31
0.0
  0
LINE
  5
182
100
AcDbEntity
  8
0
  6
CONTINUOUS
 62
               2
100
AcDbLine
 10
8.2487684318067522
 20
-3.2687708394732908
 30
0.0
 11
7.8925392712798157
 21
-3.6250000000002274
 31
0.0
  0
LINE
  5
183
100
AcDbEntity
  8
0
  6
CONTINUOUS
 62
               2
100
AcDbLine
 10
8.2503819837545507
 20
-3.5500000000004093
 30
0.0
 11
8.000381983754437
 21
-3.8000000000004093
 31
0.0
  0
LINE
  5
184
100
AcDbEntity
  8
0
  6
CONTINUOUS
 62
               2
100
AcDbLine
 10
8.8777458503642492
 20
-4.0500000000003951
 30
0.0
 11
8.2503819837543233
 21
-4.0500000000003951
 31
0.0
  0
LINE
  5
185
100
AcDbEntity
  8
0
  6
CONTINUOUS
 62
               2
100
AcDbLine
 10
7.8696605002344313
 20
-1.8651377029010519
 30
0.0
 11
7.7299198552439066
 21
-3.4623805839644319
 31
0.0
  0
LINE
  5
186
100
AcDbEntity
  8
0
  6
CONTINUOUS
 62
               2
100
AcDbLine
 10
8.2487684318067522
 20
-3.2687708394732908
 30
0.0
 11
8.3517597089238507
 21
-2.0915751552973916
 31
0.0
  0
LINE
  5
187
100
AcDbEntity
  8
0
  6
CONTINUOUS
 62
               2
100
AcDbLine
 10
5.5674619226296045
 20
0.5525822647339282
 30
0.0
 11
6.4599166215612058
 21
1.4450369636659843
 31
0.0
  0
LINE
  5
188
100
AcDbEntity
  8
0
  6
CONTINUOUS
 62
               2
100
AcDbLine
 10
6.4977223703705249
 20
1.2000000000003865
 30
0.0
 11
5.6995429920142442
 21
0.4018206216439921
 31
0.0
  0
ARC
  5
189
100
AcDbEntity
  8
0
  6
CONTINUOUS
 62
               2
100
AcDbCircle
 10
6.0019552646679131
 20
0.8000000000006367
 30
0.0
 40
0.5
100
AcDbArc
 50
175.00000000000011
 51
209.65890166442139
  0
ARC
  5
18A
100
AcDbEntity
  8
0
  6
CONTINUOUS
 62
               2
100
AcDbCircle
 10
6.0019552646679131
 20
0.8000000000006367
 30
0.0
 40
0.5
100
AcDbArc
 50
232.78378265448592
 51
270.0
  0
ARC
  5
18B
100
AcDbEntity
  8
0
  6
CONTINUOUS
 62
               2
100
AcDbCircle
 10
6.3650825094365473
 20
-1.9000000000000909
 30
0.0
 40
0.4
100
AcDbArc
 50
355.00000000000671
 51
26.665453187573981
  0
ARC
  5
18C
100
AcDbEntity
  8
0
  6
CONTINUOUS
 62
               2
100
AcDbCircle
 10
6.3650825094365473
 20
-1.9000000000000909
 30
0.0
 40
0.4
100
AcDbArc
 50
55.686503041629202
 51
89.999999999996732
  0
LINE
  5
18D
100
AcDbEntity
  8
0
  6
CONTINUOUS
 62
               2
100
AcDbLine
 10
6.1601845536268911
 20
-2.0000000000002274
 30
0.0
 11
6.5905707631447967
 21
-1.5696137904822081
 31
0.0
  0
LINE
  5
18E
100
AcDbEntity
  8
0
  6
CONTINUOUS
 62
               2
100
AcDbLine
 10
6.722539367569766
 20
-1.7204878985319283
 30
0.0
 11
6.2380154494869657
 21
-2.2050118166149559
 31
0.0
  0
LINE
  5
18F
100
AcDbEntity
  8
0
  6
CONTINUOUS
 62
               2
100
AcDbLine
 10
5.4222541496359327
 20
-3.5500000000004093
 30
0.0
 11
5.3785098178728958
 21
-4.0500000000003951
 31
0.0
  0
LINE
  5
190
100
AcDbEntity
  8
0
  6
CONTINUOUS
 62
               2
100
AcDbLine
 10
6.3003819837547326
 20
-3.8000000000004093
 30
0.0
 11
6.0503819837548463
 21
-4.0500000000003951
 31
0.0
  0
LINE
  5
191
100
AcDbEntity
  8
0
  6
CONTINUOUS
 62
               2
100
AcDbLine
 10
6.4418033399920205
 20
-3.9414213562374698
 30
0.0
 11
6.5762469284312601
 21
-4.0758649446766952
 31
0.0
  0
LINE
  5
192
100
AcDbEntity
  8
0
  6
CONTINUOUS
 62
               2
100
AcDbLine
 10
6.4311034672746246
 20
-5.734862297099184
 30
0.0
 11
6.5762469284312601
 21
-4.0758649446766952
 31
0.0
  0
LINE
  5
193
100
AcDbEntity
  8
0
  6
CONTINUOUS
 62
               2
100
AcDbLine
 10
6.4418033399920205
 20
-3.9414213562374698
 30
0.0
 11
6.0519955357024173
 21
-4.3312291605270588
 31
0.0
  0
ARC
  5
194
100
AcDbEntity
  8
0
  6
CONTINUOUS
 62
               2
100
AcDbCircle
 10
6.0326255880379449
 20
-5.7000000000002586
 30
0.0
 40
0.4
100
AcDbArc
 50
326.00164659378362
 51
355.00000000000671
  0
LINE
  5
195
100
AcDbEntity
  8
0
  6
CONTINUOUS
 62
               2
100
AcDbLine
 10
6.0519955357024173
 20
-4.3312291605270588
 30
0.0
 11
5.9490042585853189
 21
-5.5084248447030717
 31
0.0
  0
LINE
  5
196
100
AcDbEntity
  8
0
  6
CONTINUOUS
 62
               2
100
AcDbLine
 10
5.3785098178728958
 20
-4.0500000000003951
 30
0.0
 11
6.0503819837548463
 21
-4.0500000000003951
 31
0.0
  0
LINE
  5
197
100
AcDbEntity
  8
0
  6
CONTINUOUS
 62
               2
100
AcDbLine
 10
6.2141671468368713
 20
-6.0564304454291999
 30
0.0
 11
5.7577367014076799
 21
-5.6000000000001222
 31
0.0
  0
LINE
  5
198
100
AcDbEntity
  8
0
  6
CONTINUOUS
 62
               2
100
AcDbLine
 10
5.9490042585853189
 20
-5.5084248447030717
 30
0.0
 11
6.3642470450653263
 21
-5.9236676311830792
 31
0.0
  0
ARC
  5
199
100
AcDbEntity
  8
0
  6
CONTINUOUS
 62
               2
100
AcDbCircle
 10
6.0326255880379449
 20
-5.7000000000002586
 30
0.0
 40
0.4
100
AcDbArc
 50
270.0
 51
296.99121616424958
  0
LINE
  5
19A
100
AcDbEntity
  8
0
  6
CONTINUOUS
 62
               2
100
AcDbLine
 10
6.6291450226436837
 20
-3.4712369611111171
 30
0.0
 11
6.4418033399920205
 21
-3.658578643762894
 31
0.0
  0
LINE
  5
19B
100
AcDbEntity
  8
0
  6
CONTINUOUS
 62
               2
100
AcDbLine
 10
6.1374705035606212
 20
-3.3542458073316084
 30
0.0
 11
6.4418033399920205
 21
-3.658578643762894
 31
0.0
  0
LINE
  5
19C
100
AcDbEntity
  8
0
  6
CONTINUOUS
 62
               2
100
AcDbLine
 10
6.0503819837546189
 20
-3.5500000000004093
 30
0.0
 11
5.4222541496359327
 21
-3.5500000000004093
 31
0.0
  0
LINE
  5
19D
100
AcDbEntity
  8
0
  6
CONTINUOUS
 62
               2
100
AcDbLine
 10
6.0503819837546189
 20
-3.5500000000004093
 30
0.0
 11
6.3003819837547326
 21
-3.8000000000004093
 31
0.0
  0
LINE
  5
19E
100
AcDbEntity
  8
0
  6
CONTINUOUS
 62
               2
100
AcDbLine
 10
6.6291450226436837
 20
-3.4712369611111171
 30
0.0
 11
6.763560388673227
 21
-1.9348622970990164
 31
0.0
  0
LINE
  5
19F
100
AcDbEntity
  8
0
  6
CONTINUOUS
 62
               2
100
AcDbLine
 10
6.2380154494869657
 20
-2.2050118166149559
 30
0.0
 11
6.1374705035606212
 21
-3.3542458073316084
 31
0.0
  0
LINE
  5
1A0
100
AcDbEntity
  8
0
  6
CONTINUOUS
 62
               2
100
AcDbLine
 10
8.7148796578961765
 20
1.2000000000003865
 30
0.0
 11
6.4977223703705249
 21
1.2000000000003865
 31
0.0
  0
CIRCLE
  5
1A1
100
AcDbEntity
  8
0
  6
CONTINUOUS
 62
               2
100
AcDbCircle
 10
6.9700000000000273
 20
-5.9000000000000767
 30
0.0
 40
0.3
  0
ARC
  5
1A2
100
AcDbEntity
  8
0
  6
CONTINUOUS
 62
               2
100
AcDbCircle
 10
9.2981354271246346
 20
0.8000000000004093
 30
0.0
 40
0.5
100
AcDbArc
 50
323.09629462179902
 51
355.00000000000028
  0
ARC
  5
1A3
100
AcDbEntity
  8
0
  6
CONTINUOUS
 62
               2
100
AcDbCircle
 10
9.2981354271246346
 20
0.8000000000004093
 30
0.0
 40
0.5
100
AcDbArc
 50
270.0
 51
299.9796088757509
  0
LINE
  5
1A4
100
AcDbEntity
  8
0
  6
CONTINUOUS
 62
               2
100
AcDbLine
 10
8.9369222764748883
 20
1.2608000938961368
 30
0.0
 11
9.6979583406290431
 21
0.4997640297420958
 31
0.0
  0
LINE
  5
1A5
100
AcDbEntity
  8
0
  6
CONTINUOUS
 62
               2
100
AcDbLine
 10
11.600000000000023
 20
-1.2000000000000455
 30
0.0
 11
11.600000000000023
 21
-6.4999999999999858
 31
0.0
  0
ARC
  5
1A6
100
AcDbEntity
  8
0
  6
CONTINUOUS
 62
               2
100
AcDbCircle
 10
10.065082509436479
 20
-1.9000000000000909
 30
0.0
 40
0.4
100
AcDbArc
 50
355.00000000000671
 51
26.665453187573981
  0
ARC
  5
1A7
100
AcDbEntity
  8
0
  6
CONTINUOUS
 62
               2
100
AcDbCircle
 10
10.065082509436479
 20
-1.9000000000000909
 30
0.0
 40
0.4
100
AcDbArc
 50
55.686503041629202
 51
89.999999999996732
  0
LINE
  5
1A8
100
AcDbEntity
  8
0
  6
CONTINUOUS
 62
               2
100
AcDbLine
 10
9.8601845536268229
 20
-2.0000000000002274
 30
0.0
 11
10.290570763144729
 21
-1.5696137904822081
 31
0.0
  0
LINE
  5
1A9
100
AcDbEntity
  8
0
  6
CONTINUOUS
 62
               2
100
AcDbLine
 10
10.422539367569698
 20
-1.7204878985319283
 30
0.0
 11
9.9380154494868975
 21
-2.2050118166149559
 31
0.0
  0
LINE
  5
1AA
100
AcDbEntity
  8
0
  6
CONTINUOUS
 62
               2
100
AcDbLine
 10
10.000381983754664
 20
-3.8000000000004093
 30
0.0
 11
9.750381983754778
 21
-4.0500000000003951
 31
0.0
  0
LINE
  5
1AB
100
AcDbEntity
  8
0
  6
CONTINUOUS
 62
               2
100
AcDbLine
 10
10.141803339991952
 20
-3.9414213562374698
 30
0.0
 11
10.276246928431306
 21
-4.0758649446766952
 31
0.0
  0
LINE
  5
1AC
100
AcDbEntity
  8
0
  6
CONTINUOUS
 62
               2
100
AcDbLine
 10
10.131103467274556
 20
-5.734862297099184
 30
0.0
 11
10.276246928431306
 21
-4.0758649446766952
 31
0.0
  0
ARC
  5
1AD
100
AcDbEntity
  8
0
  6
CONTINUOUS
 62
               2
100
AcDbCircle
 10
9.7326255880378767
 20
-5.7000000000002586
 30
0.0
 40
0.4
100
AcDbArc
 50
326.00164659378362
 51
355.00000000000671
  0
LINE
  5
1AE
100
AcDbEntity
  8
0
  6
CONTINUOUS
 62
               2
100
AcDbLine
 10
9.7519955357023491
 20
-4.3312291605270588
 30
0.0
 11
9.6490042585853644
 21
-5.5084248447030717
 31
0.0
  0
LINE
  5
1AF
100
AcDbEntity
  8
0
  6
CONTINUOUS
 62
               2
100
AcDbLine
 10
10.141803339991952
 20
-3.9414213562374698
 30
0.0
 11
9.7519955357023491
 21
-4.3312291605270588
 31
0.0
  0
LINE
  5
1B0
100
AcDbEntity
  8
0
  6
CONTINUOUS
 62
               2
100
AcDbLine
 10
9.6490042585853644
 20
-5.5084248447030717
 30
0.0
 11
10.064247045065258
 21
-5.9236676311830792
 31
0.0
  0
ARC
  5
1B1
100
AcDbEntity
  8
0
  6
CONTINUOUS
 62
               2
100
AcDbCircle
 10
9.7326255880378767
 20
-5.7000000000002586
 30
0.0
 40
0.4
100
AcDbArc
 50
270.0
 51
296.99121616424958
  0
LINE
  5
1B2
100
AcDbEntity
  8
0
  6
CONTINUOUS
 62
               2
100
AcDbLine
 10
10.329145022643615
 20
-3.4712369611111171
 30
0.0
 11
10.141803339991952
 21
-3.658578643762894
 31
0.0
  0
LINE
  5
1B3
100
AcDbEntity
  8
0
  6
CONTINUOUS
 62
               2
100
AcDbLine
 10
9.837470503560553
 20
-3.3542458073316084
 30
0.0
 11
10.141803339991952
 21
-3.658578643762894
 31
0.0
  0
LINE
  5
1B4
100
AcDbEntity
  8
0
  6
CONTINUOUS
 62
               2
100
AcDbLine
 10
9.7503819837546644
 20
-3.5500000000004093
 30
0.0
 11
10.000381983754664
 21
-3.8000000000004093
 31
0.0
  0
LINE
  5
1B5
100
AcDbEntity
  8
0
  6
CONTINUOUS
 62
               2
100
AcDbLine
 10
10.329145022643615
 20
-3.4712369611111171
 30
0.0
 11
10.463560388673159
 21
-1.9348622970990164
 31
0.0
  0
LINE
  5
1B6
100
AcDbEntity
  8
0
  6
CONTINUOUS
 62
               2
100
AcDbLine
 10
9.9380154494868975
 20
-2.2050118166149559
 30
0.0
 11
9.837470503560553
 21
-3.3542458073316084
 31
0.0
  0
LINE
  5
1B7
100
AcDbEntity
  8
0
  6
CONTINUOUS
 62
               2
100
AcDbLine
 10
9.1222541496358645
 20
-3.5500000000004093
 30
0.0
 11
9.0785098178729413
 21
-4.0500000000003951
 31
0.0
  0
LINE
  5
1B8
100
AcDbEntity
  8
0
  6
CONTINUOUS
 62
               2
100
AcDbLine
 10
9.0785098178729413
 20
-4.0500000000003951
 30
0.0
 11
9.750381983754778
 21
-4.0500000000003951
 31
0.0
  0
LINE
  5
1B9
100
AcDbEntity
  8
0
  6
CONTINUOUS
 62
               2
100
AcDbLine
 10
9.9141671468368031
 20
-6.0564304454291999
 30
0.0
 11
9.4577367014077254
 21
-5.6000000000001222
 31
0.0
  0
LINE
  5
1BA
100
AcDbEntity
  8
0
  6
CONTINUOUS
 62
               2
100
AcDbLine
 10
9.7503819837546644
 20
-3.5500000000004093
 30
0.0
 11
9.1222541496358645
 21
-3.5500000000004093
 31
0.0
  0
LINE
  5
1BB
100
AcDbEntity
  8
0
  6
CONTINUOUS
 62
               2
100
AcDbLine
 10
4.3980447353320642
 20
9.3000000000006366
 30
0.0
 11
1.1018645728753427
 21
9.3000000000004093
 31
0.0
  0
LINE
  5
1BC
100
AcDbEntity
  8
0
  6
CONTINUOUS
 62
               2
100
AcDbLine
 10
1.2500000000001137
 20
5.2500000000003411
 30
0.0
 11
2.3389879148323871
 21
5.2500000000003411
 31
0.0
  0
LINE
  5
1BD
100
AcDbEntity
  8
0
  6
CONTINUOUS
 62
               2
100
AcDbLine
 10
2.2602481176591027
 20
4.3500000000005912
 30
0.0
 11
1.25
 21
4.3500000000005912
 31
0.0
  0
LINE
  5
1BE
100
AcDbEntity
  8
0
  6
CONTINUOUS
 62
               2
100
AcDbLine
 10
1.6851203421040282
 20
8.4000000000003183
 30
0.0
 11
3.9022776296294523
 21
8.4000000000003183
 31
0.0
  0
ARC
  5
1BF
100
AcDbEntity
  8
0
  6
CONTINUOUS
 62
               2
100
AcDbCircle
 10
1.1018645728753427
 20
8.8000000000004093
 30
0.0
 40
0.5
100
AcDbArc
 50
143.096294621807
 51
175.00000000000011
  0
ARC
  5
1C0
100
AcDbEntity
  8
0
  6
CONTINUOUS
 62
               2
100
AcDbCircle
 10
1.1018645728753427
 20
8.8000000000004093
 30
0.0
 40
0.5
100
AcDbArc
 50
90.0
 51
119.97960887575078
  0
LINE
  5
1C1
100
AcDbEntity
  8
0
  6
CONTINUOUS
 62
               2
100
AcDbLine
 10
0.8520186945721662
 20
9.233101647532294
 30
0.0
 11
1.6851203421040282
 21
8.4000000000003183
 31
0.0
  0
LINE
  5
1C2
100
AcDbEntity
  8
0
  6
CONTINUOUS
 62
               2
100
AcDbLine
 10
1.4630777235252026
 20
8.3391999061045681
 30
0.0
 11
0.7020416593710479
 21
9.1002359702586091
 31
0.0
  0
ARC
  5
1C3
100
AcDbEntity
  8
0
  6
CONTINUOUS
 62
               2
100
AcDbCircle
 10
-1.2019552646679585
 20
8.8000000000004093
 30
0.0
 40
0.5
100
AcDbArc
 50
355.00000000000028
 51
29.658901664421379
  0
ARC
  5
1C4
100
AcDbEntity
  8
0
  6
CONTINUOUS
 62
               2
100
AcDbCircle
 10
-1.2019552646679585
 20
8.8000000000004093
 30
0.0
 40
0.5
100
AcDbArc
 50
52.783782654485918
 51
90.0
  0
LINE
  5
1C5
100
AcDbEntity
  8
0
  6
CONTINUOUS
 62
               2
100
AcDbLine
 10
-0.76746192262965
 20
9.0474177352668903
 30
0.0
 11
-1.6599166215611376
 21
8.1549630363351753
 31
0.0
  0
LINE
  5
1C6
100
AcDbEntity
  8
0
  6
CONTINUOUS
 62
               2
100
AcDbLine
 10
0.6585786437627803
 20
4.9414213562378109
 30
0.0
 11
0.2942476014262638
 21
5.3057523985742137
 31
0.0
  0
LINE
  5
1C7
100
AcDbEntity
  8
0
  6
CONTINUOUS
 62
               2
100
AcDbLine
 10
0.6585786437627803
 20
4.9414213562378109
 30
0.0
 11
1.2144423960285167
 21
5.4972851085032062
 31
0.0
  0
LINE
  5
1C8
100
AcDbEntity
  8
0
  6
CONTINUOUS
 62
               2
100
AcDbLine
 10
0.8000000000000682
 20
4.8000000000004093
 30
0.0
 11
1.2500000000001137
 21
5.2500000000003411
 31
0.0
  0
LINE
  5
1C9
100
AcDbEntity
  8
0
  6
CONTINUOUS
 62
               2
100
AcDbLine
 10
1.25
 20
4.3500000000005912
 30
0.0
 11
0.8000000000000682
 21
4.8000000000004093
 31
0.0
  0
LINE
  5
1CA
100
AcDbEntity
  8
0
  6
CONTINUOUS
 62
               2
100
AcDbLine
 10
1.1022489648958071
 20
4.2149083226302082
 30
0.0
 11
0.6585786437627803
 21
4.6585786437630077
 31
0.0
  0
LINE
  5
1CB
100
AcDbEntity
  8
0
  6
CONTINUOUS
 62
               2
100
AcDbLine
 10
0.1972677620366312
 20
4.1972677620373133
 30
0.0
 11
0.6585786437627803
 21
4.6585786437630077
 31
0.0
  0
LINE
  5
1CC
100
AcDbEntity
  8
0
  6
CONTINUOUS
 62
               2
100
AcDbLine
 10
-1.4585786437627348
 20
4.9414213562378109
 30
0.0
 11
-0.9972677620365857
 21
5.4027322379638463
 31
0.0
  0
LINE
  5
1CD
100
AcDbEntity
  8
0
  6
CONTINUOUS
 62
               2
100
AcDbLine
 10
-1.0942476014262184
 20
4.2942476014267186
 30
0.0
 11
-1.4585786437627348
 21
4.6585786437630077
 31
0.0
  0
LINE
  5
1CE
100
AcDbEntity
  8
0
  6
CONTINUOUS
 62
               2
100
AcDbLine
 10
1.2144423960285167
 20
5.4972851085032062
 30
0.0
 11
1.4630777235252026
 21
8.3391999061045681
 31
0.0
  0
LINE
  5
1CF
100
AcDbEntity
  8
0
  6
CONTINUOUS
 62
               2
100
AcDbLine
 10
0.60376722382955
 20
8.8435778713741229
 30
0.0
 11
0.2942476014262638
 21
5.3057523985742137
 31
0.0
  0
LINE
  5
1D0
100
AcDbEntity
  8
0
  6
CONTINUOUS
 62
               2
100
AcDbLine
 10
-0.9972677620365857
 20
5.4027322379638463
 30
0.0
 11
-0.7038579156220521
 21
8.7564221286268094
 31
0.0
  0
ARC
  5
1D1
100
AcDbEntity
  8
0
  6
CONTINUOUS
 62
               2
100
AcDbCircle
 10
4.3980447353320642
 20
8.8000000000004093
 30
0.0
 40
0.5
100
AcDbArc
 50
355.00000000000028
 51
29.658901664421379
  0
ARC
  5
1D2
100
AcDbEntity
  8
0
  6
CONTINUOUS
 62
               2
100
AcDbCircle
 10
4.3980447353320642
 20
8.8000000000004093
 30
0.0
 40
0.5
100
AcDbArc
 50
52.783782654485918
 51
90.0
  0
LINE
  5
1D3
100
AcDbEntity
  8
0
  6
CONTINUOUS
 62
               2
100
AcDbLine
 10
4.8325380773704865
 20
9.0474177352668903
 30
0.0
 11
3.9400833784388851
 21
8.1549630363351753
 31
0.0
  0
LINE
  5
1D4
100
AcDbEntity
  8
0
  6
CONTINUOUS
 62
               2
100
AcDbLine
 10
3.9022776296294523
 20
8.4000000000003183
 30
0.0
 11
4.7004570079858468
 21
9.1981793783568264
 31
0.0
  0
LINE
  5
1D5
100
AcDbEntity
  8
0
  6
CONTINUOUS
 62
               2
100
AcDbLine
 10
4.1414213562374016
 20
4.9414213562378109
 30
0.0
 11
3.6977510351042611
 21
5.3850916773709514
 31
0.0
  0
LINE
  5
1D6
100
AcDbEntity
  8
0
  6
CONTINUOUS
 62
               2
100
AcDbLine
 10
4.1414213562374016
 20
4.9414213562378109
 30
0.0
 11
4.6027322379635507
 21
5.4027322379638463
 31
0.0
  0
LINE
  5
1D7
100
AcDbEntity
  8
0
  6
CONTINUOUS
 62
               2
100
AcDbLine
 10
4.0
 20
4.8000000000004093
 30
0.0
 11
3.5500000000000682
 21
5.2500000000003411
 31
0.0
  0
LINE
  5
1D8
100
AcDbEntity
  8
0
  6
CONTINUOUS
 62
               2
100
AcDbLine
 10
3.5500000000000682
 20
4.3500000000005912
 30
0.0
 11
4.0
 21
4.8000000000004093
 31
0.0
  0
LINE
  5
1D9
100
AcDbEntity
  8
0
  6
CONTINUOUS
 62
               2
100
AcDbLine
 10
4.5057523985739181
 20
4.2942476014267186
 30
0.0
 11
4.1414213562374016
 21
4.6585786437630077
 31
0.0
  0
LINE
  5
1DA
100
AcDbEntity
  8
0
  6
CONTINUOUS
 62
               2
100
AcDbLine
 10
3.5855576039715515
 20
4.1027148914974987
 30
0.0
 11
4.1414213562374016
 21
4.6585786437630077
 31
0.0
  0
LINE
  5
1DB
100
AcDbEntity
  8
0
  6
CONTINUOUS
 62
               2
100
AcDbLine
 10
2.2602481176591027
 20
4.3500000000005912
 30
0.0
 11
2.3389879148323871
 21
5.2500000000003411
 31
0.0
  0
LINE
  5
1DC
100
AcDbEntity
  8
0
  6
CONTINUOUS
 62
               2
100
AcDbLine
 10
2.5397518823411929
 20
5.2500000000003411
 30
0.0
 11
2.4610120851679085
 21
4.3500000000005912
 31
0.0
  0
LINE
  5
1DD
100
AcDbEntity
  8
0
  6
CONTINUOUS
 62
               2
100
AcDbLine
 10
3.5500000000000682
 20
5.2500000000003411
 30
0.0
 11
2.5397518823411929
 21
5.2500000000003411
 31
0.0
  0
LINE
  5
1DE
100
AcDbEntity
  8
0
  6
CONTINUOUS
 62
               2
100
AcDbLine
 10
2.4610120851679085
 20
4.3500000000005912
 30
0.0
 11
3.5500000000000682
 21
4.3500000000005912
 31
0.0
  0
LINE
  5
1DF
100
AcDbEntity
  8
0
  6
CONTINUOUS
 62
               2
100
AcDbLine
 10
3.9400833784388851
 20
8.1549630363351753
 30
0.0
 11
3.6977510351042611
 21
5.3850916773709514
 31
0.0
  0
LINE
  5
1E0
100
AcDbEntity
  8
0
  6
CONTINUOUS
 62
               2
100
AcDbLine
 10
4.6027322379635507
 20
5.4027322379638463
 30
0.0
 11
4.8961420843779706
 21
8.7564221286268094
 31
0.0
  0
LINE
  5
1E1
100
AcDbEntity
  8
0
  6
CONTINUOUS
 62
               2
100
AcDbLine
 10
7.2851203421039372
 20
8.4000000000003183
 30
0.0
 11
9.5022776296294751
 21
8.4000000000003183
 31
0.0
  0
LINE
  5
1E2
100
AcDbEntity
  8
0
  6
CONTINUOUS
 62
               2
100
AcDbLine
 10
9.1499999999999773
 20
5.2500000000003411
 30
0.0
 11
8.1397518823409882
 21
5.2500000000003411
 31
0.0
  0
LINE
  5
1E3
100
AcDbEntity
  8
0
  6
CONTINUOUS
 62
               2
100
AcDbLine
 10
8.0610120851678175
 20
4.3500000000005912
 30
0.0
 11
9.1499999999999773
 21
4.3500000000005912
 31
0.0
  0
LINE
  5
1E4
100
AcDbEntity
  8
0
  6
CONTINUOUS
 62
               2
100
AcDbLine
 10
9.9980447353319732
 20
9.3000000000006366
 30
0.0
 11
6.7018645728752517
 21
9.3000000000004093
 31
0.0
  0
LINE
  5
1E5
100
AcDbEntity
  8
0
  6
CONTINUOUS
 62
               2
100
AcDbLine
 10
7.8602481176591255
 20
4.3500000000005912
 30
0.0
 11
7.9389879148324098
 21
5.2500000000003411
 31
0.0
  0
LINE
  5
1E6
100
AcDbEntity
  8
0
  6
CONTINUOUS
 62
               2
100
AcDbLine
 10
8.1397518823409882
 20
5.2500000000003411
 30
0.0
 11
8.0610120851678175
 21
4.3500000000005912
 31
0.0
  0
ARC
  5
1E7
100
AcDbEntity
  8
0
  6
CONTINUOUS
 62
               2
100
AcDbCircle
 10
6.7018645728752517
 20
8.8000000000004093
 30
0.0
 40
0.5
100
AcDbArc
 50
90.0
 51
119.97960887575078
  0
ARC
  5
1E8
100
AcDbEntity
  8
0
  6
CONTINUOUS
 62
               2
100
AcDbCircle
 10
6.7018645728752517
 20
8.8000000000004093
 30
0.0
 40
0.5
100
AcDbArc
 50
143.096294621807
 51
175.00000000000011
  0
LINE
  5
1E9
100
AcDbEntity
  8
0
  6
CONTINUOUS
 62
               2
100
AcDbLine
 10
7.0630777235252253
 20
8.3391999061045681
 30
0.0
 11
6.3020416593709569
 21
9.1002359702586091
 31
0.0
  0
LINE
  5
1EA
100
AcDbEntity
  8
0
  6
CONTINUOUS
 62
               2
100
AcDbLine
 10
5.7972677620365403
 20
4.1972677620373133
 30
0.0
 11
6.2585786437626894
 21
4.6585786437630077
 31
0.0
  0
LINE
  5
1EB
100
AcDbEntity
  8
0
  6
CONTINUOUS
 62
               2
100
AcDbLine
 10
6.2585786437626894
 20
4.9414213562378109
 30
0.0
 11
5.8942476014261729
 21
5.3057523985742137
 31
0.0
  0
LINE
  5
1EC
100
AcDbEntity
  8
0
  6
CONTINUOUS
 62
               2
100
AcDbLine
 10
6.2585786437626894
 20
4.9414213562378109
 30
0.0
 11
6.8144423960284257
 21
5.4972851085032062
 31
0.0
  0
LINE
  5
1ED
100
AcDbEntity
  8
0
  6
CONTINUOUS
 62
               2
100
AcDbLine
 10
6.3999999999999773
 20
4.8000000000004093
 30
0.0
 11
6.8500000000000227
 21
5.2500000000003411
 31
0.0
  0
LINE
  5
1EE
100
AcDbEntity
  8
0
  6
CONTINUOUS
 62
               2
100
AcDbLine
 10
6.8499999999999091
 20
4.3500000000005912
 30
0.0
 11
6.3999999999999773
 21
4.8000000000004093
 31
0.0
  0
LINE
  5
1EF
100
AcDbEntity
  8
0
  6
CONTINUOUS
 62
               2
100
AcDbLine
 10
6.7022489648957162
 20
4.2149083226302082
 30
0.0
 11
6.2585786437626894
 21
4.6585786437630077
 31
0.0
  0
LINE
  5
1F0
100
AcDbEntity
  8
0
  6
CONTINUOUS
 62
               2
100
AcDbLine
 10
6.8144423960284257
 20
5.4972851085032062
 30
0.0
 11
7.0630777235252253
 21
8.3391999061045681
 31
0.0
  0
LINE
  5
1F1
100
AcDbEntity
  8
0
  6
CONTINUOUS
 62
               2
100
AcDbLine
 10
6.203767223829459
 20
8.8435778713741229
 30
0.0
 11
5.8942476014261729
 21
5.3057523985742137
 31
0.0
  0
LINE
  5
1F2
100
AcDbEntity
  8
0
  6
CONTINUOUS
 62
               2
100
AcDbLine
 10
6.8500000000000227
 20
5.2500000000003411
 30
0.0
 11
7.9389879148324098
 21
5.2500000000003411
 31
0.0
  0
LINE
  5
1F3
100
AcDbEntity
  8
0
  6
CONTINUOUS
 62
               2
100
AcDbLine
 10
7.8602481176591255
 20
4.3500000000005912
 30
0.0
 11
6.8499999999999091
 21
4.3500000000005912
 31
0.0
  0
LINE
  5
1F4
100
AcDbEntity
  8
0
  6
CONTINUOUS
 62
               2
100
AcDbLine
 10
6.4520186945719615
 20
9.233101647532294
 30
0.0
 11
7.2851203421039372
 21
8.4000000000003183
 31
0.0
  0
ARC
  5
1F5
100
AcDbEntity
  8
0
  6
CONTINUOUS
 62
               2
100
AcDbCircle
 10
9.9980447353319732
 20
8.8000000000004093
 30
0.0
 40
0.5
100
AcDbArc
 50
355.00000000000028
 51
29.658901664421379
  0
ARC
  5
1F6
100
AcDbEntity
  8
0
  6
CONTINUOUS
 62
               2
100
AcDbCircle
 10
9.9980447353319732
 20
8.8000000000004093
 30
0.0
 40
0.5
100
AcDbArc
 50
52.783782654485918
 51
90.0
  0
LINE
  5
1F7
100
AcDbEntity
  8
0
  6
CONTINUOUS
 62
               2
100
AcDbLine
 10
10.432538077370282
 20
9.0474177352668903
 30
0.0
 11
9.5400833784389079
 21
8.1549630363351753
 31
0.0
  0
LINE
  5
1F8
100
AcDbEntity
  8
0
  6
CONTINUOUS
 62
               2
100
AcDbLine
 10
9.5022776296294751
 20
8.4000000000003183
 30
0.0
 11
10.300457007985756
 21
9.1981793783568264
 31
0.0
  0
LINE
  5
1F9
100
AcDbEntity
  8
0
  6
CONTINUOUS
 62
               2
100
AcDbLine
 10
9.741421356237197
 20
4.9414213562378109
 30
0.0
 11
10.202732237963346
 21
5.4027322379638463
 31
0.0
  0
LINE
  5
1FA
100
AcDbEntity
  8
0
  6
CONTINUOUS
 62
               2
100
AcDbLine
 10
10.105752398573713
 20
4.2942476014267186
 30
0.0
 11
9.741421356237197
 21
4.6585786437630077
 31
0.0
  0
LINE
  5
1FB
100
AcDbEntity
  8
0
  6
CONTINUOUS
 62
               2
100
AcDbLine
 10
9.6000000000000227
 20
4.8000000000004093
 30
0.0
 11
9.1499999999999773
 21
5.2500000000003411
 31
0.0
  0
LINE
  5
1FC
100
AcDbEntity
  8
0
  6
CONTINUOUS
 62
               2
100
AcDbLine
 10
9.1499999999999773
 20
4.3500000000005912
 30
0.0
 11
9.6000000000000227
 21
4.8000000000004093
 31
0.0
  0
LINE
  5
1FD
100
AcDbEntity
  8
0
  6
CONTINUOUS
 62
               2
100
AcDbLine
 10
9.741421356237197
 20
4.9414213562378109
 30
0.0
 11
9.2977510351041701
 21
5.3850916773709514
 31
0.0
  0
LINE
  5
1FE
100
AcDbEntity
  8
0
  6
CONTINUOUS
 62
               2
100
AcDbLine
 10
9.1855576039714606
 20
4.1027148914974987
 30
0.0
 11
9.741421356237197
 21
4.6585786437630077
 31
0.0
  0
LINE
  5
1FF
100
AcDbEntity
  8
0
  6
CONTINUOUS
 62
               2
100
AcDbLine
 10
9.5400833784389079
 20
8.1549630363351753
 30
0.0
 11
9.2977510351041701
 21
5.3850916773709514
 31
0.0
  0
LINE
  5
200
100
AcDbEntity
  8
0
  6
CONTINUOUS
 62
               2
100
AcDbLine
 10
10.202732237963346
 20
5.4027322379638463
 30
0.0
 11
10.49614208437788
 21
8.7564221286268094
 31
0.0
  0
LINE
  5
201
100
AcDbEntity
  8
0
  6
CONTINUOUS
 62
               7
100
AcDbLine
 10
15.0
 20
-30.0
 30
0.0
 11
15.0
 21
13.5
 31
0.0
  0
LINE
  5
202
100
AcDbEntity
  8
0
  6
CONTINUOUS
 62
               7
100
AcDbLine
 10
12.800000000000068
 20
-6.8999999999993946
 30
0.0
 11
12.800000000000068
 21
11.700000000000387
 31
0.0
  0
ARC
  5
203
100
AcDbEntity
  8
0
  6
CONTINUOUS
 62
               7
100
AcDbCircle
 10
13.5
 20
-13.500000000000213
 30
0.0
 40
1.5
100
AcDbArc
 50
270.0
 51
0.0
  0
ARC
  5
204
100
AcDbEntity
  8
0
  6
CONTINUOUS
 62
               7
100
AcDbCircle
 10
13.5
 20
13.5
 30
0.0
 40
1.5
100
AcDbArc
 50
0.0
 51
90.0
  0
LINE
  5
205
100
AcDbEntity
  8
0
  6
CONTINUOUS
 62
               7
100
AcDbLine
 10
-6.4750000000000227
 20
-19.499999999999773
 30
0.0
 11
-6.4750000000000227
 21
-15.000000000000071
 31
0.0
  0
LINE
  5
206
100
AcDbEntity
  8
0
  6
CONTINUOUS
 62
               7
100
AcDbLine
 10
6.4749999999999091
 20
-15.000000000000242
 30
0.0
 11
6.4749999999999091
 21
-19.499999999999773
 31
0.0
  0
LINE
  5
207
100
AcDbEntity
  8
0
  6
CONTINUOUS
 62
               7
100
AcDbLine
 10
-1.4750000000000227
 20
-24.499999999999773
 30
0.0
 11
1.4750000000000227
 21
-24.499999999999773
 31
0.0
  0
ARC
  5
208
100
AcDbEntity
  8
0
  6
CONTINUOUS
 62
               7
100
AcDbCircle
 10
1.4750000000000227
 20
-19.499999999999773
 30
0.0
 40
5.0
100
AcDbArc
 50
270.0
 51
0.0
  0
LINE
  5
209
100
AcDbEntity
  8
0
  6
CONTINUOUS
 62
               7
100
AcDbLine
 10
-15.0
 20
-30.0
 30
0.0
 11
15.0
 21
-30.0
 31
0.0
  0
ARC
  5
20A
100
AcDbEntity
  8
0
  6
CONTINUOUS
 62
               7
100
AcDbCircle
 10
-1.4750000000000227
 20
-19.499999999999773
 30
0.0
 40
5.0
100
AcDbArc
 50
180.0
 51
270.0
  0
LINE
  5
20B
100
AcDbEntity
  8
0
  6
CENTER
 62
               2
100
AcDbLine
 10
11.025000000000091
 20
-27.0
 30
0.0
 11
11.025000000000091
 21
-33.0
 31
0.0
  0
LINE
  5
20C
100
AcDbEntity
  8
0
  6
CENTER
 62
               2
100
AcDbLine
 10
-10.974999999999909
 20
-27.0
 30
0.0
 11
-10.974999999999909
 21
-33.0
 31
0.0
  0
LINE
  5
20D
100
AcDbEntity
  8
0
  6
CENTER
 62
               2
100
AcDbLine
 10
0.0
 20
20.0
 30
0.0
 11
0.0
 21
-35.0
 31
0.0
  0
ENDBLK
  5
20E
100
AcDbEntity
  8
0
100
AcDbBlockEnd
  0
BLOCK
  5
20F
100
AcDbEntity
  8
0
100
AcDbBlockBegin
  2
MS_2
 70
               0
 10
0.0
 20
0.0
 30
0.0
  3
MS_2
  1

  0
LINE
  5
210
100
AcDbEntity
  8
0
  6
CENTER
 62
               2
100
AcDbLine
 10
3.5300000622499659
 20
23.0
 30
0.0
 11
3.5300000622499668
 21
37.0
 31
0.0
  0
LINE
  5
211
100
AcDbEntity
  8
0
  6
CONTINUOUS
 62
               7
100
AcDbLine
 10
-29.899999937749612
 20
40.999999999999773
 30
0.0
 11
-27.099999937749772
 21
40.999999999999773
 31
0.0
  0
LINE
  5
212
100
AcDbEntity
  8
0
  6
CONTINUOUS
 62
               7
100
AcDbLine
 10
-29.89999993774984
 20
36.999999999999773
 30
0.0
 11
-27.099999937749999
 21
36.999999999999773
 31
0.0
  0
LINE
  5
213
100
AcDbEntity
  8
0
  6
CONTINUOUS
 62
               7
100
AcDbLine
 10
-29.89999993774984
 20
23.000000000000128
 30
0.0
 11
-27.099999937749999
 21
23.000000000000128
 31
0.0
  0
LINE
  5
214
100
AcDbEntity
  8
0
  6
CONTINUOUS
 62
               7
100
AcDbLine
 10
-29.899999937749612
 20
19.000000000000128
 30
0.0
 11
-27.099999937749772
 21
19.000000000000128
 31
0.0
  0
LINE
  5
215
100
AcDbEntity
  8
0
  6
CONTINUOUS
 62
               7
100
AcDbLine
 10
-12.799999937749817
 20
14.999999999998877
 30
0.0
 11
-34.199999937749908
 21
15.000000000000242
 31
0.0
  0
LINE
  5
216
100
AcDbEntity
  8
0
  6
CONTINUOUS
 62
               7
100
AcDbLine
 10
-12.799999937749817
 20
45.000000000000341
 30
0.0
 11
-34.199999937750022
 21
44.999999999999773
 31
0.0
  0
LINE
  5
217
100
AcDbEntity
  8
0
  6
CONTINUOUS
 62
               7
100
AcDbLine
 10
-34.999999937749976
 20
44.199999999999591
 30
0.0
 11
-34.999999937749863
 21
15.800000000000196
 31
0.0
  0
ARC
  5
218
100
AcDbEntity
  8
0
  6
CONTINUOUS
 62
               7
100
AcDbCircle
 10
-35.123693319768449
 20
21.535959179421312
 30
0.0
 40
0.38
100
AcDbArc
 50
105.02701423981041
 51
169.37767259105459
  0
LINE
  5
219
100
AcDbEntity
  8
0
  6
CONTINUOUS
 62
               7
100
AcDbLine
 10
-36.199999937749794
 20
17.199999999999378
 30
0.0
 11
-34.999999937749976
 21
17.199999999999605
 31
0.0
  0
LINE
  5
21A
100
AcDbEntity
  8
0
  6
CONTINUOUS
 62
               7
100
AcDbLine
 10
-36.199999937749794
 20
20.399999999999878
 30
0.0
 11
-34.999999937749976
 21
20.399999999999878
 31
0.0
  0
ARC
  5
21B
100
AcDbEntity
  8
0
  6
CONTINUOUS
 62
               7
100
AcDbCircle
 10
-35.999999937749976
 20
15.751000400322155
 30
0.0
 40
1.0
100
AcDbArc
 50
0.0
 51
51.317812546491446
  0
ARC
  5
21C
100
AcDbEntity
  8
0
  6
CONTINUOUS
 62
               7
100
AcDbCircle
 10
-29.599999937749885
 20
20.499999999999446
 30
0.0
 40
6.0
100
AcDbArc
 50
169.37767259126031
 51
180.0
  0
LINE
  5
21D
100
AcDbEntity
  8
0
  6
CONTINUOUS
 62
               7
100
AcDbLine
 10
-36.499999937749863
 20
20.099999999999923
 30
0.0
 11
-36.499999937749863
 21
17.499999999999218
 31
0.0
  0
ARC
  5
21E
100
AcDbEntity
  8
0
  6
CONTINUOUS
 62
               7
100
AcDbCircle
 10
-36.199999937749908
 20
17.499999999999218
 30
0.0
 40
0.3
100
AcDbArc
 50
180.0
 51
270.00000000000961
  0
ARC
  5
21F
100
AcDbEntity
  8
0
  6
CONTINUOUS
 62
               7
100
AcDbCircle
 10
-36.199999937749908
 20
20.099999999999923
 30
0.0
 40
0.3
100
AcDbArc
 50
89.999999999990223
 51
180.0
  0
ARC
  5
220
100
AcDbEntity
  8
0
  6
CONTINUOUS
 62
               7
100
AcDbCircle
 10
-34.999999937749976
 20
17.000000000000924
 30
0.0
 40
0.6
100
AcDbArc
 50
180.0
 51
231.31781254649133
  0
LINE
  5
221
100
AcDbEntity
  8
0
  6
CONTINUOUS
 62
               7
100
AcDbLine
 10
-35.599999937749885
 20
20.499999999999446
 30
0.0
 11
-35.599999937749885
 21
20.399999999999878
 31
0.0
  0
LINE
  5
222
100
AcDbEntity
  8
0
  6
CONTINUOUS
 62
               7
100
AcDbLine
 10
-35.599999937749885
 20
17.199999999999378
 30
0.0
 11
-35.599999937749885
 21
17.000000000000924
 31
0.0
  0
ARC
  5
223
100
AcDbEntity
  8
0
  6
CONTINUOUS
 62
               7
100
AcDbCircle
 10
-34.199999937749908
 20
15.800000000000196
 30
0.0
 40
0.8
100
AcDbArc
 50
180.0
 51
269.99999999999659
  0
ARC
  5
224
100
AcDbEntity
  8
0
  6
CONTINUOUS
 62
               7
100
AcDbCircle
 10
-35.299999937749931
 20
22.192705687957428
 30
0.0
 40
0.3
100
AcDbArc
 50
285.02701423980881
 51
0.0
  0
LINE
  5
225
100
AcDbEntity
  8
0
  6
CONTINUOUS
 62
               7
100
AcDbLine
 10
-28.399999937749612
 20
22.999999999999673
 30
0.0
 11
-28.39999993774984
 21
18.999999999999673
 31
0.0
  0
LINE
  5
226
100
AcDbEntity
  8
0
  6
CONTINUOUS
 62
               7
100
AcDbLine
 10
-29.199999937749567
 20
22.999999999999673
 30
0.0
 11
-29.199999937749794
 21
18.999999999999673
 31
0.0
  0
LINE
  5
227
100
AcDbEntity
  8
0
  6
CONTINUOUS
 62
               7
100
AcDbLine
 10
-29.999999937749635
 20
19.099999999999923
 30
0.0
 11
-29.999999937749863
 21
22.899999999999991
 31
0.0
  0
ARC
  5
228
100
AcDbEntity
  8
0
  6
CONTINUOUS
 62
               7
100
AcDbCircle
 10
-29.899999937749612
 20
19.099999999999923
 30
0.0
 40
0.1
100
AcDbArc
 50
180.0
 51
270.0
  0
ARC
  5
229
100
AcDbEntity
  8
0
  6
CONTINUOUS
 62
               7
100
AcDbCircle
 10
-29.89999993774984
 20
22.899999999999991
 30
0.0
 40
0.1
100
AcDbArc
 50
90.0
 51
180.0
  0
LINE
  5
22A
100
AcDbEntity
  8
0
  6
CONTINUOUS
 62
               7
100
AcDbLine
 10
-29.199999937749567
 20
40.999999999999773
 30
0.0
 11
-29.199999937749794
 21
36.999999999999773
 31
0.0
  0
LINE
  5
22B
100
AcDbEntity
  8
0
  6
CONTINUOUS
 62
               7
100
AcDbLine
 10
-28.399999937749612
 20
40.999999999999773
 30
0.0
 11
-28.39999993774984
 21
36.999999999999773
 31
0.0
  0
LINE
  5
22C
100
AcDbEntity
  8
0
  6
CONTINUOUS
 62
               7
100
AcDbLine
 10
-29.999999937749635
 20
40.899999999999977
 30
0.0
 11
-29.999999937749863
 21
37.099999999999909
 31
0.0
  0
ARC
  5
22D
100
AcDbEntity
  8
0
  6
CONTINUOUS
 62
               7
100
AcDbCircle
 10
-29.89999993774984
 20
37.099999999999909
 30
0.0
 40
0.1
100
AcDbArc
 50
180.0
 51
270.0
  0
ARC
  5
22E
100
AcDbEntity
  8
0
  6
CONTINUOUS
 62
               7
100
AcDbCircle
 10
-29.899999937749612
 20
40.899999999999977
 30
0.0
 40
0.1
100
AcDbArc
 50
90.0
 51
180.0
  0
ARC
  5
22F
100
AcDbEntity
  8
0
  6
CONTINUOUS
 62
               7
100
AcDbCircle
 10
-34.199999937750022
 20
44.199999999999591
 30
0.0
 40
0.8
100
AcDbArc
 50
90.000000000001606
 51
180.0
  0
LINE
  5
230
100
AcDbEntity
  8
0
  6
CONTINUOUS
 62
               7
100
AcDbLine
 10
-7.4999999377500899
 20
36.0
 30
0.0
 11
-2.535898256374594
 21
36.0
 31
0.0
  0
LINE
  5
231
100
AcDbEntity
  8
0
  6
CONTINUOUS
 62
               7
100
AcDbLine
 10
-2.0358979377500646
 20
30.0
 30
0.0
 11
-7.4999999377500899
 21
30.0
 31
0.0
  0
LINE
  5
232
100
AcDbEntity
  8
0
  6
CONTINUOUS
 62
               7
100
AcDbLine
 10
-7.4999999377500899
 20
24.000000000000014
 30
0.0
 11
-2.535898256374594
 21
24.000000000000014
 31
0.0
  0
LINE
  5
233
100
AcDbEntity
  8
0
  6
CONTINUOUS
 62
               7
100
AcDbLine
 10
-12.799999937749817
 20
45.000000000000341
 30
0.0
 11
-12.79999993774959
 21
36.300000000000182
 31
0.0
  0
LINE
  5
234
100
AcDbEntity
  8
0
  6
CONTINUOUS
 62
               7
100
AcDbLine
 10
-12.499999937749976
 20
45.000000000000227
 30
0.0
 11
-12.499999937750204
 21
36.399999999999977
 31
0.0
  0
LINE
  5
235
100
AcDbEntity
  8
0
  6
CONTINUOUS
 62
               7
100
AcDbLine
 10
-21.699999937749908
 20
30.500000000000455
 30
0.0
 11
-12.799999937749931
 21
30.500000000000455
 31
0.0
  0
LINE
  5
236
100
AcDbEntity
  8
0
  6
CONTINUOUS
 62
               7
100
AcDbLine
 10
-21.699999937749908
 20
29.499999999999659
 30
0.0
 11
-12.799999937749931
 21
29.499999999999659
 31
0.0
  0
LINE
  5
237
100
AcDbEntity
  8
0
  6
CONTINUOUS
 62
               7
100
AcDbLine
 10
-21.699999937749908
 20
24.699999999999605
 30
0.0
 11
-12.799999937749931
 21
24.699999999999605
 31
0.0
  0
LINE
  5
238
100
AcDbEntity
  8
0
  6
CONTINUOUS
 62
               7
100
AcDbLine
 10
-21.699999937749908
 20
35.300000000000182
 30
0.0
 11
-12.799999937749931
 21
35.300000000000182
 31
0.0
  0
LINE
  5
239
100
AcDbEntity
  8
0
  6
CONTINUOUS
 62
               7
100
AcDbLine
 10
-19.699999937749908
 20
24.699999999999605
 30
0.0
 11
-19.699999937749908
 21
29.499999999999659
 31
0.0
  0
LINE
  5
23A
100
AcDbEntity
  8
0
  6
CONTINUOUS
 62
               7
100
AcDbLine
 10
-19.799999937749703
 20
24.699999999999605
 30
0.0
 11
-19.799999937749817
 21
29.499999999999659
 31
0.0
  0
LINE
  5
23B
100
AcDbEntity
  8
0
  6
CONTINUOUS
 62
               7
100
AcDbLine
 10
-21.699999937749908
 20
24.699999999999605
 30
0.0
 11
-21.699999937749908
 21
29.499999999999659
 31
0.0
  0
LINE
  5
23C
100
AcDbEntity
  8
0
  6
CONTINUOUS
 62
               7
100
AcDbLine
 10
-20.699999937749794
 20
24.699999999999605
 30
0.0
 11
-20.699999937749908
 21
29.499999999999659
 31
0.0
  0
LINE
  5
23D
100
AcDbEntity
  8
0
  6
CONTINUOUS
 62
               7
100
AcDbLine
 10
-20.799999937750044
 20
24.699999999999605
 30
0.0
 11
-20.799999937750044
 21
29.499999999999659
 31
0.0
  0
LINE
  5
23E
100
AcDbEntity
  8
0
  6
CONTINUOUS
 62
               7
100
AcDbLine
 10
-18.699999937749908
 20
24.699999999999605
 30
0.0
 11
-18.699999937749908
 21
29.499999999999659
 31
0.0
  0
LINE
  5
23F
100
AcDbEntity
  8
0
  6
CONTINUOUS
 62
               7
100
AcDbLine
 10
-17.699999937749908
 20
24.699999999999605
 30
0.0
 11
-17.699999937749908
 21
29.499999999999659
 31
0.0
  0
LINE
  5
240
100
AcDbEntity
  8
0
  6
CONTINUOUS
 62
               7
100
AcDbLine
 10
-17.799999937750044
 20
24.699999999999605
 30
0.0
 11
-17.799999937750044
 21
29.499999999999659
 31
0.0
  0
LINE
  5
241
100
AcDbEntity
  8
0
  6
CONTINUOUS
 62
               7
100
AcDbLine
 10
-18.799999937750044
 20
24.699999999999605
 30
0.0
 11
-18.799999937750044
 21
29.499999999999659
 31
0.0
  0
LINE
  5
242
100
AcDbEntity
  8
0
  6
CONTINUOUS
 62
               7
100
AcDbLine
 10
-26.999999937749863
 20
19.099999999999923
 30
0.0
 11
-26.999999937749976
 21
22.899999999999991
 31
0.0
  0
ARC
  5
243
100
AcDbEntity
  8
0
  6
CONTINUOUS
 62
               7
100
AcDbCircle
 10
-27.099999937749772
 20
19.099999999999923
 30
0.0
 40
0.1
100
AcDbArc
 50
270.0
 51
0.0
  0
ARC
  5
244
100
AcDbEntity
  8
0
  6
CONTINUOUS
 62
               7
100
AcDbCircle
 10
-27.099999937749999
 20
22.899999999999991
 30
0.0
 40
0.1
100
AcDbArc
 50
0.0
 51
90.0
  0
ARC
  5
245
100
AcDbEntity
  8
0
  6
CONTINUOUS
 62
               7
100
AcDbCircle
 10
-27.099999937749772
 20
40.899999999999977
 30
0.0
 40
0.1
100
AcDbArc
 50
0.0
 51
90.0
  0
ARC
  5
246
100
AcDbEntity
  8
0
  6
CONTINUOUS
 62
               7
100
AcDbCircle
 10
-27.099999937749999
 20
37.099999999999909
 30
0.0
 40
0.1
100
AcDbArc
 50
270.0
 51
0.0
  0
LINE
  5
247
100
AcDbEntity
  8
0
  6
CONTINUOUS
 62
               7
100
AcDbLine
 10
-26.999999937749863
 20
40.899999999999977
 30
0.0
 11
-26.999999937749976
 21
37.099999999999909
 31
0.0
  0
LINE
  5
248
100
AcDbEntity
  8
0
  6
CONTINUOUS
 62
               7
100
AcDbLine
 10
-21.699999937749908
 20
35.300000000000182
 30
0.0
 11
-21.699999937749908
 21
30.500000000000455
 31
0.0
  0
LINE
  5
249
100
AcDbEntity
  8
0
  6
CONTINUOUS
 62
               7
100
AcDbLine
 10
-20.699999937749794
 20
35.300000000000182
 30
0.0
 11
-20.699999937749908
 21
30.500000000000455
 31
0.0
  0
LINE
  5
24A
100
AcDbEntity
  8
0
  6
CONTINUOUS
 62
               7
100
AcDbLine
 10
-20.799999937750044
 20
35.300000000000182
 30
0.0
 11
-20.799999937750044
 21
30.500000000000455
 31
0.0
  0
LINE
  5
24B
100
AcDbEntity
  8
0
  6
CONTINUOUS
 62
               7
100
AcDbLine
 10
-18.699999937749908
 20
35.300000000000182
 30
0.0
 11
-18.699999937749908
 21
30.500000000000455
 31
0.0
  0
LINE
  5
24C
100
AcDbEntity
  8
0
  6
CONTINUOUS
 62
               7
100
AcDbLine
 10
-17.699999937749908
 20
35.300000000000182
 30
0.0
 11
-17.699999937749908
 21
30.500000000000455
 31
0.0
  0
LINE
  5
24D
100
AcDbEntity
  8
0
  6
CONTINUOUS
 62
               7
100
AcDbLine
 10
-17.799999937750044
 20
35.300000000000182
 30
0.0
 11
-17.799999937750044
 21
30.500000000000455
 31
0.0
  0
LINE
  5
24E
100
AcDbEntity
  8
0
  6
CONTINUOUS
 62
               7
100
AcDbLine
 10
-18.799999937750044
 20
35.300000000000182
 30
0.0
 11
-18.799999937750044
 21
30.500000000000455
 31
0.0
  0
LINE
  5
24F
100
AcDbEntity
  8
0
  6
CONTINUOUS
 62
               7
100
AcDbLine
 10
-19.699999937749908
 20
35.300000000000182
 30
0.0
 11
-19.699999937749908
 21
30.500000000000455
 31
0.0
  0
LINE
  5
250
100
AcDbEntity
  8
0
  6
CONTINUOUS
 62
               7
100
AcDbLine
 10
-19.799999937749703
 20
35.300000000000182
 30
0.0
 11
-19.799999937749817
 21
30.500000000000455
 31
0.0
  0
LINE
  5
251
100
AcDbEntity
  8
0
  6
CONTINUOUS
 62
               7
100
AcDbLine
 10
-15.699999937749794
 20
24.699999999999605
 30
0.0
 11
-15.699999937749908
 21
29.499999999999659
 31
0.0
  0
LINE
  5
252
100
AcDbEntity
  8
0
  6
CONTINUOUS
 62
               7
100
AcDbLine
 10
-15.799999937749817
 20
24.699999999999605
 30
0.0
 11
-15.799999937749817
 21
29.499999999999659
 31
0.0
  0
LINE
  5
253
100
AcDbEntity
  8
0
  6
CONTINUOUS
 62
               7
100
AcDbLine
 10
-12.799999937749817
 20
24.699999999999605
 30
0.0
 11
-12.799999937749931
 21
29.499999999999659
 31
0.0
  0
LINE
  5
254
100
AcDbEntity
  8
0
  6
CONTINUOUS
 62
               7
100
AcDbLine
 10
-14.699999937749794
 20
24.699999999999605
 30
0.0
 11
-14.699999937749908
 21
29.499999999999659
 31
0.0
  0
LINE
  5
255
100
AcDbEntity
  8
0
  6
CONTINUOUS
 62
               7
100
AcDbLine
 10
-13.699999937749794
 20
24.699999999999605
 30
0.0
 11
-13.699999937749908
 21
29.499999999999659
 31
0.0
  0
LINE
  5
256
100
AcDbEntity
  8
0
  6
CONTINUOUS
 62
               7
100
AcDbLine
 10
-13.799999937749703
 20
24.699999999999605
 30
0.0
 11
-13.799999937750044
 21
29.499999999999659
 31
0.0
  0
LINE
  5
257
100
AcDbEntity
  8
0
  6
CONTINUOUS
 62
               7
100
AcDbLine
 10
-14.799999937749817
 20
24.699999999999605
 30
0.0
 11
-14.799999937749817
 21
29.499999999999659
 31
0.0
  0
LINE
  5
258
100
AcDbEntity
  8
0
  6
CONTINUOUS
 62
               7
100
AcDbLine
 10
-10.699999937750249
 20
35.800000000001205
 30
0.0
 11
-10.699999937750249
 21
24.199999999998923
 31
0.0
  0
LINE
  5
259
100
AcDbEntity
  8
0
  6
CONTINUOUS
 62
               7
100
AcDbLine
 10
-10.999999937749976
 20
24.299999999998832
 30
0.0
 11
-10.999999937749976
 21
35.700000000001069
 31
0.0
  0
LINE
  5
25A
100
AcDbEntity
  8
0
  6
CONTINUOUS
 62
               7
100
AcDbLine
 10
-16.699999937749794
 20
24.699999999999605
 30
0.0
 11
-16.699999937749908
 21
29.499999999999659
 31
0.0
  0
LINE
  5
25B
100
AcDbEntity
  8
0
  6
CONTINUOUS
 62
               7
100
AcDbLine
 10
-16.799999937750044
 20
24.699999999999605
 30
0.0
 11
-16.799999937750044
 21
29.499999999999659
 31
0.0
  0
ARC
  5
25C
100
AcDbEntity
  8
0
  6
CONTINUOUS
 62
               7
100
AcDbCircle
 10
-12.499999937749521
 20
23.699999999999605
 30
0.0
 40
0.3
100
AcDbArc
 50
90.0
 51
180.0
  0
LINE
  5
25D
100
AcDbEntity
  8
0
  6
CONTINUOUS
 62
               7
100
AcDbLine
 10
-12.799999937750044
 20
16.000000000000696
 30
0.0
 11
-12.499999937749976
 21
16.000000000000696
 31
0.0
  0
LINE
  5
25E
100
AcDbEntity
  8
0
  6
CONTINUOUS
 62
               7
100
AcDbLine
 10
-12.799999937749817
 20
14.999999999998877
 30
0.0
 11
-12.79999993774959
 21
23.699999999999605
 31
0.0
  0
LINE
  5
25F
100
AcDbEntity
  8
0
  6
CONTINUOUS
 62
               7
100
AcDbLine
 10
-12.499999937749976
 20
14.999999999999673
 30
0.0
 11
-12.499999937750204
 21
23.59999999999981
 31
0.0
  0
LINE
  5
260
100
AcDbEntity
  8
0
  6
CONTINUOUS
 62
               7
100
AcDbLine
 10
-9.7999999377500444
 20
14.999999999999673
 30
0.0
 11
-12.499999937749976
 21
14.999999999999673
 31
0.0
  0
ARC
  5
261
100
AcDbEntity
  8
0
  6
CONTINUOUS
 62
               7
100
AcDbCircle
 10
-9.7999999377499307
 20
15.299999999999741
 30
0.0
 40
0.3
100
AcDbArc
 50
270.0
 51
0.0
  0
ARC
  5
262
100
AcDbEntity
  8
0
  6
CONTINUOUS
 62
               7
100
AcDbCircle
 10
-11.299999937749817
 20
24.299999999998832
 30
0.0
 40
0.3
100
AcDbArc
 50
270.0
 51
0.0
  0
LINE
  5
263
100
AcDbEntity
  8
0
  6
CONTINUOUS
 62
               7
100
AcDbLine
 10
-12.199999937750249
 20
23.899999999999764
 30
0.0
 11
-10.99999993775009
 21
23.899999999999991
 31
0.0
  0
ARC
  5
264
100
AcDbEntity
  8
0
  6
CONTINUOUS
 62
               7
100
AcDbCircle
 10
-12.199999937750249
 20
23.59999999999981
 30
0.0
 40
0.3
100
AcDbArc
 50
90.0
 51
180.0
  0
LINE
  5
265
100
AcDbEntity
  8
0
  6
CONTINUOUS
 62
               7
100
AcDbLine
 10
-12.499999937749635
 20
23.999999999999787
 30
0.0
 11
-11.299999937749817
 21
23.999999999999787
 31
0.0
  0
ARC
  5
266
100
AcDbEntity
  8
0
  6
CONTINUOUS
 62
               7
100
AcDbCircle
 10
-10.999999937750204
 20
24.199999999998923
 30
0.0
 40
0.3
100
AcDbArc
 50
270.0
 51
0.0
  0
ARC
  5
267
100
AcDbEntity
  8
0
  6
CONTINUOUS
 62
               7
100
AcDbCircle
 10
-12.499999937749521
 20
36.300000000000182
 30
0.0
 40
0.3
100
AcDbArc
 50
180.0
 51
270.0
  0
LINE
  5
268
100
AcDbEntity
  8
0
  6
CONTINUOUS
 62
               7
100
AcDbLine
 10
-15.699999937749794
 20
35.300000000000182
 30
0.0
 11
-15.699999937749908
 21
30.500000000000455
 31
0.0
  0
LINE
  5
269
100
AcDbEntity
  8
0
  6
CONTINUOUS
 62
               7
100
AcDbLine
 10
-15.799999937749817
 20
35.300000000000182
 30
0.0
 11
-15.799999937749817
 21
30.500000000000455
 31
0.0
  0
LINE
  5
26A
100
AcDbEntity
  8
0
  6
CONTINUOUS
 62
               7
100
AcDbLine
 10
-16.699999937749794
 20
35.300000000000182
 30
0.0
 11
-16.699999937749908
 21
30.500000000000455
 31
0.0
  0
LINE
  5
26B
100
AcDbEntity
  8
0
  6
CONTINUOUS
 62
               7
100
AcDbLine
 10
-16.799999937750044
 20
35.300000000000182
 30
0.0
 11
-16.799999937750044
 21
30.500000000000455
 31
0.0
  0
LINE
  5
26C
100
AcDbEntity
  8
0
  6
CONTINUOUS
 62
               7
100
AcDbLine
 10
-12.799999937749817
 20
35.300000000000182
 30
0.0
 11
-12.799999937749931
 21
30.500000000000455
 31
0.0
  0
LINE
  5
26D
100
AcDbEntity
  8
0
  6
CONTINUOUS
 62
               7
100
AcDbLine
 10
-14.699999937749794
 20
35.300000000000182
 30
0.0
 11
-14.699999937749908
 21
30.500000000000455
 31
0.0
  0
LINE
  5
26E
100
AcDbEntity
  8
0
  6
CONTINUOUS
 62
               7
100
AcDbLine
 10
-13.699999937749794
 20
35.300000000000182
 30
0.0
 11
-13.699999937749908
 21
30.500000000000455
 31
0.0
  0
LINE
  5
26F
100
AcDbEntity
  8
0
  6
CONTINUOUS
 62
               7
100
AcDbLine
 10
-13.799999937749703
 20
35.300000000000182
 30
0.0
 11
-13.799999937750044
 21
30.500000000000455
 31
0.0
  0
LINE
  5
270
100
AcDbEntity
  8
0
  6
CONTINUOUS
 62
               7
100
AcDbLine
 10
-14.799999937749817
 20
35.300000000000182
 30
0.0
 11
-14.799999937749817
 21
30.500000000000455
 31
0.0
  0
ARC
  5
271
100
AcDbEntity
  8
0
  6
CONTINUOUS
 62
               7
100
AcDbCircle
 10
-11.299999937749817
 20
35.700000000001069
 30
0.0
 40
0.3
100
AcDbArc
 50
0.0
 51
90.0
  0
LINE
  5
272
100
AcDbEntity
  8
0
  6
CONTINUOUS
 62
               7
100
AcDbLine
 10
-12.199999937750249
 20
36.099999999999909
 30
0.0
 11
-10.99999993775009
 21
36.099999999999909
 31
0.0
  0
ARC
  5
273
100
AcDbEntity
  8
0
  6
CONTINUOUS
 62
               7
100
AcDbCircle
 10
-12.199999937750249
 20
36.399999999999977
 30
0.0
 40
0.3
100
AcDbArc
 50
180.0
 51
269.99999999999818
  0
LINE
  5
274
100
AcDbEntity
  8
0
  6
CONTINUOUS
 62
               7
100
AcDbLine
 10
-12.499999937749635
 20
36.000000000000227
 30
0.0
 11
-11.299999937749817
 21
36.000000000000227
 31
0.0
  0
ARC
  5
275
100
AcDbEntity
  8
0
  6
CONTINUOUS
 62
               7
100
AcDbCircle
 10
-10.999999937750204
 20
35.800000000001205
 30
0.0
 40
0.3
100
AcDbArc
 50
0.0
 51
90.0
  0
LINE
  5
276
100
AcDbEntity
  8
0
  6
CONTINUOUS
 62
               7
100
AcDbLine
 10
-12.799999937750044
 20
43.999999999999204
 30
0.0
 11
-12.499999937749976
 21
43.999999999999204
 31
0.0
  0
LINE
  5
277
100
AcDbEntity
  8
0
  6
CONTINUOUS
 62
               7
100
AcDbLine
 10
-9.7999999377500444
 20
45.000000000000227
 30
0.0
 11
-12.499999937749976
 21
45.000000000000227
 31
0.0
  0
ARC
  5
278
100
AcDbEntity
  8
0
  6
CONTINUOUS
 62
               7
100
AcDbCircle
 10
-9.7999999377499307
 20
44.700000000000159
 30
0.0
 40
0.3
100
AcDbArc
 50
0.0
 51
90.0
  0
LINE
  5
279
100
AcDbEntity
  8
0
  6
CONTINUOUS
 62
               2
100
AcDbLine
 10
7.2811065052203503
 20
25.834221514724973
 30
0.0
 11
-0.4999999377499762
 21
25.591062007061069
 31
0.0
  0
LINE
  5
27A
100
AcDbEntity
  8
0
  6
CONTINUOUS
 62
               7
100
AcDbLine
 10
-0.1705039268528026
 20
34.979641011813214
 30
0.0
 11
6.7003904017595914
 21
34.764925459658912
 31
0.0
  0
LINE
  5
27B
100
AcDbEntity
  8
0
  6
CONTINUOUS
 62
               2
100
AcDbLine
 10
7.2811065052203503
 20
34.165778485274814
 30
0.0
 11
-0.4999999377499762
 21
34.408937992938718
 31
0.0
  0
LINE
  5
27C
100
AcDbEntity
  8
0
  6
CONTINUOUS
 62
               7
100
AcDbLine
 10
-0.1705039268528026
 20
25.020358988186459
 30
0.0
 11
6.7003904017595914
 21
25.23507454034133
 31
0.0
  0
LINE
  5
27D
100
AcDbEntity
  8
0
  6
CONTINUOUS
 62
               7
100
AcDbLine
 10
-0.1705039268528026
 20
34.979641011813214
 30
0.0
 11
-0.1705039268528026
 21
25.020358988186459
 31
0.0
  0
LINE
  5
27E
100
AcDbEntity
  8
0
  6
CONTINUOUS
 62
               7
100
AcDbLine
 10
-0.4999999377499762
 20
25.591062007061069
 30
0.0
 11
-0.4999999377499762
 21
34.408937992938718
 31
0.0
  0
LINE
  5
27F
100
AcDbEntity
  8
0
  6
CONTINUOUS
 62
               7
100
AcDbLine
 10
-1.9999999377499762
 20
35.071795448125044
 30
0.0
 11
-1.9999999377499762
 21
24.928204551874742
 31
0.0
  0
ARC
  5
280
100
AcDbEntity
  8
0
  6
CONTINUOUS
 62
               7
100
AcDbCircle
 10
-10.665066868630788
 20
27.000000431692115
 30
0.0
 40
8.6650669308808936
100
AcDbArc
 50
339.74384730590401
 51
20.256146608813165
  0
LINE
  5
281
100
AcDbEntity
  8
0
  6
CONTINUOUS
 62
               7
100
AcDbLine
 10
-1.9999999377499762
 20
24.928204551874742
 30
0.0
 11
-2.535898256374594
 21
24.000000000000014
 31
0.0
  0
LINE
  5
282
100
AcDbEntity
  8
0
  6
CONTINUOUS
 62
               7
100
AcDbLine
 10
-0.4999999377499762
 20
25.799999999999969
 30
0.0
 11
-1.9999999377499762
 21
25.799999999999969
 31
0.0
  0
LINE
  5
283
100
AcDbEntity
  8
0
  6
CONTINUOUS
 62
               7
100
AcDbLine
 10
-0.4999999377499762
 20
25.591062007061069
 30
0.0
 11
-0.1705039268528026
 21
25.020358988186459
 31
0.0
  0
ARC
  5
284
100
AcDbEntity
  8
0
  6
CONTINUOUS
 62
               7
100
AcDbCircle
 10
-10.665066868630902
 20
32.999999568307771
 30
0.0
 40
8.6650669308808936
100
AcDbArc
 50
339.74385339118686
 51
20.25615269409592
  0
LINE
  5
285
100
AcDbEntity
  8
0
  6
CONTINUOUS
 62
               7
100
AcDbLine
 10
-1.9999999377499762
 20
35.071795448125044
 30
0.0
 11
-2.535898256374594
 21
36.0
 31
0.0
  0
LINE
  5
286
100
AcDbEntity
  8
0
  6
CONTINUOUS
 62
               7
100
AcDbLine
 10
-0.4999999377499762
 20
34.199999999999818
 30
0.0
 11
-1.9999999377499762
 21
34.199999999999818
 31
0.0
  0
LINE
  5
287
100
AcDbEntity
  8
0
  6
CONTINUOUS
 62
               7
100
AcDbLine
 10
-0.4999999377499762
 20
34.408937992938718
 30
0.0
 11
-0.1705039268528026
 21
34.979641011813214
 31
0.0
  0
LINE
  5
288
100
AcDbEntity
  8
0
  6
CONTINUOUS
 62
               7
100
AcDbLine
 10
6.7003904017595914
 20
34.764925459658912
 30
0.0
 11
6.7003904017595914
 21
25.23507454034133
 31
0.0
  0
LINE
  5
289
100
AcDbEntity
  8
0
  6
CONTINUOUS
 62
               7
100
AcDbLine
 10
7.5000000622500238
 20
33.939937645620489
 30
0.0
 11
7.5000000622499101
 21
26.060062240997809
 31
0.0
  0
LINE
  5
28A
100
AcDbEntity
  8
0
  6
CONTINUOUS
 62
               7
100
AcDbLine
 10
7.5000000622500238
 20
26.06006235437917
 30
0.0
 11
6.7003904017595914
 21
25.23507454034133
 31
0.0
  0
LINE
  5
28B
100
AcDbEntity
  8
0
  6
CONTINUOUS
 62
               7
100
AcDbLine
 10
7.5000000622500238
 20
33.939937645620489
 30
0.0
 11
6.7003904017595914
 21
34.764925459658912
 31
0.0
  0
LINE
  5
28C
100
AcDbEntity
  8
0
  6
CONTINUOUS
 62
               7
100
AcDbLine
 10
-7.4999999377500899
 20
40.000000000000227
 30
0.0
 11
-7.4999999377500899
 21
44.000000000000227
 31
0.0
  0
ARC
  5
28D
100
AcDbEntity
  8
0
  6
CONTINUOUS
 62
               7
100
AcDbCircle
 10
-6.4999999377500899
 20
3.0000000000002274
 30
0.0
 40
3.0
100
AcDbArc
 50
180.0
 51
270.0
  0
LINE
  5
28E
100
AcDbEntity
  8
0
  6
CONTINUOUS
 62
               7
100
AcDbLine
 10
-7.4999999377500899
 20
3.0000000000002274
 30
0.0
 11
-7.4999999377500899
 21
40.000000000000227
 31
0.0
  0
LINE
  5
28F
100
AcDbEntity
  8
0
  6
CONTINUOUS
 62
               7
100
AcDbLine
 10
-6.4999999377500899
 20
2.0000000000002274
 30
0.0
 11
4.9999996450499111
 21
2.0000000000002274
 31
0.0
  0
LINE
  5
290
100
AcDbEntity
  8
0
  6
CONTINUOUS
 62
               7
100
AcDbLine
 10
-6.4999999377500899
 20
0.0
 30
0.0
 11
4.9999996450499111
 21
0.0
 31
0.0
  0
ARC
  5
291
100
AcDbEntity
  8
0
  6
CONTINUOUS
 62
               7
100
AcDbCircle
 10
-6.4999999377500899
 20
3.0000000000002274
 30
0.0
 40
1.0
100
AcDbArc
 50
180.0
 51
270.0
  0
LINE
  5
292
100
AcDbEntity
  8
0
  6
CONTINUOUS
 62
               7
100
AcDbLine
 10
-2.0999999071469801
 20
0.0
 30
0.0
 11
-2.0999999339849182
 21
2.0000000000002274
 31
0.0
  0
LINE
  5
293
100
AcDbEntity
  8
0
  6
CONTINUOUS
 62
               2
100
AcDbLine
 10
0.0
 20
3.0
 30
0.0
 11
0.0
 21
-3.0
 31
0.0
  0
LINE
  5
294
100
AcDbEntity
  8
0
  6
CONTINUOUS
 62
               7
100
AcDbLine
 10
2.0999999162650056
 20
2.0000000000002274
 30
0.0
 11
2.0999999543656713
 21
0.0
 31
0.0
  0
LINE
  5
295
100
AcDbEntity
  8
0
  6
CONTINUOUS
 62
               7
100
AcDbLine
 10
4.9999996450499111
 20
0.0
 30
0.0
 11
4.9999996450499111
 21
2.0000000000002274
 31
0.0
  0
LINE
  5
296
100
AcDbEntity
  8
0
  6
CONTINUOUS
 62
               7
100
AcDbLine
 10
4.5000004943999556
 20
2.0000000950003596
 30
0.0
 11
4.5000004943999556
 21
0.0
 31
0.0
  0
LINE
  5
297
100
AcDbEntity
  8
0
  6
CONTINUOUS
 62
               7
100
AcDbLine
 10
-7.4999999377500899
 20
44.000000000000227
 30
0.0
 11
-9.4999999377499762
 21
44.000000000000227
 31
0.0
  0
LINE
  5
298
100
AcDbEntity
  8
0
  6
CONTINUOUS
 62
               2
100
AcDbLine
 10
-1.6999999377501354
 20
20.0
 30
0.0
 11
-14.894257567365116
 21
20.0
 31
0.0
  0
LINE
  5
299
100
AcDbEntity
  8
0
  6
CONTINUOUS
 62
               2
100
AcDbLine
 10
-1.6999999377501354
 20
40.0
 30
0.0
 11
-14.894257567365116
 21
40.0
 31
0.0
  0
LINE
  5
29A
100
AcDbEntity
  8
0
  6
CONTINUOUS
 62
               7
100
AcDbLine
 10
-5.6999999377501354
 20
22.599999999999994
 30
0.0
 11
-6.4999999377500899
 21
22.599999999999994
 31
0.0
  0
LINE
  5
29B
100
AcDbEntity
  8
0
  6
CONTINUOUS
 62
               7
100
AcDbLine
 10
-5.6999999377501354
 20
17.400000000000006
 30
0.0
 11
-6.4999999377500899
 21
17.400000000000006
 31
0.0
  0
LINE
  5
29C
100
AcDbEntity
  8
0
  6
CONTINUOUS
 62
               7
100
AcDbLine
 10
-6.6999999377501354
 20
17.600000000000009
 30
0.0
 11
-6.6999999377501354
 21
22.399999999999991
 31
0.0
  0
LINE
  5
29D
100
AcDbEntity
  8
0
  6
CONTINUOUS
 62
               7
100
AcDbLine
 10
-4.6999999377501354
 20
21.599999999999994
 30
0.0
 11
-4.6999999377501354
 21
18.400000000000006
 31
0.0
  0
ARC
  5
29E
100
AcDbEntity
  8
0
  6
CONTINUOUS
 62
               7
100
AcDbCircle
 10
-5.6999999377501354
 20
18.400000000000006
 30
0.0
 40
1.0
100
AcDbArc
 50
270.0
 51
0.0
  0
ARC
  5
29F
100
AcDbEntity
  8
0
  6
CONTINUOUS
 62
               7
100
AcDbCircle
 10
-5.6999999377501354
 20
21.599999999999994
 30
0.0
 40
1.0
100
AcDbArc
 50
0.0
 51
90.0
  0
ARC
  5
2A0
100
AcDbEntity
  8
0
  6
CONTINUOUS
 62
               7
100
AcDbCircle
 10
-6.4999999377500899
 20
22.399999999999991
 30
0.0
 40
0.2
100
AcDbArc
 50
90.0
 51
180.0
  0
ARC
  5
2A1
100
AcDbEntity
  8
0
  6
CONTINUOUS
 62
               7
100
AcDbCircle
 10
-6.4999999377500899
 20
17.600000000000009
 30
0.0
 40
0.2
100
AcDbArc
 50
180.0
 51
270.0
  0
LINE
  5
2A2
100
AcDbEntity
  8
0
  6
CONTINUOUS
 62
               7
100
AcDbLine
 10
-6.6999999377501354
 20
22.399999999999991
 30
0.0
 11
-7.4999999377500899
 21
22.399999999999991
 31
0.0
  0
LINE
  5
2A3
100
AcDbEntity
  8
0
  6
CONTINUOUS
 62
               7
100
AcDbLine
 10
-6.6999999377501354
 20
17.600000000000009
 30
0.0
 11
-7.4999999377500899
 21
17.600000000000009
 31
0.0
  0
LINE
  5
2A4
100
AcDbEntity
  8
0
  6
CONTINUOUS
 62
               7
100
AcDbLine
 10
-6.6999999377501354
 20
42.400000000000205
 30
0.0
 11
-7.4999999377500899
 21
42.400000000000205
 31
0.0
  0
LINE
  5
2A5
100
AcDbEntity
  8
0
  6
CONTINUOUS
 62
               7
100
AcDbLine
 10
-6.6999999377501354
 20
37.60000000000025
 30
0.0
 11
-7.4999999377500899
 21
37.60000000000025
 31
0.0
  0
ARC
  5
2A6
100
AcDbEntity
  8
0
  6
CONTINUOUS
 62
               7
100
AcDbCircle
 10
-6.4999999377500899
 20
37.60000000000025
 30
0.0
 40
0.2
100
AcDbArc
 50
180.0
 51
270.0
  0
ARC
  5
2A7
100
AcDbEntity
  8
0
  6
CONTINUOUS
 62
               7
100
AcDbCircle
 10
-6.4999999377500899
 20
42.400000000000205
 30
0.0
 40
0.2
100
AcDbArc
 50
90.0
 51
180.0
  0
ARC
  5
2A8
100
AcDbEntity
  8
0
  6
CONTINUOUS
 62
               7
100
AcDbCircle
 10
-5.6999999377501354
 20
41.600000000000222
 30
0.0
 40
1.0
100
AcDbArc
 50
0.0
 51
90.0
  0
ARC
  5
2A9
100
AcDbEntity
  8
0
  6
CONTINUOUS
 62
               7
100
AcDbCircle
 10
-5.6999999377501354
 20
38.400000000000233
 30
0.0
 40
1.0
100
AcDbArc
 50
270.0
 51
0.0
  0
LINE
  5
2AA
100
AcDbEntity
  8
0
  6
CONTINUOUS
 62
               7
100
AcDbLine
 10
-4.6999999377501354
 20
41.600000000000222
 30
0.0
 11
-4.6999999377501354
 21
38.400000000000233
 31
0.0
  0
LINE
  5
2AB
100
AcDbEntity
  8
0
  6
CONTINUOUS
 62
               7
100
AcDbLine
 10
-6.6999999377501354
 20
37.60000000000025
 30
0.0
 11
-6.6999999377501354
 21
42.400000000000205
 31
0.0
  0
LINE
  5
2AC
100
AcDbEntity
  8
0
  6
CONTINUOUS
 62
               7
100
AcDbLine
 10
-5.6999999377501354
 20
37.400000000000233
 30
0.0
 11
-6.4999999377500899
 21
37.400000000000233
 31
0.0
  0
LINE
  5
2AD
100
AcDbEntity
  8
0
  6
CONTINUOUS
 62
               7
100
AcDbLine
 10
-5.6999999377501354
 20
42.600000000000222
 30
0.0
 11
-6.4999999377500899
 21
42.600000000000222
 31
0.0
  0
LINE
  5
2AE
100
AcDbEntity
  8
0
  6
CONTINUOUS
 62
               7
100
AcDbLine
 10
-9.4999999377499762
 20
3.0000000000002274
 30
0.0
 11
-9.4999999377500899
 21
44.700000000000159
 31
0.0
  0
LINE
  5
2AF
100
AcDbEntity
  8
0
  6
CENTER
 62
               2
100
AcDbLine
 10
9.2444296203774456
 20
30.0
 30
0.0
 11
-37.232915996979841
 21
30.0
 31
0.0
  0
ENDBLK
  5
2B0
100
AcDbEntity
  8
0
100
AcDbBlockEnd
  0
BLOCK
  5
2B1
100
AcDbEntity
  8
0
100
AcDbBlockBegin
  2
MS_3
 70
               0
 10
0.0
 20
0.0
 30
0.0
  3
MS_3
  1

  0
LINE
  5
2B2
100
AcDbEntity
  8
0
  6
CENTER
 62
               2
100
AcDbLine
 10
4.0
 20
3.5300000594502579
 30
0.0
 11
18.0
 21
3.5300000594502579
 31
0.0
  0
ARC
  5
2B3
100
AcDbEntity
  8
0
  6
CONTINUOUS
 62
               7
100
AcDbCircle
 10
25.199999999999818
 20
-34.199999940549532
 30
0.0
 40
0.8
100
AcDbArc
 50
270.0
 51
359.99999999999329
  0
ARC
  5
2B4
100
AcDbEntity
  8
0
  6
CONTINUOUS
 62
               7
100
AcDbCircle
 10
25.700000000000273
 20
-9.7999999405494691
 30
0.0
 40
0.3
100
AcDbArc
 50
0.0
 51
90.000000000000057
  0
LINE
  5
2B5
100
AcDbEntity
  8
0
  6
CONTINUOUS
 62
               7
100
AcDbLine
 10
26.000000000000227
 20
-9.7999999405494691
 30
0.0
 11
26.000000000000227
 21
-12.499999940549742
 31
0.0
  0
LINE
  5
2B6
100
AcDbEntity
  8
0
  6
CONTINUOUS
 62
               7
100
AcDbLine
 10
26.000000000001137
 20
-12.799999940549242
 30
0.0
 11
25.999999999999773
 21
-34.199999940549532
 31
0.0
  0
ARC
  5
2B7
100
AcDbEntity
  8
0
  6
CONTINUOUS
 62
               7
100
AcDbCircle
 10
21.899999999999864
 20
-29.89999994054935
 30
0.0
 40
0.1
100
AcDbArc
 50
270.0
 51
0.0
  0
ARC
  5
2B8
100
AcDbEntity
  8
0
  6
CONTINUOUS
 62
               7
100
AcDbCircle
 10
21.899999999999864
 20
-27.099999940549395
 30
0.0
 40
0.1
100
AcDbArc
 50
0.0
 51
90.000000000000057
  0
LINE
  5
2B9
100
AcDbEntity
  8
0
  6
CONTINUOUS
 62
               7
100
AcDbLine
 10
21.999999999999773
 20
-29.89999994054935
 30
0.0
 11
21.999999999999773
 21
-27.099999940549395
 31
0.0
  0
ARC
  5
2BA
100
AcDbEntity
  8
0
  6
CONTINUOUS
 62
               7
100
AcDbCircle
 10
22.699999999999818
 20
-36.199999940549532
 30
0.0
 40
0.3
100
AcDbArc
 50
270.0
 51
0.0
  0
LINE
  5
2BB
100
AcDbEntity
  8
0
  6
CONTINUOUS
 62
               7
100
AcDbLine
 10
22.999999999999773
 20
-34.999999940549714
 30
0.0
 11
22.999999999999773
 21
-36.199999940549532
 31
0.0
  0
ARC
  5
2BC
100
AcDbEntity
  8
0
  6
CONTINUOUS
 62
               7
100
AcDbCircle
 10
18.099999999999909
 20
-29.899999940549577
 30
0.0
 40
0.1
100
AcDbArc
 50
180.0
 51
270.0
  0
ARC
  5
2BD
100
AcDbEntity
  8
0
  6
CONTINUOUS
 62
               7
100
AcDbCircle
 10
18.099999999999909
 20
-27.099999940549623
 30
0.0
 40
0.1
100
AcDbArc
 50
90.000000000000057
 51
180.0
  0
LINE
  5
2BE
100
AcDbEntity
  8
0
  6
CONTINUOUS
 62
               7
100
AcDbLine
 10
17.999999999999773
 20
-29.899999940549577
 30
0.0
 11
17.999999999999773
 21
-27.099999940549623
 31
0.0
  0
LINE
  5
2BF
100
AcDbEntity
  8
0
  6
CONTINUOUS
 62
               7
100
AcDbLine
 10
21.899999999999864
 20
-29.999999940549486
 30
0.0
 11
18.099999999999909
 21
-29.999999940549486
 31
0.0
  0
LINE
  5
2C0
100
AcDbEntity
  8
0
  6
CONTINUOUS
 62
               7
100
AcDbLine
 10
21.999999999999773
 20
-29.199999940549077
 30
0.0
 11
17.999999999999773
 21
-29.199999940549532
 31
0.0
  0
LINE
  5
2C1
100
AcDbEntity
  8
0
  6
CONTINUOUS
 62
               7
100
AcDbLine
 10
21.999999999999773
 20
-28.39999994054935
 30
0.0
 11
17.999999999999773
 21
-28.399999940549577
 31
0.0
  0
LINE
  5
2C2
100
AcDbEntity
  8
0
  6
CONTINUOUS
 62
               7
100
AcDbLine
 10
21.899999999999864
 20
-26.999999940549259
 30
0.0
 11
18.099999999999909
 21
-26.999999940549714
 31
0.0
  0
ARC
  5
2C3
100
AcDbEntity
  8
0
  6
CONTINUOUS
 62
               7
100
AcDbCircle
 10
17.299999999999841
 20
-36.199999940549759
 30
0.0
 40
0.3
100
AcDbArc
 50
180.0
 51
270.0
  0
LINE
  5
2C4
100
AcDbEntity
  8
0
  6
CONTINUOUS
 62
               7
100
AcDbLine
 10
16.999999999999886
 20
-34.999999940549714
 30
0.0
 11
16.999999999999886
 21
-36.199999940549759
 31
0.0
  0
ARC
  5
2C5
100
AcDbEntity
  8
0
  6
CONTINUOUS
 62
               7
100
AcDbCircle
 10
13.699999999999932
 20
-36.199999940549532
 30
0.0
 40
0.3
100
AcDbArc
 50
270.0
 51
0.0
  0
LINE
  5
2C6
100
AcDbEntity
  8
0
  6
CONTINUOUS
 62
               7
100
AcDbLine
 10
13.999999999999886
 20
-34.999999940549714
 30
0.0
 11
13.999999999999886
 21
-36.199999940549532
 31
0.0
  0
LINE
  5
2C7
100
AcDbEntity
  8
0
  6
CONTINUOUS
 62
               7
100
AcDbLine
 10
17.299999999999841
 20
-36.499999940549714
 30
0.0
 11
22.699999999999818
 21
-36.499999940549486
 31
0.0
  0
ARC
  5
2C8
100
AcDbEntity
  8
0
  6
CONTINUOUS
 62
               7
100
AcDbCircle
 10
20.799999999999955
 20
-17.099999940549424
 30
0.0
 40
0.1
100
AcDbArc
 50
270.0
 51
0.0
  0
LINE
  5
2C9
100
AcDbEntity
  8
0
  6
CONTINUOUS
 62
               7
100
AcDbLine
 10
24.999999999999318
 20
-12.799999940549924
 30
0.0
 11
24.999999999999318
 21
-12.499999940549742
 31
0.0
  0
LINE
  5
2CA
100
AcDbEntity
  8
0
  6
CONTINUOUS
 62
               7
100
AcDbLine
 10
18.0
 20
-11.999999940549742
 30
0.0
 11
20.5
 21
-11.999999940549742
 31
0.0
  0
LINE
  5
2CB
100
AcDbEntity
  8
0
  6
CONTINUOUS
 62
               7
100
AcDbLine
 10
18.0
 20
-11.699999940549787
 30
0.0
 11
18.0
 21
-12.799999940549014
 31
0.0
  0
ARC
  5
2CC
100
AcDbEntity
  8
0
  6
CONTINUOUS
 62
               7
100
AcDbCircle
 10
20.799999999999955
 20
-14.999999940549287
 30
0.0
 40
0.1
100
AcDbArc
 50
0.0
 51
90.000000000000057
  0
ARC
  5
2CD
100
AcDbEntity
  8
0
  6
CONTINUOUS
 62
               7
100
AcDbCircle
 10
20.799999999999955
 20
-15.099999940549196
 30
0.0
 40
0.1
100
AcDbArc
 50
0.0
 51
90.000000000000057
  0
LINE
  5
2CE
100
AcDbEntity
  8
0
  6
CONTINUOUS
 62
               7
100
AcDbLine
 10
20.5
 20
-11.699999940549787
 30
0.0
 11
20.5
 21
-12.799999940549242
 31
0.0
  0
LINE
  5
2CF
100
AcDbEntity
  8
0
  6
CONTINUOUS
 62
               7
100
AcDbLine
 10
20.899999999999977
 20
-17.099999940549424
 30
0.0
 11
20.899999999999977
 21
-14.999999940549287
 31
0.0
  0
LINE
  5
2D0
100
AcDbEntity
  8
0
  6
CONTINUOUS
 62
               7
100
AcDbLine
 10
20.599999999999909
 20
-14.999999940549515
 30
0.0
 11
20.599999999999909
 21
-16.999999940549515
 31
0.0
  0
ARC
  5
2D1
100
AcDbEntity
  8
0
  6
CONTINUOUS
 62
               7
100
AcDbCircle
 10
17.199999999999932
 20
-17.099999940549424
 30
0.0
 40
0.1
100
AcDbArc
 50
180.0
 51
270.0
  0
LINE
  5
2D2
100
AcDbEntity
  8
0
  6
CONTINUOUS
 62
               7
100
AcDbLine
 10
16.300000000000068
 20
-19.699999940549532
 30
0.0
 11
11.500000000000341
 21
-19.699999940549532
 31
0.0
  0
LINE
  5
2D3
100
AcDbEntity
  8
0
  6
CONTINUOUS
 62
               7
100
AcDbLine
 10
16.300000000000068
 20
-19.799999940549213
 30
0.0
 11
11.500000000000341
 21
-19.799999940549213
 31
0.0
  0
LINE
  5
2D4
100
AcDbEntity
  8
0
  6
CONTINUOUS
 62
               7
100
AcDbLine
 10
16.300000000000068
 20
-18.699999940549532
 30
0.0
 11
11.500000000000341
 21
-18.699999940549532
 31
0.0
  0
LINE
  5
2D5
100
AcDbEntity
  8
0
  6
CONTINUOUS
 62
               7
100
AcDbLine
 10
16.300000000000068
 20
-18.799999940549441
 30
0.0
 11
11.500000000000341
 21
-18.799999940549441
 31
0.0
  0
LINE
  5
2D6
100
AcDbEntity
  8
0
  6
CONTINUOUS
 62
               7
100
AcDbLine
 10
16.300000000000068
 20
-16.69999994054956
 30
0.0
 11
11.500000000000341
 21
-16.69999994054956
 31
0.0
  0
LINE
  5
2D7
100
AcDbEntity
  8
0
  6
CONTINUOUS
 62
               7
100
AcDbLine
 10
16.300000000000068
 20
-16.799999940549924
 30
0.0
 11
11.500000000000341
 21
-16.799999940549924
 31
0.0
  0
LINE
  5
2D8
100
AcDbEntity
  8
0
  6
CONTINUOUS
 62
               7
100
AcDbLine
 10
16.300000000000068
 20
-17.69999994054956
 30
0.0
 11
11.500000000000341
 21
-17.69999994054956
 31
0.0
  0
LINE
  5
2D9
100
AcDbEntity
  8
0
  6
CONTINUOUS
 62
               7
100
AcDbLine
 10
16.300000000000068
 20
-17.799999940549696
 30
0.0
 11
11.500000000000341
 21
-17.799999940549696
 31
0.0
  0
LINE
  5
2DA
100
AcDbEntity
  8
0
  6
CONTINUOUS
 62
               7
100
AcDbLine
 10
16.300000000000068
 20
-21.699999940549532
 30
0.0
 11
11.500000000000341
 21
-21.699999940549532
 31
0.0
  0
LINE
  5
2DB
100
AcDbEntity
  8
0
  6
CONTINUOUS
 62
               7
100
AcDbLine
 10
16.300000000000068
 20
-20.699999940549532
 30
0.0
 11
11.500000000000341
 21
-20.699999940549532
 31
0.0
  0
LINE
  5
2DC
100
AcDbEntity
  8
0
  6
CONTINUOUS
 62
               7
100
AcDbLine
 10
16.300000000000068
 20
-20.799999940549895
 30
0.0
 11
11.500000000000341
 21
-20.799999940549895
 31
0.0
  0
ARC
  5
2DD
100
AcDbEntity
  8
0
  6
CONTINUOUS
 62
               7
100
AcDbCircle
 10
17.199999999999932
 20
-14.999999940549287
 30
0.0
 40
0.1
100
AcDbArc
 50
90.000000000000057
 51
180.0
  0
ARC
  5
2DE
100
AcDbEntity
  8
0
  6
CONTINUOUS
 62
               7
100
AcDbCircle
 10
17.199999999999932
 20
-15.099999940549196
 30
0.0
 40
0.1
100
AcDbArc
 50
90.000000000000057
 51
180.0
  0
ARC
  5
2DF
100
AcDbEntity
  8
0
  6
CONTINUOUS
 62
               7
100
AcDbCircle
 10
17.300000000000182
 20
-12.499999940549287
 30
0.0
 40
0.3
100
AcDbArc
 50
180.0
 51
270.0
  0
ARC
  5
2E0
100
AcDbEntity
  8
0
  6
CONTINUOUS
 62
               7
100
AcDbCircle
 10
16.700000000001182
 20
-11.299999940549924
 30
0.0
 40
0.3
100
AcDbArc
 50
0.0
 51
90.000000000000057
  0
LINE
  5
2E1
100
AcDbEntity
  8
0
  6
CONTINUOUS
 62
               7
100
AcDbLine
 10
17.100000000000136
 20
-12.199999940550015
 30
0.0
 11
17.100000000000136
 21
-10.999999940549742
 31
0.0
  0
ARC
  5
2E2
100
AcDbEntity
  8
0
  6
CONTINUOUS
 62
               7
100
AcDbCircle
 10
16.800000000001091
 20
-10.999999940549969
 30
0.0
 40
0.3
100
AcDbArc
 50
0.0
 51
90.000000000000057
  0
LINE
  5
2E3
100
AcDbEntity
  8
0
  6
CONTINUOUS
 62
               7
100
AcDbLine
 10
17.000000000000114
 20
-12.499999940549287
 30
0.0
 11
17.000000000000227
 21
-11.299999940549242
 31
0.0
  0
ARC
  5
2E4
100
AcDbEntity
  8
0
  6
CONTINUOUS
 62
               7
100
AcDbCircle
 10
17.400000000000205
 20
-12.199999940550015
 30
0.0
 40
0.3
100
AcDbArc
 50
180.0
 51
270.0
  0
LINE
  5
2E5
100
AcDbEntity
  8
0
  6
CONTINUOUS
 62
               7
100
AcDbLine
 10
16.300000000000068
 20
-14.69999994054956
 30
0.0
 11
11.500000000000341
 21
-14.69999994054956
 31
0.0
  0
LINE
  5
2E6
100
AcDbEntity
  8
0
  6
CONTINUOUS
 62
               7
100
AcDbLine
 10
16.300000000000068
 20
-13.69999994054956
 30
0.0
 11
11.500000000000341
 21
-13.69999994054956
 31
0.0
  0
LINE
  5
2E7
100
AcDbEntity
  8
0
  6
CONTINUOUS
 62
               7
100
AcDbLine
 10
16.300000000000068
 20
-13.799999940549469
 30
0.0
 11
11.500000000000341
 21
-13.799999940549469
 31
0.0
  0
LINE
  5
2E8
100
AcDbEntity
  8
0
  6
CONTINUOUS
 62
               7
100
AcDbLine
 10
16.300000000000068
 20
-14.799999940549469
 30
0.0
 11
11.500000000000341
 21
-14.799999940549469
 31
0.0
  0
LINE
  5
2E9
100
AcDbEntity
  8
0
  6
CONTINUOUS
 62
               7
100
AcDbLine
 10
16.300000000000068
 20
-15.69999994054956
 30
0.0
 11
11.500000000000341
 21
-15.69999994054956
 31
0.0
  0
LINE
  5
2EA
100
AcDbEntity
  8
0
  6
CONTINUOUS
 62
               7
100
AcDbLine
 10
16.300000000000068
 20
-15.799999940549242
 30
0.0
 11
11.500000000000341
 21
-15.799999940549242
 31
0.0
  0
LINE
  5
2EB
100
AcDbEntity
  8
0
  6
CONTINUOUS
 62
               7
100
AcDbLine
 10
16.300000000000068
 20
-12.799999940549242
 30
0.0
 11
11.500000000000341
 21
-12.799999940549924
 31
0.0
  0
LINE
  5
2EC
100
AcDbEntity
  8
0
  6
CONTINUOUS
 62
               7
100
AcDbLine
 10
11.500000000000341
 20
-21.699999940549532
 30
0.0
 11
11.500000000000341
 21
-12.799999940549924
 31
0.0
  0
LINE
  5
2ED
100
AcDbEntity
  8
0
  6
CONTINUOUS
 62
               7
100
AcDbLine
 10
16.300000000000068
 20
-21.699999940549532
 30
0.0
 11
16.300000000000068
 21
-12.799999940549924
 31
0.0
  0
LINE
  5
2EE
100
AcDbEntity
  8
0
  6
CONTINUOUS
 62
               7
100
AcDbLine
 10
17.399999999999864
 20
-14.999999940549515
 30
0.0
 11
17.399999999999864
 21
-16.999999940549515
 31
0.0
  0
LINE
  5
2EF
100
AcDbEntity
  8
0
  6
CONTINUOUS
 62
               7
100
AcDbLine
 10
17.099999999999909
 20
-17.099999940549424
 30
0.0
 11
17.099999999999909
 21
-14.999999940549287
 31
0.0
  0
LINE
  5
2F0
100
AcDbEntity
  8
0
  6
CONTINUOUS
 62
               7
100
AcDbLine
 10
17.399999999999864
 20
-15.960999940549527
 30
0.0
 11
20.599999999999909
 21
-15.960999940549527
 31
0.0
  0
LINE
  5
2F1
100
AcDbEntity
  8
0
  6
CONTINUOUS
 62
               7
100
AcDbLine
 10
17.199999999999932
 20
-14.899999940549378
 30
0.0
 11
20.799999999999955
 21
-14.899999940549378
 31
0.0
  0
LINE
  5
2F2
100
AcDbEntity
  8
0
  6
CONTINUOUS
 62
               7
100
AcDbLine
 10
17.199999999999932
 20
-14.999999940549515
 30
0.0
 11
20.799999999999955
 21
-14.999999940549515
 31
0.0
  0
LINE
  5
2F3
100
AcDbEntity
  8
0
  6
CONTINUOUS
 62
               7
100
AcDbLine
 10
17.399999999999864
 20
-16.999999940549515
 30
0.0
 11
20.599999999999909
 21
-16.999999940549515
 31
0.0
  0
LINE
  5
2F4
100
AcDbEntity
  8
0
  6
CONTINUOUS
 62
               7
100
AcDbLine
 10
17.199999999999932
 20
-17.19999994054956
 30
0.0
 11
20.799999999999955
 21
-17.19999994054956
 31
0.0
  0
LINE
  5
2F5
100
AcDbEntity
  8
0
  6
CONTINUOUS
 62
               7
100
AcDbLine
 10
18.0
 20
-12.499999940549742
 30
0.0
 11
17.400000000000205
 21
-12.499999940549742
 31
0.0
  0
LINE
  5
2F6
100
AcDbEntity
  8
0
  6
CONTINUOUS
 62
               7
100
AcDbLine
 10
26.000000000000227
 20
-12.499999940549742
 30
0.0
 11
20.5
 21
-12.499999940549742
 31
0.0
  0
LINE
  5
2F7
100
AcDbEntity
  8
0
  6
CONTINUOUS
 62
               7
100
AcDbLine
 10
26.000000000001137
 20
-12.799999940549242
 30
0.0
 11
17.300000000000182
 21
-12.799999940549014
 31
0.0
  0
ARC
  5
2F8
100
AcDbEntity
  8
0
  6
CONTINUOUS
 62
               7
100
AcDbCircle
 10
16.19615199999987
 20
-5.0669869405498957
 30
0.0
 40
3.0669869999999979
100
AcDbArc
 50
55.615752999994442
 51
124.38424700000539
  0
LINE
  5
2F9
100
AcDbEntity
  8
0
  6
CONTINUOUS
 62
               7
100
AcDbLine
 10
15.199999999999932
 20
-0.499999940549742
 30
0.0
 11
15.199999999999932
 21
-1.999999940549742
 31
0.0
  0
LINE
  5
2FA
100
AcDbEntity
  8
0
  6
CONTINUOUS
 62
               7
100
AcDbLine
 10
15.408937992938831
 20
-0.499999940549742
 30
0.0
 11
15.979641011813442
 21
-0.170503929652341
 31
0.0
  0
LINE
  5
2FB
100
AcDbEntity
  8
0
  6
CONTINUOUS
 62
               7
100
AcDbLine
 10
16.999999999999886
 20
-1.999999940549742
 30
0.0
 11
17.928202999999939
 21
-2.5358979405498303
 31
0.0
  0
LINE
  5
2FC
100
AcDbEntity
  8
0
  6
CONTINUOUS
 62
               7
100
AcDbLine
 10
14.939937645620489
 20
7.500000059450258
 30
0.0
 11
15.764925459658798
 21
6.7003903989600531
 31
0.0
  0
LINE
  5
2FD
100
AcDbEntity
  8
0
  6
CONTINUOUS
 62
               2
100
AcDbLine
 10
15.165778485274927
 20
7.2811065024204709
 30
0.0
 11
15.408937992938831
 21
-0.499999940549742
 31
0.0
  0
LINE
  5
2FE
100
AcDbEntity
  8
0
  6
CONTINUOUS
 62
               7
100
AcDbLine
 10
15.979641011813442
 20
-0.170503929652341
 30
0.0
 11
15.764925459658798
 21
6.7003903989600531
 31
0.0
  0
LINE
  5
2FF
100
AcDbEntity
  8
0
  6
CONTINUOUS
 62
               7
100
AcDbLine
 10
14.464100999999914
 20
-2.5358979405498303
 30
0.0
 11
14.464100999999914
 21
-9.499999940549742
 31
0.0
  0
LINE
  5
300
100
AcDbEntity
  8
0
  6
CONTINUOUS
 62
               7
100
AcDbLine
 10
17.928202999999939
 20
-7.4999999405499693
 30
0.0
 11
17.928202999999939
 21
-2.5358979405498303
 31
0.0
  0
ARC
  5
301
100
AcDbEntity
  8
0
  6
CONTINUOUS
 62
               7
100
AcDbCircle
 10
8.7606055596470469
 20
-38.999999940549259
 30
0.0
 40
4.0
100
AcDbArc
 50
100.9616192702174
 51
108.7556580062809
  0
LINE
  5
302
100
AcDbEntity
  8
0
  6
CONTINUOUS
 62
               7
100
AcDbLine
 10
8.0
 20
-34.999999940549714
 30
0.0
 11
7.9999999999998863
 21
-36.199999940549759
 31
0.0
  0
ARC
  5
303
100
AcDbEntity
  8
0
  6
CONTINUOUS
 62
               7
100
AcDbCircle
 10
8.2999999999999545
 20
-36.199999940549759
 30
0.0
 40
0.3
100
AcDbArc
 50
180.0
 51
270.0
  0
ARC
  5
304
100
AcDbEntity
  8
0
  6
CONTINUOUS
 62
               7
100
AcDbCircle
 10
3.8999999999999773
 20
-29.899999940549577
 30
0.0
 40
0.1
100
AcDbArc
 50
270.0
 51
0.0
  0
ARC
  5
305
100
AcDbEntity
  8
0
  6
CONTINUOUS
 62
               7
100
AcDbCircle
 10
3.9000000000000909
 20
-27.099999940549623
 30
0.0
 40
0.1
100
AcDbArc
 50
0.0
 51
90.000000000000057
  0
LINE
  5
306
100
AcDbEntity
  8
0
  6
CONTINUOUS
 62
               7
100
AcDbLine
 10
4.0
 20
-29.899999940549577
 30
0.0
 11
4.0
 21
-27.099999940549623
 31
0.0
  0
ARC
  5
307
100
AcDbEntity
  8
0
  6
CONTINUOUS
 62
               7
100
AcDbCircle
 10
5.8000000000001819
 20
-35.299999940549441
 30
0.0
 40
0.3
100
AcDbArc
 50
0.0
 51
90.000000000000057
  0
LINE
  5
308
100
AcDbEntity
  8
0
  6
CONTINUOUS
 62
               7
100
AcDbLine
 10
5.5137322488321843
 20
-35.469933454633264
 30
0.0
 11
6.2666666666668789
 21
-35.597202599986275
 31
0.0
  0
ARC
  5
309
100
AcDbEntity
  8
0
  6
CONTINUOUS
 62
               7
100
AcDbCircle
 10
4.6999999999999318
 20
-35.884199517156247
 30
0.0
 40
0.3
100
AcDbArc
 50
283.34236379708778
 51
0.0
  0
ARC
  5
30A
100
AcDbEntity
  8
0
  6
CONTINUOUS
 62
               7
100
AcDbCircle
 10
4.6803989154986994
 20
-40.399999940549577
 30
0.0
 40
5.0
100
AcDbArc
 50
80.405931773138406
 51
86.335142808912465
  0
LINE
  5
30B
100
AcDbEntity
  8
0
  6
CONTINUOUS
 62
               7
100
AcDbLine
 10
5.0
 20
-34.999999940549714
 30
0.0
 11
5.0
 21
-35.884199517156247
 31
0.0
  0
ARC
  5
30C
100
AcDbEntity
  8
0
  6
CONTINUOUS
 62
               7
100
AcDbCircle
 10
6.3000000000001819
 20
-35.399999940549577
 30
0.0
 40
0.2
100
AcDbArc
 50
180.0
 51
288.75565800629221
  0
LINE
  5
30D
100
AcDbEntity
  8
0
  6
CONTINUOUS
 62
               7
100
AcDbLine
 10
6.1000000000001364
 20
-35.399999940549577
 30
0.0
 11
6.1000000000001364
 21
-35.299999940549441
 31
0.0
  0
LINE
  5
30E
100
AcDbEntity
  8
0
  6
CONTINUOUS
 62
               7
100
AcDbLine
 10
7.474473664126208
 20
-35.21240641070446
 30
0.0
 11
6.364306594776167
 21
-35.589379617041658
 31
0.0
  0
ARC
  5
30F
100
AcDbEntity
  8
0
  6
CONTINUOUS
 62
               7
100
AcDbCircle
 10
0.1000000000001364
 20
-29.89999994054935
 30
0.0
 40
0.1
100
AcDbArc
 50
180.0
 51
270.0
  0
ARC
  5
310
100
AcDbEntity
  8
0
  6
CONTINUOUS
 62
               7
100
AcDbCircle
 10
0.1000000000001364
 20
-27.099999940549395
 30
0.0
 40
0.1
100
AcDbArc
 50
90.000000000000057
 51
180.0
  0
LINE
  5
311
100
AcDbEntity
  8
0
  6
CONTINUOUS
 62
               7
100
AcDbLine
 10
0.0000000000002274
 20
-29.89999994054935
 30
0.0
 11
0.0
 21
-27.099999940549395
 31
0.0
  0
ARC
  5
312
100
AcDbEntity
  8
0
  6
CONTINUOUS
 62
               7
100
AcDbCircle
 10
-0.9999999999998863
 20
-34.399999940549577
 30
0.0
 40
1.0
100
AcDbArc
 50
223.81306146036141
 51
270.0
  0
ARC
  5
313
100
AcDbEntity
  8
0
  6
CONTINUOUS
 62
               7
100
AcDbCircle
 10
-0.7000310000000809
 20
-35.884192164816085
 30
0.0
 40
0.3
100
AcDbArc
 50
180.0
 51
256.65748018230408
  0
LINE
  5
314
100
AcDbEntity
  8
0
  6
CONTINUOUS
 62
               7
100
AcDbLine
 10
-1.0000310000000354
 20
-34.999999940549714
 30
0.0
 11
-1.0000310000000354
 21
-35.884192164816085
 31
0.0
  0
LINE
  5
315
100
AcDbEntity
  8
0
  6
CONTINUOUS
 62
               7
100
AcDbLine
 10
0.1000000000001364
 20
-29.999999940549486
 30
0.0
 11
3.8999999999999773
 21
-29.999999940549486
 31
0.0
  0
LINE
  5
316
100
AcDbEntity
  8
0
  6
CONTINUOUS
 62
               7
100
AcDbLine
 10
3.9999999999996589
 20
-29.199999940549077
 30
0.0
 11
-0.0000000000003411
 21
-29.199999940549532
 31
0.0
  0
LINE
  5
317
100
AcDbEntity
  8
0
  6
CONTINUOUS
 62
               7
100
AcDbLine
 10
3.9999999999996589
 20
-28.39999994054935
 30
0.0
 11
-0.0000000000003411
 21
-28.399999940549577
 31
0.0
  0
ARC
  5
318
100
AcDbEntity
  8
0
  6
CONTINUOUS
 62
               7
100
AcDbCircle
 10
1.9999999999998863
 20
-24.499999940549714
 30
0.0
 40
12.0
100
AcDbArc
 50
256.65748018230408
 51
283.34236379708778
  0
LINE
  5
319
100
AcDbEntity
  8
0
  6
CONTINUOUS
 62
               7
100
AcDbLine
 10
0.1000000000001364
 20
-26.999999940549259
 30
0.0
 11
3.9000000000000909
 21
-26.999999940549714
 31
0.0
  0
ARC
  5
31A
100
AcDbEntity
  8
0
  6
CONTINUOUS
 62
               7
100
AcDbCircle
 10
4.7999999999999545
 20
-17.099999940549424
 30
0.0
 40
0.1
100
AcDbArc
 50
270.0
 51
0.0
  0
LINE
  5
31B
100
AcDbEntity
  8
0
  6
CONTINUOUS
 62
               7
100
AcDbLine
 10
5.6999999999998181
 20
-16.69999994054956
 30
0.0
 11
10.499999999999545
 21
-16.69999994054956
 31
0.0
  0
LINE
  5
31C
100
AcDbEntity
  8
0
  6
CONTINUOUS
 62
               7
100
AcDbLine
 10
5.6999999999998181
 20
-16.799999940549924
 30
0.0
 11
10.499999999999545
 21
-16.799999940549924
 31
0.0
  0
LINE
  5
31D
100
AcDbEntity
  8
0
  6
CONTINUOUS
 62
               7
100
AcDbLine
 10
5.6999999999998181
 20
-18.699999940549532
 30
0.0
 11
10.499999999999545
 21
-18.699999940549532
 31
0.0
  0
LINE
  5
31E
100
AcDbEntity
  8
0
  6
CONTINUOUS
 62
               7
100
AcDbLine
 10
5.6999999999998181
 20
-17.69999994054956
 30
0.0
 11
10.499999999999545
 21
-17.69999994054956
 31
0.0
  0
LINE
  5
31F
100
AcDbEntity
  8
0
  6
CONTINUOUS
 62
               7
100
AcDbLine
 10
5.6999999999998181
 20
-17.799999940549696
 30
0.0
 11
10.499999999999545
 21
-17.799999940549696
 31
0.0
  0
LINE
  5
320
100
AcDbEntity
  8
0
  6
CONTINUOUS
 62
               7
100
AcDbLine
 10
5.6999999999998181
 20
-18.799999940549441
 30
0.0
 11
10.499999999999545
 21
-18.799999940549441
 31
0.0
  0
LINE
  5
321
100
AcDbEntity
  8
0
  6
CONTINUOUS
 62
               7
100
AcDbLine
 10
5.6999999999998181
 20
-19.699999940549532
 30
0.0
 11
10.499999999999545
 21
-19.699999940549532
 31
0.0
  0
LINE
  5
322
100
AcDbEntity
  8
0
  6
CONTINUOUS
 62
               7
100
AcDbLine
 10
5.6999999999998181
 20
-19.799999940549213
 30
0.0
 11
10.499999999999545
 21
-19.799999940549213
 31
0.0
  0
LINE
  5
323
100
AcDbEntity
  8
0
  6
CONTINUOUS
 62
               7
100
AcDbLine
 10
5.6999999999998181
 20
-21.699999940549532
 30
0.0
 11
10.499999999999545
 21
-21.699999940549532
 31
0.0
  0
LINE
  5
324
100
AcDbEntity
  8
0
  6
CONTINUOUS
 62
               7
100
AcDbLine
 10
5.6999999999998181
 20
-20.699999940549532
 30
0.0
 11
10.499999999999545
 21
-20.699999940549532
 31
0.0
  0
LINE
  5
325
100
AcDbEntity
  8
0
  6
CONTINUOUS
 62
               7
100
AcDbLine
 10
5.6999999999998181
 20
-20.799999940549895
 30
0.0
 11
10.499999999999545
 21
-20.799999940549895
 31
0.0
  0
ARC
  5
326
100
AcDbEntity
  8
0
  6
CONTINUOUS
 62
               7
100
AcDbCircle
 10
4.7999999999999545
 20
-14.999999940549287
 30
0.0
 40
0.1
100
AcDbArc
 50
0.0
 51
90.000000000000057
  0
ARC
  5
327
100
AcDbEntity
  8
0
  6
CONTINUOUS
 62
               7
100
AcDbCircle
 10
4.7999999999999545
 20
-15.099999940549196
 30
0.0
 40
0.1
100
AcDbArc
 50
0.0
 51
90.000000000000057
  0
LINE
  5
328
100
AcDbEntity
  8
0
  6
CONTINUOUS
 62
               7
100
AcDbLine
 10
4.0
 20
-12.499999940549742
 30
0.0
 11
4.5999999999996817
 21
-12.499999940549742
 31
0.0
  0
ARC
  5
329
100
AcDbEntity
  8
0
  6
CONTINUOUS
 62
               7
100
AcDbCircle
 10
4.6999999999997044
 20
-12.499999940549287
 30
0.0
 40
0.3
100
AcDbArc
 50
270.0
 51
0.0
  0
LINE
  5
32A
100
AcDbEntity
  8
0
  6
CONTINUOUS
 62
               7
100
AcDbLine
 10
4.8999999999997499
 20
-12.199999940550015
 30
0.0
 11
4.8999999999997499
 21
-10.999999940549742
 31
0.0
  0
ARC
  5
32B
100
AcDbEntity
  8
0
  6
CONTINUOUS
 62
               7
100
AcDbCircle
 10
5.2999999999988177
 20
-11.299999940549924
 30
0.0
 40
0.3
100
AcDbArc
 50
90.000000000000057
 51
180.0
  0
ARC
  5
32C
100
AcDbEntity
  8
0
  6
CONTINUOUS
 62
               7
100
AcDbCircle
 10
5.1999999999987949
 20
-10.999999940549969
 30
0.0
 40
0.3
100
AcDbArc
 50
90.000000000000057
 51
180.0
  0
LINE
  5
32D
100
AcDbEntity
  8
0
  6
CONTINUOUS
 62
               7
100
AcDbLine
 10
4.0
 20
-11.699999940549787
 30
0.0
 11
4.0
 21
-12.799999940549014
 31
0.0
  0
LINE
  5
32E
100
AcDbEntity
  8
0
  6
CONTINUOUS
 62
               7
100
AcDbLine
 10
4.9999999999997726
 20
-12.499999940549287
 30
0.0
 11
4.9999999999996589
 21
-11.299999940549242
 31
0.0
  0
ARC
  5
32F
100
AcDbEntity
  8
0
  6
CONTINUOUS
 62
               7
100
AcDbCircle
 10
4.5999999999996817
 20
-12.199999940550015
 30
0.0
 40
0.3
100
AcDbArc
 50
269.99999999999659
 51
0.0
  0
LINE
  5
330
100
AcDbEntity
  8
0
  6
CONTINUOUS
 62
               7
100
AcDbLine
 10
5.6999999999998181
 20
-14.69999994054956
 30
0.0
 11
10.499999999999545
 21
-14.69999994054956
 31
0.0
  0
LINE
  5
331
100
AcDbEntity
  8
0
  6
CONTINUOUS
 62
               7
100
AcDbLine
 10
5.6999999999998181
 20
-13.69999994054956
 30
0.0
 11
10.499999999999545
 21
-13.69999994054956
 31
0.0
  0
LINE
  5
332
100
AcDbEntity
  8
0
  6
CONTINUOUS
 62
               7
100
AcDbLine
 10
5.6999999999998181
 20
-13.799999940549469
 30
0.0
 11
10.499999999999545
 21
-13.799999940549469
 31
0.0
  0
LINE
  5
333
100
AcDbEntity
  8
0
  6
CONTINUOUS
 62
               7
100
AcDbLine
 10
5.6999999999998181
 20
-14.799999940549469
 30
0.0
 11
10.499999999999545
 21
-14.799999940549469
 31
0.0
  0
LINE
  5
334
100
AcDbEntity
  8
0
  6
CONTINUOUS
 62
               7
100
AcDbLine
 10
5.6999999999998181
 20
-15.69999994054956
 30
0.0
 11
10.499999999999545
 21
-15.69999994054956
 31
0.0
  0
LINE
  5
335
100
AcDbEntity
  8
0
  6
CONTINUOUS
 62
               7
100
AcDbLine
 10
5.6999999999998181
 20
-15.799999940549242
 30
0.0
 11
10.499999999999545
 21
-15.799999940549242
 31
0.0
  0
LINE
  5
336
100
AcDbEntity
  8
0
  6
CONTINUOUS
 62
               7
100
AcDbLine
 10
5.6999999999998181
 20
-12.799999940549242
 30
0.0
 11
10.499999999999545
 21
-12.799999940549924
 31
0.0
  0
LINE
  5
337
100
AcDbEntity
  8
0
  6
CONTINUOUS
 62
               7
100
AcDbLine
 10
5.6999999999998181
 20
-21.699999940549532
 30
0.0
 11
5.6999999999998181
 21
-12.799999940549924
 31
0.0
  0
LINE
  5
338
100
AcDbEntity
  8
0
  6
CONTINUOUS
 62
               7
100
AcDbLine
 10
4.5999999999999091
 20
-14.999999940549515
 30
0.0
 11
4.5999999999999091
 21
-16.999999940549515
 31
0.0
  0
LINE
  5
339
100
AcDbEntity
  8
0
  6
CONTINUOUS
 62
               7
100
AcDbLine
 10
4.8999999999999773
 20
-17.099999940549424
 30
0.0
 11
4.8999999999999773
 21
-14.999999940549287
 31
0.0
  0
LINE
  5
33A
100
AcDbEntity
  8
0
  6
CONTINUOUS
 62
               7
100
AcDbLine
 10
10.499999999999545
 20
-21.699999940549532
 30
0.0
 11
10.499999999999545
 21
-12.799999940549924
 31
0.0
  0
ARC
  5
33B
100
AcDbEntity
  8
0
  6
CONTINUOUS
 62
               7
100
AcDbCircle
 10
1.1999999999999318
 20
-17.099999940549424
 30
0.0
 40
0.1
100
AcDbArc
 50
180.0
 51
270.0
  0
ARC
  5
33C
100
AcDbEntity
  8
0
  6
CONTINUOUS
 62
               7
100
AcDbCircle
 10
1.1999999999999318
 20
-14.999999940549287
 30
0.0
 40
0.1
100
AcDbArc
 50
90.000000000000057
 51
180.0
  0
ARC
  5
33D
100
AcDbEntity
  8
0
  6
CONTINUOUS
 62
               7
100
AcDbCircle
 10
1.1999999999999318
 20
-15.099999940549196
 30
0.0
 40
0.1
100
AcDbArc
 50
90.000000000000057
 51
180.0
  0
LINE
  5
33E
100
AcDbEntity
  8
0
  6
CONTINUOUS
 62
               7
100
AcDbLine
 10
1.5
 20
-11.699999940549787
 30
0.0
 11
1.5
 21
-12.799999940549242
 31
0.0
  0
LINE
  5
33F
100
AcDbEntity
  8
0
  6
CONTINUOUS
 62
               7
100
AcDbLine
 10
-2.9999999999993179
 20
-12.799999940549924
 30
0.0
 11
-2.9999999999993179
 21
-12.499999940549742
 31
0.0
  0
LINE
  5
340
100
AcDbEntity
  8
0
  6
CONTINUOUS
 62
               7
100
AcDbLine
 10
1.3999999999999773
 20
-14.999999940549515
 30
0.0
 11
1.3999999999999773
 21
-16.999999940549515
 31
0.0
  0
LINE
  5
341
100
AcDbEntity
  8
0
  6
CONTINUOUS
 62
               7
100
AcDbLine
 10
1.0999999999999091
 20
-17.099999940549424
 30
0.0
 11
1.0999999999999091
 21
-14.999999940549287
 31
0.0
  0
LINE
  5
342
100
AcDbEntity
  8
0
  6
CONTINUOUS
 62
               7
100
AcDbLine
 10
4.5999999999999091
 20
-15.960999940549527
 30
0.0
 11
1.3999999999999773
 21
-15.960999940549527
 31
0.0
  0
LINE
  5
343
100
AcDbEntity
  8
0
  6
CONTINUOUS
 62
               7
100
AcDbLine
 10
4.7999999999999545
 20
-14.899999940549378
 30
0.0
 11
1.1999999999999318
 21
-14.899999940549378
 31
0.0
  0
LINE
  5
344
100
AcDbEntity
  8
0
  6
CONTINUOUS
 62
               7
100
AcDbLine
 10
4.7999999999999545
 20
-14.999999940549515
 30
0.0
 11
1.1999999999999318
 21
-14.999999940549515
 31
0.0
  0
LINE
  5
345
100
AcDbEntity
  8
0
  6
CONTINUOUS
 62
               7
100
AcDbLine
 10
4.5999999999999091
 20
-16.999999940549515
 30
0.0
 11
1.3999999999999773
 21
-16.999999940549515
 31
0.0
  0
LINE
  5
346
100
AcDbEntity
  8
0
  6
CONTINUOUS
 62
               7
100
AcDbLine
 10
4.7999999999999545
 20
-17.19999994054956
 30
0.0
 11
1.1999999999999318
 21
-17.19999994054956
 31
0.0
  0
LINE
  5
347
100
AcDbEntity
  8
0
  6
CONTINUOUS
 62
               7
100
AcDbLine
 10
4.0
 20
-11.999999940549742
 30
0.0
 11
1.5
 21
-11.999999940549742
 31
0.0
  0
ARC
  5
348
100
AcDbEntity
  8
0
  6
CONTINUOUS
 62
               7
100
AcDbCircle
 10
-3.1999999999998181
 20
-34.199999940549532
 30
0.0
 40
0.8
100
AcDbArc
 50
180.00000000000651
 51
270.0
  0
ARC
  5
349
100
AcDbEntity
  8
0
  6
CONTINUOUS
 62
               7
100
AcDbCircle
 10
-3.7000000000002728
 20
-9.7999999405494691
 30
0.0
 40
0.3
100
AcDbArc
 50
90.000000000000057
 51
180.0
  0
LINE
  5
34A
100
AcDbEntity
  8
0
  6
CONTINUOUS
 62
               7
100
AcDbLine
 10
-4.0000000000003411
 20
-9.7999999405494691
 30
0.0
 11
-4.0000000000003411
 21
-12.499999940549742
 31
0.0
  0
LINE
  5
34B
100
AcDbEntity
  8
0
  6
CONTINUOUS
 62
               7
100
AcDbLine
 10
-4.0000000000004547
 20
-12.799999940549242
 30
0.0
 11
-3.9999999999997726
 21
-34.199999940549532
 31
0.0
  0
LINE
  5
34C
100
AcDbEntity
  8
0
  6
CONTINUOUS
 62
               7
100
AcDbLine
 10
-4.0000000000012506
 20
-12.799999940549242
 30
0.0
 11
4.6999999999997044
 21
-12.799999940549014
 31
0.0
  0
LINE
  5
34D
100
AcDbEntity
  8
0
  6
CONTINUOUS
 62
               7
100
AcDbLine
 10
-4.0000000000003411
 20
-12.499999940549742
 30
0.0
 11
1.5
 21
-12.499999940549742
 31
0.0
  0
LINE
  5
34E
100
AcDbEntity
  8
0
  6
CONTINUOUS
 62
               7
100
AcDbLine
 10
4.9999999999998863
 20
-1.999999940549742
 30
0.0
 11
4.0717959999999493
 21
-2.5358979405498303
 31
0.0
  0
LINE
  5
34F
100
AcDbEntity
  8
0
  6
CONTINUOUS
 62
               7
100
AcDbLine
 10
6.5910620070611685
 20
-0.499999940549742
 30
0.0
 11
6.0203589881865582
 21
-0.170503929652341
 31
0.0
  0
LINE
  5
350
100
AcDbEntity
  8
0
  6
CONTINUOUS
 62
               7
100
AcDbLine
 10
6.7999999999999545
 20
-0.499999940549742
 30
0.0
 11
6.7999999999999545
 21
-1.999999940549742
 31
0.0
  0
ARC
  5
351
100
AcDbEntity
  8
0
  6
CONTINUOUS
 62
               7
100
AcDbCircle
 10
5.8038469999999052
 20
-5.0669869405498957
 30
0.0
 40
3.0669869999999979
100
AcDbArc
 50
55.615752999994442
 51
124.38424700000539
  0
LINE
  5
352
100
AcDbEntity
  8
0
  6
CONTINUOUS
 62
               7
100
AcDbLine
 10
7.0600623543795109
 20
7.500000059450258
 30
0.0
 11
6.235074540341202
 21
6.7003903989600531
 31
0.0
  0
LINE
  5
353
100
AcDbEntity
  8
0
  6
CONTINUOUS
 62
               2
100
AcDbLine
 10
6.8342215147250727
 20
7.2811065024204709
 30
0.0
 11
6.5910620070611685
 21
-0.499999940549742
 31
0.0
  0
LINE
  5
354
100
AcDbEntity
  8
0
  6
CONTINUOUS
 62
               7
100
AcDbLine
 10
6.0203589881865582
 20
-0.170503929652341
 30
0.0
 11
6.235074540341202
 21
6.7003903989600531
 31
0.0
  0
LINE
  5
355
100
AcDbEntity
  8
0
  6
CONTINUOUS
 62
               7
100
AcDbLine
 10
4.0717959999998357
 20
-7.4999999405499693
 30
0.0
 11
4.0717959999999493
 21
-2.5358979405498303
 31
0.0
  0
LINE
  5
356
100
AcDbEntity
  8
0
  6
CONTINUOUS
 62
               7
100
AcDbLine
 10
7.535897999999861
 20
-2.5358979405498303
 30
0.0
 11
7.535897999999861
 21
-9.499999940549742
 31
0.0
  0
LINE
  5
357
100
AcDbEntity
  8
0
  6
CONTINUOUS
 62
               7
100
AcDbLine
 10
-3.1999999999998181
 20
-34.999999940549714
 30
0.0
 11
25.199999999999818
 21
-34.999999940549259
 31
0.0
  0
LINE
  5
358
100
AcDbEntity
  8
0
  6
CONTINUOUS
 62
               7
100
AcDbLine
 10
7.0600623543795109
 20
7.500000059450258
 30
0.0
 11
14.939937759001964
 21
7.500000059450258
 31
0.0
  0
LINE
  5
359
100
AcDbEntity
  8
0
  6
CONTINUOUS
 62
               7
100
AcDbLine
 10
6.235074540341202
 20
6.7003903989600531
 30
0.0
 11
15.764925459658798
 21
6.7003903989600531
 31
0.0
  0
LINE
  5
35A
100
AcDbEntity
  8
0
  6
CONTINUOUS
 62
               7
100
AcDbLine
 10
8.2999999999999545
 20
-36.499999940549714
 30
0.0
 11
13.699999999999932
 21
-36.499999940549486
 31
0.0
  0
LINE
  5
35B
100
AcDbEntity
  8
0
  6
CONTINUOUS
 62
               7
100
AcDbLine
 10
4.9999999999998863
 20
-1.999999940549742
 30
0.0
 11
16.999999999999886
 21
-1.999999940549742
 31
0.0
  0
LINE
  5
35C
100
AcDbEntity
  8
0
  6
CONTINUOUS
 62
               7
100
AcDbLine
 10
16.700000000001182
 20
-10.999999940549742
 30
0.0
 11
5.2999999999988177
 21
-10.999999940549742
 31
0.0
  0
ARC
  5
35D
100
AcDbEntity
  8
0
  6
CONTINUOUS
 62
               7
100
AcDbCircle
 10
10.999999999999886
 20
-13.464101940549426
 30
0.0
 40
11.464102
100
AcDbArc
 50
72.412046000000259
 51
107.5879539999997
  0
LINE
  5
35E
100
AcDbEntity
  8
0
  6
CONTINUOUS
 62
               7
100
AcDbLine
 10
15.408937992938831
 20
-0.499999940549742
 30
0.0
 11
6.5910620070611685
 21
-0.499999940549742
 31
0.0
  0
LINE
  5
35F
100
AcDbEntity
  8
0
  6
CONTINUOUS
 62
               7
100
AcDbLine
 10
6.0203589881865582
 20
-0.170503929652341
 30
0.0
 11
15.979641011813442
 21
-0.170503929652341
 31
0.0
  0
LINE
  5
360
100
AcDbEntity
  8
0
  6
CONTINUOUS
 62
               7
100
AcDbLine
 10
5.1999999999987949
 20
-10.699999940550015
 30
0.0
 11
16.800000000001091
 21
-10.699999940550015
 31
0.0
  0
LINE
  5
361
100
AcDbEntity
  8
0
  6
CONTINUOUS
 62
               7
100
AcDbLine
 10
25.974999999999909
 20
-7.4999999405499693
 30
0.0
 11
17.475000000000023
 21
-7.4999999405499693
 31
0.0
  0
LINE
  5
362
100
AcDbEntity
  8
0
  6
CONTINUOUS
 62
               7
100
AcDbLine
 10
25.474999976250047
 20
4.9999996422000095
 30
0.0
 11
15.818062696640595
 21
4.9999996422000095
 31
0.0
  0
LINE
  5
363
100
AcDbEntity
  8
0
  6
CONTINUOUS
 62
               7
100
AcDbLine
 10
-3.9749999999999091
 20
-9.499999940549742
 30
0.0
 11
25.974999999999909
 21
-9.499999940549742
 31
0.0
  0
ARC
  5
364
100
AcDbEntity
  8
0
  6
CONTINUOUS
 62
               7
100
AcDbCircle
 10
21.5
 20
0.000000059450258
 30
0.0
 40
2.0999999377499989
100
AcDbArc
 50
90.0
 51
270.0
  0
LINE
  5
365
100
AcDbEntity
  8
0
  6
CENTER
 62
               2
100
AcDbLine
 10
22.0
 20
3.7637326727597156
 30
0.0
 11
22.0
 21
-3.903717791499048
 31
0.0
  0
LINE
  5
366
100
AcDbEntity
  8
0
  6
CONTINUOUS
 62
               7
100
AcDbLine
 10
25.974999999999909
 20
2.0999999118998858
 30
0.0
 11
21.5
 21
2.0999999971500074
 31
0.0
  0
LINE
  5
367
100
AcDbEntity
  8
0
  6
CONTINUOUS
 62
               7
100
AcDbLine
 10
25.474999976250047
 20
4.9999996422000095
 30
0.0
 11
25.974999999999909
 21
4.500000491550054
 31
0.0
  0
LINE
  5
368
100
AcDbEntity
  8
0
  6
CONTINUOUS
 62
               7
100
AcDbLine
 10
25.974999999999909
 20
4.500000491550054
 30
0.0
 11
25.974999999999909
 21
2.0999999118998858
 31
0.0
  0
LINE
  5
369
100
AcDbEntity
  8
0
  6
CONTINUOUS
 62
               7
100
AcDbLine
 10
21.5
 20
-2.0999998782997409
 30
0.0
 11
25.974999999999909
 21
-2.0999999383500381
 31
0.0
  0
LINE
  5
36A
100
AcDbEntity
  8
0
  6
CONTINUOUS
 62
               7
100
AcDbLine
 10
25.974999999999909
 20
-9.499999940549742
 30
0.0
 11
25.974999999999909
 21
-2.0999999383500381
 31
0.0
  0
LINE
  5
36B
100
AcDbEntity
  8
0
  6
CONTINUOUS
 62
               7
100
AcDbLine
 10
17.475000000000023
 20
-9.499999940549742
 30
0.0
 11
17.475000000000023
 21
-7.4999999405499693
 31
0.0
  0
ARC
  5
36C
100
AcDbEntity
  8
0
  6
CONTINUOUS
 62
               7
100
AcDbCircle
 10
0.5
 20
0.0
 30
0.0
 40
2.1000000000000001
100
AcDbArc
 50
270.0
 51
90.0
  0
LINE
  5
36D
100
AcDbEntity
  8
0
  6
CENTER
 62
               2
100
AcDbLine
 10
0.0
 20
3.7637326727597156
 30
0.0
 11
0.0
 21
-3.903717791499048
 31
0.0
  0
LINE
  5
36E
100
AcDbEntity
  8
0
  6
CONTINUOUS
 62
               7
100
AcDbLine
 10
0.5
 20
2.0999999971500074
 30
0.0
 11
-3.9750003456999821
 21
2.0999999118998858
 31
0.0
  0
LINE
  5
36F
100
AcDbEntity
  8
0
  6
CONTINUOUS
 62
               7
100
AcDbLine
 10
-3.9750003456999821
 20
4.500000491550054
 30
0.0
 11
-3.4749993324498973
 21
4.9999996422000095
 31
0.0
  0
LINE
  5
370
100
AcDbEntity
  8
0
  6
CONTINUOUS
 62
               7
100
AcDbLine
 10
-3.9750003456999821
 20
4.500000491550054
 30
0.0
 11
-3.9750003456999821
 21
2.0999999118998858
 31
0.0
  0
LINE
  5
371
100
AcDbEntity
  8
0
  6
CONTINUOUS
 62
               7
100
AcDbLine
 10
-3.9750003456999821
 20
-2.0999999383500381
 30
0.0
 11
0.5
 21
-2.1000000000001364
 31
0.0
  0
LINE
  5
372
100
AcDbEntity
  8
0
  6
CONTINUOUS
 62
               7
100
AcDbLine
 10
4.5250000000000909
 20
-9.499999940549742
 30
0.0
 11
4.5250000000000909
 21
-7.4999999405499693
 31
0.0
  0
LINE
  5
373
100
AcDbEntity
  8
0
  6
CONTINUOUS
 62
               7
100
AcDbLine
 10
-3.9749999999999091
 20
-2.0999999383500452
 30
0.0
 11
-3.9749999999999091
 21
-9.499999940549742
 31
0.0
  0
LINE
  5
374
100
AcDbEntity
  8
0
  6
CONTINUOUS
 62
               7
100
AcDbLine
 10
4.5250000000000909
 20
-7.4999999405499693
 30
0.0
 11
-3.9749999999999091
 21
-7.4999999405499693
 31
0.0
  0
LINE
  5
375
100
AcDbEntity
  8
0
  6
CONTINUOUS
 62
               7
100
AcDbLine
 10
23.374999999999886
 20
-6.6999999405500148
 30
0.0
 11
23.374999999999886
 21
-7.4999999405499693
 31
0.0
  0
LINE
  5
376
100
AcDbEntity
  8
0
  6
CONTINUOUS
 62
               7
100
AcDbLine
 10
18.574999999999932
 20
-6.6999999405500148
 30
0.0
 11
18.574999999999932
 21
-7.4999999405499693
 31
0.0
  0
ARC
  5
377
100
AcDbEntity
  8
0
  6
CONTINUOUS
 62
               7
100
AcDbCircle
 10
23.374999999999886
 20
-6.4999999405499693
 30
0.0
 40
0.2
100
AcDbArc
 50
270.0
 51
0.0
  0
ARC
  5
378
100
AcDbEntity
  8
0
  6
CONTINUOUS
 62
               7
100
AcDbCircle
 10
18.574999999999932
 20
-6.4999999405499693
 30
0.0
 40
0.2
100
AcDbArc
 50
180.0
 51
270.0
  0
ARC
  5
379
100
AcDbEntity
  8
0
  6
CONTINUOUS
 62
               7
100
AcDbCircle
 10
19.374999999999886
 20
-5.6999999405500148
 30
0.0
 40
1.0
100
AcDbArc
 50
90.0
 51
180.0
  0
ARC
  5
37A
100
AcDbEntity
  8
0
  6
CONTINUOUS
 62
               7
100
AcDbCircle
 10
22.574999999999932
 20
-5.6999999405500148
 30
0.0
 40
1.0
100
AcDbArc
 50
0.0
 51
90.0
  0
LINE
  5
37B
100
AcDbEntity
  8
0
  6
CONTINUOUS
 62
               7
100
AcDbLine
 10
19.374999999999886
 20
-4.6999999405500148
 30
0.0
 11
22.574999999999932
 21
-4.6999999405500148
 31
0.0
  0
LINE
  5
37C
100
AcDbEntity
  8
0
  6
CONTINUOUS
 62
               7
100
AcDbLine
 10
23.374999999999886
 20
-6.6999999405500148
 30
0.0
 11
18.574999999999932
 21
-6.6999999405500148
 31
0.0
  0
LINE
  5
37D
100
AcDbEntity
  8
0
  6
CONTINUOUS
 62
               7
100
AcDbLine
 10
23.574999999999932
 20
-5.6999999405500148
 30
0.0
 11
23.574999999999932
 21
-6.4999999405499693
 31
0.0
  0
LINE
  5
37E
100
AcDbEntity
  8
0
  6
CONTINUOUS
 62
               7
100
AcDbLine
 10
18.374999999999886
 20
-5.6999999405500148
 30
0.0
 11
18.374999999999886
 21
-6.4999999405499693
 31
0.0
  0
LINE
  5
37F
100
AcDbEntity
  8
0
  6
CONTINUOUS
 62
               7
100
AcDbLine
 10
-1.5749999999999318
 20
-5.6999999405500148
 30
0.0
 11
-1.5749999999999318
 21
-6.4999999405499693
 31
0.0
  0
LINE
  5
380
100
AcDbEntity
  8
0
  6
CONTINUOUS
 62
               7
100
AcDbLine
 10
3.6250000000001137
 20
-5.6999999405500148
 30
0.0
 11
3.6250000000001137
 21
-6.4999999405499693
 31
0.0
  0
LINE
  5
381
100
AcDbEntity
  8
0
  6
CONTINUOUS
 62
               7
100
AcDbLine
 10
3.4250000000000682
 20
-6.6999999405500148
 30
0.0
 11
-1.3749999999998863
 21
-6.6999999405500148
 31
0.0
  0
LINE
  5
382
100
AcDbEntity
  8
0
  6
CONTINUOUS
 62
               7
100
AcDbLine
 10
-0.5749999999999318
 20
-4.6999999405500148
 30
0.0
 11
2.6250000000001137
 21
-4.6999999405500148
 31
0.0
  0
ARC
  5
383
100
AcDbEntity
  8
0
  6
CONTINUOUS
 62
               7
100
AcDbCircle
 10
2.6250000000001137
 20
-5.6999999405500148
 30
0.0
 40
1.0
100
AcDbArc
 50
0.0
 51
90.0
  0
ARC
  5
384
100
AcDbEntity
  8
0
  6
CONTINUOUS
 62
               7
100
AcDbCircle
 10
-0.5749999999999318
 20
-5.6999999405500148
 30
0.0
 40
1.0
100
AcDbArc
 50
90.0
 51
180.0
  0
ARC
  5
385
100
AcDbEntity
  8
0
  6
CONTINUOUS
 62
               7
100
AcDbCircle
 10
-1.3749999999998863
 20
-6.4999999405499693
 30
0.0
 40
0.2
100
AcDbArc
 50
180.0
 51
270.0
  0
ARC
  5
386
100
AcDbEntity
  8
0
  6
CONTINUOUS
 62
               7
100
AcDbCircle
 10
3.4250000000000682
 20
-6.4999999405499693
 30
0.0
 40
0.2
100
AcDbArc
 50
270.0
 51
0.0
  0
LINE
  5
387
100
AcDbEntity
  8
0
  6
CONTINUOUS
 62
               7
100
AcDbLine
 10
-1.3749999999998863
 20
-6.6999999405500148
 30
0.0
 11
-1.3749999999998863
 21
-7.4999999405499693
 31
0.0
  0
LINE
  5
388
100
AcDbEntity
  8
0
  6
CONTINUOUS
 62
               7
100
AcDbLine
 10
3.4250000000000682
 20
-6.6999999405500148
 30
0.0
 11
3.4250000000000682
 21
-7.4999999405499693
 31
0.0
  0
LINE
  5
389
100
AcDbEntity
  8
0
  6
CONTINUOUS
 62
               7
100
AcDbLine
 10
6.1819373033594047
 20
4.9999996422000095
 30
0.0
 11
-3.4749993324498973
 21
4.9999996422000095
 31
0.0
  0
LINE
  5
38A
100
AcDbEntity
  8
0
  6
CENTER
 62
               2
100
AcDbLine
 10
28.974999999999909
 20
0.0
 30
0.0
 11
-6.9750003456999821
 21
0.0
 31
0.0
  0
LINE
  5
38B
100
AcDbEntity
  8
0
  6
CENTER
 62
               2
100
AcDbLine
 10
11.0
 20
10.500000059450258
 30
0.0
 11
11.0
 21
-39.4999999405496
 31
0.0
  0
ENDBLK
  5
38C
100
AcDbEntity
  8
0
100
AcDbBlockEnd
  0
BLOCK
  5
22
100
AcDbEntity
  8
0
  6
ByBlock
 62
               0
100
AcDbBlockBegin
  2
_OPEN30
 70
               2
 10
0.0
 20
0.0
 30
0.0
  3
_OPEN30
  1

  0
LINE
  5
23
100
AcDbEntity
  8
0
  6
ByBlock
 62
               0
100
AcDbLine
 10
-1.0
 20
0.267949
 30
0.0
 11
0.0
 21
0.0
 31
0.0
  0
LINE
  5
24
100
AcDbEntity
  8
0
  6
ByBlock
 62
               0
100
AcDbLine
 10
0.0
 20
0.0
 30
0.0
 11
-1.0
 21
-0.267949
 31
0.0
  0
LINE
  5
25
100
AcDbEntity
  8
0
  6
ByBlock
 62
               0
100
AcDbLine
 10
0.0
 20
0.0
 30
0.0
 11
-1.0
 21
0.0
 31
0.0
  0
ENDBLK
  5
26
100
AcDbEntity
  8
0
  6
ByBlock
 62
               0
100
AcDbBlockEnd
  0
ENDSEC
  0
SECTION
  2
ENTITIES
  0
LINE
  5
38D
100
AcDbEntity
  8
0
  6
CONTINUOUS
 62
               7
100
AcDbLine
 10
-55.199993896484372
 20
94.5
 30
0.0
 11
-55.199993896484372
 21
84.5
 31
0.0
  0
MTEXT
  5
38E
100
AcDbEntity
  8
0
  6
CONTINUOUS
 62
               7
100
AcDbMText
 10
-104.26666011810303
 20
89.099999904632568
 30
0.0
 40
3.1999998092651367
 41
0.0
 71
               1
 72
               1
  1
\A1;GS6-B
  0
MTEXT
  5
38F
100
AcDbEntity
  8
0
  6
CONTINUOUS
 62
               7
100
AcDbMText
 10
-136.23341931050027
 20
93.099999904632568
 30
0.0
 40
3.1999998092651367
 41
0.0
 71
               1
 72
               1
  1
\W1.062;\A1;DIGITAL PRESSURE SWITCHES
  0
LINE
  5
390
100
AcDbEntity
  8
0
  6
CONTINUOUS
 62
               7
100
AcDbLine
 10
-138.39999389648437
 20
84.5
 30
0.0
 11
-55.199993896484372
 21
84.5
 31
0.0
  0
INSERT
  5
391
100
AcDbEntity
  8
0
  6
ByBlock
100
AcDbBlockReference
  2
MS_3
 10
-51.0
 20
54.999999940549486
 30
0.0
  0
INSERT
  5
392
100
AcDbEntity
  8
0
  6
ByBlock
100
AcDbBlockReference
  2
MS_2
 10
70.178193867355503
 20
-60.0
 30
0.0
  0
INSERT
  5
393
100
AcDbEntity
  8
0
  6
ByBlock
100
AcDbBlockReference
  2
MS_1
 10
-40.0
 20
-30.0
 30
0.0
  0
MTEXT
  5
394
100
AcDbEntity
  8
0
  6
CONTINUOUS
 62
               7
100
AcDbMText
 10
-129.40219171557388
 20
74.5
 30
0.0
 40
3.2000000476837158
 41
0.0
 71
               4
 72
               1
  1
\W1.121;\A1;MODEL:GS610(-A)-B
  0
LINE
  5
395
100
AcDbEntity
  8
0
  6
CONTINUOUS
 62
               7
100
AcDbLine
 10
73.350006103515625
 20
-84.800003051757813
 30
0.0
 11
138.35000610351562
 21
-84.800003051757813
 31
0.0
  0
LINE
  5
396
100
AcDbEntity
  8
0
  6
CONTINUOUS
 62
               7
100
AcDbLine
 10
73.350006103515625
 20
-84.800003051757813
 30
0.0
 11
73.350006103515625
 21
-94.800003051757812
 31
0.0
  0
MTEXT
  5
397
100
AcDbEntity
  8
0
  6
CONTINUOUS
 62
               7
100
AcDbMText
 10
77.440523342735503
 20
-89.800003051757812
 30
0.0
 40
4.5
 41
0.0
 71
               4
 72
               1
  1
\W1.121;\A1;KOGANEI CORP.
  0
LINE
  5
398
100
AcDbEntity
  8
0
  6
CONTINUOUS
 62
               7
100
AcDbLine
 10
73.350006103515625
 20
94.5
 30
0.0
 11
73.350006103515625
 21
84.5
 31
0.0
  0
LINE
  5
399
100
AcDbEntity
  8
0
  6
CONTINUOUS
 62
               7
100
AcDbLine
 10
73.350006103515625
 20
84.5
 30
0.0
 11
138.35000610351562
 21
84.5
 31
0.0
  0
MTEXT
  5
39A
100
AcDbEntity
  8
0
  6
CONTINUOUS
 62
               7
100
AcDbMText
 10
93.749460369842424
 20
89.5
 30
0.0
 40
3.1999998092651367
 41
0.0
 71
               4
 72
               1
  1
\W1.311;\A1;Ver. 1.0
  0
MTEXT
  5
39B
100
AcDbEntity
  8
0
  6
CONTINUOUS
 62
               7
100
AcDbMText
 10
-110.22294444642506
 20
69.5
 30
0.0
 40
3.2000000476837158
 41
0.0
 71
               4
 72
               1
  1
\W1.082;\A1;GS620(-A)-B
  0
LINE
  5
39C
100
AcDbEntity
  8
0
  6
CONTINUOUS
 62
               7
100
AcDbLine
 10
-138.39999389648437
 20
94.5
 30
0.0
 11
138.35000610351562
 21
94.5
 31
0.0
  0
LINE
  5
39D
100
AcDbEntity
  8
0
  6
CONTINUOUS
 62
               7
100
AcDbLine
 10
138.35000610351562
 20
94.5
 30
0.0
 11
138.35000610351562
 21
-94.800003051757812
 31
0.0
  0
LINE
  5
39E
100
AcDbEntity
  8
0
  6
CONTINUOUS
 62
               7
100
AcDbLine
 10
-138.39999389648437
 20
-94.800003051757812
 30
0.0
 11
138.35000610351562
 21
-94.800003051757812
 31
0.0
  0
LINE
  5
39F
100
AcDbEntity
  8
0
  6
CONTINUOUS
 62
               7
100
AcDbLine
 10
-138.39999389648437
 20
94.5
 30
0.0
 11
-138.39999389648437
 21
-94.800003051757812
 31
0.0
  0
ENDSEC
  0
SECTION
  2
OBJECTS
  0
DICTIONARY
  5
19
100
AcDbDictionary
  3
ACAD_GROUP
350
1A
  3
ACAD_MLINESTYLE
350
1B
  0
DICTIONARY
  5
1A
102
{ACAD_REACTORS
330
19
102
}
100
AcDbDictionary
  0
DICTIONARY
  5
1B
102
{ACAD_REACTORS
330
19
102
}
100
AcDbDictionary
  3
STANDARD
350
1C
  0
MLINESTYLE
  5
1C
102
{ACAD_REACTORS
330
1B
102
}
100
AcDbMlineStyle
  2
Standard
 70
               0
  3

 62
               0
 51
90.0
 52
90.0
 71
               2
 49
0.5
 62
             256
  6
ByLayer
 49
-0.5
 62
             256
  6
ByLayer
  0
ENDSEC
  0
EOF
