  0
SECTION
  2
HEADER
  0
ENDSEC
  0
SECTION
  2
TABLES
  0
TABLE
  2
LTYPE
 70
     4
  0
LTYPE
  2
CONTINUOUS
 70
    64
  3
Solid line
 72
    65
 73
     0
 40
0.000000
  0
LTYPE
  2
DASHED
 70
    64
  3
__ __ __ __ __ __ __ __ __ __ __ __ __ __ __
 72
    65
 73
     2
 40
3.500000
 49
2.000000
 49
-1.500000
  0
LTYPE
  2
CENTER
 70
    64
  3
____ _ ____ _ ____ _ ____ _ ____ _ ____ _ ____
 72
    65
 73
     4
 40
17.500000
 49
13.000000
 49
-1.500000
 49
1.500000
 49
-1.500000
  0
LTYPE
  2
PHANTOM
 70
    64
  3
_____ _ _ _____ _ _ _____ _ _ _____ _ _ ____  
 72
    65
 73
     6
 40
15.500000
 49
8.000000
 49
-1.500000
 49
1.500000
 49
-1.500000
 49
1.500000
 49
-1.500000
  0
LTYPE
  2
DASHED1
 70
    64
  3
__ __ __ __ __ __ __ __ __ __ __ __ __ __ __
 72
    65
 73
     2
 40
1.500000
 49
1.000000
 49
-0.500000
  0
LTYPE
  2
DASHED2
 70
    64
  3
__ __ __ __ __ __ __ __ __ __ __ __ __ __ __
 72
    65
 73
     2
 40
3.500000
 49
2.500000
 49
-1.000000
  0
LTYPE
  2
DASHED3
 70
    64
  3
__ __ __ __ __ __ __ __ __ __ __ __ __ __ __
 72
    65
 73
     2
 40
6.000000
 49
4.000000
 49
-2.000000
  0
LTYPE
  2
DASHED4
 70
    64
  3
__ __ __ __ __ __ __ __ __ __ __ __ __ __ __
 72
    65
 73
     2
 40
12.000000
 49
10.000000
 49
-2.000000
  0
LTYPE
  2
DASHED5
 70
    64
  3
__ __ __ __ __ __ __ __ __ __ __ __ __ __ __
 72
    65
 73
     2
 40
17.000000
 49
15.000000
 49
-2.000000
  0
LTYPE
  2
DASHED6
 70
    64
  3
__ __ __ __ __ __ __ __ __ __ __ __ __ __ __
 72
    65
 73
     2
 40
29.000000
 49
27.000000
 49
-2.000000
  0
LTYPE
  2
PHANTOM1
 70
    64
  3
_____ _ _ _____ _ _ _____ _ _ _____ _ _ ____  
 72
    65
 73
     6
 40
31.000000
 49
25.000000
 49
-1.500000
 49
1.000000
 49
-1.000000
 49
1.000000
 49
-1.500000
  0
LTYPE
  2
PHANTOM2
 70
    64
  3
_____ _ _ _____ _ _ _____ _ _ _____ _ _ ____  
 72
    65
 73
     6
 40
36.000000
 49
27.000000
 49
-1.500000
 49
2.500000
 49
-1.000000
 49
2.500000
 49
-1.500000
  0
LTYPE
  2
PHANTOM3
 70
    64
  3
_____ _ _ _____ _ _ _____ _ _ _____ _ _ ____  
 72
    65
 73
     6
 40
78.000000
 49
64.000000
 49
-2.000000
 49
4.000000
 49
-2.000000
 49
4.000000
 49
-2.000000
  0
LTYPE
  2
CENTER1
 70
    64
  3
____ _ ____ _ ____ _ ____ _ ____ _ ____ _ ____
 72
    65
 73
     4
 40
19.000000
 49
14.000000
 49
-1.000000
 49
3.000000
 49
-1.000000
  0
LTYPE
  2
CENTER2
 70
    64
  3
____ _ ____ _ ____ _ ____ _ ____ _ ____ _ ____
 72
    65
 73
     4
 40
28.500000
 49
25.000000
 49
-1.000000
 49
1.500000
 49
-1.000000
  0
LTYPE
  2
CENTER3
 70
    64
  3
____ _ ____ _ ____ _ ____ _ ____ _ ____ _ ____
 72
    65
 73
     4
 40
31.500000
 49
27.000000
 49
-1.000000
 49
2.500000
 49
-1.000000
  0
LTYPE
  2
CENTER4
 70
    64
  3
____ _ ____ _ ____ _ ____ _ ____ _ ____ _ ____
 72
    65
 73
     4
 40
50.000000
 49
45.000000
 49
-1.000000
 49
3.000000
 49
-1.000000
  0
LTYPE
  2
CENTER5
 70
    64
  3
____ _ ____ _ ____ _ ____ _ ____ _ ____ _ ____
 72
    65
 73
     4
 40
100.000000
 49
92.000000
 49
-2.000000
 49
4.000000
 49
-2.000000
  0
LTYPE
  2
SBK1
 70
    64
  3
______ _ _ _ ______ _ _ _ ______ _ _ _ _____  
 72
    65
 73
     8
 40
60.500000
 49
45.000000
 49
-2.000000
 49
2.500000
 49
-2.000000
 49
2.500000
 49
-2.000000
 49
2.500000
 49
-2.000000
  0
LTYPE
  2
SBK2
 70
    64
  3
______ _ _ _ ______ _ _ _ ______ _ _ _ _____  
 72
    65
 73
     8
 40
84.000000
 49
64.000000
 49
-2.000000
 49
4.000000
 49
-2.000000
 49
4.000000
 49
-2.000000
 49
4.000000
 49
-2.000000
  0
LTYPE
  2
STCH
 70
    64
  3
__ __ __ __ __ __ __ __ __ __ __ __ __ __ __
 72
    65
 73
     2
 40
3.000000
 49
1.000000
 49
-2.000000
  0
LTYPE
  2
MTCH
 70
    64
  3
_____ _ _ _____ _ _ _____ _ _ _____ _ _ ____  
 72
    65
 73
     6
 40
80.000000
 49
66.000000
 49
-2.000000
 49
4.000000
 49
-2.000000
 49
4.000000
 49
-2.000000
  0
ENDTAB
  0
TABLE
  2
LAYER
 70
     1
  0
LAYER
  2
0
 70
     0
 62
     7
  6
CONTINUOUS
  0
ENDTAB
  0
TABLE
  2
STYLE
 70
     1
  0
STYLE
  2
STANDARD
 70
     0
 40
0.000000
 41
1.000000
 50
0.000000
 71
     0
 42
0.200000
  3
txt
  4
BIGFONT
  0
ENDTAB
  0
TABLE
  2
VIEW
 70
     0
  0
ENDTAB
  0
ENDSEC
  0
SECTION
  2
BLOCKS
  0
ENDSEC
  0
SECTION
  2
ENTITIES
  0
LINE
  8
0
 62
     4
 10
180.037369
 20
-247.999817
 11
190.037369
 21
-247.999817
  0
LINE
  8
0
  6
CENTER
 62
     1
 10
185.037369
 20
-249.784821
 11
185.037369
 21
-197.869263
  0
LINE
  8
0
 62
     4
 10
189.137375
 20
-204.999817
 11
189.137375
 21
-204.899811
  0
LINE
  8
0
 62
     4
 10
180.937363
 20
-204.999817
 11
180.937363
 21
-204.899811
  0
LINE
  8
0
 62
     4
 10
189.737366
 20
-204.899811
 11
189.737366
 21
-199.899811
  0
LINE
  8
0
 62
     4
 10
180.337372
 20
-204.899811
 11
180.337372
 21
-199.899811
  0
LINE
  8
0
 62
     4
 10
182.897369
 20
-184.369812
 11
182.097366
 21
-184.369812
  0
LINE
  8
0
 62
     4
 10
183.212372
 20
-189.369812
 11
181.782364
 21
-189.369812
  0
LINE
  8
0
 62
     4
 10
182.097366
 20
-189.369812
 11
182.097366
 21
-184.369812
  0
LINE
  8
0
 62
     4
 10
182.897369
 20
-189.369812
 11
182.897369
 21
-184.369812
  0
LINE
  8
0
 62
     4
 10
183.212372
 20
-192.575150
 11
183.212372
 21
-189.369812
  0
LINE
  8
0
 62
     4
 10
181.782364
 20
-192.193817
 11
181.782364
 21
-189.369812
  0
LINE
  8
0
 62
     4
 10
181.782364
 20
-199.899811
 11
181.782364
 21
-193.433807
  0
LINE
  8
0
 62
     4
 10
183.212372
 20
-199.899811
 11
183.212372
 21
-193.815155
  0
LINE
  8
0
 62
     4
 10
188.292374
 20
-189.369812
 11
186.862366
 21
-189.369812
  0
LINE
  8
0
 62
     4
 10
186.862366
 20
-193.548492
 11
186.862366
 21
-189.369812
  0
LINE
  8
0
 62
     4
 10
188.292374
 20
-193.929810
 11
188.292374
 21
-189.369812
  0
LINE
  8
0
 62
     4
 10
187.177368
 20
-189.369812
 11
187.177368
 21
-184.369812
  0
LINE
  8
0
 62
     4
 10
187.977371
 20
-189.369812
 11
187.977371
 21
-184.369812
  0
LINE
  8
0
 62
     4
 10
187.177368
 20
-184.369812
 11
187.977371
 21
-184.369812
  0
LINE
  8
0
 62
     1
 10
190.617371
 20
-194.549820
 11
179.519058
 21
-191.590271
  0
LINE
  8
0
 62
     1
 10
190.617386
 20
-195.789810
 11
179.519058
 21
-192.830261
  0
LINE
  8
0
 62
     4
 10
186.862366
 20
-199.899811
 11
186.862366
 21
-194.788483
  0
LINE
  8
0
 62
     4
 10
188.292374
 20
-199.899811
 11
188.292374
 21
-195.169815
  0
LINE
  8
0
 62
     4
 10
180.337372
 20
-199.899811
 11
189.737366
 21
-199.899811
  0
LINE
  8
0
 62
     4
 10
180.337372
 20
-200.611145
 11
189.737366
 21
-200.611145
  0
LINE
  8
0
 62
     4
 10
180.337372
 20
-200.899811
 11
189.737366
 21
-200.899811
  0
LINE
  8
0
 62
     4
 10
180.337372
 20
-204.899811
 11
189.737366
 21
-204.899811
  0
LINE
  8
0
 62
     4
 10
180.037369
 20
-204.999817
 11
190.037369
 21
-204.999817
  0
LINE
  8
0
 62
     4
 10
190.037369
 20
-210.999817
 11
180.037369
 21
-210.999817
  0
LINE
  8
0
 62
     4
 10
188.037369
 20
-211.499817
 11
182.037369
 21
-211.499817
  0
LINE
  8
0
 62
     4
 10
188.037369
 20
-211.999817
 11
182.037369
 21
-211.999817
  0
LINE
  8
0
 62
     4
 10
182.037369
 20
-211.499817
 11
182.037369
 21
-211.999817
  0
LINE
  8
0
 62
     4
 10
188.037369
 20
-211.499817
 11
188.037369
 21
-211.999817
  0
LINE
  8
0
 62
     4
 10
180.037369
 20
-247.999817
 11
180.037369
 21
-204.999817
  0
LINE
  8
0
 62
     4
 10
190.037369
 20
-247.999817
 11
190.037369
 21
-204.999817
  0
LINE
  8
0
  6
CENTER
 62
     1
 10
185.029999
 20
-40.909309
 11
185.029999
 21
-93.855179
  0
LINE
  8
0
 62
     1
 10
179.449997
 20
-96.949997
 11
190.548309
 21
-99.909554
  0
LINE
  8
0
 62
     1
 10
179.449997
 20
-95.709999
 11
190.548309
 21
-98.669548
  0
LINE
  8
0
 62
     4
 10
182.889999
 20
-107.130005
 11
182.089996
 21
-107.130005
  0
LINE
  8
0
 62
     4
 10
182.089996
 20
-102.130005
 11
182.089996
 21
-107.130005
  0
LINE
  8
0
 62
     4
 10
182.889999
 20
-102.130005
 11
182.889999
 21
-107.130005
  0
LINE
  8
0
 62
     4
 10
181.774994
 20
-97.570000
 11
181.774994
 21
-102.130005
  0
LINE
  8
0
 62
     4
 10
183.205002
 20
-97.951332
 11
183.205002
 21
-102.130005
  0
LINE
  8
0
 62
     4
 10
181.774994
 20
-102.130005
 11
183.205002
 21
-102.130005
  0
LINE
  8
0
 62
     4
 10
188.285004
 20
-99.306000
 11
188.285004
 21
-102.130005
  0
LINE
  8
0
 62
     4
 10
186.854996
 20
-98.924667
 11
186.854996
 21
-102.130005
  0
LINE
  8
0
 62
     4
 10
187.169998
 20
-102.130005
 11
187.169998
 21
-107.130005
  0
LINE
  8
0
 62
     4
 10
187.970001
 20
-102.130005
 11
187.970001
 21
-107.130005
  0
LINE
  8
0
 62
     4
 10
186.854996
 20
-102.130005
 11
188.285004
 21
-102.130005
  0
LINE
  8
0
 62
     4
 10
187.169998
 20
-107.130005
 11
187.970001
 21
-107.130005
  0
LINE
  8
0
 62
     4
 10
188.285004
 20
-91.599998
 11
188.285004
 21
-98.066002
  0
LINE
  8
0
 62
     4
 10
186.854996
 20
-91.599998
 11
186.854996
 21
-97.684662
  0
LINE
  8
0
 62
     4
 10
183.205002
 20
-91.599998
 11
183.205002
 21
-96.711334
  0
LINE
  8
0
 62
     4
 10
181.774994
 20
-91.599998
 11
181.774994
 21
-96.330002
  0
LINE
  8
0
 62
     4
 10
182.529999
 20
-86.500000
 11
180.029999
 21
-86.500000
  0
LINE
  8
0
 62
     4
 10
187.529999
 20
-85.633972
 11
187.929993
 21
-85.633972
  0
LINE
  8
0
 62
     4
 10
187.529999
 20
-84.099998
 11
187.929993
 21
-84.099998
  0
LINE
  8
0
 62
     4
 10
182.529999
 20
-82.966026
 11
187.529999
 21
-82.966026
  0
LINE
  8
0
 62
     4
 10
181.429993
 20
-86.599998
 11
180.330002
 21
-86.599998
  0
LINE
  8
0
 62
     4
 10
180.330002
 20
-86.599998
 11
180.330002
 21
-91.599998
  0
LINE
  8
0
 62
     4
 10
182.529999
 20
-82.099998
 11
182.529999
 21
-90.599998
  0
LINE
  8
0
 62
     4
 10
180.929993
 20
-86.500000
 11
180.929993
 21
-86.599998
  0
LINE
  8
0
 62
     4
 10
181.429993
 20
-86.500000
 11
181.429993
 21
-91.599998
  0
LINE
  8
0
 62
     4
 10
188.630005
 20
-86.500000
 11
188.630005
 21
-91.599998
  0
LINE
  8
0
 62
     4
 10
189.130005
 20
-86.500000
 11
189.130005
 21
-86.599998
  0
LINE
  8
0
 62
     4
 10
182.529999
 20
-89.599998
 11
187.529999
 21
-89.599998
  0
LINE
  8
0
 62
     4
 10
182.529999
 20
-89.888672
 11
187.529999
 21
-89.888672
  0
LINE
  8
0
 62
     4
 10
187.529999
 20
-82.099998
 11
187.529999
 21
-90.599998
  0
LINE
  8
0
 62
     4
 10
189.729996
 20
-86.599998
 11
189.729996
 21
-91.599998
  0
LINE
  8
0
 62
     4
 10
187.529999
 20
-90.599998
 11
182.529999
 21
-90.599998
  0
LINE
  8
0
 62
     4
 10
188.630005
 20
-86.599998
 11
189.729996
 21
-86.599998
  0
LINE
  8
0
 62
     4
 10
189.729996
 20
-91.599998
 11
180.330002
 21
-91.599998
  0
LINE
  8
0
 62
     4
 10
187.529999
 20
-82.099998
 11
182.529999
 21
-82.099998
  0
LINE
  8
0
 62
     4
 10
190.029999
 20
-86.500000
 11
187.529999
 21
-86.500000
  0
LINE
  8
0
 62
     4
 10
190.029999
 20
-80.500000
 11
180.029999
 21
-80.500000
  0
LINE
  8
0
 62
     4
 10
182.130005
 20
-85.633972
 11
182.529999
 21
-85.633972
  0
LINE
  8
0
 62
     4
 10
182.130005
 20
-84.099998
 11
182.529999
 21
-84.099998
  0
LINE
  8
0
 62
     4
 10
182.130005
 20
-80.500000
 11
182.130005
 21
-86.500000
  0
LINE
  8
0
 62
     4
 10
187.929993
 20
-80.500000
 11
187.929993
 21
-86.500000
  0
LINE
  8
0
 62
     4
 10
180.029999
 20
-58.000000
 11
190.029999
 21
-58.000000
  0
LINE
  8
0
 62
     1
 10
186.529999
 20
-75.500000
 11
186.529999
 21
-80.500000
  0
LINE
  8
0
 62
     1
 10
183.529999
 20
-75.500000
 11
183.529999
 21
-80.500000
  0
LINE
  8
0
 62
     1
 10
183.529999
 20
-75.500000
 11
186.529999
 21
-75.500000
  0
LINE
  8
0
 62
     4
 10
187.830002
 20
-55.799999
 11
187.830002
 21
-54.299999
  0
LINE
  8
0
 62
     4
 10
189.330002
 20
-55.799999
 11
189.330002
 21
-54.299999
  0
LINE
  8
0
 62
     4
 10
187.830002
 20
-55.799999
 11
189.330002
 21
-55.799999
  0
LINE
  8
0
 62
     4
 10
187.830002
 20
-54.299999
 11
189.330002
 21
-54.299999
  0
LINE
  8
0
 62
     4
 10
182.635651
 20
-49.459187
 11
182.380020
 21
-49.900002
  0
LINE
  8
0
 62
     4
 10
187.680008
 20
-49.900002
 11
187.424362
 21
-49.459175
  0
LINE
  8
0
 62
     4
 10
183.885651
 20
-50.709187
 11
183.630020
 21
-51.150005
  0
LINE
  8
0
 62
     4
 10
182.380005
 20
-49.900002
 11
183.630005
 21
-51.150009
  0
LINE
  8
0
 62
     4
 10
183.885635
 20
-50.709183
 11
182.635635
 21
-49.459175
  0
LINE
  8
0
 62
     4
 10
186.174362
 20
-50.709179
 11
186.429993
 21
-51.150002
  0
LINE
  8
0
 62
     4
 10
190.029999
 20
-56.590816
 11
180.029999
 21
-56.590816
  0
LINE
  8
0
 62
     4
 10
186.174362
 20
-50.709187
 11
187.424362
 21
-49.459187
  0
LINE
  8
0
 62
     4
 10
190.029999
 20
-49.459183
 11
187.424362
 21
-49.459183
  0
LINE
  8
0
 62
     4
 10
182.635635
 20
-49.459183
 11
180.029999
 21
-49.459183
  0
LINE
  8
0
 62
     4
 10
183.885635
 20
-50.709183
 11
186.174362
 21
-50.709183
  0
LINE
  8
0
 62
     4
 10
190.029999
 20
-49.900002
 11
187.679993
 21
-49.900002
  0
LINE
  8
0
 62
     4
 10
187.679993
 20
-49.900005
 11
186.429993
 21
-51.150002
  0
LINE
  8
0
 62
     4
 10
183.630005
 20
-51.150002
 11
186.429993
 21
-51.150002
  0
LINE
  8
0
 62
     4
 10
182.380005
 20
-49.900002
 11
180.029999
 21
-49.900002
  0
LINE
  8
0
 62
     4
 10
180.029999
 20
-57.401920
 11
190.029999
 21
-57.401920
  0
LINE
  8
0
 62
     4
 10
190.029999
 20
-57.900002
 11
180.029999
 21
-57.900002
  0
LINE
  8
0
 62
     4
 10
188.529999
 20
-53.599998
 11
190.029999
 21
-53.599998
  0
LINE
  8
0
 62
     4
 10
190.029999
 20
-50.400002
 11
188.529999
 21
-50.400002
  0
LINE
  8
0
 62
     4
 10
181.529999
 20
-50.400002
 11
180.029999
 21
-50.400002
  0
LINE
  8
0
 62
     4
 10
180.029999
 20
-53.599998
 11
181.529999
 21
-53.599998
  0
LINE
  8
0
 62
     4
 10
180.029999
 20
-86.500000
 11
180.029999
 21
-43.500000
  0
LINE
  8
0
  6
CENTER
 62
     1
 10
187.529999
 20
-53.750000
 11
182.529999
 21
-53.750000
  0
LINE
  8
0
 62
     4
 10
190.029999
 20
-86.500000
 11
190.029999
 21
-43.500000
  0
LINE
  8
0
 62
     4
 10
186.855515
 20
-53.450001
 11
183.204483
 21
-53.450001
  0
LINE
  8
0
 62
     4
 10
185.029999
 20
-54.049999
 11
183.204483
 21
-54.049999
  0
LINE
  8
0
 62
     4
 10
186.855515
 20
-54.049999
 11
185.029999
 21
-54.049999
  0
LINE
  8
0
 62
     4
 10
180.822891
 20
-51.292896
 11
182.237106
 21
-52.707108
  0
LINE
  8
0
 62
     4
 10
180.822891
 20
-52.707108
 11
182.237106
 21
-51.292889
  0
LINE
  8
0
 62
     4
 10
189.237106
 20
-52.707108
 11
187.822891
 21
-51.292896
  0
LINE
  8
0
 62
     4
 10
189.237106
 20
-51.292896
 11
187.822891
 21
-52.707108
  0
LINE
  8
0
 62
     4
 10
190.029999
 20
-43.500000
 11
180.029999
 21
-43.500000
  0
LINE
  8
0
 62
     4
 10
316.337341
 20
-154.800003
 11
315.537354
 21
-154.800003
  0
LINE
  8
0
 62
     4
 10
315.537354
 20
-147.199997
 11
316.337341
 21
-147.199997
  0
LINE
  8
0
 62
     4
 10
315.537354
 20
-147.199997
 11
315.537354
 21
-154.800003
  0
LINE
  8
0
 62
     4
 10
317.037354
 20
-158.000000
 11
317.037354
 21
-146.500000
  0
LINE
  8
0
 62
     4
 10
316.337341
 20
-147.199997
 11
316.337341
 21
-154.800003
  0
LINE
  8
0
 62
     4
 10
285.037354
 20
-158.000000
 11
285.037354
 21
-157.100006
  0
LINE
  8
0
 62
     4
 10
317.037354
 20
-146.500000
 11
311.254486
 21
-146.500000
  0
LINE
  8
0
 62
     4
 10
311.254486
 20
-146.500000
 11
310.637360
 21
-143.000000
  0
LINE
  8
0
 62
     4
 10
286.537354
 20
-144.300003
 11
286.537354
 21
-156.800003
  0
LINE
  8
0
 62
     4
 10
285.037354
 20
-157.099991
 11
285.337341
 21
-156.799988
  0
LINE
  8
0
 62
     4
 10
302.537354
 20
-139.000000
 11
302.637360
 21
-139.000000
  0
LINE
  8
0
 62
     4
 10
303.135437
 20
-138.399994
 11
302.637360
 21
-138.399994
  0
LINE
  8
0
 62
     4
 10
303.946533
 20
-143.000000
 11
303.135437
 21
-138.399979
  0
LINE
  8
0
 62
     4
 10
302.637360
 20
-144.300003
 11
302.637360
 21
-138.399994
  0
LINE
  8
0
 62
     4
 10
310.637360
 20
-143.000000
 11
303.946533
 21
-143.000000
  0
LINE
  8
0
 62
     4
 10
280.037354
 20
-156.800003
 11
286.537354
 21
-156.800003
  0
LINE
  8
0
 62
     4
 10
286.537354
 20
-144.300003
 11
302.637360
 21
-144.300003
  0
LINE
  8
0
 62
     4
 10
310.137360
 20
-144.000000
 11
306.937347
 21
-144.000000
  0
LINE
  8
0
 62
     4
 10
306.937347
 20
-143.000000
 11
306.937347
 21
-144.000000
  0
LINE
  8
0
 62
     4
 10
310.137360
 20
-143.000000
 11
310.137360
 21
-144.000000
  0
LINE
  8
0
 62
     4
 10
310.037354
 20
-143.899994
 11
310.037354
 21
-144.000000
  0
LINE
  8
0
 62
     4
 10
307.037354
 20
-143.899994
 11
307.037354
 21
-144.000000
  0
LINE
  8
0
 62
     4
 10
309.537354
 20
-143.399994
 11
307.537354
 21
-143.399994
  0
LINE
  8
0
 62
     4
 10
280.037354
 20
-156.800003
 11
280.037354
 21
-146.300003
  0
LINE
  8
0
 62
     4
 10
280.337341
 20
-138.399994
 11
302.537354
 21
-138.399994
  0
LINE
  8
0
 62
     4
 10
274.037354
 20
-142.500000
 11
273.937347
 21
-142.500000
  0
LINE
  8
0
 62
     4
 10
274.037354
 20
-145.600006
 11
273.937347
 21
-145.600006
  0
LINE
  8
0
 62
     4
 10
273.937347
 20
-146.300003
 11
269.937347
 21
-146.300003
  0
LINE
  8
0
 62
     4
 10
269.937347
 20
-141.000000
 11
269.937347
 21
-140.000000
  0
LINE
  8
0
 62
     4
 10
273.937347
 20
-141.500000
 11
273.937347
 21
-146.300003
  0
LINE
  8
0
 62
     4
 10
274.037354
 20
-141.500000
 11
268.937347
 21
-141.500000
  0
LINE
  8
0
 62
     4
 10
269.937347
 20
-141.199997
 11
269.937347
 21
-141.000000
  0
LINE
  8
0
 62
     4
 10
269.937347
 20
-141.199997
 11
271.638763
 21
-141.500000
  0
LINE
  8
0
 62
     4
 10
277.471313
 20
-140.500000
 11
270.937347
 21
-140.500000
  0
LINE
  8
0
 62
     4
 10
268.937347
 20
-146.800003
 11
268.937347
 21
-141.500000
  0
LINE
  8
0
 62
     4
 10
278.337341
 20
-141.000000
 11
277.471344
 21
-140.500000
  0
LINE
  8
0
 62
     4
 10
270.648682
 20
-140.000000
 11
269.937347
 21
-140.000000
  0
LINE
  8
0
 62
     4
 10
270.937347
 20
-140.500000
 11
270.648682
 21
-139.999985
  0
LINE
  8
0
 62
     4
 10
269.648682
 20
-146.800003
 11
268.937347
 21
-146.800003
  0
LINE
  8
0
 62
     4
 10
269.937347
 20
-146.300003
 11
269.648682
 21
-146.800003
  0
LINE
  8
0
 62
     4
 10
280.037354
 20
-141.000000
 11
280.037354
 21
-138.699997
  0
LINE
  8
0
 62
     4
 10
274.037354
 20
-141.000000
 11
274.037354
 21
-146.300003
  0
LINE
  8
0
 62
     4
 10
280.037354
 20
-146.300003
 11
274.037354
 21
-146.300003
  0
LINE
  8
0
 62
     4
 10
280.037354
 20
-141.000000
 11
274.037354
 21
-141.000000
  0
LINE
  8
0
 62
     4
 10
302.537354
 20
-144.300003
 11
302.537354
 21
-138.399994
  0
LINE
  8
0
 62
     4
 10
268.937347
 20
-144.750000
 11
264.328674
 21
-144.750000
  0
LINE
  8
0
 62
     4
 10
268.937347
 20
-143.320007
 11
263.947357
 21
-143.320007
  0
LINE
  8
0
 62
     4
 10
253.507355
 20
-143.634995
 11
253.507355
 21
-144.434998
  0
LINE
  8
0
 62
     4
 10
258.507355
 20
-143.320007
 11
258.507355
 21
-144.750000
  0
LINE
  8
0
 62
     4
 10
258.507355
 20
-144.434998
 11
253.507355
 21
-144.434998
  0
LINE
  8
0
 62
     4
 10
258.507355
 20
-143.634995
 11
253.507355
 21
-143.634995
  0
LINE
  8
0
 62
     4
 10
263.088684
 20
-144.750000
 11
258.507355
 21
-144.750000
  0
LINE
  8
0
 62
     4
 10
262.707336
 20
-143.320007
 11
258.507355
 21
-143.320007
  0
LINE
  8
0
 62
     1
 10
263.327362
 20
-140.994995
 11
264.927338
 21
-146.994995
  0
LINE
  8
0
 62
     1
 10
262.087341
 20
-140.994995
 11
263.687347
 21
-146.994995
  0
LINE
  8
0
 62
     4
 10
70.037483
 20
-157.100006
 11
69.737488
 21
-156.800003
  0
LINE
  8
0
 62
     4
 10
38.737492
 20
-147.199997
 11
38.737492
 21
-154.800003
  0
LINE
  8
0
 62
     4
 10
70.037491
 20
-158.000000
 11
70.037491
 21
-157.100006
  0
LINE
  8
0
 62
     4
 10
38.037491
 20
-158.000000
 11
38.037491
 21
-146.500000
  0
LINE
  8
0
 62
     4
 10
39.537491
 20
-147.199997
 11
39.537491
 21
-154.800003
  0
LINE
  8
0
 62
     4
 10
39.537491
 20
-147.199997
 11
38.737492
 21
-147.199997
  0
LINE
  8
0
 62
     4
 10
38.737492
 20
-154.800003
 11
39.537491
 21
-154.800003
  0
LINE
  8
0
 62
     4
 10
75.037491
 20
-156.800003
 11
68.537491
 21
-156.800003
  0
LINE
  8
0
 62
     4
 10
68.537491
 20
-144.300003
 11
68.537491
 21
-156.800003
  0
LINE
  8
0
 62
     4
 10
44.437492
 20
-143.000000
 11
51.128307
 21
-143.000000
  0
LINE
  8
0
 62
     4
 10
75.037491
 20
-156.800003
 11
75.037491
 21
-146.300003
  0
LINE
  8
0
 62
     1
 10
92.987488
 20
-147.074997
 11
91.387489
 21
-141.074997
  0
LINE
  8
0
 62
     1
 10
91.747490
 20
-147.074997
 11
90.147491
 21
-141.074982
  0
LINE
  8
0
 62
     4
 10
92.367493
 20
-144.750000
 11
96.567490
 21
-144.750000
  0
LINE
  8
0
 62
     4
 10
91.986160
 20
-143.320007
 11
96.567490
 21
-143.320007
  0
LINE
  8
0
 62
     4
 10
96.567490
 20
-143.634995
 11
101.567490
 21
-143.634995
  0
LINE
  8
0
 62
     4
 10
96.567490
 20
-144.434998
 11
101.567490
 21
-144.434998
  0
LINE
  8
0
 62
     4
 10
96.567490
 20
-143.320007
 11
96.567490
 21
-144.750000
  0
LINE
  8
0
 62
     4
 10
101.567490
 20
-143.634995
 11
101.567490
 21
-144.434998
  0
LINE
  8
0
 62
     4
 10
86.137489
 20
-144.750000
 11
91.127487
 21
-144.750000
  0
LINE
  8
0
 62
     4
 10
86.137489
 20
-143.320007
 11
90.746155
 21
-143.320007
  0
LINE
  8
0
 62
     4
 10
52.537491
 20
-144.300003
 11
52.537491
 21
-138.399994
  0
LINE
  8
0
 62
     4
 10
75.037491
 20
-141.000000
 11
81.037491
 21
-141.000000
  0
LINE
  8
0
 62
     4
 10
75.037491
 20
-146.300003
 11
81.037491
 21
-146.300003
  0
LINE
  8
0
 62
     4
 10
81.037491
 20
-141.000000
 11
81.037491
 21
-146.300003
  0
LINE
  8
0
 62
     4
 10
75.037491
 20
-141.000000
 11
75.037491
 21
-138.699997
  0
LINE
  8
0
 62
     4
 10
85.137489
 20
-146.300003
 11
85.426163
 21
-146.800003
  0
LINE
  8
0
 62
     4
 10
85.426163
 20
-146.800003
 11
86.137489
 21
-146.800003
  0
LINE
  8
0
 62
     4
 10
84.137482
 20
-140.500000
 11
84.426155
 21
-140.000000
  0
LINE
  8
0
 62
     4
 10
84.426163
 20
-140.000000
 11
85.137489
 21
-140.000000
  0
LINE
  8
0
 62
     4
 10
76.737488
 20
-141.000000
 11
77.603516
 21
-140.500000
  0
LINE
  8
0
 62
     4
 10
86.137489
 20
-146.800003
 11
86.137489
 21
-141.500000
  0
LINE
  8
0
 62
     4
 10
77.603516
 20
-140.500000
 11
84.137489
 21
-140.500000
  0
LINE
  8
0
 62
     4
 10
85.137489
 20
-141.199997
 11
83.436104
 21
-141.500000
  0
LINE
  8
0
 62
     4
 10
85.137489
 20
-141.199997
 11
85.137489
 21
-141.000000
  0
LINE
  8
0
 62
     4
 10
81.037491
 20
-141.500000
 11
86.137489
 21
-141.500000
  0
LINE
  8
0
 62
     4
 10
81.137489
 20
-141.500000
 11
81.137489
 21
-146.300003
  0
LINE
  8
0
 62
     4
 10
85.137489
 20
-141.000000
 11
85.137489
 21
-140.000000
  0
LINE
  8
0
 62
     4
 10
81.137489
 20
-146.300003
 11
85.137489
 21
-146.300003
  0
LINE
  8
0
 62
     4
 10
81.037491
 20
-145.600006
 11
81.137489
 21
-145.600006
  0
LINE
  8
0
 62
     4
 10
81.037491
 20
-142.500000
 11
81.137489
 21
-142.500000
  0
LINE
  8
0
 62
     4
 10
74.737488
 20
-138.399994
 11
52.537491
 21
-138.399994
  0
LINE
  8
0
 62
     4
 10
68.537491
 20
-144.300003
 11
52.437492
 21
-144.300003
  0
LINE
  8
0
 62
     4
 10
52.437492
 20
-144.300003
 11
52.437492
 21
-138.399994
  0
LINE
  8
0
 62
     4
 10
51.128307
 20
-143.000000
 11
51.939411
 21
-138.399994
  0
LINE
  8
0
 62
     4
 10
51.939411
 20
-138.399994
 11
52.437492
 21
-138.399994
  0
LINE
  8
0
 62
     4
 10
52.537491
 20
-139.000000
 11
52.437492
 21
-139.000000
  0
LINE
  8
0
 62
     4
 10
70.037491
 20
-156.800003
 11
68.537491
 21
-156.800003
  0
LINE
  8
0
 62
     4
 10
38.037491
 20
-146.500000
 11
43.820347
 21
-146.500000
  0
LINE
  8
0
 62
     4
 10
45.537491
 20
-143.399994
 11
47.537491
 21
-143.399994
  0
LINE
  8
0
 62
     4
 10
48.037491
 20
-143.899994
 11
48.037491
 21
-144.000000
  0
LINE
  8
0
 62
     4
 10
45.037491
 20
-143.899994
 11
45.037491
 21
-144.000000
  0
LINE
  8
0
 62
     4
 10
44.937492
 20
-143.000000
 11
44.937492
 21
-144.000000
  0
LINE
  8
0
 62
     4
 10
48.137489
 20
-143.000000
 11
48.137489
 21
-144.000000
  0
LINE
  8
0
 62
     4
 10
44.937492
 20
-144.000000
 11
48.137489
 21
-144.000000
  0
LINE
  8
0
 62
     4
 10
43.820343
 20
-146.500000
 11
44.437492
 21
-142.999985
  0
LINE
  8
0
 62
     4
 10
182.130005
 20
-141.000000
 11
180.330002
 21
-141.000000
  0
LINE
  8
0
 62
     4
 10
182.130005
 20
-141.979996
 11
182.130005
 21
-141.000000
  0
LINE
  8
0
 62
     4
 10
187.929993
 20
-141.979996
 11
187.929993
 21
-141.000000
  0
LINE
  8
0
 62
     4
 10
187.929993
 20
-141.979996
 11
187.529999
 21
-141.979996
  0
LINE
  8
0
 62
     4
 10
189.729996
 20
-141.000000
 11
187.929993
 21
-141.000000
  0
LINE
  8
0
 62
     4
 10
189.729996
 20
-138.399994
 11
180.330002
 21
-138.399994
  0
LINE
  8
0
 62
     1
 10
186.529999
 20
-139.899994
 11
183.529999
 21
-139.899994
  0
LINE
  8
0
 62
     1
 10
183.529999
 20
-139.899994
 11
183.529999
 21
-138.399994
  0
LINE
  8
0
 62
     1
 10
186.529999
 20
-139.899994
 11
186.529999
 21
-138.399994
  0
LINE
  8
0
 62
     4
 10
190.029999
 20
-158.000000
 11
190.029999
 21
-138.699997
  0
LINE
  8
0
 62
     4
 10
180.029999
 20
-158.000000
 11
180.029999
 21
-138.699997
  0
LINE
  8
0
 62
     4
 10
180.029999
 20
-156.800003
 11
190.029999
 21
-156.800003
  0
LINE
  8
0
 62
     4
 10
180.029999
 20
-157.100006
 11
190.029999
 21
-157.100006
  0
LINE
  8
0
 62
     4
 10
187.529999
 20
-139.979996
 11
182.529999
 21
-139.979996
  0
LINE
  8
0
 62
     4
 10
181.539993
 20
-142.980011
 11
181.416000
 21
-144.867996
  0
LINE
  8
0
 62
     4
 10
181.940002
 20
-145.080002
 11
181.940002
 21
-145.580002
  0
LINE
  8
0
 62
     4
 10
183.039993
 20
-145.580002
 11
181.940002
 21
-145.580002
  0
LINE
  8
0
 62
     4
 10
183.039993
 20
-145.080002
 11
183.039993
 21
-145.580002
  0
LINE
  8
0
 62
     4
 10
183.365997
 20
-145.080002
 11
181.615997
 21
-145.080002
  0
LINE
  8
0
 62
     4
 10
183.565994
 20
-144.867996
 11
183.440002
 21
-142.979996
  0
LINE
  8
0
 62
     4
 10
183.440002
 20
-142.979996
 11
181.539993
 21
-142.979996
  0
LINE
  8
0
 62
     4
 10
184.080002
 20
-142.979996
 11
183.955994
 21
-144.867996
  0
LINE
  8
0
 62
     4
 10
184.479996
 20
-145.080002
 11
184.479996
 21
-145.580002
  0
LINE
  8
0
 62
     4
 10
185.580002
 20
-145.580002
 11
184.479996
 21
-145.580002
  0
LINE
  8
0
 62
     4
 10
185.580002
 20
-145.080002
 11
185.580002
 21
-145.580002
  0
LINE
  8
0
 62
     4
 10
185.906006
 20
-145.080002
 11
184.156006
 21
-145.080002
  0
LINE
  8
0
 62
     4
 10
186.106003
 20
-144.867996
 11
185.979996
 21
-142.979996
  0
LINE
  8
0
 62
     4
 10
185.979996
 20
-142.979996
 11
184.080002
 21
-142.979996
  0
LINE
  8
0
 62
     4
 10
188.645981
 20
-144.867996
 11
188.519989
 21
-142.979996
  0
LINE
  8
0
 62
     4
 10
186.619995
 20
-142.979996
 11
186.496002
 21
-144.867996
  0
LINE
  8
0
 62
     4
 10
181.330002
 20
-142.479996
 11
181.330002
 21
-141.479996
  0
LINE
  8
0
 62
     4
 10
180.330002
 20
-141.479996
 11
181.330002
 21
-141.479996
  0
LINE
  8
0
 62
     4
 10
188.729996
 20
-142.479996
 11
188.729996
 21
-141.479996
  0
LINE
  8
0
 62
     4
 10
189.729996
 20
-141.479996
 11
188.729996
 21
-141.479996
  0
LINE
  8
0
 62
     4
 10
183.779999
 20
-141.979996
 11
186.279999
 21
-141.979996
  0
LINE
  8
0
 62
     4
 10
186.279999
 20
-141.479996
 11
186.279999
 21
-142.479996
  0
LINE
  8
0
 62
     4
 10
183.779999
 20
-141.479996
 11
183.779999
 21
-142.479996
  0
LINE
  8
0
 62
     4
 10
188.119995
 20
-145.580002
 11
187.020004
 21
-145.580002
  0
LINE
  8
0
 62
     4
 10
188.445999
 20
-145.080002
 11
186.695999
 21
-145.080002
  0
LINE
  8
0
 62
     4
 10
188.520004
 20
-142.979996
 11
186.619995
 21
-142.979996
  0
LINE
  8
0
 62
     4
 10
187.529999
 20
-141.179993
 11
182.529999
 21
-141.179993
  0
LINE
  8
0
 62
     4
 10
187.529999
 20
-141.479996
 11
182.529999
 21
-141.479996
  0
LINE
  8
0
 62
     4
 10
187.529999
 20
-139.979996
 11
187.529999
 21
-142.479996
  0
LINE
  8
0
 62
     4
 10
187.020004
 20
-145.080002
 11
187.020004
 21
-145.580002
  0
LINE
  8
0
 62
     4
 10
188.119995
 20
-145.080002
 11
188.119995
 21
-145.580002
  0
LINE
  8
0
 62
     4
 10
182.529999
 20
-139.979996
 11
182.529999
 21
-142.479996
  0
LINE
  8
0
 62
     4
 10
189.729996
 20
-146.779999
 11
180.330002
 21
-146.779999
  0
LINE
  8
0
 62
     4
 10
180.330002
 20
-146.779999
 11
180.330002
 21
-141.479996
  0
LINE
  8
0
 62
     4
 10
189.729996
 20
-146.779999
 11
189.729996
 21
-141.479996
  0
LINE
  8
0
 62
     4
 10
188.729996
 20
-142.479996
 11
181.330002
 21
-142.479996
  0
LINE
  8
0
 62
     4
 10
182.529999
 20
-141.979996
 11
182.130005
 21
-141.979996
  0
LINE
  8
0
 62
     4
 10
184.630005
 20
-143.580002
 11
184.630005
 21
-144.380005
  0
LINE
  8
0
 62
     4
 10
185.429993
 20
-144.380005
 11
184.630005
 21
-144.380005
  0
LINE
  8
0
 62
     4
 10
185.429993
 20
-143.580002
 11
185.429993
 21
-144.380005
  0
LINE
  8
0
 62
     4
 10
185.429993
 20
-143.580002
 11
184.630005
 21
-143.580002
  0
LINE
  8
0
  6
CENTER
 62
     1
 10
185.029999
 20
-135.443939
 11
185.029999
 21
-162.514862
  0
LINE
  8
0
 62
     4
 10
-209.487518
 20
-247.999924
 11
-199.487518
 21
-247.999924
  0
LINE
  8
0
 62
     4
 10
-201.487518
 20
-211.499924
 11
-201.487518
 21
-211.999924
  0
LINE
  8
0
 62
     4
 10
-199.487518
 20
-247.999924
 11
-199.487518
 21
-210.999924
  0
LINE
  8
0
 62
     4
 10
-207.487518
 20
-211.499924
 11
-207.487518
 21
-211.999924
  0
LINE
  8
0
 62
     4
 10
-209.487518
 20
-247.999924
 11
-209.487518
 21
-210.999924
  0
LINE
  8
0
 62
     4
 10
-201.487518
 20
-211.999924
 11
-207.487518
 21
-211.999924
  0
LINE
  8
0
 62
     4
 10
-201.487518
 20
-211.499924
 11
-207.487518
 21
-211.499924
  0
LINE
  8
0
 62
     4
 10
-199.487518
 20
-210.999924
 11
-209.487518
 21
-210.999924
  0
LINE
  8
0
  6
CENTER
 62
     1
 10
-204.487518
 20
-251.053223
 11
-204.487518
 21
-207.311478
  0
LINE
  8
0
 62
     4
 10
-209.479996
 20
-43.500000
 11
-199.479996
 21
-43.500000
  0
LINE
  8
0
 62
     4
 10
-200.272888
 20
-51.292889
 11
-201.687088
 21
-52.707104
  0
LINE
  8
0
 62
     4
 10
-200.272888
 20
-52.707104
 11
-201.687088
 21
-51.292889
  0
LINE
  8
0
 62
     4
 10
-208.687103
 20
-52.707108
 11
-207.272888
 21
-51.292896
  0
LINE
  8
0
 62
     4
 10
-208.687103
 20
-51.292889
 11
-207.272888
 21
-52.707108
  0
LINE
  8
0
 62
     4
 10
-202.654480
 20
-54.049999
 11
-206.305511
 21
-54.049999
  0
LINE
  8
0
 62
     4
 10
-202.654480
 20
-53.450001
 11
-206.305511
 21
-53.450001
  0
LINE
  8
0
 62
     4
 10
-201.580002
 20
-62.500000
 11
-207.379990
 21
-62.500000
  0
LINE
  8
0
 62
     4
 10
-201.580002
 20
-58.500000
 11
-207.379990
 21
-58.500000
  0
LINE
  8
0
  6
CENTER
 62
     1
 10
-201.979996
 20
-53.750000
 11
-206.979996
 21
-53.750000
  0
LINE
  8
0
 62
     4
 10
-205.879990
 20
-51.150002
 11
-203.080002
 21
-51.150002
  0
LINE
  8
0
 62
     4
 10
-201.830002
 20
-49.900005
 11
-203.080002
 21
-51.150002
  0
LINE
  8
0
 62
     4
 10
-205.624359
 20
-50.709183
 11
-203.335632
 21
-50.709183
  0
LINE
  8
0
 62
     4
 10
-203.335632
 20
-50.709183
 11
-202.085632
 21
-49.459187
  0
LINE
  8
0
 62
     4
 10
-203.335632
 20
-50.709183
 11
-203.080002
 21
-51.149998
  0
LINE
  8
0
 62
     4
 10
-205.624359
 20
-50.709183
 11
-206.874359
 21
-49.459183
  0
LINE
  8
0
 62
     4
 10
-207.129990
 20
-49.900002
 11
-205.879990
 21
-51.150002
  0
LINE
  8
0
 62
     4
 10
-205.624374
 20
-50.709183
 11
-205.879990
 21
-51.149994
  0
LINE
  8
0
 62
     4
 10
-201.830017
 20
-49.900005
 11
-202.085648
 21
-49.459187
  0
LINE
  8
0
 62
     4
 10
-206.874374
 20
-49.459183
 11
-207.130005
 21
-49.899994
  0
LINE
  8
0
 62
     4
 10
-199.479996
 20
-56.590816
 11
-209.479996
 21
-56.590816
  0
LINE
  8
0
 62
     4
 10
-199.479996
 20
-49.459183
 11
-202.085632
 21
-49.459183
  0
LINE
  8
0
 62
     4
 10
-206.874359
 20
-49.459183
 11
-209.479996
 21
-49.459183
  0
LINE
  8
0
 62
     4
 10
-199.479996
 20
-49.900002
 11
-201.830002
 21
-49.900002
  0
LINE
  8
0
 62
     4
 10
-207.129990
 20
-49.900002
 11
-209.479996
 21
-49.900002
  0
LINE
  8
0
 62
     4
 10
-209.479996
 20
-57.401920
 11
-199.479996
 21
-57.401920
  0
LINE
  8
0
 62
     4
 10
-199.479996
 20
-57.900002
 11
-209.479996
 21
-57.900002
  0
LINE
  8
0
 62
     4
 10
-200.979996
 20
-53.599998
 11
-199.479996
 21
-53.599998
  0
LINE
  8
0
 62
     4
 10
-199.479996
 20
-50.400002
 11
-200.979996
 21
-50.400002
  0
LINE
  8
0
 62
     4
 10
-207.979996
 20
-50.400002
 11
-209.479996
 21
-50.400002
  0
LINE
  8
0
 62
     4
 10
-209.479996
 20
-53.599998
 11
-207.979996
 21
-53.599998
  0
LINE
  8
0
 62
     4
 10
-199.479996
 20
-58.000000
 11
-209.479996
 21
-58.000000
  0
LINE
  8
0
 62
     1
 10
-205.979996
 20
-75.500000
 11
-202.979996
 21
-75.500000
  0
LINE
  8
0
 62
     1
 10
-205.979996
 20
-75.500000
 11
-205.979996
 21
-80.500000
  0
LINE
  8
0
 62
     1
 10
-202.979996
 20
-75.500000
 11
-202.979996
 21
-80.500000
  0
LINE
  8
0
 62
     4
 10
-209.479996
 20
-80.500000
 11
-199.479996
 21
-80.500000
  0
LINE
  8
0
 62
     4
 10
-209.479996
 20
-80.500000
 11
-209.479996
 21
-43.500000
  0
LINE
  8
0
  6
CENTER
 62
     1
 10
-204.479996
 20
-41.714996
 11
-204.479996
 21
-82.636047
  0
LINE
  8
0
 62
     4
 10
-199.479996
 20
-80.500000
 11
-199.479996
 21
-43.500000
  0
LINE
  8
0
 62
     4
 10
-119.487503
 20
-157.100006
 11
-119.187500
 21
-156.800003
  0
LINE
  8
0
 62
     4
 10
-88.187500
 20
-147.199997
 11
-88.187500
 21
-154.800003
  0
LINE
  8
0
 62
     4
 10
-119.487503
 20
-158.000000
 11
-119.487503
 21
-157.100006
  0
LINE
  8
0
 62
     4
 10
-88.987503
 20
-147.199997
 11
-88.987503
 21
-154.800003
  0
LINE
  8
0
 62
     4
 10
-88.987503
 20
-147.199997
 11
-88.187500
 21
-147.199997
  0
LINE
  8
0
 62
     4
 10
-88.187500
 20
-154.800003
 11
-88.987503
 21
-154.800003
  0
LINE
  8
0
 62
     4
 10
-124.487503
 20
-156.800003
 11
-117.987503
 21
-156.800003
  0
LINE
  8
0
 62
     4
 10
-117.987503
 20
-144.300003
 11
-117.987503
 21
-156.800003
  0
LINE
  8
0
 62
     4
 10
-87.487503
 20
-146.500000
 11
-93.270355
 21
-146.500000
  0
LINE
  8
0
 62
     4
 10
-93.270348
 20
-146.499985
 11
-93.887497
 21
-143.000000
  0
LINE
  8
0
 62
     4
 10
-101.987503
 20
-139.000000
 11
-101.887505
 21
-139.000000
  0
LINE
  8
0
 62
     4
 10
-101.389427
 20
-138.399994
 11
-101.887505
 21
-138.399994
  0
LINE
  8
0
 62
     4
 10
-100.578323
 20
-143.000000
 11
-101.389427
 21
-138.399994
  0
LINE
  8
0
 62
     4
 10
-101.887505
 20
-144.300003
 11
-101.887505
 21
-138.399994
  0
LINE
  8
0
 62
     4
 10
-93.887505
 20
-143.000000
 11
-100.578323
 21
-143.000000
  0
LINE
  8
0
 62
     4
 10
-102.487503
 20
-137.600006
 11
-102.487503
 21
-138.399994
  0
LINE
  8
0
 62
     4
 10
-102.687500
 20
-137.399994
 11
-106.287506
 21
-137.399994
  0
LINE
  8
0
 62
     4
 10
-106.487503
 20
-137.600006
 11
-106.487503
 21
-138.399994
  0
LINE
  8
0
 62
     4
 10
-101.987503
 20
-144.300003
 11
-101.987503
 21
-138.399994
  0
LINE
  8
0
 62
     4
 10
-101.987503
 20
-138.399994
 11
-124.187500
 21
-138.399994
  0
LINE
  8
0
 62
     4
 10
-117.987503
 20
-144.300003
 11
-101.887505
 21
-144.300003
  0
LINE
  8
0
 62
     4
 10
-94.387505
 20
-144.000000
 11
-97.587502
 21
-144.000000
  0
LINE
  8
0
 62
     4
 10
-97.587502
 20
-143.000000
 11
-97.587502
 21
-144.000000
  0
LINE
  8
0
 62
     4
 10
-94.387505
 20
-143.000000
 11
-94.387505
 21
-144.000000
  0
LINE
  8
0
 62
     4
 10
-103.837502
 20
-137.399994
 11
-103.837502
 21
-133.894684
  0
LINE
  8
0
 62
     4
 10
-105.137505
 20
-137.399994
 11
-105.137505
 21
-133.545319
  0
LINE
  8
0
 62
     1
 10
-106.087502
 20
-133.289993
 11
-102.887505
 21
-134.149994
  0
LINE
  8
0
 62
     1
 10
-106.087502
 20
-132.259995
 11
-102.887505
 21
-133.119995
  0
LINE
  8
0
 62
     4
 10
-105.137505
 20
-129.199997
 11
-103.837502
 21
-129.199997
  0
LINE
  8
0
 62
     4
 10
-104.737503
 20
-129.199997
 11
-104.737503
 21
-125.199997
  0
LINE
  8
0
 62
     4
 10
-104.237503
 20
-129.199997
 11
-104.237503
 21
-125.199997
  0
LINE
  8
0
 62
     4
 10
-103.837502
 20
-132.864685
 11
-103.837502
 21
-129.199997
  0
LINE
  8
0
 62
     4
 10
-105.137505
 20
-132.515320
 11
-105.137505
 21
-129.199997
  0
LINE
  8
0
 62
     4
 10
-94.487503
 20
-143.899994
 11
-94.487503
 21
-144.000000
  0
LINE
  8
0
 62
     4
 10
-97.487503
 20
-143.899994
 11
-97.487503
 21
-144.000000
  0
LINE
  8
0
 62
     4
 10
-94.987503
 20
-143.399994
 11
-96.987503
 21
-143.399994
  0
LINE
  8
0
 62
     4
 10
-104.737503
 20
-125.199997
 11
-104.237503
 21
-125.199997
  0
LINE
  8
0
 62
     4
 10
-87.487503
 20
-158.000000
 11
-87.487503
 21
-146.500000
  0
LINE
  8
0
 62
     4
 10
-124.487503
 20
-156.800003
 11
-124.487503
 21
-138.699997
  0
LINE
  8
0
 62
     4
 10
-289.487305
 20
-156.800003
 11
-289.487305
 21
-138.699997
  0
LINE
  8
0
 62
     4
 10
-309.237305
 20
-125.199997
 11
-309.737305
 21
-125.199997
  0
LINE
  8
0
 62
     4
 10
-326.487305
 20
-146.500000
 11
-320.704437
 21
-146.500000
  0
LINE
  8
0
 62
     4
 10
-320.704468
 20
-146.500000
 11
-320.087341
 21
-143.000000
  0
LINE
  8
0
 62
     4
 10
-311.987305
 20
-139.000000
 11
-312.087311
 21
-139.000000
  0
LINE
  8
0
 62
     4
 10
-312.585388
 20
-138.399994
 11
-312.087311
 21
-138.399994
  0
LINE
  8
0
 62
     4
 10
-313.396484
 20
-143.000000
 11
-312.585388
 21
-138.399994
  0
LINE
  8
0
 62
     4
 10
-312.087311
 20
-144.300003
 11
-312.087311
 21
-138.399994
  0
LINE
  8
0
 62
     4
 10
-320.087311
 20
-143.000000
 11
-313.396484
 21
-143.000000
  0
LINE
  8
0
 62
     4
 10
-311.487305
 20
-137.600006
 11
-311.487305
 21
-138.399994
  0
LINE
  8
0
 62
     4
 10
-311.287292
 20
-137.399994
 11
-307.687317
 21
-137.399994
  0
LINE
  8
0
 62
     4
 10
-307.487305
 20
-137.600006
 11
-307.487305
 21
-138.399994
  0
LINE
  8
0
 62
     4
 10
-311.987305
 20
-144.300003
 11
-311.987305
 21
-138.399994
  0
LINE
  8
0
 62
     4
 10
-311.987305
 20
-138.399994
 11
-289.787292
 21
-138.399994
  0
LINE
  8
0
 62
     4
 10
-295.987305
 20
-144.300003
 11
-312.087311
 21
-144.300003
  0
LINE
  8
0
 62
     4
 10
-319.587311
 20
-144.000000
 11
-316.387299
 21
-144.000000
  0
LINE
  8
0
 62
     4
 10
-316.387299
 20
-143.000000
 11
-316.387299
 21
-144.000000
  0
LINE
  8
0
 62
     4
 10
-319.587311
 20
-143.000000
 11
-319.587311
 21
-144.000000
  0
LINE
  8
0
 62
     4
 10
-310.137299
 20
-137.399994
 11
-310.137299
 21
-133.545319
  0
LINE
  8
0
 62
     4
 10
-308.837311
 20
-137.399994
 11
-308.837311
 21
-133.894684
  0
LINE
  8
0
 62
     1
 10
-307.887299
 20
-133.119995
 11
-311.087311
 21
-132.259995
  0
LINE
  8
0
 62
     1
 10
-307.887268
 20
-134.149994
 11
-311.087311
 21
-133.289993
  0
LINE
  8
0
 62
     4
 10
-308.837311
 20
-129.199997
 11
-310.137299
 21
-129.199997
  0
LINE
  8
0
 62
     4
 10
-310.137299
 20
-132.515320
 11
-310.137299
 21
-129.199997
  0
LINE
  8
0
 62
     4
 10
-308.837311
 20
-132.864685
 11
-308.837311
 21
-129.199997
  0
LINE
  8
0
 62
     4
 10
-319.487305
 20
-143.899994
 11
-319.487305
 21
-144.000000
  0
LINE
  8
0
 62
     4
 10
-316.487305
 20
-143.899994
 11
-316.487305
 21
-144.000000
  0
LINE
  8
0
 62
     4
 10
-318.987305
 20
-143.399994
 11
-316.987305
 21
-143.399994
  0
LINE
  8
0
 62
     4
 10
-309.737305
 20
-129.199997
 11
-309.737305
 21
-125.199997
  0
LINE
  8
0
 62
     4
 10
-309.237305
 20
-129.199997
 11
-309.237305
 21
-125.199997
  0
LINE
  8
0
 62
     4
 10
-326.487305
 20
-158.000000
 11
-326.487305
 21
-146.500000
  0
LINE
  8
0
 62
     4
 10
-295.987305
 20
-144.300003
 11
-295.987305
 21
-156.800003
  0
LINE
  8
0
 62
     4
 10
-294.487305
 20
-157.099991
 11
-294.787292
 21
-156.799988
  0
LINE
  8
0
 62
     4
 10
-325.787292
 20
-147.199997
 11
-325.787292
 21
-154.800003
  0
LINE
  8
0
 62
     4
 10
-294.487305
 20
-158.000000
 11
-294.487305
 21
-157.100006
  0
LINE
  8
0
 62
     4
 10
-324.987305
 20
-147.199997
 11
-324.987305
 21
-154.800003
  0
LINE
  8
0
 62
     4
 10
-324.987305
 20
-147.199997
 11
-325.787292
 21
-147.199997
  0
LINE
  8
0
 62
     4
 10
-325.787292
 20
-154.800003
 11
-324.987305
 21
-154.800003
  0
LINE
  8
0
 62
     4
 10
-289.487305
 20
-156.800003
 11
-295.987305
 21
-156.800003
  0
LINE
  8
0
  6
CENTER
 62
     4
 10
-204.479996
 20
-159.672363
 11
-204.479996
 21
-134.315384
  0
LINE
  8
0
 62
     1
 10
-205.779999
 20
-133.119980
 11
-208.979996
 21
-132.259995
  0
LINE
  8
0
 62
     1
 10
-205.779999
 20
-134.149994
 11
-208.979996
 21
-133.289993
  0
LINE
  8
0
 62
     4
 10
-201.330002
 20
-125.199997
 11
-201.830002
 21
-125.199997
  0
LINE
  8
0
 62
     4
 10
-200.929993
 20
-129.199997
 11
-202.229996
 21
-129.199997
  0
LINE
  8
0
 62
     4
 10
-201.330002
 20
-129.199997
 11
-201.330002
 21
-125.199997
  0
LINE
  8
0
 62
     4
 10
-201.830002
 20
-129.199997
 11
-201.830002
 21
-125.199997
  0
LINE
  8
0
 62
     4
 10
-202.229996
 20
-132.860001
 11
-202.229996
 21
-129.199997
  0
LINE
  8
0
 62
     4
 10
-200.929993
 20
-132.509995
 11
-200.929993
 21
-129.199997
  0
LINE
  8
0
 62
     4
 10
-200.929993
 20
-137.399994
 11
-200.929993
 21
-133.550003
  0
LINE
  8
0
 62
     4
 10
-202.229996
 20
-137.399994
 11
-202.229996
 21
-133.899994
  0
LINE
  8
0
 62
     1
 10
-199.979996
 20
-133.119980
 11
-203.179993
 21
-132.259979
  0
LINE
  8
0
 62
     1
 10
-199.979996
 20
-134.149979
 11
-203.179993
 21
-133.289993
  0
LINE
  8
0
 62
     4
 10
-207.129990
 20
-125.199997
 11
-207.629990
 21
-125.199997
  0
LINE
  8
0
 62
     4
 10
-206.729996
 20
-129.199997
 11
-208.029999
 21
-129.199997
  0
LINE
  8
0
 62
     4
 10
-207.129990
 20
-129.199997
 11
-207.129990
 21
-125.199997
  0
LINE
  8
0
 62
     4
 10
-207.629990
 20
-129.199997
 11
-207.629990
 21
-125.199997
  0
LINE
  8
0
 62
     4
 10
-208.029999
 20
-132.860001
 11
-208.029999
 21
-129.199997
  0
LINE
  8
0
 62
     4
 10
-206.729996
 20
-132.509995
 11
-206.729996
 21
-129.199997
  0
LINE
  8
0
 62
     4
 10
-206.729996
 20
-137.399994
 11
-206.729996
 21
-133.550003
  0
LINE
  8
0
 62
     4
 10
-208.029999
 20
-137.399994
 11
-208.029999
 21
-133.899994
  0
LINE
  8
0
 62
     4
 10
-209.479996
 20
-157.100006
 11
-199.479996
 21
-157.100006
  0
LINE
  8
0
 62
     4
 10
-209.179993
 20
-138.399994
 11
-199.779999
 21
-138.399994
  0
LINE
  8
0
 62
     4
 10
-209.479996
 20
-156.800003
 11
-199.479996
 21
-156.800003
  0
LINE
  8
0
 62
     4
 10
-209.179993
 20
-137.399994
 11
-199.779999
 21
-137.399994
  0
LINE
  8
0
 62
     4
 10
-199.580002
 20
-137.600006
 11
-199.580002
 21
-138.476395
  0
LINE
  8
0
 62
     4
 10
-209.379990
 20
-137.600006
 11
-209.379990
 21
-138.476395
  0
LINE
  8
0
 62
     1
 10
-205.979996
 20
-141.399994
 11
-205.979996
 21
-138.399994
  0
LINE
  8
0
 62
     1
 10
-202.979996
 20
-141.399994
 11
-205.979996
 21
-141.399994
  0
LINE
  8
0
 62
     1
 10
-202.979996
 20
-141.399994
 11
-202.979996
 21
-138.399994
  0
LINE
  8
0
 62
     4
 10
-199.479996
 20
-158.000000
 11
-199.479996
 21
-138.699997
  0
LINE
  8
0
 62
     4
 10
-209.479996
 20
-158.000000
 11
-209.479996
 21
-138.699997
  0
LINE
  8
0
 62
     4
 10
178.524994
 20
28.500015
 11
188.524994
 21
28.500015
  0
LINE
  8
0
  6
CENTER
 62
     1
 10
183.524994
 20
26.715010
 11
183.524994
 21
73.630569
  0
LINE
  8
0
 62
     4
 10
187.625000
 20
66.500015
 11
187.625000
 21
66.600014
  0
LINE
  8
0
 62
     4
 10
179.424988
 20
66.500015
 11
179.424988
 21
66.600014
  0
LINE
  8
0
 62
     4
 10
188.224991
 20
66.600014
 11
188.224991
 21
71.600014
  0
LINE
  8
0
 62
     4
 10
178.824997
 20
66.600014
 11
178.824997
 21
71.600014
  0
LINE
  8
0
 62
     4
 10
181.384995
 20
87.130020
 11
180.584991
 21
87.130020
  0
LINE
  8
0
 62
     4
 10
181.699997
 20
82.130020
 11
180.269989
 21
82.130020
  0
LINE
  8
0
 62
     4
 10
180.584991
 20
82.130020
 11
180.584991
 21
87.130020
  0
LINE
  8
0
 62
     4
 10
181.384995
 20
82.130020
 11
181.384995
 21
87.130020
  0
LINE
  8
0
 62
     4
 10
181.699997
 20
78.924683
 11
181.699997
 21
82.130020
  0
LINE
  8
0
 62
     4
 10
180.269989
 20
79.306015
 11
180.269989
 21
82.130020
  0
LINE
  8
0
 62
     4
 10
180.269989
 20
71.600014
 11
180.269989
 21
78.066017
  0
LINE
  8
0
 62
     4
 10
181.699997
 20
71.600014
 11
181.699997
 21
77.684677
  0
LINE
  8
0
 62
     4
 10
186.779999
 20
82.130020
 11
185.349991
 21
82.130020
  0
LINE
  8
0
 62
     4
 10
185.349991
 20
77.951347
 11
185.349991
 21
82.130020
  0
LINE
  8
0
 62
     4
 10
186.779999
 20
77.570015
 11
186.779999
 21
82.130020
  0
LINE
  8
0
 62
     4
 10
185.664993
 20
82.130020
 11
185.664993
 21
87.130020
  0
LINE
  8
0
 62
     4
 10
186.464996
 20
82.130020
 11
186.464996
 21
87.130020
  0
LINE
  8
0
 62
     4
 10
185.664993
 20
87.130020
 11
186.464996
 21
87.130020
  0
LINE
  8
0
 62
     1
 10
189.104996
 20
76.950020
 11
178.006699
 21
79.909561
  0
LINE
  8
0
 62
     1
 10
189.104996
 20
75.710014
 11
178.006683
 21
78.669571
  0
LINE
  8
0
 62
     4
 10
185.349991
 20
71.600014
 11
185.349991
 21
76.711349
  0
LINE
  8
0
 62
     4
 10
186.779999
 20
71.600014
 11
186.779999
 21
76.330017
  0
LINE
  8
0
 62
     4
 10
178.824997
 20
71.600014
 11
188.224991
 21
71.600014
  0
LINE
  8
0
 62
     4
 10
178.824997
 20
70.888687
 11
188.224991
 21
70.888687
  0
LINE
  8
0
 62
     4
 10
178.824997
 20
70.600014
 11
188.224991
 21
70.600014
  0
LINE
  8
0
 62
     4
 10
178.824997
 20
66.600014
 11
188.224991
 21
66.600014
  0
LINE
  8
0
 62
     4
 10
178.524994
 20
66.500015
 11
188.524994
 21
66.500015
  0
LINE
  8
0
 62
     4
 10
188.524994
 20
60.500015
 11
178.524994
 21
60.500015
  0
LINE
  8
0
 62
     4
 10
186.524994
 20
60.000015
 11
180.524994
 21
60.000015
  0
LINE
  8
0
 62
     4
 10
186.524994
 20
59.500015
 11
180.524994
 21
59.500015
  0
LINE
  8
0
 62
     4
 10
180.524994
 20
60.000015
 11
180.524994
 21
59.500015
  0
LINE
  8
0
 62
     4
 10
186.524994
 20
60.000015
 11
186.524994
 21
59.500015
  0
LINE
  8
0
 62
     4
 10
178.524994
 20
28.500015
 11
178.524994
 21
66.500015
  0
LINE
  8
0
 62
     4
 10
188.524994
 20
28.500015
 11
188.524994
 21
66.500015
  0
LINE
  8
0
  6
CENTER
 62
     1
 10
183.529999
 20
234.785004
 11
183.529999
 21
187.644821
  0
LINE
  8
0
 62
     1
 10
177.949997
 20
184.550018
 11
189.048309
 21
181.590469
  0
LINE
  8
0
 62
     1
 10
177.949997
 20
185.790009
 11
189.048309
 21
182.830460
  0
LINE
  8
0
 62
     4
 10
181.389999
 20
174.369995
 11
180.589996
 21
174.369995
  0
LINE
  8
0
 62
     4
 10
180.589996
 20
179.369995
 11
180.589996
 21
174.369995
  0
LINE
  8
0
 62
     4
 10
181.389999
 20
179.369995
 11
181.389999
 21
174.369995
  0
LINE
  8
0
 62
     4
 10
180.274994
 20
183.929993
 11
180.274994
 21
179.369995
  0
LINE
  8
0
 62
     4
 10
181.705002
 20
183.548676
 11
181.705002
 21
179.369995
  0
LINE
  8
0
 62
     4
 10
180.274994
 20
179.369995
 11
181.705002
 21
179.369995
  0
LINE
  8
0
 62
     4
 10
186.785004
 20
182.194000
 11
186.785004
 21
179.369995
  0
LINE
  8
0
 62
     4
 10
185.354996
 20
182.575333
 11
185.354996
 21
179.369995
  0
LINE
  8
0
 62
     4
 10
185.669998
 20
179.369995
 11
185.669998
 21
174.369995
  0
LINE
  8
0
 62
     4
 10
186.470001
 20
179.369995
 11
186.470001
 21
174.369995
  0
LINE
  8
0
 62
     4
 10
185.354996
 20
179.369995
 11
186.785004
 21
179.369995
  0
LINE
  8
0
 62
     4
 10
185.669998
 20
174.369995
 11
186.470001
 21
174.369995
  0
LINE
  8
0
 62
     4
 10
186.785004
 20
189.899994
 11
186.785004
 21
183.433990
  0
LINE
  8
0
 62
     4
 10
185.354996
 20
189.899994
 11
185.354996
 21
183.815338
  0
LINE
  8
0
 62
     4
 10
181.705002
 20
189.899994
 11
181.705002
 21
184.788666
  0
LINE
  8
0
 62
     4
 10
180.274994
 20
189.899994
 11
180.274994
 21
185.169998
  0
LINE
  8
0
 62
     4
 10
181.029999
 20
195.000000
 11
178.529999
 21
195.000000
  0
LINE
  8
0
 62
     4
 10
186.029999
 20
195.866028
 11
186.429993
 21
195.866028
  0
LINE
  8
0
 62
     4
 10
186.029999
 20
197.399994
 11
186.429993
 21
197.399994
  0
LINE
  8
0
 62
     4
 10
181.029999
 20
198.533966
 11
186.029999
 21
198.533966
  0
LINE
  8
0
 62
     4
 10
179.929993
 20
194.899994
 11
178.830002
 21
194.899994
  0
LINE
  8
0
 62
     4
 10
178.830002
 20
194.899994
 11
178.830002
 21
189.899994
  0
LINE
  8
0
 62
     4
 10
181.029999
 20
199.399994
 11
181.029999
 21
190.899994
  0
LINE
  8
0
 62
     4
 10
179.429993
 20
195.000000
 11
179.429993
 21
194.899994
  0
LINE
  8
0
 62
     4
 10
179.929993
 20
195.000000
 11
179.929993
 21
189.899994
  0
LINE
  8
0
 62
     4
 10
187.130005
 20
195.000000
 11
187.130005
 21
189.899994
  0
LINE
  8
0
 62
     4
 10
187.630005
 20
195.000000
 11
187.630005
 21
194.899994
  0
LINE
  8
0
 62
     4
 10
181.029999
 20
191.899994
 11
186.029999
 21
191.899994
  0
LINE
  8
0
 62
     4
 10
181.029999
 20
191.611328
 11
186.029999
 21
191.611328
  0
LINE
  8
0
 62
     4
 10
186.029999
 20
199.399994
 11
186.029999
 21
190.899994
  0
LINE
  8
0
 62
     4
 10
188.229996
 20
194.899994
 11
188.229996
 21
189.899994
  0
LINE
  8
0
 62
     4
 10
186.029999
 20
190.899994
 11
181.029999
 21
190.899994
  0
LINE
  8
0
 62
     4
 10
187.130005
 20
194.899994
 11
188.229996
 21
194.899994
  0
LINE
  8
0
 62
     4
 10
188.229996
 20
189.899994
 11
178.830002
 21
189.899994
  0
LINE
  8
0
 62
     4
 10
186.029999
 20
199.399994
 11
181.029999
 21
199.399994
  0
LINE
  8
0
 62
     4
 10
188.529999
 20
195.000000
 11
186.029999
 21
195.000000
  0
LINE
  8
0
 62
     4
 10
188.529999
 20
201.000000
 11
178.529999
 21
201.000000
  0
LINE
  8
0
 62
     4
 10
180.630005
 20
195.866028
 11
181.029999
 21
195.866028
  0
LINE
  8
0
 62
     4
 10
180.630005
 20
197.399994
 11
181.029999
 21
197.399994
  0
LINE
  8
0
 62
     4
 10
180.630005
 20
201.000000
 11
180.630005
 21
195.000000
  0
LINE
  8
0
 62
     4
 10
186.429993
 20
201.000000
 11
186.429993
 21
195.000000
  0
LINE
  8
0
 62
     4
 10
178.529999
 20
218.500000
 11
188.529999
 21
218.500000
  0
LINE
  8
0
 62
     1
 10
185.029999
 20
206.000000
 11
185.029999
 21
201.000000
  0
LINE
  8
0
 62
     1
 10
182.029999
 20
206.000000
 11
182.029999
 21
201.000000
  0
LINE
  8
0
 62
     1
 10
182.029999
 20
206.000000
 11
185.029999
 21
206.000000
  0
LINE
  8
0
 62
     4
 10
186.330002
 20
220.699997
 11
186.330002
 21
222.199997
  0
LINE
  8
0
 62
     4
 10
187.830002
 20
220.699997
 11
187.830002
 21
222.199997
  0
LINE
  8
0
 62
     4
 10
186.330002
 20
220.699997
 11
187.830002
 21
220.699997
  0
LINE
  8
0
 62
     4
 10
186.330002
 20
222.199997
 11
187.830002
 21
222.199997
  0
LINE
  8
0
 62
     4
 10
181.135635
 20
227.040802
 11
180.880005
 21
226.600006
  0
LINE
  8
0
 62
     4
 10
186.179977
 20
226.600006
 11
185.924362
 21
227.040817
  0
LINE
  8
0
 62
     4
 10
182.385635
 20
225.790802
 11
182.130005
 21
225.350006
  0
LINE
  8
0
 62
     4
 10
180.879990
 20
226.599991
 11
182.129990
 21
225.349991
  0
LINE
  8
0
 62
     4
 10
182.385620
 20
225.790802
 11
181.135620
 21
227.040802
  0
LINE
  8
0
 62
     4
 10
184.674362
 20
225.790817
 11
184.929977
 21
225.350006
  0
LINE
  8
0
 62
     4
 10
188.529999
 20
219.909180
 11
178.529999
 21
219.909180
  0
LINE
  8
0
 62
     4
 10
184.674362
 20
225.790817
 11
185.924347
 21
227.040802
  0
LINE
  8
0
 62
     4
 10
188.529999
 20
227.040817
 11
185.924362
 21
227.040817
  0
LINE
  8
0
 62
     4
 10
181.135635
 20
227.040817
 11
178.529999
 21
227.040817
  0
LINE
  8
0
 62
     4
 10
182.385635
 20
225.790817
 11
184.674362
 21
225.790817
  0
LINE
  8
0
 62
     4
 10
188.529999
 20
226.600006
 11
186.179993
 21
226.600006
  0
LINE
  8
0
 62
     4
 10
186.179993
 20
226.600006
 11
184.929977
 21
225.349991
  0
LINE
  8
0
 62
     4
 10
182.130005
 20
225.350006
 11
184.929993
 21
225.350006
  0
LINE
  8
0
 62
     4
 10
180.880005
 20
226.600006
 11
178.529999
 21
226.600006
  0
LINE
  8
0
 62
     4
 10
178.529999
 20
219.098083
 11
188.529999
 21
219.098083
  0
LINE
  8
0
 62
     4
 10
188.529999
 20
218.600006
 11
178.529999
 21
218.600006
  0
LINE
  8
0
 62
     4
 10
187.029999
 20
222.899994
 11
188.529999
 21
222.899994
  0
LINE
  8
0
 62
     4
 10
188.529999
 20
226.100006
 11
187.029999
 21
226.100006
  0
LINE
  8
0
 62
     4
 10
180.029999
 20
226.100006
 11
178.529999
 21
226.100006
  0
LINE
  8
0
 62
     4
 10
178.529999
 20
222.899994
 11
180.029999
 21
222.899994
  0
LINE
  8
0
 62
     4
 10
178.529999
 20
195.000000
 11
178.529999
 21
233.000000
  0
LINE
  8
0
  6
CENTER
 62
     1
 10
186.029999
 20
222.750000
 11
181.029999
 21
222.750000
  0
LINE
  8
0
 62
     4
 10
188.529999
 20
195.000000
 11
188.529999
 21
233.000000
  0
LINE
  8
0
 62
     4
 10
185.355515
 20
223.050003
 11
181.704483
 21
223.050003
  0
LINE
  8
0
 62
     4
 10
183.529999
 20
222.449997
 11
181.704483
 21
222.449997
  0
LINE
  8
0
 62
     4
 10
185.355515
 20
222.449997
 11
183.529999
 21
222.449997
  0
LINE
  8
0
 62
     4
 10
179.322876
 20
225.207092
 11
180.737106
 21
223.792877
  0
LINE
  8
0
 62
     4
 10
179.322891
 20
223.792877
 11
180.737091
 21
225.207092
  0
LINE
  8
0
 62
     4
 10
187.737106
 20
223.792892
 11
186.322891
 21
225.207108
  0
LINE
  8
0
 62
     4
 10
187.737106
 20
225.207108
 11
186.322891
 21
223.792892
  0
LINE
  8
0
 62
     4
 10
188.529999
 20
233.000000
 11
178.529999
 21
233.000000
  0
LINE
  8
0
 62
     1
 10
256.575012
 20
135.505005
 11
258.175018
 21
129.505005
  0
LINE
  8
0
 62
     1
 10
257.815033
 20
135.505005
 11
259.415039
 21
129.505005
  0
LINE
  8
0
 62
     4
 10
257.195007
 20
133.179993
 11
252.995026
 21
133.179993
  0
LINE
  8
0
 62
     4
 10
257.576355
 20
131.750000
 11
252.995026
 21
131.750000
  0
LINE
  8
0
 62
     4
 10
252.995026
 20
132.865005
 11
247.995026
 21
132.865005
  0
LINE
  8
0
 62
     4
 10
252.995026
 20
132.065002
 11
247.995026
 21
132.065002
  0
LINE
  8
0
 62
     4
 10
252.995026
 20
133.179993
 11
252.995026
 21
131.750000
  0
LINE
  8
0
 62
     4
 10
247.995026
 20
132.865005
 11
247.995026
 21
132.065002
  0
LINE
  8
0
 62
     4
 10
263.425018
 20
133.179993
 11
258.435028
 21
133.179993
  0
LINE
  8
0
 62
     4
 10
263.425018
 20
131.750000
 11
258.816345
 21
131.750000
  0
LINE
  8
0
 62
     4
 10
292.025024
 20
132.199997
 11
292.025024
 21
138.100006
  0
LINE
  8
0
 62
     4
 10
274.525024
 20
135.500000
 11
268.525024
 21
135.500000
  0
LINE
  8
0
 62
     4
 10
274.525024
 20
130.199997
 11
268.525024
 21
130.199997
  0
LINE
  8
0
 62
     4
 10
268.525024
 20
135.500000
 11
268.525024
 21
130.199997
  0
LINE
  8
0
 62
     4
 10
274.525024
 20
135.500000
 11
274.525024
 21
137.800003
  0
LINE
  8
0
 62
     4
 10
264.425018
 20
130.199997
 11
264.136353
 21
129.699997
  0
LINE
  8
0
 62
     4
 10
264.136353
 20
129.699997
 11
263.425018
 21
129.699997
  0
LINE
  8
0
 62
     4
 10
265.425018
 20
136.000000
 11
265.136353
 21
136.500000
  0
LINE
  8
0
 62
     4
 10
265.136353
 20
136.500000
 11
264.425018
 21
136.500000
  0
LINE
  8
0
 62
     4
 10
272.825012
 20
135.500000
 11
271.959015
 21
136.000000
  0
LINE
  8
0
 62
     4
 10
263.425018
 20
129.699997
 11
263.425018
 21
135.000000
  0
LINE
  8
0
 62
     4
 10
271.958984
 20
136.000000
 11
265.425018
 21
136.000000
  0
LINE
  8
0
 62
     4
 10
264.425018
 20
135.300003
 11
266.126404
 21
135.000000
  0
LINE
  8
0
 62
     4
 10
264.425018
 20
135.300003
 11
264.425018
 21
135.500000
  0
LINE
  8
0
 62
     4
 10
268.525024
 20
135.000000
 11
263.425018
 21
135.000000
  0
LINE
  8
0
 62
     4
 10
268.425018
 20
135.000000
 11
268.425018
 21
130.199997
  0
LINE
  8
0
 62
     4
 10
264.425018
 20
135.500000
 11
264.425018
 21
136.500000
  0
LINE
  8
0
 62
     4
 10
268.425018
 20
130.199997
 11
264.425018
 21
130.199997
  0
LINE
  8
0
 62
     4
 10
268.525024
 20
130.899994
 11
268.425018
 21
130.899994
  0
LINE
  8
0
 62
     4
 10
268.525024
 20
134.000000
 11
268.425018
 21
134.000000
  0
LINE
  8
0
 62
     4
 10
274.825012
 20
138.100006
 11
292.025024
 21
138.100006
  0
LINE
  8
0
 62
     4
 10
274.525024
 20
119.699997
 11
274.525024
 21
130.199997
  0
LINE
  8
0
 62
     4
 10
299.025024
 20
133.100006
 11
297.025024
 21
133.100006
  0
LINE
  8
0
 62
     4
 10
296.525024
 20
132.600006
 11
296.525024
 21
132.500000
  0
LINE
  8
0
 62
     4
 10
299.525024
 20
132.600006
 11
299.525024
 21
132.500000
  0
LINE
  8
0
 62
     4
 10
299.625031
 20
133.500000
 11
299.625031
 21
132.500000
  0
LINE
  8
0
 62
     4
 10
296.425018
 20
133.500000
 11
296.425018
 21
132.500000
  0
LINE
  8
0
 62
     4
 10
299.625031
 20
132.500000
 11
296.425018
 21
132.500000
  0
LINE
  8
0
 62
     4
 10
276.025024
 20
132.199997
 11
292.125031
 21
132.199997
  0
LINE
  8
0
 62
     4
 10
274.525024
 20
119.699997
 11
276.025024
 21
119.699997
  0
LINE
  8
0
 62
     4
 10
300.125031
 20
133.500000
 11
293.434204
 21
133.500000
  0
LINE
  8
0
 62
     4
 10
292.125031
 20
132.199997
 11
292.125031
 21
138.100006
  0
LINE
  8
0
 62
     4
 10
293.434235
 20
133.500000
 11
292.623108
 21
138.100006
  0
LINE
  8
0
 62
     4
 10
292.623108
 20
138.100006
 11
292.125031
 21
138.100006
  0
LINE
  8
0
 62
     4
 10
292.025024
 20
137.500000
 11
292.125031
 21
137.500000
  0
LINE
  8
0
 62
     4
 10
274.525024
 20
119.400002
 11
274.825012
 21
119.699997
  0
LINE
  8
0
 62
     4
 10
276.025024
 20
132.199997
 11
276.025024
 21
119.699997
  0
LINE
  8
0
 62
     4
 10
300.742157
 20
130.000000
 11
300.125031
 21
133.500000
  0
LINE
  8
0
 62
     4
 10
306.525024
 20
130.000000
 11
300.742157
 21
130.000000
  0
LINE
  8
0
 62
     4
 10
274.525024
 20
118.500000
 11
274.525024
 21
119.400002
  0
LINE
  8
0
 62
     4
 10
305.825012
 20
129.300003
 11
305.825012
 21
121.699997
  0
LINE
  8
0
 62
     4
 10
306.525024
 20
118.500000
 11
306.525024
 21
130.000000
  0
LINE
  8
0
 62
     4
 10
305.025024
 20
129.300003
 11
305.025024
 21
121.699997
  0
LINE
  8
0
 62
     4
 10
305.025024
 20
129.300003
 11
305.825012
 21
129.300003
  0
LINE
  8
0
 62
     4
 10
305.825012
 20
121.699997
 11
305.025024
 21
121.699997
  0
LINE
  8
0
 62
     4
 10
43.225010
 20
121.699997
 11
44.025009
 21
121.699997
  0
LINE
  8
0
 62
     4
 10
44.025009
 20
129.300003
 11
43.225010
 21
129.300003
  0
LINE
  8
0
 62
     4
 10
44.025009
 20
129.300003
 11
44.025009
 21
121.699997
  0
LINE
  8
0
 62
     4
 10
42.525009
 20
118.500000
 11
42.525009
 21
130.000000
  0
LINE
  8
0
 62
     4
 10
43.225010
 20
129.300003
 11
43.225010
 21
121.699997
  0
LINE
  8
0
 62
     4
 10
74.525009
 20
118.500000
 11
74.525009
 21
119.400002
  0
LINE
  8
0
 62
     4
 10
42.525009
 20
130.000000
 11
48.307865
 21
130.000000
  0
LINE
  8
0
 62
     4
 10
48.307865
 20
130.000000
 11
48.925007
 21
133.499985
  0
LINE
  8
0
 62
     4
 10
73.025009
 20
132.199997
 11
73.025009
 21
119.699997
  0
LINE
  8
0
 62
     4
 10
74.525009
 20
119.400002
 11
74.225006
 21
119.699997
  0
LINE
  8
0
 62
     4
 10
57.025009
 20
137.500000
 11
56.925011
 21
137.500000
  0
LINE
  8
0
 62
     4
 10
56.426929
 20
138.100006
 11
56.925011
 21
138.100006
  0
LINE
  8
0
 62
     4
 10
55.615826
 20
133.500000
 11
56.426929
 21
138.100006
  0
LINE
  8
0
 62
     4
 10
56.925011
 20
132.199997
 11
56.925011
 21
138.100006
  0
LINE
  8
0
 62
     4
 10
48.925011
 20
133.500000
 11
55.615826
 21
133.500000
  0
LINE
  8
0
 62
     4
 10
74.525009
 20
119.699997
 11
73.025009
 21
119.699997
  0
LINE
  8
0
 62
     4
 10
73.025009
 20
132.199997
 11
56.925011
 21
132.199997
  0
LINE
  8
0
 62
     4
 10
49.425011
 20
132.500000
 11
52.625008
 21
132.500000
  0
LINE
  8
0
 62
     4
 10
52.625008
 20
133.500000
 11
52.625008
 21
132.500000
  0
LINE
  8
0
 62
     4
 10
49.425011
 20
133.500000
 11
49.425011
 21
132.500000
  0
LINE
  8
0
 62
     4
 10
49.525009
 20
132.600006
 11
49.525009
 21
132.500000
  0
LINE
  8
0
 62
     4
 10
52.525009
 20
132.600006
 11
52.525009
 21
132.500000
  0
LINE
  8
0
 62
     4
 10
50.025009
 20
133.100006
 11
52.025009
 21
133.100006
  0
LINE
  8
0
 62
     4
 10
74.525009
 20
119.699997
 11
74.525009
 21
130.199997
  0
LINE
  8
0
 62
     4
 10
74.225006
 20
138.100006
 11
57.025009
 21
138.100006
  0
LINE
  8
0
 62
     4
 10
80.525009
 20
134.000000
 11
80.625008
 21
134.000000
  0
LINE
  8
0
 62
     4
 10
80.525009
 20
130.899994
 11
80.625008
 21
130.899994
  0
LINE
  8
0
 62
     4
 10
80.625008
 20
130.199997
 11
84.625008
 21
130.199997
  0
LINE
  8
0
 62
     4
 10
84.625008
 20
135.500000
 11
84.625008
 21
136.500000
  0
LINE
  8
0
 62
     4
 10
80.625008
 20
135.000000
 11
80.625008
 21
130.199997
  0
LINE
  8
0
 62
     4
 10
80.525009
 20
135.000000
 11
85.625008
 21
135.000000
  0
LINE
  8
0
 62
     4
 10
84.625008
 20
135.300003
 11
84.625008
 21
135.500000
  0
LINE
  8
0
 62
     4
 10
84.625008
 20
135.300003
 11
82.923622
 21
135.000000
  0
LINE
  8
0
 62
     4
 10
77.091034
 20
136.000000
 11
83.625008
 21
136.000000
  0
LINE
  8
0
 62
     4
 10
85.625008
 20
129.699997
 11
85.625008
 21
135.000000
  0
LINE
  8
0
 62
     4
 10
76.225006
 20
135.500000
 11
77.091026
 21
136.000000
  0
LINE
  8
0
 62
     4
 10
83.913681
 20
136.500000
 11
84.625008
 21
136.500000
  0
LINE
  8
0
 62
     4
 10
83.625008
 20
136.000000
 11
83.913681
 21
136.500000
  0
LINE
  8
0
 62
     4
 10
84.913681
 20
129.699997
 11
85.625008
 21
129.699997
  0
LINE
  8
0
 62
     4
 10
84.625008
 20
130.199997
 11
84.913681
 21
129.699997
  0
LINE
  8
0
 62
     4
 10
74.525009
 20
135.500000
 11
74.525009
 21
137.800003
  0
LINE
  8
0
 62
     4
 10
80.525009
 20
135.500000
 11
80.525009
 21
130.199997
  0
LINE
  8
0
 62
     4
 10
74.525009
 20
130.199997
 11
80.525009
 21
130.199997
  0
LINE
  8
0
 62
     4
 10
74.525009
 20
135.500000
 11
80.525009
 21
135.500000
  0
LINE
  8
0
 62
     4
 10
57.025009
 20
132.199997
 11
57.025009
 21
138.100006
  0
LINE
  8
0
 62
     4
 10
85.625008
 20
131.750000
 11
90.636337
 21
131.750000
  0
LINE
  8
0
 62
     4
 10
85.625008
 20
133.179993
 11
90.255005
 21
133.179993
  0
LINE
  8
0
 62
     4
 10
101.055008
 20
132.865005
 11
101.055008
 21
132.065002
  0
LINE
  8
0
 62
     4
 10
96.055008
 20
133.179993
 11
96.055008
 21
131.750000
  0
LINE
  8
0
 62
     4
 10
96.055008
 20
132.065002
 11
101.055008
 21
132.065002
  0
LINE
  8
0
 62
     4
 10
96.055008
 20
132.865005
 11
101.055008
 21
132.865005
  0
LINE
  8
0
 62
     4
 10
91.876343
 20
131.750000
 11
96.055008
 21
131.750000
  0
LINE
  8
0
 62
     4
 10
91.495010
 20
133.179993
 11
96.055008
 21
133.179993
  0
LINE
  8
0
 62
     1
 10
90.875008
 20
135.505005
 11
92.475014
 21
129.505005
  0
LINE
  8
0
 62
     1
 10
89.635010
 20
135.505005
 11
91.235008
 21
129.505005
  0
LINE
  8
0
 62
     4
 10
180.630005
 20
135.500000
 11
178.830002
 21
135.500000
  0
LINE
  8
0
 62
     4
 10
180.630005
 20
134.520004
 11
180.630005
 21
135.500000
  0
LINE
  8
0
 62
     4
 10
186.429993
 20
134.520004
 11
186.429993
 21
135.500000
  0
LINE
  8
0
 62
     4
 10
186.429993
 20
134.520004
 11
186.029999
 21
134.520004
  0
LINE
  8
0
 62
     4
 10
188.229996
 20
135.500000
 11
186.429993
 21
135.500000
  0
LINE
  8
0
 62
     4
 10
188.229996
 20
138.100006
 11
178.830002
 21
138.100006
  0
LINE
  8
0
 62
     1
 10
185.029999
 20
136.600006
 11
182.029999
 21
136.600006
  0
LINE
  8
0
 62
     1
 10
182.029999
 20
136.600006
 11
182.029999
 21
138.100006
  0
LINE
  8
0
 62
     1
 10
185.029999
 20
136.600006
 11
185.029999
 21
138.100006
  0
LINE
  8
0
 62
     4
 10
188.529999
 20
118.500000
 11
188.529999
 21
137.800003
  0
LINE
  8
0
 62
     4
 10
178.529999
 20
118.500000
 11
178.529999
 21
137.800003
  0
LINE
  8
0
 62
     4
 10
178.529999
 20
119.699997
 11
188.529999
 21
119.699997
  0
LINE
  8
0
 62
     4
 10
178.529999
 20
119.400002
 11
188.529999
 21
119.400002
  0
LINE
  8
0
 62
     4
 10
186.029999
 20
136.520004
 11
181.029999
 21
136.520004
  0
LINE
  8
0
 62
     4
 10
180.040009
 20
133.520004
 11
179.916016
 21
131.632004
  0
LINE
  8
0
 62
     4
 10
180.440002
 20
131.419998
 11
180.440002
 21
130.919998
  0
LINE
  8
0
 62
     4
 10
181.539993
 20
130.919998
 11
180.440002
 21
130.919998
  0
LINE
  8
0
 62
     4
 10
181.539993
 20
131.419998
 11
181.539993
 21
130.919998
  0
LINE
  8
0
 62
     4
 10
181.865997
 20
131.419998
 11
180.115997
 21
131.419998
  0
LINE
  8
0
 62
     4
 10
182.065994
 20
131.632004
 11
181.940002
 21
133.520004
  0
LINE
  8
0
 62
     4
 10
181.940002
 20
133.520004
 11
180.039993
 21
133.520004
  0
LINE
  8
0
 62
     4
 10
182.580002
 20
133.520004
 11
182.455994
 21
131.632004
  0
LINE
  8
0
 62
     4
 10
182.979996
 20
131.419998
 11
182.979996
 21
130.919998
  0
LINE
  8
0
 62
     4
 10
184.080002
 20
130.919998
 11
182.979996
 21
130.919998
  0
LINE
  8
0
 62
     4
 10
184.080002
 20
131.419998
 11
184.080002
 21
130.919998
  0
LINE
  8
0
 62
     4
 10
184.406006
 20
131.419998
 11
182.656006
 21
131.419998
  0
LINE
  8
0
 62
     4
 10
184.606003
 20
131.632004
 11
184.479996
 21
133.520004
  0
LINE
  8
0
 62
     4
 10
184.479996
 20
133.520004
 11
182.580002
 21
133.520004
  0
LINE
  8
0
 62
     4
 10
187.145996
 20
131.632004
 11
187.020004
 21
133.520004
  0
LINE
  8
0
 62
     4
 10
185.119995
 20
133.520004
 11
184.996002
 21
131.632004
  0
LINE
  8
0
 62
     4
 10
179.830002
 20
134.020004
 11
179.830002
 21
135.020004
  0
LINE
  8
0
 62
     4
 10
178.830002
 20
135.020004
 11
179.830002
 21
135.020004
  0
LINE
  8
0
 62
     4
 10
187.229996
 20
134.020004
 11
187.229996
 21
135.020004
  0
LINE
  8
0
 62
     4
 10
188.229996
 20
135.020004
 11
187.229996
 21
135.020004
  0
LINE
  8
0
 62
     4
 10
182.279999
 20
134.520004
 11
184.779999
 21
134.520004
  0
LINE
  8
0
 62
     4
 10
184.779999
 20
135.020004
 11
184.779999
 21
134.020004
  0
LINE
  8
0
 62
     4
 10
182.279999
 20
135.020004
 11
182.279999
 21
134.020004
  0
LINE
  8
0
 62
     4
 10
186.619995
 20
130.919998
 11
185.520004
 21
130.919998
  0
LINE
  8
0
 62
     4
 10
186.945999
 20
131.419998
 11
185.195999
 21
131.419998
  0
LINE
  8
0
 62
     4
 10
187.020004
 20
133.520004
 11
185.119995
 21
133.520004
  0
LINE
  8
0
 62
     4
 10
186.029999
 20
135.320007
 11
181.029999
 21
135.320007
  0
LINE
  8
0
 62
     4
 10
186.029999
 20
135.020004
 11
181.029999
 21
135.020004
  0
LINE
  8
0
 62
     4
 10
186.029999
 20
136.520004
 11
186.029999
 21
134.020004
  0
LINE
  8
0
 62
     4
 10
185.520004
 20
131.419998
 11
185.520004
 21
130.919998
  0
LINE
  8
0
 62
     4
 10
186.619995
 20
131.419998
 11
186.619995
 21
130.919998
  0
LINE
  8
0
 62
     4
 10
181.029999
 20
136.520004
 11
181.029999
 21
134.020004
  0
LINE
  8
0
 62
     4
 10
188.229996
 20
129.720001
 11
178.830002
 21
129.720001
  0
LINE
  8
0
 62
     4
 10
178.830002
 20
129.720001
 11
178.830002
 21
135.020004
  0
LINE
  8
0
 62
     4
 10
188.229996
 20
129.720001
 11
188.229996
 21
135.020004
  0
LINE
  8
0
 62
     4
 10
187.229996
 20
134.020004
 11
179.830002
 21
134.020004
  0
LINE
  8
0
 62
     4
 10
181.029999
 20
134.520004
 11
180.630005
 21
134.520004
  0
LINE
  8
0
 62
     4
 10
183.130005
 20
132.919998
 11
183.130005
 21
132.119995
  0
LINE
  8
0
 62
     4
 10
183.929993
 20
132.119995
 11
183.130005
 21
132.119995
  0
LINE
  8
0
 62
     4
 10
183.929993
 20
132.919998
 11
183.929993
 21
132.119995
  0
LINE
  8
0
 62
     4
 10
183.929993
 20
132.919998
 11
183.130005
 21
132.919998
  0
LINE
  8
0
  6
CENTER
 62
     1
 10
183.529999
 20
141.056061
 11
183.529999
 21
115.284935
  0
LINE
  8
0
  6
CENTER
 62
     1
 10
-208.074951
 20
25.715010
 11
-208.074951
 21
61.636066
  0
LINE
  8
0
 62
     4
 10
-203.074951
 20
59.500015
 11
-213.074951
 21
59.500015
  0
LINE
  8
0
 62
     4
 10
-205.074951
 20
59.000015
 11
-211.074951
 21
59.000015
  0
LINE
  8
0
 62
     4
 10
-205.074951
 20
58.500015
 11
-211.074951
 21
58.500015
  0
LINE
  8
0
 62
     4
 10
-211.074951
 20
59.000015
 11
-211.074951
 21
58.500015
  0
LINE
  8
0
 62
     4
 10
-205.074951
 20
59.000015
 11
-205.074951
 21
58.500015
  0
LINE
  8
0
 62
     4
 10
-213.074951
 20
59.500015
 11
-213.074951
 21
27.500015
  0
LINE
  8
0
 62
     4
 10
-203.074951
 20
27.500015
 11
-203.074951
 21
59.500015
  0
LINE
  8
0
 62
     4
 10
-213.074951
 20
27.500015
 11
-203.074951
 21
27.500015
  0
LINE
  8
0
 62
     4
 10
-203.070007
 20
217.000000
 11
-213.070007
 21
217.000000
  0
LINE
  8
0
 62
     4
 10
-203.862885
 20
209.207092
 11
-205.277100
 21
207.792877
  0
LINE
  8
0
 62
     4
 10
-203.862885
 20
207.792877
 11
-205.277100
 21
209.207092
  0
LINE
  8
0
 62
     4
 10
-212.277115
 20
207.792892
 11
-210.862900
 21
209.207108
  0
LINE
  8
0
 62
     4
 10
-212.277115
 20
209.207108
 11
-210.862900
 21
207.792892
  0
LINE
  8
0
 62
     4
 10
-206.244492
 20
206.449997
 11
-209.895523
 21
206.449997
  0
LINE
  8
0
 62
     4
 10
-206.244492
 20
207.050003
 11
-209.895523
 21
207.050003
  0
LINE
  8
0
 62
     4
 10
-205.170013
 20
196.300003
 11
-210.970001
 21
196.300003
  0
LINE
  8
0
 62
     4
 10
-205.170013
 20
200.300003
 11
-210.970001
 21
200.300003
  0
LINE
  8
0
 62
     1
 10
-209.570007
 20
190.000000
 11
-206.570007
 21
190.000000
  0
LINE
  8
0
 62
     1
 10
-209.570007
 20
190.000000
 11
-209.570007
 21
185.000000
  0
LINE
  8
0
 62
     1
 10
-206.570007
 20
190.000000
 11
-206.570007
 21
185.000000
  0
LINE
  8
0
 62
     4
 10
-203.070007
 20
202.500000
 11
-213.070007
 21
202.500000
  0
LINE
  8
0
 62
     4
 10
-213.070007
 20
185.000000
 11
-203.070007
 21
185.000000
  0
LINE
  8
0
 62
     4
 10
-203.070007
 20
185.000000
 11
-203.070007
 21
217.000000
  0
LINE
  8
0
  6
CENTER
 62
     1
 10
-208.070007
 20
218.785004
 11
-208.070007
 21
182.863953
  0
LINE
  8
0
  6
CENTER
 62
     1
 10
-205.570007
 20
206.750000
 11
-210.570007
 21
206.750000
  0
LINE
  8
0
 62
     4
 10
-213.070007
 20
185.000000
 11
-213.070007
 21
217.000000
  0
LINE
  8
0
 62
     4
 10
-213.070007
 20
206.899994
 11
-211.570007
 21
206.899994
  0
LINE
  8
0
 62
     4
 10
-211.570007
 20
210.100006
 11
-213.070007
 21
210.100006
  0
LINE
  8
0
 62
     4
 10
-203.070007
 20
210.100006
 11
-204.570007
 21
210.100006
  0
LINE
  8
0
 62
     4
 10
-204.570007
 20
206.899994
 11
-203.070007
 21
206.899994
  0
LINE
  8
0
 62
     4
 10
-203.070007
 20
202.600006
 11
-213.070007
 21
202.600006
  0
LINE
  8
0
 62
     4
 10
-213.070007
 20
203.098083
 11
-203.070007
 21
203.098083
  0
LINE
  8
0
 62
     4
 10
-210.720001
 20
210.600006
 11
-213.070007
 21
210.600006
  0
LINE
  8
0
 62
     4
 10
-209.470001
 20
209.350006
 11
-206.670013
 21
209.350006
  0
LINE
  8
0
 62
     4
 10
-205.419998
 20
210.599991
 11
-206.669998
 21
209.349991
  0
LINE
  8
0
 62
     4
 10
-203.070007
 20
210.600006
 11
-205.420013
 21
210.600006
  0
LINE
  8
0
 62
     4
 10
-209.214371
 20
209.790817
 11
-206.925644
 21
209.790817
  0
LINE
  8
0
 62
     4
 10
-210.464371
 20
211.040817
 11
-213.070007
 21
211.040817
  0
LINE
  8
0
 62
     4
 10
-203.070007
 20
211.040817
 11
-205.675644
 21
211.040817
  0
LINE
  8
0
 62
     4
 10
-206.925629
 20
209.790802
 11
-205.675629
 21
211.040802
  0
LINE
  8
0
 62
     4
 10
-203.070007
 20
203.909180
 11
-213.070007
 21
203.909180
  0
LINE
  8
0
 62
     4
 10
-206.925644
 20
209.790817
 11
-206.670013
 21
209.349991
  0
LINE
  8
0
 62
     4
 10
-209.214355
 20
209.790802
 11
-210.464355
 21
211.040802
  0
LINE
  8
0
 62
     4
 10
-210.720001
 20
210.600006
 11
-209.470001
 21
209.350006
  0
LINE
  8
0
 62
     4
 10
-209.214355
 20
209.790817
 11
-209.469986
 21
209.350006
  0
LINE
  8
0
 62
     4
 10
-205.420013
 20
210.599991
 11
-205.675644
 21
211.040817
  0
LINE
  8
0
 62
     4
 10
-210.464355
 20
211.040817
 11
-210.719986
 21
210.600006
  0
LINE
  8
0
 62
     4
 10
-103.075012
 20
120.000000
 11
-108.857864
 21
120.000000
  0
LINE
  8
0
 62
     4
 10
-108.857864
 20
119.999992
 11
-109.475014
 21
123.500000
  0
LINE
  8
0
 62
     4
 10
-133.575012
 20
122.199997
 11
-133.575012
 21
109.699997
  0
LINE
  8
0
 62
     4
 10
-135.075012
 20
109.400002
 11
-134.775009
 21
109.699997
  0
LINE
  8
0
 62
     4
 10
-117.575012
 20
127.500000
 11
-117.475014
 21
127.500000
  0
LINE
  8
0
 62
     4
 10
-116.976936
 20
128.100006
 11
-117.475014
 21
128.100006
  0
LINE
  8
0
 62
     4
 10
-116.165833
 20
123.500000
 11
-116.976936
 21
128.100006
  0
LINE
  8
0
 62
     4
 10
-117.475014
 20
122.199997
 11
-117.475014
 21
128.100006
  0
LINE
  8
0
 62
     4
 10
-103.775009
 20
119.300003
 11
-103.775009
 21
111.699997
  0
LINE
  8
0
 62
     4
 10
-135.075012
 20
108.500000
 11
-135.075012
 21
109.400002
  0
LINE
  8
0
 62
     4
 10
-103.075012
 20
108.500000
 11
-103.075012
 21
120.000000
  0
LINE
  8
0
 62
     4
 10
-109.475014
 20
123.500000
 11
-116.165833
 21
123.500000
  0
LINE
  8
0
 62
     4
 10
-104.575012
 20
119.300003
 11
-104.575012
 21
111.699997
  0
LINE
  8
0
 62
     4
 10
-104.575012
 20
119.300003
 11
-103.775009
 21
119.300003
  0
LINE
  8
0
 62
     4
 10
-103.775009
 20
111.699997
 11
-104.575012
 21
111.699997
  0
LINE
  8
0
 62
     4
 10
-119.775009
 20
128.899994
 11
-119.775009
 21
128.100006
  0
LINE
  8
0
 62
     4
 10
-119.975014
 20
129.100006
 11
-123.575012
 21
129.100006
  0
LINE
  8
0
 62
     4
 10
-123.775009
 20
128.899994
 11
-123.775009
 21
128.100006
  0
LINE
  8
0
 62
     4
 10
-117.575012
 20
122.199997
 11
-117.575012
 21
128.100006
  0
LINE
  8
0
 62
     4
 10
-135.075012
 20
109.699997
 11
-133.575012
 21
109.699997
  0
LINE
  8
0
 62
     4
 10
-117.575012
 20
128.100006
 11
-134.775009
 21
128.100006
  0
LINE
  8
0
 62
     4
 10
-133.575012
 20
122.199997
 11
-117.475014
 21
122.199997
  0
LINE
  8
0
 62
     4
 10
-135.075012
 20
109.699997
 11
-135.075012
 21
127.800003
  0
LINE
  8
0
 62
     4
 10
-109.975014
 20
122.500000
 11
-113.175011
 21
122.500000
  0
LINE
  8
0
 62
     4
 10
-113.175011
 20
123.500000
 11
-113.175011
 21
122.500000
  0
LINE
  8
0
 62
     4
 10
-109.975014
 20
123.500000
 11
-109.975014
 21
122.500000
  0
LINE
  8
0
 62
     4
 10
-121.125015
 20
129.100006
 11
-121.125015
 21
132.605316
  0
LINE
  8
0
 62
     4
 10
-122.425011
 20
129.100006
 11
-122.425011
 21
132.954681
  0
LINE
  8
0
 62
     1
 10
-123.375023
 20
133.210007
 11
-120.175018
 21
132.350006
  0
LINE
  8
0
 62
     1
 10
-123.375015
 20
134.240005
 11
-120.175011
 21
133.380005
  0
LINE
  8
0
 62
     4
 10
-122.425011
 20
137.300003
 11
-121.125015
 21
137.300003
  0
LINE
  8
0
 62
     4
 10
-122.025009
 20
137.300003
 11
-122.025009
 21
141.300003
  0
LINE
  8
0
 62
     4
 10
-121.525009
 20
137.300003
 11
-121.525009
 21
141.300003
  0
LINE
  8
0
 62
     4
 10
-121.125015
 20
133.635315
 11
-121.125015
 21
137.300003
  0
LINE
  8
0
 62
     4
 10
-122.425011
 20
133.984680
 11
-122.425011
 21
137.300003
  0
LINE
  8
0
 62
     4
 10
-110.075012
 20
122.599998
 11
-110.075012
 21
122.500000
  0
LINE
  8
0
 62
     4
 10
-113.075012
 20
122.599998
 11
-113.075012
 21
122.500000
  0
LINE
  8
0
 62
     4
 10
-110.575012
 20
123.099998
 11
-112.575012
 21
123.099998
  0
LINE
  8
0
 62
     4
 10
-122.025009
 20
141.300003
 11
-121.525009
 21
141.300003
  0
LINE
  8
0
 62
     4
 10
-294.124939
 20
141.300003
 11
-294.624939
 21
141.300003
  0
LINE
  8
0
 62
     4
 10
-305.574951
 20
123.099998
 11
-303.574951
 21
123.099998
  0
LINE
  8
0
 62
     4
 10
-303.074951
 20
122.599998
 11
-303.074951
 21
122.500000
  0
LINE
  8
0
 62
     4
 10
-306.074951
 20
122.599998
 11
-306.074951
 21
122.500000
  0
LINE
  8
0
 62
     4
 10
-293.724945
 20
133.635315
 11
-293.724945
 21
137.300003
  0
LINE
  8
0
 62
     4
 10
-295.024963
 20
133.984680
 11
-295.024963
 21
137.300003
  0
LINE
  8
0
 62
     4
 10
-294.624939
 20
137.300003
 11
-294.624939
 21
141.300003
  0
LINE
  8
0
 62
     4
 10
-294.124939
 20
137.300003
 11
-294.124939
 21
141.300003
  0
LINE
  8
0
 62
     4
 10
-293.724945
 20
137.300003
 11
-295.024963
 21
137.300003
  0
LINE
  8
0
 62
     1
 10
-295.974945
 20
134.240005
 11
-292.774963
 21
133.379990
  0
LINE
  8
0
 62
     1
 10
-295.974945
 20
133.209991
 11
-292.774963
 21
132.350006
  0
LINE
  8
0
 62
     4
 10
-293.724945
 20
129.100006
 11
-293.724945
 21
132.605316
  0
LINE
  8
0
 62
     4
 10
-295.024963
 20
129.100006
 11
-295.024963
 21
132.954681
  0
LINE
  8
0
 62
     4
 10
-306.174957
 20
123.500000
 11
-306.174957
 21
122.500000
  0
LINE
  8
0
 62
     4
 10
-302.974945
 20
123.500000
 11
-302.974945
 21
122.500000
  0
LINE
  8
0
 62
     4
 10
-306.174957
 20
122.500000
 11
-302.974945
 21
122.500000
  0
LINE
  8
0
 62
     4
 10
-281.074951
 20
109.699997
 11
-281.074951
 21
127.800003
  0
LINE
  8
0
 62
     4
 10
-282.574951
 20
122.199997
 11
-298.674957
 21
122.199997
  0
LINE
  8
0
 62
     4
 10
-298.574951
 20
128.100006
 11
-281.374939
 21
128.100006
  0
LINE
  8
0
 62
     4
 10
-281.074951
 20
109.699997
 11
-282.574951
 21
109.699997
  0
LINE
  8
0
 62
     4
 10
-298.574951
 20
122.199997
 11
-298.574951
 21
128.100006
  0
LINE
  8
0
 62
     4
 10
-292.374939
 20
128.899994
 11
-292.374939
 21
128.100006
  0
LINE
  8
0
 62
     4
 10
-296.174957
 20
129.100006
 11
-292.574951
 21
129.100006
  0
LINE
  8
0
 62
     4
 10
-296.374939
 20
128.899994
 11
-296.374939
 21
128.100006
  0
LINE
  8
0
 62
     4
 10
-312.374939
 20
111.699997
 11
-311.574951
 21
111.699997
  0
LINE
  8
0
 62
     4
 10
-311.574951
 20
119.300003
 11
-312.374939
 21
119.300003
  0
LINE
  8
0
 62
     4
 10
-311.574951
 20
119.300003
 11
-311.574951
 21
111.699997
  0
LINE
  8
0
 62
     4
 10
-306.674957
 20
123.500000
 11
-299.984131
 21
123.500000
  0
LINE
  8
0
 62
     4
 10
-313.074951
 20
108.500000
 11
-313.074951
 21
120.000000
  0
LINE
  8
0
 62
     4
 10
-281.074951
 20
108.500000
 11
-281.074951
 21
109.400002
  0
LINE
  8
0
 62
     4
 10
-312.374939
 20
119.300003
 11
-312.374939
 21
111.699997
  0
LINE
  8
0
 62
     4
 10
-298.674957
 20
122.199997
 11
-298.674957
 21
128.100006
  0
LINE
  8
0
 62
     4
 10
-299.984131
 20
123.500000
 11
-299.173035
 21
128.100006
  0
LINE
  8
0
 62
     4
 10
-299.173035
 20
128.100006
 11
-298.674957
 21
128.100006
  0
LINE
  8
0
 62
     4
 10
-298.574951
 20
127.500000
 11
-298.674957
 21
127.500000
  0
LINE
  8
0
 62
     4
 10
-281.074951
 20
109.400009
 11
-281.374939
 21
109.699989
  0
LINE
  8
0
 62
     4
 10
-282.574951
 20
122.199997
 11
-282.574951
 21
109.699997
  0
LINE
  8
0
 62
     4
 10
-307.292084
 20
120.000008
 11
-306.674957
 21
123.500000
  0
LINE
  8
0
 62
     4
 10
-313.074951
 20
120.000000
 11
-307.292084
 21
120.000000
  0
LINE
  8
0
 62
     1
 10
-209.370010
 20
133.380005
 11
-212.570007
 21
134.240005
  0
LINE
  8
0
 62
     1
 10
-209.370010
 20
132.350006
 11
-212.570007
 21
133.210007
  0
LINE
  8
0
 62
     4
 10
-211.220001
 20
141.300003
 11
-210.720001
 21
141.300003
  0
LINE
  8
0
 62
     4
 10
-211.620010
 20
137.300003
 11
-210.320007
 21
137.300003
  0
LINE
  8
0
 62
     4
 10
-211.220001
 20
137.300003
 11
-211.220001
 21
141.300003
  0
LINE
  8
0
 62
     4
 10
-210.720001
 20
137.300003
 11
-210.720001
 21
141.300003
  0
LINE
  8
0
 62
     4
 10
-210.320007
 20
133.639999
 11
-210.320007
 21
137.300003
  0
LINE
  8
0
 62
     4
 10
-211.620010
 20
133.990005
 11
-211.620010
 21
137.300003
  0
LINE
  8
0
 62
     4
 10
-211.620010
 20
129.100006
 11
-211.620010
 21
132.949997
  0
LINE
  8
0
 62
     4
 10
-210.320007
 20
129.100006
 11
-210.320007
 21
132.600006
  0
LINE
  8
0
 62
     1
 10
-203.570007
 20
133.380005
 11
-206.770004
 21
134.240005
  0
LINE
  8
0
 62
     1
 10
-203.570007
 20
132.350006
 11
-206.770004
 21
133.210007
  0
LINE
  8
0
 62
     4
 10
-205.420013
 20
141.300003
 11
-204.920013
 21
141.300003
  0
LINE
  8
0
 62
     4
 10
-205.820007
 20
137.300003
 11
-204.520004
 21
137.300003
  0
LINE
  8
0
 62
     4
 10
-205.420013
 20
137.300003
 11
-205.420013
 21
141.300003
  0
LINE
  8
0
 62
     4
 10
-204.920013
 20
137.300003
 11
-204.920013
 21
141.300003
  0
LINE
  8
0
 62
     4
 10
-204.520004
 20
133.639999
 11
-204.520004
 21
137.300003
  0
LINE
  8
0
 62
     4
 10
-205.820007
 20
133.990005
 11
-205.820007
 21
137.300003
  0
LINE
  8
0
 62
     4
 10
-205.820007
 20
129.100006
 11
-205.820007
 21
132.949997
  0
LINE
  8
0
 62
     4
 10
-204.520004
 20
129.100006
 11
-204.520004
 21
132.600006
  0
LINE
  8
0
 62
     4
 10
-203.070007
 20
109.400002
 11
-213.070007
 21
109.400002
  0
LINE
  8
0
 62
     4
 10
-203.370010
 20
128.100006
 11
-212.770004
 21
128.100006
  0
LINE
  8
0
 62
     4
 10
-203.070007
 20
109.699997
 11
-213.070007
 21
109.699997
  0
LINE
  8
0
 62
     4
 10
-203.070007
 20
108.500000
 11
-203.070007
 21
127.800003
  0
LINE
  8
0
 62
     4
 10
-213.070007
 20
108.500000
 11
-213.070007
 21
127.800003
  0
LINE
  8
0
 62
     4
 10
-203.370010
 20
129.100006
 11
-212.770004
 21
129.100006
  0
LINE
  8
0
 62
     4
 10
-212.970001
 20
128.899994
 11
-212.970001
 21
128.023605
  0
LINE
  8
0
 62
     4
 10
-203.170013
 20
128.899994
 11
-203.170013
 21
128.023605
  0
LINE
  8
0
 62
     1
 10
-206.570007
 20
125.099998
 11
-206.570007
 21
128.100006
  0
LINE
  8
0
 62
     1
 10
-209.570007
 20
125.099998
 11
-206.570007
 21
125.099998
  0
LINE
  8
0
 62
     1
 10
-209.570007
 20
125.099998
 11
-209.570007
 21
128.100006
  0
LINE
  8
0
  6
CENTER
 62
     1
 10
-208.070007
 20
106.582832
 11
-208.070007
 21
130.800079
  0
LINE
  8
0
 10
-209.479996
 20
-158.000000
 11
-199.479996
 21
-158.000000
  0
LINE
  8
0
 10
-213.070007
 20
108.500000
 11
-203.070007
 21
108.500000
  0
LINE
  8
0
 10
180.029999
 20
-158.000000
 11
190.029999
 21
-158.000000
  0
LINE
  8
0
 10
178.529999
 20
118.500000
 11
188.529999
 21
118.500000
  0
LINE
  8
0
 10
-119.487503
 20
-158.000000
 11
-87.487503
 21
-158.000000
  0
LINE
  8
0
 10
-326.487305
 20
-158.000000
 11
-294.487305
 21
-158.000000
  0
LINE
  8
0
 10
38.037491
 20
-158.000000
 11
70.037491
 21
-158.000000
  0
LINE
  8
0
 10
285.037354
 20
-158.000000
 11
317.037354
 21
-158.000000
  0
LINE
  8
0
 10
274.525024
 20
118.500000
 11
306.525024
 21
118.500000
  0
LINE
  8
0
 10
42.525009
 20
118.500000
 11
74.525009
 21
118.500000
  0
LINE
  8
0
 10
-135.075012
 20
108.500000
 11
-103.075012
 21
108.500000
  0
LINE
  8
0
 10
-313.074951
 20
108.500000
 11
-281.074951
 21
108.500000
  0
LINE
  8
0
 10
0.270000
 20
276.250000
 11
0.270000
 21
-276.750000
  0
LINE
  8
0
 10
-399.250000
 20
-0.250000
 11
399.799988
 21
-0.250000
  0
LINE
  8
0
 10
399.799805
 20
276.250000
 11
399.799805
 21
-276.750000
  0
LINE
  8
0
 10
-399.250000
 20
276.250000
 11
-399.250000
 21
-276.750000
  0
LINE
  8
0
 10
-399.250000
 20
276.250000
 11
399.799805
 21
276.250000
  0
LINE
  8
0
 10
-399.250000
 20
-276.750000
 11
399.799805
 21
-276.750000
  0
LINE
  8
0
 10
239.799988
 20
-251.750000
 11
399.799805
 21
-251.750000
  0
LINE
  8
0
 10
239.799988
 20
251.250000
 11
399.799805
 21
251.250000
  0
LINE
  8
0
 10
-399.250000
 20
251.250000
 11
-239.250000
 21
251.250000
  0
LINE
  8
0
 10
239.799988
 20
-251.750000
 11
239.799988
 21
-276.750000
  0
LINE
  8
0
 10
239.799988
 20
251.250000
 11
239.799988
 21
276.250000
  0
LINE
  8
0
 10
-239.250000
 20
276.250000
 11
-239.250000
 21
251.250000
  0
CIRCLE
  8
0
 62
     4
 10
185.029999
 20
-53.750000
 40
2.050000
  0
ARC
  8
0
 62
     4
 10
181.529999
 20
-52.000000
 40
1.599998
 50
270.000000
 51
90.000000
  0
ARC
  8
0
 62
     4
 10
188.529999
 20
-52.000000
 40
1.599998
 50
90.000000
 51
270.000000
  0
CIRCLE
  8
0
 62
     4
 10
185.029999
 20
-53.750000
 40
1.900000
  0
CIRCLE
  8
0
 62
     4
 10
185.029999
 20
-53.750000
 40
1.850000
  0
ARC
  8
0
 62
     4
 10
185.029999
 20
-53.750000
 40
0.800003
 50
202.024185
 51
337.975830
  0
ARC
  8
0
 62
     4
 10
185.029999
 20
-53.750000
 40
0.800003
 50
22.024179
 51
157.975815
  0
CIRCLE
  8
0
 62
     4
 10
181.529999
 20
-52.000000
 40
1.500000
  0
CIRCLE
  8
0
 62
     4
 10
188.529999
 20
-52.000000
 40
1.500000
  0
ARC
  8
0
 62
     4
 10
307.537354
 20
-143.899994
 40
0.500000
 50
90.000000
 51
180.000000
  0
ARC
  8
0
 62
     4
 10
309.537354
 20
-143.899994
 40
0.500000
 50
0.000000
 51
90.000000
  0
ARC
  8
0
 62
     4
 10
280.337341
 20
-138.699997
 40
0.300003
 50
90.000000
 51
180.000000
  0
ARC
  8
0
 62
     4
 10
74.737488
 20
-138.699997
 40
0.300003
 50
0.000000
 51
90.000000
  0
ARC
  8
0
 62
     4
 10
45.537491
 20
-143.899994
 40
0.500000
 50
90.000000
 51
180.000000
  0
ARC
  8
0
 62
     4
 10
47.537491
 20
-143.899994
 40
0.500000
 50
0.000000
 51
90.000000
  0
ARC
  8
0
 62
     4
 10
180.330002
 20
-146.000000
 40
0.300003
 50
180.000000
 51
270.000000
  0
ARC
  8
0
 62
     4
 10
180.330002
 20
-141.300003
 40
0.300003
 50
90.000000
 51
180.000000
  0
ARC
  8
0
 62
     4
 10
189.729996
 20
-146.000000
 40
0.300003
 50
270.000000
 51
0.000000
  0
ARC
  8
0
 62
     4
 10
189.729996
 20
-141.300003
 40
0.300003
 50
0.000000
 51
90.000000
  0
ARC
  8
0
 62
     4
 10
189.729996
 20
-138.699997
 40
0.300003
 50
0.000000
 51
90.000000
  0
ARC
  8
0
 62
     4
 10
180.330002
 20
-138.699997
 40
0.300003
 50
90.000000
 51
180.000000
  0
ARC
  8
0
 62
     4
 10
181.615280
 20
-144.880341
 40
0.199661
 50
176.459717
 51
270.205811
  0
ARC
  8
0
 62
     4
 10
183.365662
 20
-144.879333
 40
0.200669
 50
270.100220
 51
3.238797
  0
ARC
  8
0
 62
     4
 10
184.155289
 20
-144.880341
 40
0.199661
 50
176.459717
 51
270.205811
  0
ARC
  8
0
 62
     4
 10
185.905655
 20
-144.879333
 40
0.200669
 50
270.100220
 51
3.238797
  0
ARC
  8
0
 62
     4
 10
186.695282
 20
-144.880341
 40
0.199661
 50
176.459717
 51
270.205811
  0
ARC
  8
0
 62
     4
 10
188.445648
 20
-144.879333
 40
0.200669
 50
270.100220
 51
3.238797
  0
CIRCLE
  8
0
 62
     4
 10
187.569992
 20
-143.979996
 40
0.700000
  0
CIRCLE
  8
0
 62
     4
 10
187.569992
 20
-143.979996
 40
0.300000
  0
CIRCLE
  8
0
 62
     4
 10
182.490005
 20
-143.979996
 40
0.700000
  0
CIRCLE
  8
0
 62
     4
 10
182.490005
 20
-143.979996
 40
0.300000
  0
ARC
  8
0
 62
     4
 10
-204.479996
 20
-53.750000
 40
0.800003
 50
22.024179
 51
157.975815
  0
ARC
  8
0
 62
     4
 10
-204.479996
 20
-53.750000
 40
0.800003
 50
202.024185
 51
337.975830
  0
CIRCLE
  8
0
 62
     4
 10
-204.479996
 20
-53.750000
 40
1.850000
  0
CIRCLE
  8
0
 62
     4
 10
-201.580002
 20
-60.500000
 40
0.875000
  0
CIRCLE
  8
0
 62
     4
 10
-207.379990
 20
-60.500000
 40
0.875000
  0
CIRCLE
  8
0
 62
     4
 10
-204.479996
 20
-53.750000
 40
1.900000
  0
ARC
  8
0
 62
     4
 10
-200.979996
 20
-52.000000
 40
1.599998
 50
90.000000
 51
270.000000
  0
ARC
  8
0
 62
     4
 10
-207.979996
 20
-52.000000
 40
1.599998
 50
270.000000
 51
90.000000
  0
CIRCLE
  8
0
 62
     4
 10
-204.479996
 20
-53.750000
 40
2.050000
  0
ARC
  8
0
 62
     4
 10
-201.580002
 20
-60.500000
 40
2.000000
 50
270.000000
 51
90.000000
  0
ARC
  8
0
 62
     4
 10
-207.379990
 20
-60.500000
 40
2.000000
 50
90.000000
 51
270.000000
  0
CIRCLE
  8
0
 62
     4
 10
-207.979996
 20
-52.000000
 40
1.500000
  0
CIRCLE
  8
0
 62
     4
 10
-200.979996
 20
-52.000000
 40
1.500000
  0
ARC
  8
0
 62
     4
 10
-199.779999
 20
-80.199997
 40
0.300003
 50
270.000000
 51
0.000000
  0
ARC
  8
0
 62
     4
 10
-209.179993
 20
-80.199997
 40
0.300003
 50
180.000000
 51
270.000000
  0
ARC
  8
0
 62
     4
 10
-102.686790
 20
-137.599289
 40
0.199289
 50
359.793823
 51
90.203987
  0
ARC
  8
0
 62
     4
 10
-106.288216
 20
-137.599289
 40
0.199296
 50
89.796013
 51
180.206192
  0
ARC
  8
0
 62
     4
 10
-124.187500
 20
-138.699997
 40
0.300003
 50
90.000000
 51
180.000000
  0
ARC
  8
0
 62
     4
 10
-96.987503
 20
-143.899994
 40
0.500000
 50
90.000000
 51
180.000000
  0
ARC
  8
0
 62
     4
 10
-94.987503
 20
-143.899994
 40
0.500000
 50
0.000000
 51
90.000000
  0
ARC
  8
0
 62
     4
 10
-311.288025
 20
-137.599289
 40
0.199296
 50
89.798210
 51
180.206192
  0
ARC
  8
0
 62
     4
 10
-307.686584
 20
-137.599289
 40
0.199281
 50
359.793793
 51
90.201790
  0
ARC
  8
0
 62
     4
 10
-289.787292
 20
-138.699997
 40
0.299988
 50
0.000000
 51
90.000000
  0
ARC
  8
0
 62
     4
 10
-316.987305
 20
-143.899994
 40
0.500000
 50
0.000000
 51
90.000000
  0
ARC
  8
0
 62
     4
 10
-318.987305
 20
-143.899994
 40
0.500000
 50
90.000000
 51
180.000000
  0
ARC
  8
0
 62
     4
 10
-199.779282
 20
-137.599289
 40
0.199296
 50
359.793823
 51
90.206177
  0
ARC
  8
0
 62
     4
 10
-209.180710
 20
-137.599289
 40
0.199296
 50
89.793823
 51
180.206177
  0
ARC
  8
0
 62
     4
 10
-199.779999
 20
-138.699997
 40
0.300003
 50
0.000000
 51
90.000000
  0
ARC
  8
0
 62
     4
 10
-209.179993
 20
-138.699997
 40
0.300003
 50
90.000000
 51
180.000000
  0
CIRCLE
  8
0
 62
     4
 10
183.529999
 20
222.750000
 40
2.050000
  0
ARC
  8
0
 62
     4
 10
180.029999
 20
224.500000
 40
1.600006
 50
270.000000
 51
90.000000
  0
ARC
  8
0
 62
     4
 10
187.029999
 20
224.500000
 40
1.600006
 50
90.000000
 51
270.000000
  0
CIRCLE
  8
0
 62
     4
 10
183.529999
 20
222.750000
 40
1.900000
  0
CIRCLE
  8
0
 62
     4
 10
183.529999
 20
222.750000
 40
1.850000
  0
ARC
  8
0
 62
     4
 10
183.529999
 20
222.750000
 40
0.800004
 50
202.024429
 51
337.975555
  0
ARC
  8
0
 62
     4
 10
183.529999
 20
222.750000
 40
0.800004
 50
22.024433
 51
157.975571
  0
CIRCLE
  8
0
 62
     4
 10
180.029999
 20
224.500000
 40
1.500000
  0
CIRCLE
  8
0
 62
     4
 10
187.029999
 20
224.500000
 40
1.500000
  0
ARC
  8
0
 62
     4
 10
274.825012
 20
137.800003
 40
0.300003
 50
90.000000
 51
180.000000
  0
ARC
  8
0
 62
     4
 10
299.025024
 20
132.600006
 40
0.500000
 50
0.000000
 51
90.000000
  0
ARC
  8
0
 62
     4
 10
297.025024
 20
132.600006
 40
0.500000
 50
90.000000
 51
180.000000
  0
ARC
  8
0
 62
     4
 10
52.025009
 20
132.600006
 40
0.500000
 50
0.000000
 51
90.000000
  0
ARC
  8
0
 62
     4
 10
50.025009
 20
132.600006
 40
0.500000
 50
90.000000
 51
180.000000
  0
ARC
  8
0
 62
     4
 10
74.225006
 20
137.800003
 40
0.300003
 50
0.000000
 51
90.000000
  0
ARC
  8
0
 62
     4
 10
178.830002
 20
130.500000
 40
0.300003
 50
180.000000
 51
270.000000
  0
ARC
  8
0
 62
     4
 10
178.830002
 20
135.199997
 40
0.300003
 50
90.000000
 51
180.000000
  0
ARC
  8
0
 62
     4
 10
188.229996
 20
130.500000
 40
0.300003
 50
270.000000
 51
0.000000
  0
ARC
  8
0
 62
     4
 10
188.229996
 20
135.199997
 40
0.300003
 50
0.000000
 51
90.000000
  0
ARC
  8
0
 62
     4
 10
188.229996
 20
137.800003
 40
0.300003
 50
0.000000
 51
90.000000
  0
ARC
  8
0
 62
     4
 10
178.830002
 20
137.800003
 40
0.300003
 50
90.000000
 51
180.000000
  0
ARC
  8
0
 62
     4
 10
180.115280
 20
131.619659
 40
0.199661
 50
176.459717
 51
270.205811
  0
ARC
  8
0
 62
     4
 10
181.865662
 20
131.620667
 40
0.200669
 50
270.100220
 51
3.238797
  0
ARC
  8
0
 62
     4
 10
182.655289
 20
131.619659
 40
0.199661
 50
176.459717
 51
270.205811
  0
ARC
  8
0
 62
     4
 10
184.405655
 20
131.620667
 40
0.200669
 50
270.100220
 51
3.238797
  0
ARC
  8
0
 62
     4
 10
185.195282
 20
131.619659
 40
0.199661
 50
176.459717
 51
270.205811
  0
ARC
  8
0
 62
     4
 10
186.945648
 20
131.620667
 40
0.200669
 50
270.100220
 51
3.238797
  0
CIRCLE
  8
0
 62
     4
 10
186.069992
 20
132.520004
 40
0.700000
  0
CIRCLE
  8
0
 62
     4
 10
186.069992
 20
132.520004
 40
0.300000
  0
CIRCLE
  8
0
 62
     4
 10
180.990005
 20
132.520004
 40
0.700000
  0
CIRCLE
  8
0
 62
     4
 10
180.990005
 20
132.520004
 40
0.300000
  0
CIRCLE
  8
0
 62
     4
 10
-204.570007
 20
208.500000
 40
1.500000
  0
CIRCLE
  8
0
 62
     4
 10
-211.570007
 20
208.500000
 40
1.500000
  0
ARC
  8
0
 62
     4
 10
-208.070007
 20
206.750000
 40
0.800004
 50
22.024433
 51
157.975571
  0
ARC
  8
0
 62
     4
 10
-208.070007
 20
206.750000
 40
0.800004
 50
202.024429
 51
337.975555
  0
CIRCLE
  8
0
 62
     4
 10
-208.070007
 20
206.750000
 40
1.850000
  0
ARC
  8
0
 62
     4
 10
-210.970001
 20
198.300003
 40
2.000000
 50
90.000000
 51
270.000000
  0
ARC
  8
0
 62
     4
 10
-205.170013
 20
198.300003
 40
2.000000
 50
270.000000
 51
90.000000
  0
CIRCLE
  8
0
 62
     4
 10
-205.170013
 20
198.300003
 40
0.875000
  0
CIRCLE
  8
0
 62
     4
 10
-210.970001
 20
198.300003
 40
0.875000
  0
ARC
  8
0
 62
     4
 10
-203.370010
 20
185.300003
 40
0.300003
 50
270.000000
 51
0.000000
  0
ARC
  8
0
 62
     4
 10
-212.770004
 20
185.300003
 40
0.300003
 50
180.000000
 51
270.000000
  0
CIRCLE
  8
0
 62
     4
 10
-208.070007
 20
206.750000
 40
1.900000
  0
ARC
  8
0
 62
     4
 10
-204.570007
 20
208.500000
 40
1.600006
 50
90.000000
 51
270.000000
  0
ARC
  8
0
 62
     4
 10
-211.570007
 20
208.500000
 40
1.600006
 50
270.000000
 51
90.000000
  0
CIRCLE
  8
0
 62
     4
 10
-208.070007
 20
206.750000
 40
2.050000
  0
ARC
  8
0
 62
     4
 10
-119.974304
 20
128.900711
 40
0.199289
 50
359.793823
 51
90.203987
  0
ARC
  8
0
 62
     4
 10
-123.575722
 20
128.900711
 40
0.199296
 50
89.796013
 51
180.206192
  0
ARC
  8
0
 62
     4
 10
-134.775009
 20
127.800003
 40
0.300003
 50
90.000000
 51
180.000000
  0
ARC
  8
0
 62
     4
 10
-112.575012
 20
122.599998
 40
0.500000
 50
90.000000
 51
180.000000
  0
ARC
  8
0
 62
     4
 10
-110.575012
 20
122.599998
 40
0.500000
 50
0.000000
 51
90.000000
  0
ARC
  8
0
 62
     4
 10
-305.574951
 20
122.599998
 40
0.500000
 50
90.000000
 51
180.000000
  0
ARC
  8
0
 62
     4
 10
-303.574951
 20
122.599998
 40
0.500000
 50
0.000000
 51
90.000000
  0
ARC
  8
0
 62
     4
 10
-281.374939
 20
127.800003
 40
0.299988
 50
0.000000
 51
90.000000
  0
ARC
  8
0
 62
     4
 10
-292.574249
 20
128.900711
 40
0.199281
 50
359.793793
 51
90.201790
  0
ARC
  8
0
 62
     4
 10
-296.175659
 20
128.900711
 40
0.199296
 50
89.798210
 51
180.206192
  0
ARC
  8
0
 62
     4
 10
-212.770721
 20
128.900711
 40
0.199296
 50
89.793823
 51
180.206177
  0
ARC
  8
0
 62
     4
 10
-203.369293
 20
128.900711
 40
0.199296
 50
359.793823
 51
90.206177
  0
ARC
  8
0
 62
     4
 10
-212.770004
 20
127.800003
 40
0.300003
 50
90.000000
 51
180.000000
  0
ARC
  8
0
 62
     4
 10
-203.370010
 20
127.800003
 40
0.300003
 50
0.000000
 51
90.000000
  0
TEXT
  8
0
 10
-356.285309
 20
261.649994
 40
9.000000
  1
G SERIES
 50
0.000000
 41
1.052632
 51
0.000000
  7
STANDARD
  0
TEXT
  8
0
 10
-356.285309
 20
251.649994
 40
9.000000
  1
SOLENOID
 50
0.000000
 41
1.052632
 51
0.000000
  7
STANDARD
  0
TEXT
  8
0
 10
-384.000000
 20
228.369064
 40
6.300000
  1
MODEL:GROMMET
 50
0.000000
 41
1.052632
 51
0.000000
  7
STANDARD
  0
TEXT
  8
0
 10
15.524994
 20
228.369064
 40
6.300000
  1
MODEL:-PLL(100V)
 50
0.000000
 41
1.052632
 51
0.000000
  7
STANDARD
  0
TEXT
  8
0
 10
-384.000000
 20
-18.030001
 40
6.300000
  1
MODEL:GROMMET(200V)
 50
0.000000
 41
1.052632
 51
0.000000
  7
STANDARD
  0
TEXT
  8
0
 10
15.524994
 20
-18.030001
 40
6.300000
  1
MODEL:-PLL(200V)
 50
0.000000
 41
1.052632
 51
0.000000
  7
STANDARD
  0
TEXT
  8
0
 10
242.014633
 20
-274.500000
 40
12.500000
  1
KOGANEI CORP.
 50
0.000000
 41
1.052632
 51
0.000000
  7
STANDARD
  0
TEXT
  8
0
 10
282.764496
 20
256.649994
 40
9.000000
  1
Ver. 1.0
 50
0.000000
 41
1.052632
 51
0.000000
  7
STANDARD
  0
ENDSEC
  0
EOF
