  0
SECTION
  2
HEADER
  0
ENDSEC
  0
SECTION
  2
TABLES
  0
TABLE
  2
LTYPE
 70
     4
  0
LTYPE
  2
CONTINUOUS
 70
    64
  3
Solid line
 72
    65
 73
     0
 40
0.000000
  0
LTYPE
  2
DASHED
 70
    64
  3
__ __ __ __ __ __ __ __ __ __ __ __ __ __ __
 72
    65
 73
     2
 40
3.500000
 49
2.000000
 49
-1.500000
  0
LTYPE
  2
CENTER
 70
    64
  3
____ _ ____ _ ____ _ ____ _ ____ _ ____ _ ____
 72
    65
 73
     4
 40
17.500000
 49
13.000000
 49
-1.500000
 49
1.500000
 49
-1.500000
  0
LTYPE
  2
PHANTOM
 70
    64
  3
_____ _ _ _____ _ _ _____ _ _ _____ _ _ ____  
 72
    65
 73
     6
 40
15.500000
 49
8.000000
 49
-1.500000
 49
1.500000
 49
-1.500000
 49
1.500000
 49
-1.500000
  0
LTYPE
  2
DASHED1
 70
    64
  3
__ __ __ __ __ __ __ __ __ __ __ __ __ __ __
 72
    65
 73
     2
 40
1.500000
 49
1.000000
 49
-0.500000
  0
LTYPE
  2
DASHED2
 70
    64
  3
__ __ __ __ __ __ __ __ __ __ __ __ __ __ __
 72
    65
 73
     2
 40
3.500000
 49
2.500000
 49
-1.000000
  0
LTYPE
  2
DASHED3
 70
    64
  3
__ __ __ __ __ __ __ __ __ __ __ __ __ __ __
 72
    65
 73
     2
 40
6.000000
 49
4.000000
 49
-2.000000
  0
LTYPE
  2
DASHED4
 70
    64
  3
__ __ __ __ __ __ __ __ __ __ __ __ __ __ __
 72
    65
 73
     2
 40
12.000000
 49
10.000000
 49
-2.000000
  0
LTYPE
  2
DASHED5
 70
    64
  3
__ __ __ __ __ __ __ __ __ __ __ __ __ __ __
 72
    65
 73
     2
 40
17.000000
 49
15.000000
 49
-2.000000
  0
LTYPE
  2
DASHED6
 70
    64
  3
__ __ __ __ __ __ __ __ __ __ __ __ __ __ __
 72
    65
 73
     2
 40
29.000000
 49
27.000000
 49
-2.000000
  0
LTYPE
  2
PHANTOM1
 70
    64
  3
_____ _ _ _____ _ _ _____ _ _ _____ _ _ ____  
 72
    65
 73
     6
 40
31.000000
 49
25.000000
 49
-1.500000
 49
1.000000
 49
-1.000000
 49
1.000000
 49
-1.500000
  0
LTYPE
  2
PHANTOM2
 70
    64
  3
_____ _ _ _____ _ _ _____ _ _ _____ _ _ ____  
 72
    65
 73
     6
 40
36.000000
 49
27.000000
 49
-1.500000
 49
2.500000
 49
-1.000000
 49
2.500000
 49
-1.500000
  0
LTYPE
  2
PHANTOM3
 70
    64
  3
_____ _ _ _____ _ _ _____ _ _ _____ _ _ ____  
 72
    65
 73
     6
 40
78.000000
 49
64.000000
 49
-2.000000
 49
4.000000
 49
-2.000000
 49
4.000000
 49
-2.000000
  0
LTYPE
  2
CENTER1
 70
    64
  3
____ _ ____ _ ____ _ ____ _ ____ _ ____ _ ____
 72
    65
 73
     4
 40
19.000000
 49
14.000000
 49
-1.000000
 49
3.000000
 49
-1.000000
  0
LTYPE
  2
CENTER2
 70
    64
  3
____ _ ____ _ ____ _ ____ _ ____ _ ____ _ ____
 72
    65
 73
     4
 40
28.500000
 49
25.000000
 49
-1.000000
 49
1.500000
 49
-1.000000
  0
LTYPE
  2
CENTER3
 70
    64
  3
____ _ ____ _ ____ _ ____ _ ____ _ ____ _ ____
 72
    65
 73
     4
 40
31.500000
 49
27.000000
 49
-1.000000
 49
2.500000
 49
-1.000000
  0
LTYPE
  2
CENTER4
 70
    64
  3
____ _ ____ _ ____ _ ____ _ ____ _ ____ _ ____
 72
    65
 73
     4
 40
50.000000
 49
45.000000
 49
-1.000000
 49
3.000000
 49
-1.000000
  0
LTYPE
  2
CENTER5
 70
    64
  3
____ _ ____ _ ____ _ ____ _ ____ _ ____ _ ____
 72
    65
 73
     4
 40
100.000000
 49
92.000000
 49
-2.000000
 49
4.000000
 49
-2.000000
  0
LTYPE
  2
SBK1
 70
    64
  3
______ _ _ _ ______ _ _ _ ______ _ _ _ _____  
 72
    65
 73
     8
 40
60.500000
 49
45.000000
 49
-2.000000
 49
2.500000
 49
-2.000000
 49
2.500000
 49
-2.000000
 49
2.500000
 49
-2.000000
  0
LTYPE
  2
SBK2
 70
    64
  3
______ _ _ _ ______ _ _ _ ______ _ _ _ _____  
 72
    65
 73
     8
 40
84.000000
 49
64.000000
 49
-2.000000
 49
4.000000
 49
-2.000000
 49
4.000000
 49
-2.000000
 49
4.000000
 49
-2.000000
  0
LTYPE
  2
STCH
 70
    64
  3
__ __ __ __ __ __ __ __ __ __ __ __ __ __ __
 72
    65
 73
     2
 40
3.000000
 49
1.000000
 49
-2.000000
  0
LTYPE
  2
MTCH
 70
    64
  3
_____ _ _ _____ _ _ _____ _ _ _____ _ _ ____  
 72
    65
 73
     6
 40
80.000000
 49
66.000000
 49
-2.000000
 49
4.000000
 49
-2.000000
 49
4.000000
 49
-2.000000
  0
ENDTAB
  0
TABLE
  2
LAYER
 70
     1
  0
LAYER
  2
0
 70
     0
 62
     7
  6
CONTINUOUS
  0
ENDTAB
  0
TABLE
  2
STYLE
 70
     1
  0
STYLE
  2
STANDARD
 70
     0
 40
0.000000
 41
1.000000
 50
0.000000
 71
     0
 42
0.200000
  3
txt
  4
BIGFONT
  0
ENDTAB
  0
TABLE
  2
VIEW
 70
     0
  0
ENDTAB
  0
ENDSEC
  0
SECTION
  2
BLOCKS
  0
ENDSEC
  0
SECTION
  2
ENTITIES
  0
LINE
  8
0
  6
CENTER
 62
     1
 10
-162.973251
 20
66.074997
 11
-141.973251
 21
66.074997
  0
LINE
  8
0
 62
     4
 10
-157.473251
 20
61.075001
 11
-153.473251
 21
61.075001
  0
LINE
  8
0
 62
     4
 10
-143.473251
 20
69.074997
 11
-143.473251
 21
63.074997
  0
LINE
  8
0
 62
     4
 10
-153.473251
 20
63.075001
 11
-143.473251
 21
63.075001
  0
LINE
  8
0
 62
     4
 10
-157.473251
 20
71.074997
 11
-153.473251
 21
71.074997
  0
LINE
  8
0
 62
     4
 10
-160.473251
 20
72.074997
 11
-160.473251
 21
60.074997
  0
LINE
  8
0
 62
     4
 10
-157.473251
 20
72.074997
 11
-157.473251
 21
60.074997
  0
LINE
  8
0
 62
     4
 10
-153.473251
 20
71.074997
 11
-153.473251
 21
61.074997
  0
LINE
  8
0
 62
     4
 10
-153.473251
 20
69.074997
 11
-143.473251
 21
69.074997
  0
LINE
  8
0
 62
     4
 10
-157.473251
 20
72.074997
 11
-160.473251
 21
72.074997
  0
LINE
  8
0
 62
     4
 10
-157.473251
 20
60.074997
 11
-160.473251
 21
60.074997
  0
LINE
  8
0
  6
CENTER
 62
     1
 10
-162.973251
 20
69.574997
 11
-155.649567
 21
69.574997
  0
LINE
  8
0
  6
CENTER
 62
     1
 10
-162.973251
 20
62.575005
 11
-155.649567
 21
62.575005
  0
LINE
  8
0
  6
CENTER
 62
     1
 10
-107.773727
 20
73.575005
 11
-107.773727
 21
58.575005
  0
LINE
  8
0
  6
CENTER
 62
     1
 10
-96.273727
 20
66.074997
 11
-119.273727
 21
66.074997
  0
LINE
  8
0
  6
CENTER
 62
     1
 10
-114.773727
 20
72.371284
 11
-114.773727
 21
66.851646
  0
LINE
  8
0
  6
CENTER
 62
     1
 10
-100.773727
 20
65.520271
 11
-100.773727
 21
59.539757
  0
LINE
  8
0
  6
CENTER
 62
     1
 10
-98.413452
 20
62.574997
 11
-103.224876
 21
62.574997
  0
LINE
  8
0
  6
CENTER
 62
     1
 10
-112.300110
 20
69.574997
 11
-117.373734
 21
69.574997
  0
LINE
  8
0
 62
     4
 10
-99.773727
 20
60.074997
 11
-115.773727
 21
60.074997
  0
LINE
  8
0
 62
     4
 10
-99.773727
 20
72.074997
 11
-115.773727
 21
72.074997
  0
LINE
  8
0
 62
     4
 10
-35.013168
 20
74.075012
 11
-32.013168
 21
74.075012
  0
LINE
  8
0
 62
     4
 10
-35.013168
 20
58.075012
 11
-32.013168
 21
58.075012
  0
LINE
  8
0
 62
     4
 10
-35.013168
 20
74.075012
 11
-35.013168
 21
58.075012
  0
LINE
  8
0
 62
     4
 10
-5.013168
 20
71.075005
 11
-5.013168
 21
61.075005
  0
LINE
  8
0
 62
     4
 10
-35.013168
 20
74.075012
 11
-35.013168
 21
58.075012
  0
LINE
  8
0
 62
     4
 10
-32.013168
 20
74.075012
 11
-32.013168
 21
58.075012
  0
LINE
  8
0
 62
     4
 10
-20.013168
 20
71.575005
 11
-32.013168
 21
71.575005
  0
LINE
  8
0
 62
     4
 10
-20.013168
 20
60.575005
 11
-32.013168
 21
60.575005
  0
LINE
  8
0
  6
CENTER
 62
     1
 10
-3.911682
 20
66.075005
 11
-37.390396
 21
66.075005
  0
LINE
  8
0
 62
     4
 10
-35.013168
 20
67.675011
 11
-32.013168
 21
67.675011
  0
LINE
  8
0
 62
     4
 10
-35.013168
 20
64.475014
 11
-32.013168
 21
64.475014
  0
LINE
  8
0
 62
     4
 10
-20.013168
 20
71.575005
 11
-20.013168
 21
60.575005
  0
LINE
  8
0
 62
     4
 10
-5.013168
 20
71.075005
 11
-20.013168
 21
71.075005
  0
LINE
  8
0
 62
     4
 10
-5.013168
 20
61.075005
 11
-20.013168
 21
61.075005
  0
LINE
  8
0
  6
CENTER
 62
     1
 10
-30.043747
 20
71.075005
 11
-37.390396
 21
71.075005
  0
LINE
  8
0
  6
CENTER
 62
     1
 10
-30.043747
 20
61.075005
 11
-37.390396
 21
61.075005
  0
LINE
  8
0
 62
     4
 10
20.175827
 20
58.075012
 11
43.175827
 21
58.075012
  0
LINE
  8
0
 62
     4
 10
20.175812
 20
74.075012
 11
43.175812
 21
74.075012
  0
LINE
  8
0
  6
CENTER
 62
     1
 10
20.925827
 20
61.075020
 11
25.425827
 21
61.075020
  0
LINE
  8
0
 62
     4
 10
41.875824
 20
63.975014
 11
40.275818
 21
63.975014
  0
LINE
  8
0
 62
     4
 10
41.875824
 20
68.175011
 11
40.275818
 21
68.175011
  0
LINE
  8
0
 62
     4
 10
42.675812
 20
67.675011
 11
42.375824
 21
67.675011
  0
LINE
  8
0
 62
     4
 10
42.375847
 20
67.675056
 11
41.875858
 21
68.175049
  0
LINE
  8
0
 62
     4
 10
42.375732
 20
64.475075
 11
41.875729
 21
63.975075
  0
LINE
  8
0
 62
     4
 10
20.675812
 20
64.475014
 11
20.975830
 21
64.475014
  0
LINE
  8
0
 62
     4
 10
21.475853
 20
63.975018
 11
20.975853
 21
64.475014
  0
LINE
  8
0
 62
     4
 10
23.075821
 20
63.975014
 11
21.475830
 21
63.975014
  0
LINE
  8
0
 62
     4
 10
23.075806
 20
68.175011
 11
21.475815
 21
68.175011
  0
LINE
  8
0
 62
     4
 10
21.475748
 20
68.175102
 11
20.975750
 21
67.675102
  0
LINE
  8
0
 62
     4
 10
20.675812
 20
67.675011
 11
20.975815
 21
67.675011
  0
LINE
  8
0
 62
     4
 10
20.175812
 20
58.074997
 11
20.175812
 21
63.974998
  0
LINE
  8
0
 62
     4
 10
43.175812
 20
58.075027
 11
43.175812
 21
63.975029
  0
LINE
  8
0
  6
CENTER
 62
     1
 10
23.175812
 20
58.825005
 11
23.175812
 21
63.325005
  0
LINE
  8
0
 62
     4
 10
42.675812
 20
64.475014
 11
42.375824
 21
64.475014
  0
LINE
  8
0
 62
     4
 10
20.175812
 20
68.174995
 11
20.175812
 21
74.074997
  0
LINE
  8
0
 62
     4
 10
43.175812
 20
68.175026
 11
43.175812
 21
74.075027
  0
LINE
  8
0
  6
CENTER
 62
     1
 10
31.675812
 20
54.432610
 11
31.675812
 21
77.532608
  0
LINE
  8
0
  6
CENTER
 62
     1
 10
17.448975
 20
66.075012
 11
45.623978
 21
66.075012
  0
LINE
  8
0
  6
CENTER
 62
     1
 10
37.925812
 20
71.075020
 11
42.425812
 21
71.075020
  0
LINE
  8
0
  6
CENTER
 62
     1
 10
40.175812
 20
68.825020
 11
40.175812
 21
73.325020
  0
LINE
  8
0
 62
     4
 10
95.736908
 20
77.074997
 11
98.736908
 21
77.074997
  0
LINE
  8
0
 62
     4
 10
95.736908
 20
55.075001
 11
98.736908
 21
55.075001
  0
LINE
  8
0
 62
     4
 10
95.736900
 20
77.074997
 11
95.736900
 21
55.075001
  0
LINE
  8
0
 62
     4
 10
98.736900
 20
77.074997
 11
98.736900
 21
55.075001
  0
LINE
  8
0
  6
CENTER
 62
     1
 10
92.041077
 20
66.075005
 11
128.436905
 21
66.075005
  0
LINE
  8
0
 62
     4
 10
110.736900
 20
74.075005
 11
110.736900
 21
58.075005
  0
LINE
  8
0
 62
     4
 10
125.736900
 20
71.075005
 11
125.736900
 21
61.075005
  0
LINE
  8
0
 62
     4
 10
98.736908
 20
67.675003
 11
95.736908
 21
67.675003
  0
LINE
  8
0
 62
     4
 10
98.736908
 20
64.475006
 11
95.736908
 21
64.475006
  0
LINE
  8
0
 62
     4
 10
110.736908
 20
74.075005
 11
98.736908
 21
74.075005
  0
LINE
  8
0
 62
     4
 10
125.736908
 20
71.075005
 11
110.736908
 21
71.075005
  0
LINE
  8
0
 62
     4
 10
125.736908
 20
61.075005
 11
110.736908
 21
61.075005
  0
LINE
  8
0
 62
     4
 10
110.736908
 20
58.075005
 11
98.736908
 21
58.075005
  0
LINE
  8
0
 62
     4
 10
98.736908
 20
68.475006
 11
95.736908
 21
68.475006
  0
LINE
  8
0
 62
     4
 10
98.736908
 20
63.675003
 11
95.736908
 21
63.675003
  0
LINE
  8
0
  6
CENTER
 62
     1
 10
92.041077
 20
73.075005
 11
101.746765
 21
73.075005
  0
LINE
  8
0
  6
CENTER
 62
     1
 10
92.041077
 20
59.075005
 11
101.746765
 21
59.075005
  0
LINE
  8
0
 62
     4
 10
143.905762
 20
55.075001
 11
177.905762
 21
55.075001
  0
LINE
  8
0
 62
     4
 10
143.905762
 20
77.074997
 11
177.905762
 21
77.074997
  0
LINE
  8
0
  6
CENTER
 62
     1
 10
144.905762
 20
59.075005
 11
150.905762
 21
59.075005
  0
LINE
  8
0
 62
     4
 10
177.605759
 20
63.675011
 11
176.905762
 21
63.675011
  0
LINE
  8
0
 62
     4
 10
176.905869
 20
63.675121
 11
176.105881
 21
64.475113
  0
LINE
  8
0
 62
     4
 10
176.105759
 20
64.475006
 11
175.105759
 21
64.475006
  0
LINE
  8
0
 62
     4
 10
175.105713
 20
64.475044
 11
174.605713
 21
63.975048
  0
LINE
  8
0
 62
     4
 10
174.605759
 20
63.975006
 11
173.005768
 21
63.975006
  0
LINE
  8
0
 62
     4
 10
174.605759
 20
68.175003
 11
173.005768
 21
68.175003
  0
LINE
  8
0
 62
     4
 10
175.105835
 20
67.675049
 11
174.605835
 21
68.175049
  0
LINE
  8
0
 62
     4
 10
176.105759
 20
67.675003
 11
175.105759
 21
67.675003
  0
LINE
  8
0
 62
     4
 10
176.905731
 20
68.475060
 11
176.105728
 21
67.675049
  0
LINE
  8
0
 62
     4
 10
177.605759
 20
68.475006
 11
176.905762
 21
68.475006
  0
LINE
  8
0
 62
     4
 10
148.805756
 20
63.975006
 11
147.205765
 21
63.975006
  0
LINE
  8
0
 62
     4
 10
147.205841
 20
63.975098
 11
146.705841
 21
64.475098
  0
LINE
  8
0
 62
     4
 10
145.705765
 20
64.475006
 11
146.705765
 21
64.475006
  0
LINE
  8
0
 62
     4
 10
144.905716
 20
63.675095
 11
145.705719
 21
64.475082
  0
LINE
  8
0
 62
     4
 10
144.205765
 20
63.675011
 11
144.905762
 21
63.675011
  0
LINE
  8
0
 62
     4
 10
144.205765
 20
68.475006
 11
144.905762
 21
68.475006
  0
LINE
  8
0
 62
     4
 10
144.905823
 20
68.475082
 11
145.705826
 21
67.675087
  0
LINE
  8
0
 62
     4
 10
147.205658
 20
68.175079
 11
146.705643
 21
67.675072
  0
LINE
  8
0
 62
     4
 10
145.705765
 20
67.675003
 11
146.705765
 21
67.675003
  0
LINE
  8
0
 62
     4
 10
148.805756
 20
68.175003
 11
147.205765
 21
68.175003
  0
LINE
  8
0
 62
     4
 10
177.905762
 20
55.075005
 11
177.905762
 21
63.375008
  0
LINE
  8
0
 62
     4
 10
143.905762
 20
55.075005
 11
143.905762
 21
63.375008
  0
LINE
  8
0
  6
CENTER
 62
     1
 10
147.905762
 20
56.075005
 11
147.905762
 21
62.075005
  0
LINE
  8
0
 62
     4
 10
143.905762
 20
68.775009
 11
143.905762
 21
77.075005
  0
LINE
  8
0
 62
     4
 10
177.905762
 20
68.775009
 11
177.905762
 21
77.075005
  0
LINE
  8
0
  6
CENTER
 62
     1
 10
160.905762
 20
51.711777
 11
160.905762
 21
79.886780
  0
LINE
  8
0
  6
CENTER
 62
     1
 10
139.937531
 20
66.075005
 11
180.362534
 21
66.075005
  0
LINE
  8
0
  6
CENTER
 62
     1
 10
170.905762
 20
73.075005
 11
176.905762
 21
73.075005
  0
LINE
  8
0
  6
CENTER
 62
     1
 10
173.905762
 20
70.075005
 11
173.905762
 21
76.075005
  0
LINE
  8
0
 62
     4
 10
-158.000000
 20
-53.974998
 11
-158.000000
 21
-79.974998
  0
LINE
  8
0
 62
     4
 10
-143.000000
 20
-57.974998
 11
-143.000000
 21
-75.974998
  0
LINE
  8
0
 62
     4
 10
-128.000000
 20
-61.974998
 11
-128.000000
 21
-71.974998
  0
LINE
  8
0
 62
     4
 10
-155.000000
 20
-53.974998
 11
-155.000000
 21
-79.974998
  0
LINE
  8
0
  6
CENTER
 62
     1
 10
-126.278595
 20
-66.974998
 11
-161.993805
 21
-66.974998
  0
LINE
  8
0
 62
     4
 10
-155.000000
 20
-53.974998
 11
-158.000000
 21
-53.974998
  0
LINE
  8
0
 62
     4
 10
-143.000000
 20
-57.974998
 11
-155.000000
 21
-57.974998
  0
LINE
  8
0
 62
     4
 10
-128.000000
 20
-61.974998
 11
-143.000000
 21
-61.974998
  0
LINE
  8
0
 62
     4
 10
-143.000000
 20
-75.974998
 11
-155.000000
 21
-75.974998
  0
LINE
  8
0
 62
     4
 10
-128.000000
 20
-71.974998
 11
-143.000000
 21
-71.974998
  0
LINE
  8
0
 62
     4
 10
-155.000000
 20
-79.974998
 11
-158.000000
 21
-79.974998
  0
LINE
  8
0
 62
     4
 10
-155.000000
 20
-64.474998
 11
-158.000000
 21
-64.474998
  0
LINE
  8
0
 62
     4
 10
-155.000000
 20
-65.375000
 11
-158.000000
 21
-65.375000
  0
LINE
  8
0
 62
     4
 10
-155.000000
 20
-68.574997
 11
-158.000000
 21
-68.574997
  0
LINE
  8
0
 62
     4
 10
-155.000000
 20
-69.474998
 11
-158.000000
 21
-69.474998
  0
LINE
  8
0
  6
CENTER
 62
     1
 10
-151.631958
 20
-58.974998
 11
-161.993805
 21
-58.974998
  0
LINE
  8
0
  6
CENTER
 62
     1
 10
-151.631958
 20
-74.974998
 11
-161.993805
 21
-74.974998
  0
LINE
  8
0
 62
     4
 10
-85.666656
 20
-79.974998
 11
-40.666656
 21
-79.974998
  0
LINE
  8
0
 62
     4
 10
-85.666672
 20
-53.974998
 11
-40.666668
 21
-53.974998
  0
LINE
  8
0
  6
CENTER
 62
     1
 10
-84.416656
 20
-74.975006
 11
-76.916656
 21
-74.975006
  0
LINE
  8
0
 62
     4
 10
-40.966660
 20
-69.474998
 11
-44.566666
 21
-69.474998
  0
LINE
  8
0
 62
     4
 10
-44.566624
 20
-69.474976
 11
-45.466629
 21
-68.574974
  0
LINE
  8
0
 62
     4
 10
-45.466663
 20
-68.574997
 11
-46.466663
 21
-68.574997
  0
LINE
  8
0
 62
     4
 10
-46.466679
 20
-68.574959
 11
-46.966675
 21
-69.074959
  0
LINE
  8
0
 62
     4
 10
-46.966663
 20
-69.074997
 11
-48.566662
 21
-69.074997
  0
LINE
  8
0
 62
     4
 10
-46.966663
 20
-64.875000
 11
-48.566662
 21
-64.875000
  0
LINE
  8
0
 62
     4
 10
-45.466663
 20
-65.375000
 11
-46.466663
 21
-65.375000
  0
LINE
  8
0
 62
     4
 10
-46.466618
 20
-65.374962
 11
-46.966618
 21
-64.874962
  0
LINE
  8
0
 62
     4
 10
-44.566662
 20
-64.474960
 11
-45.466660
 21
-65.374962
  0
LINE
  8
0
 62
     4
 10
-40.966660
 20
-64.474998
 11
-44.566666
 21
-64.474998
  0
LINE
  8
0
 62
     4
 10
-85.366669
 20
-69.474998
 11
-81.766663
 21
-69.474998
  0
LINE
  8
0
 62
     4
 10
-81.766716
 20
-69.474976
 11
-80.866707
 21
-68.574974
  0
LINE
  8
0
 62
     4
 10
-80.866669
 20
-68.574997
 11
-79.866661
 21
-68.574997
  0
LINE
  8
0
 62
     4
 10
-79.366669
 20
-69.074989
 11
-79.866669
 21
-68.574989
  0
LINE
  8
0
 62
     4
 10
-77.766663
 20
-69.074997
 11
-79.366669
 21
-69.074997
  0
LINE
  8
0
 62
     4
 10
-77.766663
 20
-64.875000
 11
-79.366669
 21
-64.875000
  0
LINE
  8
0
 62
     4
 10
-79.366707
 20
-64.874947
 11
-79.866707
 21
-65.374947
  0
LINE
  8
0
 62
     4
 10
-80.866669
 20
-65.375000
 11
-79.866669
 21
-65.375000
  0
LINE
  8
0
 62
     4
 10
-81.766663
 20
-64.474998
 11
-80.866661
 21
-65.375000
  0
LINE
  8
0
 62
     4
 10
-85.366669
 20
-64.474998
 11
-81.766663
 21
-64.474998
  0
LINE
  8
0
 62
     4
 10
-85.666664
 20
-79.975006
 11
-85.666664
 21
-69.774994
  0
LINE
  8
0
 62
     4
 10
-40.666664
 20
-79.974991
 11
-40.666664
 21
-69.774986
  0
LINE
  8
0
  6
CENTER
 62
     1
 10
-80.666649
 20
-78.725006
 11
-80.666649
 21
-71.225006
  0
LINE
  8
0
 62
     4
 10
-85.666664
 20
-64.175003
 11
-85.666664
 21
-53.975002
  0
LINE
  8
0
 62
     4
 10
-40.666664
 20
-64.174988
 11
-40.666664
 21
-53.974991
  0
LINE
  8
0
  6
CENTER
 62
     1
 10
-63.166664
 20
-86.119392
 11
-63.166664
 21
-49.019394
  0
LINE
  8
0
  6
CENTER
 62
     1
 10
-91.670441
 20
-66.974998
 11
-35.320446
 21
-66.974998
  0
LINE
  8
0
  6
CENTER
 62
     1
 10
-49.416672
 20
-58.975006
 11
-41.916668
 21
-58.975006
  0
LINE
  8
0
  6
CENTER
 62
     1
 10
-45.666649
 20
-62.724991
 11
-45.666649
 21
-55.224991
  0
LINE
  8
0
 62
     4
 10
34.645798
 20
-50.975006
 11
34.645798
 21
-82.974991
  0
LINE
  8
0
  6
CENTER
 62
     1
 10
31.434952
 20
-66.974998
 11
79.496368
 21
-66.974998
  0
LINE
  8
0
 62
     4
 10
51.645798
 20
-53.974998
 11
51.645798
 21
-79.974998
  0
LINE
  8
0
 62
     4
 10
76.645798
 20
-59.974998
 11
76.645798
 21
-73.974998
  0
LINE
  8
0
 62
     4
 10
39.645798
 20
-50.975006
 11
39.645798
 21
-82.974991
  0
LINE
  8
0
 62
     4
 10
76.645798
 20
-59.974998
 11
51.645798
 21
-59.974998
  0
LINE
  8
0
 62
     4
 10
51.645798
 20
-53.974998
 11
39.645798
 21
-53.974998
  0
LINE
  8
0
 62
     4
 10
39.645798
 20
-50.975006
 11
34.645798
 21
-50.975006
  0
LINE
  8
0
 62
     4
 10
76.645798
 20
-73.974998
 11
51.645798
 21
-73.974998
  0
LINE
  8
0
 62
     4
 10
51.645798
 20
-79.974998
 11
39.645798
 21
-79.974998
  0
LINE
  8
0
 62
     4
 10
39.645798
 20
-82.974991
 11
34.645798
 21
-82.974991
  0
LINE
  8
0
 62
     4
 10
39.645798
 20
-64.475006
 11
34.645798
 21
-64.475006
  0
LINE
  8
0
 62
     4
 10
39.645798
 20
-65.375000
 11
34.645798
 21
-65.375000
  0
LINE
  8
0
 62
     4
 10
39.645798
 20
-69.474991
 11
34.645798
 21
-69.474991
  0
LINE
  8
0
 62
     4
 10
39.645798
 20
-68.574997
 11
34.645798
 21
-68.574997
  0
LINE
  8
0
  6
CENTER
 62
     1
 10
31.434952
 20
-56.974998
 11
42.680527
 21
-56.974998
  0
LINE
  8
0
  6
CENTER
 62
     1
 10
31.434952
 20
-76.974998
 11
42.680527
 21
-76.974998
  0
LINE
  8
0
 62
     4
 10
109.568977
 20
-82.974998
 11
161.568970
 21
-82.974998
  0
LINE
  8
0
 62
     4
 10
109.568985
 20
-50.975006
 11
161.568985
 21
-50.975006
  0
LINE
  8
0
  6
CENTER
 62
     1
 10
111.068977
 20
-76.974998
 11
120.068977
 21
-76.974998
  0
LINE
  8
0
 62
     4
 10
109.568977
 20
-82.974998
 11
109.568977
 21
-69.775002
  0
LINE
  8
0
 62
     4
 10
161.568970
 20
-82.974998
 11
161.568970
 21
-69.775002
  0
LINE
  8
0
 62
     4
 10
161.268982
 20
-69.474991
 11
156.668976
 21
-69.474991
  0
LINE
  8
0
 62
     4
 10
156.669022
 20
-69.474945
 11
155.769028
 21
-68.574944
  0
LINE
  8
0
 62
     4
 10
155.768982
 20
-68.574997
 11
154.768982
 21
-68.574997
  0
LINE
  8
0
 62
     4
 10
154.768951
 20
-68.574997
 11
154.268951
 21
-69.074997
  0
LINE
  8
0
 62
     4
 10
154.268982
 20
-69.074997
 11
152.668976
 21
-69.074997
  0
LINE
  8
0
 62
     4
 10
154.268982
 20
-64.875000
 11
152.668976
 21
-64.875000
  0
LINE
  8
0
 62
     4
 10
155.768982
 20
-65.375000
 11
154.768982
 21
-65.375000
  0
LINE
  8
0
 62
     4
 10
154.769073
 20
-65.374947
 11
154.269058
 21
-64.874931
  0
LINE
  8
0
 62
     4
 10
156.668976
 20
-64.475021
 11
155.768982
 21
-65.375015
  0
LINE
  8
0
 62
     4
 10
161.268982
 20
-64.475006
 11
156.668976
 21
-64.475006
  0
LINE
  8
0
 62
     4
 10
116.368988
 20
-65.374985
 11
116.868973
 21
-64.874992
  0
LINE
  8
0
 62
     4
 10
114.469002
 20
-64.474953
 11
115.369011
 21
-65.374954
  0
LINE
  8
0
 62
     4
 10
109.868980
 20
-64.475006
 11
114.468979
 21
-64.475006
  0
LINE
  8
0
 62
     4
 10
115.368980
 20
-65.375000
 11
116.368912
 21
-65.375000
  0
LINE
  8
0
 62
     4
 10
116.868980
 20
-64.875000
 11
118.468979
 21
-64.875000
  0
LINE
  8
0
 62
     4
 10
116.868980
 20
-69.074997
 11
118.468979
 21
-69.074997
  0
LINE
  8
0
 62
     4
 10
116.369003
 20
-68.574974
 11
116.869003
 21
-69.074974
  0
LINE
  8
0
 62
     4
 10
115.368980
 20
-68.574997
 11
116.368980
 21
-68.574997
  0
LINE
  8
0
 62
     4
 10
114.468956
 20
-69.474998
 11
115.368942
 21
-68.575012
  0
LINE
  8
0
 62
     4
 10
109.868980
 20
-69.474991
 11
114.468979
 21
-69.474991
  0
LINE
  8
0
  6
CENTER
 62
     1
 10
115.568977
 20
-81.474998
 11
115.568977
 21
-72.474998
  0
LINE
  8
0
 62
     4
 10
109.568977
 20
-64.174988
 11
109.568977
 21
-50.975006
  0
LINE
  8
0
 62
     4
 10
161.568970
 20
-64.174988
 11
161.568970
 21
-50.975006
  0
LINE
  8
0
  6
CENTER
 62
     1
 10
105.447380
 20
-66.974998
 11
165.457611
 21
-66.974998
  0
LINE
  8
0
  6
CENTER
 62
     1
 10
135.568970
 20
-87.597076
 11
135.568970
 21
-46.790115
  0
LINE
  8
0
  6
CENTER
 62
     1
 10
151.068985
 20
-56.975006
 11
160.068970
 21
-56.975006
  0
LINE
  8
0
  6
CENTER
 62
     1
 10
155.568970
 20
-61.475006
 11
155.568970
 21
-52.475006
  0
LINE
  8
0
 10
-194.250000
 20
132.600006
 11
194.800003
 21
132.600006
  0
LINE
  8
0
 10
194.800003
 20
132.600006
 11
194.800003
 21
-133.500000
  0
LINE
  8
0
 10
-194.250000
 20
132.600006
 11
-194.250000
 21
-133.500000
  0
LINE
  8
0
 10
-194.250000
 20
-133.500000
 11
194.800003
 21
-133.500000
  0
LINE
  8
0
 10
109.800003
 20
-118.500000
 11
109.800003
 21
-133.500000
  0
LINE
  8
0
 10
109.800003
 20
-118.500000
 11
194.800003
 21
-118.500000
  0
LINE
  8
0
 10
109.800003
 20
132.600006
 11
109.800003
 21
117.600006
  0
LINE
  8
0
 10
109.800003
 20
117.600006
 11
194.800003
 21
117.600006
  0
LINE
  8
0
 10
-194.250000
 20
117.600006
 11
-109.250000
 21
117.600006
  0
LINE
  8
0
 10
-109.250000
 20
132.600006
 11
-109.250000
 21
117.600006
  0
LINE
  8
0
 62
     4
 10
-36.313171
 20
71.575005
 11
-36.313171
 21
60.575005
  0
LINE
  8
0
 62
     4
 10
-35.013168
 20
71.575005
 11
-36.313171
 21
71.575005
  0
LINE
  8
0
 62
     4
 10
-35.013168
 20
60.575005
 11
-36.313171
 21
60.575005
  0
LINE
  8
0
 62
     4
 10
94.436897
 20
74.575005
 11
94.436897
 21
57.575005
  0
LINE
  8
0
 62
     4
 10
94.436905
 20
57.575005
 11
95.736908
 21
57.575005
  0
LINE
  8
0
 62
     4
 10
94.436905
 20
74.575005
 11
95.736908
 21
74.575005
  0
LINE
  8
0
 62
     4
 10
-159.300003
 20
-56.474998
 11
-159.300003
 21
-77.474998
  0
LINE
  8
0
 62
     4
 10
-158.000000
 20
-77.474998
 11
-159.300003
 21
-77.474998
  0
LINE
  8
0
 62
     4
 10
-158.000000
 20
-56.474998
 11
-159.300003
 21
-56.474998
  0
LINE
  8
0
 62
     4
 10
33.645798
 20
-53.974998
 11
33.645798
 21
-79.974998
  0
LINE
  8
0
 62
     4
 10
34.645798
 20
-53.974998
 11
33.645798
 21
-53.974998
  0
LINE
  8
0
 62
     4
 10
34.645798
 20
-79.974998
 11
33.645798
 21
-79.974998
  0
LINE
  8
0
 62
     4
 10
-161.473251
 20
69.574997
 11
-160.473251
 21
69.574997
  0
LINE
  8
0
 62
     4
 10
-161.473251
 20
62.575001
 11
-160.473251
 21
62.575001
  0
LINE
  8
0
 62
     4
 10
-161.473251
 20
69.574997
 11
-161.473251
 21
62.574997
  0
LINE
  8
0
 10
-194.250000
 20
-0.449997
 11
194.800003
 21
-0.449997
  0
LINE
  8
0
 10
-64.566666
 20
-0.449997
 11
-64.566666
 21
132.600006
  0
LINE
  8
0
 10
65.116669
 20
-0.449997
 11
65.116669
 21
132.600006
  0
LINE
  8
0
 10
0.275002
 20
-133.500000
 11
0.275002
 21
-0.449997
  0
ARC
  8
0
 62
     4
 10
-107.773727
 20
66.075005
 40
10.000000
 50
323.130096
 51
36.869896
  0
ARC
  8
0
 62
     4
 10
-107.773727
 20
66.075005
 40
10.000005
 50
143.130066
 51
216.869904
  0
CIRCLE
  8
0
 62
     4
 10
-114.773727
 20
69.575005
 40
1.500000
  0
CIRCLE
  8
0
 62
     4
 10
-100.773727
 20
62.575005
 40
1.500000
  0
CIRCLE
  8
0
 62
     4
 10
-107.773727
 20
66.075005
 40
3.000000
  0
CIRCLE
  8
0
 62
     4
 10
-107.773727
 20
66.075005
 40
5.000000
  0
CIRCLE
  8
0
 62
     4
 10
31.675812
 20
66.075005
 40
5.500000
  0
ARC
  8
0
 62
     4
 10
40.275818
 20
66.075020
 40
2.099998
 50
90.000000
 51
270.000000
  0
ARC
  8
0
 62
     4
 10
42.675812
 20
68.175026
 40
0.500000
 50
270.000000
 51
0.000000
  0
ARC
  8
0
 62
     4
 10
42.675812
 20
63.975029
 40
0.500000
 50
0.000000
 51
90.000000
  0
ARC
  8
0
 62
     4
 10
20.675812
 20
63.974998
 40
0.500000
 50
90.000000
 51
180.000000
  0
ARC
  8
0
 62
     4
 10
23.075806
 20
66.075005
 40
2.099998
 50
270.000000
 51
90.000053
  0
ARC
  8
0
 62
     4
 10
20.675812
 20
68.174995
 40
0.500000
 50
180.000000
 51
270.000000
  0
CIRCLE
  8
0
 62
     4
 10
23.175812
 20
61.075020
 40
1.700000
  0
CIRCLE
  8
0
 62
     4
 10
40.175812
 20
71.075020
 40
1.700000
  0
CIRCLE
  8
0
 62
     4
 10
31.675812
 20
66.075005
 40
5.000000
  0
ARC
  8
0
 62
     4
 10
177.605759
 20
63.375004
 40
0.300003
 50
0.000000
 51
90.000000
  0
ARC
  8
0
 62
     4
 10
173.005753
 20
66.074997
 40
2.099998
 50
90.000000
 51
270.000000
  0
ARC
  8
0
 62
     4
 10
177.605759
 20
68.775009
 40
0.300003
 50
270.000000
 51
0.000000
  0
ARC
  8
0
 62
     4
 10
148.805756
 20
66.075005
 40
2.099998
 50
270.000000
 51
90.000000
  0
ARC
  8
0
 62
     4
 10
144.205750
 20
63.375008
 40
0.299999
 50
90.000000
 51
180.000000
  0
ARC
  8
0
 62
     4
 10
144.205750
 20
68.775009
 40
0.300003
 50
180.000000
 51
270.000000
  0
CIRCLE
  8
0
 62
     4
 10
173.905762
 20
73.075005
 40
2.250000
  0
CIRCLE
  8
0
 62
     4
 10
147.905762
 20
59.075005
 40
2.250000
  0
CIRCLE
  8
0
 62
     4
 10
160.905762
 20
66.075005
 40
5.000000
  0
CIRCLE
  8
0
 62
     4
 10
160.905762
 20
66.075005
 40
8.000000
  0
ARC
  8
0
 62
     4
 10
-40.966656
 20
-69.774986
 40
0.299999
 50
0.000000
 51
90.000000
  0
ARC
  8
0
 62
     4
 10
-48.566662
 20
-66.974991
 40
2.099998
 50
90.000000
 51
270.000000
  0
ARC
  8
0
 62
     4
 10
-40.966663
 20
-64.174988
 40
0.300003
 50
270.000000
 51
0.000000
  0
ARC
  8
0
 62
     4
 10
-85.366661
 20
-69.775002
 40
0.300003
 50
90.000000
 51
180.000000
  0
ARC
  8
0
 62
     4
 10
-77.766663
 20
-66.975006
 40
2.099998
 50
270.000000
 51
90.000000
  0
ARC
  8
0
 62
     4
 10
-85.366669
 20
-64.175003
 40
0.300003
 50
180.000000
 51
270.000000
  0
CIRCLE
  8
0
 62
     4
 10
-63.166664
 20
-66.974998
 40
5.000000
  0
CIRCLE
  8
0
 62
     4
 10
-63.166664
 20
-66.974998
 40
9.000000
  0
CIRCLE
  8
0
 62
     4
 10
-45.666649
 20
-58.975006
 40
2.750000
  0
CIRCLE
  8
0
 62
     4
 10
-80.666649
 20
-74.975006
 40
2.750000
  0
ARC
  8
0
 62
     4
 10
152.668976
 20
-66.974998
 40
2.099998
 50
90.000000
 51
270.000000
  0
ARC
  8
0
 62
     4
 10
118.468979
 20
-66.974998
 40
2.099998
 50
270.000000
 51
90.000000
  0
ARC
  8
0
 62
     4
 10
161.268967
 20
-64.174988
 40
0.300003
 50
270.000000
 51
0.000000
  0
ARC
  8
0
 62
     4
 10
161.268967
 20
-69.775002
 40
0.300003
 50
0.000000
 51
90.000000
  0
ARC
  8
0
 62
     4
 10
109.868973
 20
-69.775002
 40
0.300003
 50
90.000000
 51
180.000000
  0
ARC
  8
0
 62
     4
 10
109.868973
 20
-64.174988
 40
0.300003
 50
180.000000
 51
270.000000
  0
CIRCLE
  8
0
 62
     4
 10
135.568985
 20
-66.974998
 40
7.000000
  0
CIRCLE
  8
0
 62
     4
 10
135.568985
 20
-66.974998
 40
13.000000
  0
CIRCLE
  8
0
 62
     4
 10
155.568970
 20
-56.975006
 40
3.300000
  0
CIRCLE
  8
0
 62
     4
 10
115.568977
 20
-76.974998
 40
3.300000
  0
TEXT
  8
0
 10
133.907150
 20
122.050003
 40
4.500000
  1
Ver. 1.0
 50
0.000000
 41
1.052631
 51
0.000000
  7
STANDARD
  0
TEXT
  8
0
 10
113.700279
 20
-130.669998
 40
6.300000
  1
KOGANEI CORP.
 50
0.000000
 41
1.052632
 51
0.000000
  7
STANDARD
  0
TEXT
  8
0
 10
-170.142654
 20
126.050003
 40
4.500000
  1
AIR HAND
 50
0.000000
 41
1.052632
 51
0.000000
  7
STANDARD
  0
TEXT
  8
0
 10
-163.392654
 20
118.050003
 40
4.500000
  1
MOUNT
 50
0.000000
 41
1.052632
 51
0.000000
  7
STANDARD
  0
TEXT
  8
0
 10
7.632338
 20
-13.499997
 40
4.500000
  1
MODEL:NHB-M25
 50
0.000000
 41
1.052632
 51
0.000000
  7
STANDARD
  0
TEXT
  8
0
 10
-57.209320
 20
104.550003
 40
4.500000
  1
MODEL:NHB-M10
 50
0.000000
 41
1.052632
 51
0.000000
  7
STANDARD
  0
TEXT
  8
0
 10
72.474014
 20
104.550003
 40
4.500000
  1
MODEL:NHB-M16
 50
0.000000
 41
1.052632
 51
0.000000
  7
STANDARD
  0
TEXT
  8
0
 10
-186.892654
 20
104.550003
 40
4.500000
  1
MODEL:NH-M6
 50
0.000000
 41
1.052632
 51
0.000000
  7
STANDARD
  0
TEXT
  8
0
 10
-186.892654
 20
-13.499997
 40
4.500000
  1
MODEL:NHB-M20
 50
0.000000
 41
1.052632
 51
0.000000
  7
STANDARD
  0
ENDSEC
  0
EOF
