  0
SECTION
  2
HEADER
  9
$ACADVER
  1
AC1003
  9
$EXTMIN
 10
-1.94250000E+02
 20
-1.33500000E+02
  9
$EXTMAX
 10
1.94800003E+02
 20
1.32600006E+02
  9
$LIMMIN
 10
-1.94251000E+02
 20
-1.33501000E+02
  9
$LIMMAX
 10
1.94801003E+02
 20
1.32601006E+02
  9
$SNAPUNIT
 10
1
 20
1
  9
$SNAPBASE
 10
0
 20
0
  9
$GRIDMODE
 70
0
  9
$GRIDUNIT
 10
0
 20
0
  9
$LTSCALE
 40
6.48416672E+00
  9
$TEXTSIZE
 40
3.2
  9
$DIMTAD
 70
0
  9
$LUNITS
 70
2
  9
$LUPREC
 70
4
  9
$FILLETRAD
 40
0
  9
$AUNITS
 70
0
  9
$AUPREC
 70
0
  0
ENDSEC
  0
SECTION
  2
TABLES
  0
TABLE
  2
LTYPE
 70
2
  0
LTYPE
  2
CONTINUOUS
 70
64
  3
Solid-Line
 72
65
 73
0
 40
0
  0
LTYPE
  2
DASHED
 70
64
  3
DASHED
 72
65
 73
2
 40
.75
 49
.5
 49
-.25
  0
LTYPE
  2
HIDDEN
 70
64
  3
HIDDEN
 72
65
 73
2
 40
.375
 49
.25
 49
-.125
  0
LTYPE
  2
CENTER
 70
64
  3
CENTER
 72
65
 73
4
 40
2
 49
1.25
 49
-.25
 49
.25
 49
-.25
  0
LTYPE
  2
PHANTOM
 70
64
  3
PHANTOM
 72
65
 73
6
 40
2.5
 49
1.25
 49
-.25
 49
.25
 49
-.25
 49
.25
 49
-.25
  0
ENDTAB
  0
TABLE
  2
LAYER
 70
1
  0
LAYER
  2
0
 70
0
 62
7
  6
CONTINUOUS
 0
ENDTAB
  0
TABLE
  2
STYLE
 70
2
  0
STYLE
  2
MONOTXT
 70
0
 40
0
 41
1
 50
0
 71
0
 42
.2
  3
monotxt
  0
STYLE
  2
BIGFONT
 70
0
 40
0
 41
1
 50
0
 71
0
 42
.2
  3
txt
  4
bigfont
  0
ENDTAB
  0
ENDSEC
  0
SECTION
  2
ENTITIES
  0
LINE
  8
0
 62
2
 10
6.08000000E+01
 20
-2.00000000E+01
 11
6.08000000E+01
 21
4.00000000E+00
  0
LINE
  8
0
 62
7
 10
1.21100000E+02
 20
5.50000000E+00
 11
1.21100000E+02
 21
-2.15000000E+01
  0
LINE
  8
0
 62
7
 10
1.12100000E+02
 20
-7.60000000E+00
 11
1.12100000E+02
 21
5.50000000E+00
  0
LINE
  8
0
 62
7
 10
2.00000000E+01
 20
4.00000000E+00
 11
1.08600000E+02
 21
4.00000000E+00
  0
LINE
  8
0
 62
7
 10
1.08600000E+02
 20
-2.09000000E+01
 11
1.12100000E+02
 21
-2.15000000E+01
  0
LINE
  8
0
 62
7
 10
1.08600000E+02
 20
4.90000000E+00
 11
1.12100000E+02
 21
5.50000000E+00
  0
LINE
  8
0
 62
7
 10
1.12100000E+02
 20
-2.15000000E+01
 11
1.12100000E+02
 21
-8.40000000E+00
  0
LINE
  8
0
 62
7
 10
1.22100000E+02
 20
-2.05000000E+01
 11
1.21100000E+02
 21
-2.15000000E+01
  0
LINE
  8
0
 62
7
 10
1.21100000E+02
 20
5.50000000E+00
 11
1.22100000E+02
 21
4.50000000E+00
  0
LINE
  8
0
 62
7
 10
1.12100000E+02
 20
-2.15000000E+01
 11
1.21100000E+02
 21
-2.15000000E+01
  0
LINE
  8
0
 62
7
 10
1.12100000E+02
 20
5.50000000E+00
 11
1.21100000E+02
 21
5.50000000E+00
  0
LINE
  8
0
 62
7
 10
1.22100000E+02
 20
-2.05000000E+01
 11
1.22100000E+02
 21
4.50000000E+00
  0
LINE
  8
0
 62
7
 10
1.08600000E+02
 20
-2.09000000E+01
 11
1.08600000E+02
 21
4.90000000E+00
  0
LINE
  8
0
 62
7
 10
-2.64000000E+01
 20
3.95000000E+00
 11
-2.64000000E+01
 21
-1.99500000E+01
  0
LINE
  8
0
 62
7
 10
-2.64000000E+01
 20
-1.99500000E+01
 11
-2.69000000E+01
 21
-1.94500000E+01
  0
LINE
  8
0
 62
7
 10
-2.64000000E+01
 20
3.95000000E+00
 11
-2.69000000E+01
 21
3.45000000E+00
  0
LINE
  8
0
 62
7
 10
-2.64000000E+01
 20
-1.99500000E+01
 11
-2.49000000E+01
 21
-1.99500000E+01
  0
LINE
  8
0
 62
7
 10
-2.64000000E+01
 20
3.95000000E+00
 11
-2.49000000E+01
 21
3.95000000E+00
  0
LINE
  8
0
 62
7
 10
-2.69000000E+01
 20
-1.94500000E+01
 11
-2.69000000E+01
 21
3.45000000E+00
  0
LINE
  8
0
 62
7
 10
-9.20000000E+00
 20
-2.22000000E+01
 11
-8.00000000E+00
 21
-2.22000000E+01
  0
LINE
  8
0
 62
7
 10
-9.20000000E+00
 20
6.20000000E+00
 11
-8.00000000E+00
 21
6.20000000E+00
  0
LINE
  8
0
 62
7
 10
-8.00000000E+00
 20
-3.40000000E+01
 11
-8.00000000E+00
 21
1.80000000E+01
  0
LINE
  8
0
 62
7
 10
-8.00000000E+00
 20
1.80000000E+01
 11
2.00000000E+01
 21
1.80000000E+01
  0
LINE
  8
0
 62
7
 10
-8.00000000E+00
 20
-3.40000000E+01
 11
2.00000000E+01
 21
-3.40000000E+01
  0
LINE
  8
0
 62
7
 10
2.00000000E+01
 20
1.80000000E+01
 11
2.00000000E+01
 21
-3.40000000E+01
  0
LINE
  8
0
  6
CENTER
 62
2
 10
6.00000000E+00
 20
-3.12500000E+01
 11
6.00000000E+00
 21
1.52500000E+01
  0
LINE
  8
0
  6
CENTER
 62
2
 10
1.25000000E+00
 20
1.05000000E+01
 11
1.07500000E+01
 21
1.05000000E+01
  0
LINE
  8
0
  6
CENTER
 62
2
 10
1.25000000E+00
 20
-2.65000000E+01
 11
1.07500000E+01
 21
-2.65000000E+01
  0
CIRCLE
  8
0
 62
7
 10
6.00000000E+00
 20
1.05000000E+01
 40
3.25000000E+00
  0
CIRCLE
  8
0
 62
7
 10
6.00000000E+00
 20
-2.65000000E+01
 40
3.25000000E+00
  0
LINE
  8
0
 62
7
 10
-5.70339746E+01
 20
-1.25000000E+01
 11
-2.69000000E+01
 21
-1.25000000E+01
  0
LINE
  8
0
 62
7
 10
-5.70339746E+01
 20
-3.50000000E+00
 11
-2.69000000E+01
 21
-3.50000000E+00
  0
LINE
  8
0
 62
7
 10
-5.79000000E+01
 20
-1.20000000E+01
 11
-5.79000000E+01
 21
-4.00000000E+00
  0
LINE
  8
0
 62
7
 10
2.00000000E+01
 20
-2.00000000E+01
 11
1.08600000E+02
 21
-2.00000000E+01
  0
LINE
  8
0
 62
7
 10
-2.49000000E+01
 20
-2.00000000E+01
 11
-9.20000000E+00
 21
-2.00000000E+01
  0
LINE
  8
0
 62
7
 10
-9.20000000E+00
 20
-2.22000000E+01
 11
-9.20000000E+00
 21
6.20000000E+00
  0
LINE
  8
0
 62
7
 10
-2.49000000E+01
 20
4.00000000E+00
 11
-9.20000000E+00
 21
4.00000000E+00
  0
LINE
  8
0
 62
7
 10
-2.49000000E+01
 20
-2.00000000E+01
 11
-2.49000000E+01
 21
4.00000000E+00
  0
LINE
  8
0
  6
CENTER
 62
2
 10
-5.99825866E+01
 20
-8.00000000E+00
 11
1.24668214E+02
 21
-8.00000000E+00
  0
LINE
  8
0
 62
7
 10
-5.79000000E+01
 20
-4.00000000E+00
 11
-5.70339746E+01
 21
-3.50000000E+00
  0
LINE
  8
0
 62
7
 10
-5.79000000E+01
 20
-1.20000000E+01
 11
-5.70339746E+01
 21
-1.25000000E+01
  0
LINE
  8
0
 62
7
 10
-5.70339746E+01
 20
-3.50000000E+00
 11
-5.70339746E+01
 21
-1.25000000E+01
  0
LINE
  8
0
 62
7
 10
1.08600000E+02
 20
-7.60000000E+00
 11
1.12100000E+02
 21
-7.60000000E+00
  0
LINE
  8
0
 62
7
 10
1.08600000E+02
 20
-8.40000000E+00
 11
1.12100000E+02
 21
-8.40000000E+00
  0
LINE
  8
0
 62
7
 10
1.12100000E+02
 20
-7.60000000E+00
 11
1.14600000E+02
 21
-8.00000000E+00
  0
LINE
  8
0
 62
7
 10
1.12100000E+02
 20
-8.40000000E+00
 11
1.14600000E+02
 21
-8.00000000E+00
  0
LINE
  8
0
 62
7
 10
6.56000000E+01
 20
-2.00000000E+01
 11
6.56000000E+01
 21
4.00000000E+00
  0
LINE
  8
0
 62
7
 10
-8.00000000E+00
 20
4.28867513E+00
 11
2.00000000E+01
 21
4.28867513E+00
  0
LINE
  8
0
 62
7
 10
-8.00000000E+00
 20
-4.14518843E-02
 11
2.00000000E+01
 21
-4.14518843E-02
  0
LINE
  8
0
 62
7
 10
-8.00000000E+00
 20
-1.59585481E+01
 11
2.00000000E+01
 21
-1.59585481E+01
  0
LINE
  8
0
 62
7
 10
-8.00000000E+00
 20
-2.02886751E+01
 11
2.00000000E+01
 21
-2.02886751E+01
  0
LINE
  8
0
  6
CENTER
 62
2
 10
-1.48750000E+02
 20
-2.65000000E+01
 11
-1.39250000E+02
 21
-2.65000000E+01
  0
LINE
  8
0
  6
CENTER
 62
2
 10
-1.48750000E+02
 20
1.05000000E+01
 11
-1.39250000E+02
 21
1.05000000E+01
  0
CIRCLE
  8
0
 62
7
 10
-1.28000000E+02
 20
-8.00000000E+00
 40
1.14500000E+01
  0
CIRCLE
  8
0
 62
7
 10
-1.28000000E+02
 20
-8.00000000E+00
 40
1.19500000E+01
  0
LINE
  8
0
 62
7
 10
-1.39697788E+02
 20
-5.32385253E+00
 11
-1.42779656E+02
 21
-4.99993509E+00
  0
LINE
  8
0
 62
7
 10
-1.42779656E+02
 20
-4.99993509E+00
 11
-1.42486976E+02
 21
-2.21527379E+00
  0
LINE
  8
0
 62
7
 10
-1.39388994E+02
 20
-1.33427493E+00
 11
-1.41168116E+02
 21
-1.14728167E+00
  0
CIRCLE
  8
0
 62
7
 10
-1.41009385E+02
 20
-3.22753369E+00
 40
1.00000000E+00
  0
CIRCLE
  8
0
 62
7
 10
-1.41009385E+02
 20
-1.27724663E+01
 40
1.00000000E+00
  0
LINE
  8
0
 62
7
 10
-1.39388994E+02
 20
-1.46657251E+01
 11
-1.41168116E+02
 21
-1.48527183E+01
  0
LINE
  8
0
 62
7
 10
-1.42779656E+02
 20
-1.10000649E+01
 11
-1.42486976E+02
 21
-1.37847262E+01
  0
LINE
  8
0
 62
7
 10
-1.39697788E+02
 20
-1.06761475E+01
 11
-1.42779656E+02
 21
-1.10000649E+01
  0
ARC
  8
0
 62
7
 10
-1.28000000E+02
 20
-8.00000000E+00
 40
1.42000000E+01
 50
2.73027594E+02
 51
8.69724058E+01
  0
ARC
  8
0
 62
7
 10
-1.26500000E+02
 20
-8.00000000E+00
 40
1.42000000E+01
 50
9.30275945E+01
 51
1.50838174E+02
  0
ARC
  8
0
 62
7
 10
-1.26500000E+02
 20
-8.00000000E+00
 40
1.42000000E+01
 50
2.09161826E+02
 51
2.66972406E+02
  0
CIRCLE
  8
0
 62
7
 10
-1.28000000E+02
 20
-8.00000000E+00
 40
1.20000000E+01
  0
LINE
  8
0
 62
7
 10
-1.44000000E+02
 20
1.80000000E+01
 11
-1.29000000E+02
 21
1.80000000E+01
  0
LINE
  8
0
 62
7
 10
-1.44000000E+02
 20
-3.40000000E+01
 11
-1.16500000E+02
 21
-3.40000000E+01
  0
LINE
  8
0
 62
7
 10
-1.44000000E+02
 20
-3.40000000E+01
 11
-1.44000000E+02
 21
-2.65000000E+01
  0
LINE
  8
0
 62
7
 10
-1.16500000E+02
 20
-3.40000000E+01
 11
-1.16500000E+02
 21
-2.11547005E+01
  0
LINE
  8
0
 62
7
 10
-1.10000000E+02
 20
-1.50925227E+01
 11
-1.10000000E+02
 21
-9.07477288E-01
  0
LINE
  8
0
 62
7
 10
-1.16500000E+02
 20
5.15470054E+00
 11
-1.16500000E+02
 21
1.80000000E+01
  0
LINE
  8
0
 62
7
 10
-1.15500000E+02
 20
-1.94226497E+01
 11
-1.11000000E+02
 21
-1.68245735E+01
  0
LINE
  8
0
 62
7
 10
-1.15500000E+02
 20
3.42264973E+00
 11
-1.11000000E+02
 21
8.24573519E-01
  0
ARC
  8
0
 62
7
 10
-1.14500000E+02
 20
-2.11547005E+01
 40
2.00000000E+00
 50
1.20000000E+02
 51
1.80000000E+02
  0
ARC
  8
0
 62
7
 10
-1.12000000E+02
 20
-1.50925227E+01
 40
2.00000000E+00
 50
3.00000000E+02
 51
0.00000000E+00
  0
ARC
  8
0
 62
7
 10
-1.12000000E+02
 20
-9.07477288E-01
 40
2.00000000E+00
 50
0.00000000E+00
 51
5.99999999E+01
  0
ARC
  8
0
 62
7
 10
-1.14500000E+02
 20
5.15470054E+00
 40
2.00000000E+00
 50
1.80000000E+02
 51
2.40000000E+02
  0
LINE
  8
0
 62
7
 10
-1.44000000E+02
 20
-2.65000000E+01
 11
-1.43000000E+02
 21
-2.65000000E+01
  0
LINE
  8
0
 62
7
 10
-1.44000000E+02
 20
-2.45000000E+01
 11
-1.43000000E+02
 21
-2.45000000E+01
  0
ARC
  8
0
 62
7
 10
-1.43000000E+02
 20
-2.55000000E+01
 40
1.00000000E+00
 50
2.70000000E+02
 51
9.00000002E+01
  0
LINE
  8
0
 62
7
 10
-1.44000000E+02
 20
-2.45000000E+01
 11
-1.44000000E+02
 21
1.80000000E+01
  0
LINE
  8
0
 62
7
 10
-1.29000000E+02
 20
5.97819731E+00
 11
-1.29000000E+02
 21
1.80000000E+01
  0
LINE
  8
0
 62
7
 10
-1.27000000E+02
 20
6.16474497E+00
 11
-1.27000000E+02
 21
1.80000000E+01
  0
LINE
  8
0
 62
7
 10
-1.27000000E+02
 20
1.80000000E+01
 11
-1.16500000E+02
 21
1.80000000E+01
  0
CIRCLE
  8
0
 62
7
 10
-1.28000000E+02
 20
-8.00000000E+00
 40
4.00000000E+00
  0
CIRCLE
  8
0
 62
7
 10
-1.28000000E+02
 20
-8.00000000E+00
 40
4.50000000E+00
  0
LINE
  8
0
  6
CENTER
 62
2
 10
-1.48000000E+02
 20
-8.00000000E+00
 11
-1.08000000E+02
 21
-8.00000000E+00
  0
LINE
  8
0
  6
CENTER
 62
2
 10
-1.28000000E+02
 20
-3.71544431E+01
 11
-1.28000000E+02
 21
2.02988029E+01
  0
ARC
  8
0
 62
7
 10
-1.41293550E+02
 20
-2.34070794E+00
 40
1.20000000E+00
 50
8.39999999E+01
 51
1.74000000E+02
  0
ARC
  8
0
 62
7
 10
-1.41293550E+02
 20
-1.36592921E+01
 40
1.20000000E+00
 50
1.86000000E+02
 51
2.76000000E+02
  0
ARC
  8
0
 62
7
 10
-1.39336730E+02
 20
-8.37013980E-01
 40
5.00000000E-01
 50
2.64000000E+02
 51
3.30838174E+02
  0
ARC
  8
0
 62
7
 10
-1.39336730E+02
 20
-1.51629860E+01
 40
5.00000000E-01
 50
2.91618263E+01
 51
9.59999999E+01
  0
CIRCLE
  8
0
 62
7
 10
-1.28000000E+02
 20
-8.00000000E+00
 40
5.25000000E+00
  0
TEXT
  8
0
 62
7
 10
-1.80357138E+02
 20
1.22850006E+02
 40
4.50000000E+00
  1
HYDRO-CHECKER
 41
9.99999789E-01
  7
MONOTXT
  0
TEXT
  8
0
 62
7
 10
-1.85214688E+02
 20
1.05350006E+02
 40
4.50000000E+00
  1
MODEL:HC3
 41
1.00000000E+00
  7
MONOTXT
  0
LINE
  8
0
 62
7
 10
-1.94250000E+02
 20
1.32600006E+02
 11
1.94800003E+02
 21
1.32600006E+02
  0
LINE
  8
0
 62
7
 10
1.94800003E+02
 20
1.32600006E+02
 11
1.94800003E+02
 21
-1.33500000E+02
  0
LINE
  8
0
 62
7
 10
-1.94250000E+02
 20
1.32600006E+02
 11
-1.94250000E+02
 21
-1.33500000E+02
  0
LINE
  8
0
 62
7
 10
-1.94250000E+02
 20
-1.33500000E+02
 11
1.94800003E+02
 21
-1.33500000E+02
  0
LINE
  8
0
 62
7
 10
1.09800003E+02
 20
-1.18500000E+02
 11
1.09800003E+02
 21
-1.33500000E+02
  0
LINE
  8
0
 62
7
 10
1.09800003E+02
 20
-1.18500000E+02
 11
1.94800003E+02
 21
-1.18500000E+02
  0
LINE
  8
0
 62
7
 10
1.09800003E+02
 20
1.32600006E+02
 11
1.09800003E+02
 21
1.17600006E+02
  0
LINE
  8
0
 62
7
 10
1.09800003E+02
 20
1.17600006E+02
 11
1.94800003E+02
 21
1.17600006E+02
  0
LINE
  8
0
 62
7
 10
-1.94250000E+02
 20
1.17600006E+02
 11
-1.09250000E+02
 21
1.17600006E+02
  0
LINE
  8
0
 62
7
 10
-1.09250000E+02
 20
1.32600006E+02
 11
-1.09250000E+02
 21
1.17600006E+02
  0
TEXT
  8
0
 62
7
 10
1.34942863E+02
 20
1.22850006E+02
 40
4.50000000E+00
  1
Ver. 1.0
 41
1.08108085E+00
  7
MONOTXT
  0
TEXT
  8
0
 62
7
 10
1.15249715E+02
 20
-1.29150000E+02
 40
6.30000019E+00
  1
KOGANEI CORP.
 41
1.04838725E+00
  7
MONOTXT
  0
ENDSEC
  0
EOF
