  0
SECTION
  2
HEADER
  0
ENDSEC
  0
SECTION
  2
TABLES
  0
TABLE
  2
LTYPE
 70
     4
  0
LTYPE
  2
CONTINUOUS
 70
    64
  3
Solid line
 72
    65
 73
     0
 40
0.000000
  0
LTYPE
  2
DASHED
 70
    64
  3
__ __ __ __ __ __ __ __ __ __ __ __ __ __ __
 72
    65
 73
     2
 40
3.500000
 49
2.000000
 49
-1.500000
  0
LTYPE
  2
CENTER
 70
    64
  3
____ _ ____ _ ____ _ ____ _ ____ _ ____ _ ____
 72
    65
 73
     4
 40
17.500000
 49
13.000000
 49
-1.500000
 49
1.500000
 49
-1.500000
  0
LTYPE
  2
PHANTOM
 70
    64
  3
_____ _ _ _____ _ _ _____ _ _ _____ _ _ ____  
 72
    65
 73
     6
 40
15.500000
 49
8.000000
 49
-1.500000
 49
1.500000
 49
-1.500000
 49
1.500000
 49
-1.500000
  0
LTYPE
  2
DASHED1
 70
    64
  3
__ __ __ __ __ __ __ __ __ __ __ __ __ __ __
 72
    65
 73
     2
 40
1.500000
 49
1.000000
 49
-0.500000
  0
LTYPE
  2
DASHED2
 70
    64
  3
__ __ __ __ __ __ __ __ __ __ __ __ __ __ __
 72
    65
 73
     2
 40
3.500000
 49
2.500000
 49
-1.000000
  0
LTYPE
  2
DASHED3
 70
    64
  3
__ __ __ __ __ __ __ __ __ __ __ __ __ __ __
 72
    65
 73
     2
 40
6.000000
 49
4.000000
 49
-2.000000
  0
LTYPE
  2
DASHED4
 70
    64
  3
__ __ __ __ __ __ __ __ __ __ __ __ __ __ __
 72
    65
 73
     2
 40
12.000000
 49
10.000000
 49
-2.000000
  0
LTYPE
  2
DASHED5
 70
    64
  3
__ __ __ __ __ __ __ __ __ __ __ __ __ __ __
 72
    65
 73
     2
 40
17.000000
 49
15.000000
 49
-2.000000
  0
LTYPE
  2
DASHED6
 70
    64
  3
__ __ __ __ __ __ __ __ __ __ __ __ __ __ __
 72
    65
 73
     2
 40
29.000000
 49
27.000000
 49
-2.000000
  0
LTYPE
  2
PHANTOM1
 70
    64
  3
_____ _ _ _____ _ _ _____ _ _ _____ _ _ ____  
 72
    65
 73
     6
 40
31.000000
 49
25.000000
 49
-1.500000
 49
1.000000
 49
-1.000000
 49
1.000000
 49
-1.500000
  0
LTYPE
  2
PHANTOM2
 70
    64
  3
_____ _ _ _____ _ _ _____ _ _ _____ _ _ ____  
 72
    65
 73
     6
 40
36.000000
 49
27.000000
 49
-1.500000
 49
2.500000
 49
-1.000000
 49
2.500000
 49
-1.500000
  0
LTYPE
  2
PHANTOM3
 70
    64
  3
_____ _ _ _____ _ _ _____ _ _ _____ _ _ ____  
 72
    65
 73
     6
 40
78.000000
 49
64.000000
 49
-2.000000
 49
4.000000
 49
-2.000000
 49
4.000000
 49
-2.000000
  0
LTYPE
  2
CENTER1
 70
    64
  3
____ _ ____ _ ____ _ ____ _ ____ _ ____ _ ____
 72
    65
 73
     4
 40
19.000000
 49
14.000000
 49
-1.000000
 49
3.000000
 49
-1.000000
  0
LTYPE
  2
CENTER2
 70
    64
  3
____ _ ____ _ ____ _ ____ _ ____ _ ____ _ ____
 72
    65
 73
     4
 40
28.500000
 49
25.000000
 49
-1.000000
 49
1.500000
 49
-1.000000
  0
LTYPE
  2
CENTER3
 70
    64
  3
____ _ ____ _ ____ _ ____ _ ____ _ ____ _ ____
 72
    65
 73
     4
 40
31.500000
 49
27.000000
 49
-1.000000
 49
2.500000
 49
-1.000000
  0
LTYPE
  2
CENTER4
 70
    64
  3
____ _ ____ _ ____ _ ____ _ ____ _ ____ _ ____
 72
    65
 73
     4
 40
50.000000
 49
45.000000
 49
-1.000000
 49
3.000000
 49
-1.000000
  0
LTYPE
  2
CENTER5
 70
    64
  3
____ _ ____ _ ____ _ ____ _ ____ _ ____ _ ____
 72
    65
 73
     4
 40
100.000000
 49
92.000000
 49
-2.000000
 49
4.000000
 49
-2.000000
  0
LTYPE
  2
SBK1
 70
    64
  3
______ _ _ _ ______ _ _ _ ______ _ _ _ _____  
 72
    65
 73
     8
 40
60.500000
 49
45.000000
 49
-2.000000
 49
2.500000
 49
-2.000000
 49
2.500000
 49
-2.000000
 49
2.500000
 49
-2.000000
  0
LTYPE
  2
SBK2
 70
    64
  3
______ _ _ _ ______ _ _ _ ______ _ _ _ _____  
 72
    65
 73
     8
 40
84.000000
 49
64.000000
 49
-2.000000
 49
4.000000
 49
-2.000000
 49
4.000000
 49
-2.000000
 49
4.000000
 49
-2.000000
  0
LTYPE
  2
STCH
 70
    64
  3
__ __ __ __ __ __ __ __ __ __ __ __ __ __ __
 72
    65
 73
     2
 40
3.000000
 49
1.000000
 49
-2.000000
  0
LTYPE
  2
MTCH
 70
    64
  3
_____ _ _ _____ _ _ _____ _ _ _____ _ _ ____  
 72
    65
 73
     6
 40
80.000000
 49
66.000000
 49
-2.000000
 49
4.000000
 49
-2.000000
 49
4.000000
 49
-2.000000
  0
ENDTAB
  0
TABLE
  2
LAYER
 70
     1
  0
LAYER
  2
0
 70
     0
 62
     7
  6
CONTINUOUS
  0
ENDTAB
  0
TABLE
  2
STYLE
 70
     1
  0
STYLE
  2
STANDARD
 70
     0
 40
0.000000
 41
1.000000
 50
0.000000
 71
     0
 42
0.200000
  3
txt
  4
BIGFONT
  0
ENDTAB
  0
TABLE
  2
VIEW
 70
     0
  0
ENDTAB
  0
ENDSEC
  0
SECTION
  2
BLOCKS
  0
ENDSEC
  0
SECTION
  2
ENTITIES
  0
LINE
  8
0
 10
87.159988
 20
38.329987
 11
60.159988
 21
38.329987
  0
LINE
  8
0
 10
-10.500000
 20
38.329987
 11
-45.509995
 21
38.329987
  0
LINE
  8
0
 10
112.559982
 20
46.530003
 11
106.959984
 21
40.930008
  0
LINE
  8
0
 10
115.159988
 20
68.329987
 11
112.559998
 21
68.329987
  0
LINE
  8
0
 10
112.559998
 20
42.429993
 11
112.559998
 21
68.329987
  0
LINE
  8
0
 10
115.159988
 20
42.429993
 11
115.159988
 21
68.329987
  0
LINE
  8
0
 10
111.059998
 20
38.329987
 11
88.170044
 21
38.329987
  0
LINE
  8
0
 10
111.059998
 20
40.929993
 11
88.659988
 21
40.929993
  0
LINE
  8
0
 10
-60.500000
 20
40.929993
 11
-49.000000
 21
40.929993
  0
LINE
  8
0
 10
-60.500000
 20
38.329987
 11
-47.500000
 21
38.329987
  0
LINE
  8
0
 62
     2
 10
-50.500000
 20
53.544495
 11
-50.500000
 21
62.930298
  0
LINE
  8
0
 10
-48.000000
 20
61.829987
 11
-53.000000
 21
61.829987
  0
LINE
  8
0
 10
-48.000000
 20
54.829987
 11
-53.000000
 21
54.829987
  0
LINE
  8
0
 62
     2
 10
-48.000000
 20
53.842453
 11
-48.000000
 21
62.706818
  0
LINE
  8
0
 62
     2
 10
-53.000000
 20
53.916946
 11
-53.000000
 21
62.855804
  0
LINE
  8
0
 10
-46.209229
 20
68.329987
 11
-60.500000
 21
68.329987
  0
LINE
  8
0
 62
     2
 10
-44.057159
 20
58.329987
 11
-57.837891
 21
58.329987
  0
LINE
  8
0
 10
-60.500000
 20
38.329987
 11
-60.500000
 21
68.329987
  0
LINE
  8
0
 62
     2
 10
-18.000000
 20
53.916946
 11
-18.000000
 21
62.855804
  0
LINE
  8
0
 62
     2
 10
-23.000000
 20
53.842453
 11
-23.000000
 21
62.706818
  0
LINE
  8
0
 10
-23.000000
 20
54.829987
 11
-18.000000
 21
54.829987
  0
LINE
  8
0
 10
-23.000000
 20
61.829987
 11
-18.000000
 21
61.829987
  0
LINE
  8
0
 62
     2
 10
-20.500000
 20
53.544495
 11
-20.500000
 21
62.930298
  0
LINE
  8
0
 10
-24.790756
 20
68.329987
 11
-10.500000
 21
68.329987
  0
LINE
  8
0
 62
     2
 10
-26.942825
 20
58.329987
 11
-13.162098
 21
58.329987
  0
LINE
  8
0
 10
-10.500000
 20
38.329987
 11
-10.500000
 21
68.329987
  0
LINE
  8
0
 62
     2
 10
65.159988
 20
-3.669999
 11
85.159988
 21
-3.669999
  0
LINE
  8
0
 10
75.159988
 20
-25.669998
 11
75.159988
 21
-35.669998
  0
LINE
  8
0
 10
83.659988
 20
-35.669998
 11
83.659988
 21
-25.669998
  0
LINE
  8
0
 10
66.659988
 20
-35.669998
 11
66.659988
 21
-25.669998
  0
LINE
  8
0
 10
63.159988
 20
-12.670003
 11
64.159988
 21
-13.670005
  0
LINE
  8
0
 10
87.159996
 20
-12.670003
 11
86.159996
 21
-13.670005
  0
LINE
  8
0
 10
56.159988
 20
6.330000
 11
56.159988
 21
-12.669999
  0
LINE
  8
0
 10
94.159988
 20
6.330000
 11
94.159988
 21
-12.669999
  0
LINE
  8
0
 10
55.159988
 20
-12.669999
 11
95.159988
 21
-12.669999
  0
LINE
  8
0
 10
86.159981
 20
22.330002
 11
87.159981
 21
21.330000
  0
LINE
  8
0
 10
87.159988
 20
21.329987
 11
63.159988
 21
21.329987
  0
LINE
  8
0
 10
86.159988
 20
22.329987
 11
86.159988
 21
-13.669999
  0
LINE
  8
0
 10
87.159988
 20
21.329987
 11
87.159988
 21
-12.669999
  0
LINE
  8
0
 10
64.159981
 20
22.330002
 11
63.159981
 21
21.330000
  0
LINE
  8
0
 10
64.159988
 20
22.329987
 11
64.159988
 21
-13.669999
  0
LINE
  8
0
 10
63.159988
 20
21.329987
 11
63.159988
 21
-12.669999
  0
LINE
  8
0
 10
61.159988
 20
-13.669999
 11
89.159988
 21
-13.669999
  0
LINE
  8
0
 10
56.159988
 20
22.329987
 11
94.159988
 21
22.329987
  0
LINE
  8
0
 10
87.159988
 20
14.330000
 11
95.159988
 21
14.330000
  0
LINE
  8
0
 10
95.159988
 20
21.329987
 11
95.159988
 21
-12.669999
  0
LINE
  8
0
 10
95.159988
 20
6.330000
 11
87.159988
 21
6.330000
  0
LINE
  8
0
 10
95.159988
 20
15.330000
 11
87.159988
 21
15.330000
  0
LINE
  8
0
 10
89.159988
 20
6.330000
 11
89.159988
 21
4.330000
  0
LINE
  8
0
 10
93.159988
 20
6.330000
 11
93.159988
 21
4.330000
  0
LINE
  8
0
 62
     2
 10
89.659988
 20
6.330000
 11
89.659988
 21
4.330000
  0
LINE
  8
0
 62
     2
 10
92.659988
 20
6.330000
 11
92.659988
 21
4.330000
  0
LINE
  8
0
 10
89.159988
 20
4.330000
 11
93.159988
 21
4.330000
  0
LINE
  8
0
 10
55.159988
 20
21.329987
 11
55.159988
 21
-12.669999
  0
LINE
  8
0
 10
55.159988
 20
14.330000
 11
63.159988
 21
14.330000
  0
LINE
  8
0
 10
63.159988
 20
15.330000
 11
55.159988
 21
15.330000
  0
LINE
  8
0
 10
61.159988
 20
4.330000
 11
57.159988
 21
4.330000
  0
LINE
  8
0
 10
61.159988
 20
6.330000
 11
61.159988
 21
4.330000
  0
LINE
  8
0
 10
57.159988
 20
6.330000
 11
57.159988
 21
4.330000
  0
LINE
  8
0
 62
     2
 10
60.659988
 20
6.330000
 11
60.659988
 21
4.330000
  0
LINE
  8
0
 62
     2
 10
57.659988
 20
6.330000
 11
57.659988
 21
4.330000
  0
LINE
  8
0
 10
55.159988
 20
10.330000
 11
95.159988
 21
10.330000
  0
LINE
  8
0
 10
63.159988
 20
6.330000
 11
55.159988
 21
6.330000
  0
LINE
  8
0
 10
62.159988
 20
-25.669996
 11
61.159988
 21
-24.669994
  0
LINE
  8
0
 10
89.159988
 20
-24.670006
 11
88.159981
 21
-25.670006
  0
LINE
  8
0
 10
61.159988
 20
-18.669998
 11
89.159988
 21
-18.669998
  0
LINE
  8
0
 10
62.159988
 20
-25.669998
 11
88.159988
 21
-25.669998
  0
LINE
  8
0
 10
66.659988
 20
-35.669998
 11
83.659988
 21
-35.669998
  0
LINE
  8
0
 10
61.159988
 20
-24.669998
 11
89.159988
 21
-24.669998
  0
LINE
  8
0
 10
89.159988
 20
-13.669999
 11
89.159988
 21
-24.669998
  0
LINE
  8
0
 10
61.159988
 20
-13.669999
 11
61.159988
 21
-24.669998
  0
LINE
  8
0
 10
-49.500000
 20
-24.669998
 11
-21.500000
 21
-24.669998
  0
LINE
  8
0
 10
-40.407471
 20
-34.919998
 11
-40.407471
 21
-25.669998
  0
LINE
  8
0
 10
-30.592514
 20
-34.919998
 11
-30.592514
 21
-25.669998
  0
LINE
  8
0
 62
     2
 10
-12.500000
 20
-10.669999
 11
-13.500000
 21
-10.669999
  0
LINE
  8
0
 62
     2
 10
-12.500000
 20
3.330000
 11
-13.500000
 21
3.330000
  0
LINE
  8
0
 10
-13.500000
 20
3.330000
 11
-13.500000
 21
-10.669999
  0
LINE
  8
0
 10
-12.500000
 20
3.330000
 11
-12.500000
 21
-10.669999
  0
LINE
  8
0
 62
     2
 10
-58.500000
 20
-10.669999
 11
-57.500000
 21
-10.669999
  0
LINE
  8
0
 62
     2
 10
-58.500000
 20
3.330000
 11
-57.500000
 21
3.330000
  0
LINE
  8
0
 10
-57.500000
 20
3.330000
 11
-57.500000
 21
-10.669999
  0
LINE
  8
0
 10
-58.500000
 20
3.330000
 11
-58.500000
 21
-10.669999
  0
LINE
  8
0
 10
-59.500000
 20
22.329987
 11
-59.500000
 21
-13.669999
  0
LINE
  8
0
 10
-11.500000
 20
22.329987
 11
-11.500000
 21
-13.669999
  0
LINE
  8
0
 10
-10.500000
 20
-12.669999
 11
-27.092514
 21
-12.669999
  0
LINE
  8
0
 10
-60.500000
 20
-12.669999
 11
-35.907471
 21
-12.669999
  0
LINE
  8
0
 62
     2
 10
-62.911652
 20
-3.669999
 11
-8.143215
 21
-3.669999
  0
LINE
  8
0
 10
-21.500000
 20
4.330000
 11
-17.500000
 21
4.330000
  0
LINE
  8
0
 62
     2
 10
-18.000000
 20
6.330000
 11
-18.000000
 21
4.330000
  0
LINE
  8
0
 62
     2
 10
-21.000000
 20
6.330000
 11
-21.000000
 21
4.330000
  0
LINE
  8
0
 10
-17.500000
 20
6.330000
 11
-17.500000
 21
4.330000
  0
LINE
  8
0
 10
-21.500000
 20
6.330000
 11
-21.500000
 21
4.330000
  0
LINE
  8
0
 62
     2
 10
-53.000000
 20
6.330000
 11
-53.000000
 21
4.330000
  0
LINE
  8
0
 62
     2
 10
-50.000000
 20
6.330000
 11
-50.000000
 21
4.330000
  0
LINE
  8
0
 10
-53.500000
 20
6.330000
 11
-53.500000
 21
4.330000
  0
LINE
  8
0
 10
-49.500000
 20
6.330000
 11
-49.500000
 21
4.330000
  0
LINE
  8
0
 10
-49.500000
 20
4.330000
 11
-53.500000
 21
4.330000
  0
LINE
  8
0
 10
-47.500000
 20
21.329987
 11
-47.500000
 21
14.330000
  0
LINE
  8
0
 10
-55.500000
 20
16.611511
 11
-55.500000
 21
14.330000
  0
LINE
  8
0
 10
-47.500000
 20
15.330000
 11
-55.500000
 21
15.330000
  0
LINE
  8
0
 10
-15.500000
 20
16.611511
 11
-15.500000
 21
14.330000
  0
LINE
  8
0
 10
-23.500000
 20
21.329987
 11
-23.500000
 21
14.330000
  0
LINE
  8
0
 10
-15.500000
 20
15.330000
 11
-23.500000
 21
15.330000
  0
LINE
  8
0
 10
-10.500000
 20
21.329987
 11
-20.500000
 21
21.329987
  0
LINE
  8
0
 10
-60.500000
 20
21.329987
 11
-50.500000
 21
21.329987
  0
LINE
  8
0
 10
-10.500000
 20
21.329987
 11
-10.500000
 21
-12.669999
  0
LINE
  8
0
 10
-60.500000
 20
21.329987
 11
-60.500000
 21
-12.669999
  0
LINE
  8
0
 10
-59.500000
 20
-13.669999
 11
-11.500000
 21
-13.669999
  0
LINE
  8
0
 10
-60.500000
 20
10.330000
 11
-10.500000
 21
10.330000
  0
LINE
  8
0
 10
-42.853729
 20
-35.669998
 11
-28.146255
 21
-35.669998
  0
LINE
  8
0
 10
-48.500000
 20
-25.669998
 11
-22.500000
 21
-25.669998
  0
LINE
  8
0
 10
-25.699997
 20
-25.669998
 11
-25.699997
 21
-34.919998
  0
LINE
  8
0
 10
-45.299988
 20
-25.669998
 11
-45.299988
 21
-34.919998
  0
LINE
  8
0
 10
-49.500000
 20
-18.669998
 11
-21.500000
 21
-18.669998
  0
LINE
  8
0
 10
-21.500000
 20
-13.669999
 11
-21.500000
 21
-24.669998
  0
LINE
  8
0
 10
-49.500000
 20
-13.669999
 11
-49.500000
 21
-24.669998
  0
LINE
  8
0
 10
-11.499997
 20
22.329996
 11
-10.499995
 21
21.329994
  0
LINE
  8
0
 10
-10.499991
 20
-12.669991
 11
-11.499992
 21
-13.669991
  0
LINE
  8
0
 10
-21.499992
 20
-24.669992
 11
-22.499994
 21
-25.669992
  0
LINE
  8
0
 10
-48.499989
 20
-25.670006
 11
-49.499989
 21
-24.670006
  0
LINE
  8
0
 10
-59.499989
 20
-13.670005
 11
-60.499989
 21
-12.670003
  0
LINE
  8
0
 10
-59.499989
 20
22.329990
 11
-60.499989
 21
21.329990
  0
LINE
  8
0
 10
-55.500000
 20
14.330000
 11
-47.500000
 21
14.330000
  0
LINE
  8
0
 10
-15.500000
 20
6.330000
 11
-23.950165
 21
6.330000
  0
LINE
  8
0
 10
-55.500000
 20
14.330000
 11
-55.500000
 21
6.330000
  0
LINE
  8
0
 10
-15.500000
 20
14.330000
 11
-15.500000
 21
6.330000
  0
LINE
  8
0
 10
-23.500000
 20
14.330000
 11
-15.500000
 21
14.330000
  0
LINE
  8
0
 62
     2
 10
-31.500000
 20
6.330000
 11
-31.500000
 21
-15.530000
  0
LINE
  8
0
 10
-39.049820
 20
6.330000
 11
-55.500000
 21
6.330000
  0
LINE
  8
0
 10
-59.500000
 20
22.329987
 11
-11.500000
 21
22.329987
  0
LINE
  8
0
 10
-210.000000
 20
-148.500000
 11
-210.000000
 21
148.500000
  0
LINE
  8
0
 10
210.000000
 20
148.500000
 11
-210.000000
 21
148.500000
  0
LINE
  8
0
 10
210.000000
 20
148.500000
 11
210.000000
 21
-148.500000
  0
LINE
  8
0
 10
-210.000000
 20
-148.500000
 11
210.000000
 21
-148.500000
  0
LINE
  8
0
 10
-22.000000
 20
40.929993
 11
-49.000000
 21
40.929993
  0
LINE
  8
0
 10
63.159988
 20
40.929993
 11
60.159988
 21
40.929993
  0
LINE
  8
0
 10
60.159988
 20
38.329987
 11
60.159988
 21
40.929993
  0
LINE
  8
0
 10
88.659988
 20
40.929993
 11
63.159988
 21
40.929993
  0
LINE
  8
0
 10
-24.499998
 20
36.029995
 11
-24.099997
 21
35.329994
  0
LINE
  8
0
 10
-24.909998
 20
36.029995
 11
-24.499998
 21
35.329994
  0
LINE
  8
0
 10
-46.499985
 20
36.029999
 11
-46.099983
 21
35.329998
  0
LINE
  8
0
 10
-46.909985
 20
36.029999
 11
-46.499985
 21
35.329998
  0
LINE
  8
0
 10
-27.500000
 20
41.429993
 11
-27.500000
 21
44.429993
  0
LINE
  8
0
 10
-21.499998
 20
45.929989
 11
-19.499998
 21
44.429989
  0
LINE
  8
0
 10
-49.499989
 20
45.929985
 11
-51.499989
 21
44.429985
  0
LINE
  8
0
 10
-19.500000
 20
41.429993
 11
-19.500000
 21
44.429993
  0
LINE
  8
0
 10
-51.500000
 20
41.429993
 11
-51.500000
 21
44.429993
  0
LINE
  8
0
 10
-43.500000
 20
41.429993
 11
-43.500000
 21
44.359985
  0
LINE
  8
0
 10
-49.000000
 20
40.929993
 11
-49.000000
 21
41.429993
  0
LINE
  8
0
 10
-22.000000
 20
40.929993
 11
-22.000000
 21
41.429993
  0
LINE
  8
0
 62
     2
 10
-46.750000
 20
38.329987
 11
-46.750000
 21
40.929993
  0
LINE
  8
0
 62
     2
 10
-24.250000
 20
38.329987
 11
-24.250000
 21
40.929993
  0
LINE
  8
0
 10
-47.500000
 20
38.329987
 11
-47.500000
 21
40.929993
  0
LINE
  8
0
 10
-23.500000
 20
38.329987
 11
-23.500000
 21
40.929993
  0
LINE
  8
0
 10
-19.500000
 20
41.429993
 11
-51.500000
 21
41.429993
  0
LINE
  8
0
 10
-21.500000
 20
37.329987
 11
-21.500000
 21
22.329987
  0
LINE
  8
0
 10
-24.500000
 20
51.929993
 11
-46.500000
 21
51.929993
  0
LINE
  8
0
 10
-24.919998
 20
53.359985
 11
-25.899994
 21
53.729984
  0
LINE
  8
0
 10
-46.089989
 20
53.359989
 11
-45.109982
 21
53.729992
  0
LINE
  8
0
 10
-46.089989
 20
68.870003
 11
-44.589993
 21
69.430000
  0
LINE
  8
0
 10
-26.419998
 20
69.429993
 11
-26.419998
 21
69.239990
  0
LINE
  8
0
 10
-24.919996
 20
68.869995
 11
-26.419991
 21
69.429993
  0
LINE
  8
0
 10
-25.769989
 20
69.429993
 11
-26.419998
 21
69.429993
  0
LINE
  8
0
 10
-24.799988
 20
68.869995
 11
-24.919998
 21
68.869995
  0
LINE
  8
0
 10
-45.239990
 20
69.429993
 11
-44.589996
 21
69.429993
  0
LINE
  8
0
 10
-46.199997
 20
68.869995
 11
-46.089996
 21
68.869995
  0
LINE
  8
0
 10
-44.589996
 20
69.239990
 11
-44.589996
 21
69.429993
  0
LINE
  8
0
 10
-31.489990
 20
53.929981
 11
-30.139997
 21
53.359985
  0
LINE
  8
0
 10
-32.099995
 20
53.929985
 11
-32.499996
 21
53.359982
  0
LINE
  8
0
 10
-39.519993
 20
53.929996
 11
-40.869991
 21
53.359997
  0
LINE
  8
0
 10
-38.909992
 20
53.929989
 11
-38.499996
 21
53.359997
  0
LINE
  8
0
 10
-30.139999
 20
53.359985
 11
-32.500000
 21
53.359985
  0
LINE
  8
0
 10
-38.500000
 20
53.359985
 11
-40.869995
 21
53.359985
  0
LINE
  8
0
 10
-45.109985
 20
53.359985
 11
-46.089996
 21
53.359985
  0
LINE
  8
0
 10
-31.489990
 20
53.929993
 11
-32.099991
 21
53.929993
  0
LINE
  8
0
 10
-38.909988
 20
53.929993
 11
-39.519989
 21
53.929993
  0
LINE
  8
0
 10
-40.869991
 20
68.869987
 11
-39.519989
 21
69.429985
  0
LINE
  8
0
 10
-38.500000
 20
68.869995
 11
-38.910000
 21
69.429993
  0
LINE
  8
0
 10
-32.500000
 20
68.869995
 11
-32.100002
 21
69.429993
  0
LINE
  8
0
 10
-30.139994
 20
68.869980
 11
-31.490000
 21
69.429985
  0
LINE
  8
0
 10
-26.679996
 20
69.429993
 11
-25.900000
 21
68.869995
  0
LINE
  8
0
 10
-44.329998
 20
69.429993
 11
-45.109997
 21
68.869995
  0
LINE
  8
0
 10
-24.919998
 20
53.359985
 11
-24.919998
 21
68.869995
  0
LINE
  8
0
 10
-46.089996
 20
53.359985
 11
-46.089996
 21
68.869995
  0
LINE
  8
0
 10
-40.869995
 20
68.869995
 11
-45.109985
 21
68.869995
  0
LINE
  8
0
 10
-32.500000
 20
68.869995
 11
-38.500000
 21
68.869995
  0
LINE
  8
0
 10
-26.679993
 20
69.429993
 11
-31.489990
 21
69.429993
  0
LINE
  8
0
 10
-39.519989
 20
69.429993
 11
-44.329987
 21
69.429993
  0
LINE
  8
0
 10
-32.099991
 20
69.429993
 11
-38.909988
 21
69.429993
  0
LINE
  8
0
 10
-45.109985
 20
53.359985
 11
-45.109985
 21
68.869995
  0
LINE
  8
0
 10
-40.869995
 20
53.359985
 11
-40.869995
 21
68.869995
  0
LINE
  8
0
 10
-39.519989
 20
53.929993
 11
-39.519989
 21
69.429993
  0
LINE
  8
0
 10
-25.899994
 20
53.359985
 11
-25.899994
 21
68.869995
  0
LINE
  8
0
 10
-30.139999
 20
53.359985
 11
-30.139999
 21
68.869995
  0
LINE
  8
0
 10
-31.489990
 20
53.929993
 11
-31.489990
 21
69.429993
  0
LINE
  8
0
 10
-32.099991
 20
53.929993
 11
-32.099991
 21
69.429993
  0
LINE
  8
0
 10
-38.909988
 20
53.929993
 11
-38.909988
 21
69.429993
  0
LINE
  8
0
 10
-38.500000
 20
53.359985
 11
-38.500000
 21
68.869995
  0
LINE
  8
0
 10
-32.500000
 20
53.359985
 11
-32.500000
 21
68.869995
  0
LINE
  8
0
 10
-24.919998
 20
53.359985
 11
-25.899994
 21
53.359985
  0
LINE
  8
0
 10
-25.899994
 20
68.869995
 11
-30.139999
 21
68.869995
  0
LINE
  8
0
 10
-43.549988
 20
35.329987
 11
-43.549988
 21
36.029999
  0
LINE
  8
0
 10
-49.449997
 20
35.329987
 11
-49.449997
 21
36.029999
  0
LINE
  8
0
 10
-43.699997
 20
37.199997
 11
-43.699997
 21
36.029999
  0
LINE
  8
0
 10
-49.299988
 20
37.199997
 11
-49.299988
 21
36.029999
  0
LINE
  8
0
 10
-49.449997
 20
36.029999
 11
-43.549988
 21
36.029999
  0
LINE
  8
0
 10
-27.449997
 20
36.029999
 11
-21.549988
 21
36.029999
  0
LINE
  8
0
 10
-21.699997
 20
37.199997
 11
-21.699997
 21
36.029999
  0
LINE
  8
0
 10
-27.299988
 20
37.199997
 11
-27.299988
 21
36.029999
  0
LINE
  8
0
 10
-27.449997
 20
35.329987
 11
-27.449997
 21
36.029999
  0
LINE
  8
0
 10
-21.549988
 20
35.329987
 11
-21.549988
 21
36.029999
  0
LINE
  8
0
 10
-21.500000
 20
45.929993
 11
-49.500000
 21
45.929993
  0
LINE
  8
0
 10
-24.500000
 20
46.929993
 11
-46.500000
 21
46.929993
  0
LINE
  8
0
 10
-24.500000
 20
47.929993
 11
-46.500000
 21
47.929993
  0
LINE
  8
0
 62
     2
 10
-24.500000
 20
34.009995
 11
-24.500000
 21
39.479996
  0
LINE
  8
0
 62
     2
 10
-46.500000
 20
34.439987
 11
-46.500000
 21
39.269989
  0
LINE
  8
0
 10
-27.500000
 20
35.329987
 11
-21.549988
 21
35.329987
  0
LINE
  8
0
 10
-49.449997
 20
35.329987
 11
-43.500000
 21
35.329987
  0
LINE
  8
0
 10
-27.500000
 20
35.329987
 11
-27.500000
 21
37.329987
  0
LINE
  8
0
 10
-43.500000
 20
35.329987
 11
-43.500000
 21
37.329987
  0
LINE
  8
0
 62
     2
 10
-35.500000
 20
-37.138458
 11
-35.500000
 21
73.849991
  0
LINE
  8
0
 10
-49.500000
 20
32.329987
 11
-21.500000
 21
32.329987
  0
LINE
  8
0
 10
-24.999994
 20
51.429989
 11
-24.509996
 21
51.919987
  0
LINE
  8
0
 10
-45.999992
 20
51.429989
 11
-46.499992
 21
51.919991
  0
LINE
  8
0
 10
-24.799988
 20
68.869995
 11
-24.509989
 21
51.919994
  0
LINE
  8
0
 10
-46.199986
 20
68.869995
 11
-46.499985
 21
51.919998
  0
LINE
  8
0
 10
-27.000000
 20
51.429993
 11
-27.000000
 21
48.929993
  0
LINE
  8
0
 10
-44.500000
 20
51.429993
 11
-44.500000
 21
48.929993
  0
LINE
  8
0
 10
-46.499989
 20
46.929989
 11
-47.499989
 21
45.929989
  0
LINE
  8
0
 10
-24.499998
 20
46.930000
 11
-23.499998
 21
45.929996
  0
LINE
  8
0
 10
-46.499989
 20
47.929989
 11
-45.499989
 21
48.929989
  0
LINE
  8
0
 10
-25.499994
 20
48.929985
 11
-24.500004
 21
47.929993
  0
LINE
  8
0
 10
-46.500000
 20
47.929993
 11
-46.500000
 21
46.929993
  0
LINE
  8
0
 10
-24.500000
 20
47.929993
 11
-24.500000
 21
46.929993
  0
LINE
  8
0
 10
-25.500000
 20
48.929993
 11
-45.500000
 21
48.929993
  0
LINE
  8
0
 10
-49.500000
 20
37.329987
 11
-49.500000
 21
22.329987
  0
LINE
  8
0
 10
-46.000000
 20
51.429993
 11
-25.000000
 21
51.429993
  0
LINE
  8
0
 10
-25.770006
 20
69.429985
 11
-24.799995
 21
68.869980
  0
LINE
  8
0
 10
-45.239998
 20
69.429993
 11
-46.199997
 21
68.869995
  0
LINE
  8
0
 10
-25.789997
 20
70.439995
 11
-25.769997
 21
69.429985
  0
LINE
  8
0
 10
-45.219997
 20
70.439987
 11
-45.239998
 21
69.429993
  0
LINE
  8
0
 10
-44.219986
 20
71.429993
 11
-26.789993
 21
71.429993
  0
LINE
  8
0
 10
61.659988
 20
40.929993
 11
61.659988
 21
45.929993
  0
LINE
  8
0
 10
88.659988
 20
40.929993
 11
88.659988
 21
45.929993
  0
LINE
  8
0
 62
     2
 10
63.909988
 20
38.329987
 11
63.909988
 21
40.929993
  0
LINE
  8
0
 62
     2
 10
86.409988
 20
38.329987
 11
86.409988
 21
40.929993
  0
LINE
  8
0
 10
63.159988
 20
38.329987
 11
63.159988
 21
40.929993
  0
LINE
  8
0
 10
87.159988
 20
38.329987
 11
87.159988
 21
40.929993
  0
LINE
  8
0
 10
88.659988
 20
41.429993
 11
61.659988
 21
41.429993
  0
LINE
  8
0
 10
-10.500000
 20
40.929993
 11
-22.000000
 21
40.929993
  0
LINE
  8
0
 10
89.159988
 20
37.329987
 11
89.159988
 21
22.329987
  0
LINE
  8
0
 10
86.159988
 20
51.929993
 11
64.169998
 21
51.929993
  0
LINE
  8
0
 10
85.749977
 20
53.360004
 11
84.769981
 21
53.730003
  0
LINE
  8
0
 10
64.580002
 20
53.359989
 11
65.559990
 21
53.729988
  0
LINE
  8
0
 10
64.580002
 20
68.869980
 11
66.079994
 21
69.429977
  0
LINE
  8
0
 10
84.250000
 20
69.429993
 11
84.250000
 21
69.239990
  0
LINE
  8
0
 10
85.749985
 20
68.869995
 11
84.249992
 21
69.429993
  0
LINE
  8
0
 10
84.889999
 20
69.429993
 11
84.250000
 21
69.429993
  0
LINE
  8
0
 10
85.859985
 20
68.869995
 11
85.750000
 21
68.869995
  0
LINE
  8
0
 10
65.429993
 20
69.429993
 11
66.079987
 21
69.429993
  0
LINE
  8
0
 10
64.459991
 20
68.869995
 11
64.579987
 21
68.869995
  0
LINE
  8
0
 10
66.079987
 20
69.239990
 11
66.079987
 21
69.429993
  0
LINE
  8
0
 10
79.179985
 20
53.930000
 11
80.519981
 21
53.360001
  0
LINE
  8
0
 10
78.559982
 20
53.929993
 11
78.159981
 21
53.359993
  0
LINE
  8
0
 10
71.139999
 20
53.929985
 11
69.800003
 21
53.359985
  0
LINE
  8
0
 10
71.759987
 20
53.929989
 11
72.159988
 21
53.359989
  0
LINE
  8
0
 10
80.519989
 20
53.359985
 11
78.159988
 21
53.359985
  0
LINE
  8
0
 10
72.159988
 20
53.359985
 11
69.799988
 21
53.359985
  0
LINE
  8
0
 10
65.559998
 20
53.359985
 11
64.579987
 21
53.359985
  0
LINE
  8
0
 10
79.179993
 20
53.929993
 11
78.559998
 21
53.929993
  0
LINE
  8
0
 10
71.759995
 20
53.929993
 11
71.139999
 21
53.929993
  0
LINE
  8
0
 10
69.800003
 20
68.869987
 11
71.139992
 21
69.429985
  0
LINE
  8
0
 10
72.159988
 20
68.869987
 11
71.759995
 21
69.429993
  0
LINE
  8
0
 10
78.159988
 20
68.869987
 11
78.559990
 21
69.429993
  0
LINE
  8
0
 10
80.519981
 20
68.869987
 11
79.179985
 21
69.429985
  0
LINE
  8
0
 10
83.989983
 20
69.429993
 11
84.769981
 21
68.869995
  0
LINE
  8
0
 10
66.329994
 20
69.429993
 11
65.559998
 21
68.869995
  0
LINE
  8
0
 10
85.750000
 20
53.359985
 11
85.750000
 21
68.869995
  0
LINE
  8
0
 10
64.579987
 20
53.359985
 11
64.579987
 21
68.869995
  0
LINE
  8
0
 10
69.799988
 20
68.869995
 11
65.559998
 21
68.869995
  0
LINE
  8
0
 10
78.159988
 20
68.869995
 11
72.159988
 21
68.869995
  0
LINE
  8
0
 10
83.989990
 20
69.429993
 11
79.179993
 21
69.429993
  0
LINE
  8
0
 10
71.139999
 20
69.429993
 11
66.329987
 21
69.429993
  0
LINE
  8
0
 10
78.559998
 20
69.429993
 11
71.759995
 21
69.429993
  0
LINE
  8
0
 10
65.559998
 20
53.359985
 11
65.559998
 21
68.869995
  0
LINE
  8
0
 10
69.799988
 20
53.359985
 11
69.799988
 21
68.869995
  0
LINE
  8
0
 10
71.139999
 20
53.929993
 11
71.139999
 21
69.429993
  0
LINE
  8
0
 10
84.769989
 20
53.359985
 11
84.769989
 21
68.869995
  0
LINE
  8
0
 10
80.519989
 20
53.359985
 11
80.519989
 21
68.869995
  0
LINE
  8
0
 10
79.179993
 20
53.929993
 11
79.179993
 21
69.429993
  0
LINE
  8
0
 10
78.559998
 20
53.929993
 11
78.559998
 21
69.429993
  0
LINE
  8
0
 10
71.759995
 20
53.929993
 11
71.759995
 21
69.429993
  0
LINE
  8
0
 10
72.159988
 20
53.359985
 11
72.159988
 21
68.869995
  0
LINE
  8
0
 10
78.159988
 20
53.359985
 11
78.159988
 21
68.869995
  0
LINE
  8
0
 10
85.750000
 20
53.359985
 11
84.769989
 21
53.359985
  0
LINE
  8
0
 10
84.769989
 20
68.869995
 11
80.519989
 21
68.869995
  0
LINE
  8
0
 10
67.109985
 20
35.329987
 11
67.109985
 21
36.029999
  0
LINE
  8
0
 10
61.209991
 20
35.329987
 11
61.209991
 21
36.029999
  0
LINE
  8
0
 10
66.959991
 20
37.199997
 11
66.959991
 21
36.029999
  0
LINE
  8
0
 10
61.359985
 20
37.199997
 11
61.359985
 21
36.029999
  0
LINE
  8
0
 10
61.209991
 20
36.029999
 11
67.109985
 21
36.029999
  0
LINE
  8
0
 10
83.209991
 20
36.029999
 11
89.109985
 21
36.029999
  0
LINE
  8
0
 10
88.959991
 20
37.199997
 11
88.959991
 21
36.029999
  0
LINE
  8
0
 10
83.359985
 20
37.199997
 11
83.359985
 21
36.029999
  0
LINE
  8
0
 10
83.209991
 20
35.329987
 11
83.209991
 21
36.029999
  0
LINE
  8
0
 10
89.109985
 20
35.329987
 11
89.109985
 21
36.029999
  0
LINE
  8
0
 10
88.659988
 20
45.929993
 11
61.659988
 21
45.929993
  0
LINE
  8
0
 10
86.159988
 20
46.929993
 11
64.159988
 21
46.929993
  0
LINE
  8
0
 10
86.159988
 20
47.929993
 11
64.159988
 21
47.929993
  0
LINE
  8
0
 62
     2
 10
86.159988
 20
34.009995
 11
86.159988
 21
39.479996
  0
LINE
  8
0
 62
     2
 10
64.159988
 20
34.439987
 11
64.159988
 21
39.269989
  0
LINE
  8
0
 10
83.159988
 20
35.329987
 11
89.109985
 21
35.329987
  0
LINE
  8
0
 10
61.209991
 20
35.329987
 11
67.159988
 21
35.329987
  0
LINE
  8
0
 10
83.159988
 20
35.329987
 11
83.159988
 21
37.329987
  0
LINE
  8
0
 10
67.159988
 20
35.329987
 11
67.159988
 21
37.329987
  0
LINE
  8
0
 62
     2
 10
75.159988
 20
-38.051666
 11
75.159988
 21
73.849991
  0
LINE
  8
0
 10
61.159988
 20
32.329987
 11
89.159988
 21
32.329987
  0
LINE
  8
0
 10
85.659981
 20
51.429996
 11
86.149979
 21
51.919998
  0
LINE
  8
0
 10
64.659988
 20
51.429989
 11
64.169991
 21
51.919991
  0
LINE
  8
0
 10
85.859985
 20
68.869995
 11
86.149986
 21
51.919994
  0
LINE
  8
0
 10
64.459999
 20
68.870003
 11
64.169998
 21
51.919998
  0
LINE
  8
0
 10
83.659988
 20
51.429993
 11
83.659988
 21
48.929993
  0
LINE
  8
0
 10
66.159988
 20
51.429993
 11
66.159988
 21
48.929993
  0
LINE
  8
0
 10
64.159996
 20
46.929996
 11
63.159996
 21
45.929996
  0
LINE
  8
0
 10
86.159996
 20
46.930004
 11
87.159996
 21
45.930004
  0
LINE
  8
0
 10
64.159996
 20
47.930000
 11
65.159988
 21
48.929989
  0
LINE
  8
0
 10
85.159981
 20
48.929996
 11
86.159981
 21
47.929993
  0
LINE
  8
0
 10
64.159988
 20
47.929993
 11
64.159988
 21
46.929993
  0
LINE
  8
0
 10
86.159988
 20
47.929993
 11
86.159988
 21
46.929993
  0
LINE
  8
0
 10
85.159988
 20
48.929993
 11
65.159988
 21
48.929993
  0
LINE
  8
0
 10
88.159988
 20
38.329987
 11
87.159988
 21
38.329987
  0
LINE
  8
0
 10
61.159988
 20
37.329987
 11
61.159988
 21
22.329987
  0
LINE
  8
0
 10
64.659988
 20
51.429993
 11
85.659988
 21
51.429993
  0
LINE
  8
0
 10
84.889984
 20
69.430008
 11
85.859993
 21
68.870003
  0
LINE
  8
0
 10
65.430000
 20
69.429985
 11
64.459999
 21
68.869987
  0
LINE
  8
0
 10
84.879990
 20
70.439995
 11
84.889992
 21
69.429993
  0
LINE
  8
0
 10
65.449989
 20
70.439987
 11
65.429993
 21
69.429993
  0
LINE
  8
0
 10
66.449997
 20
71.429993
 11
83.879990
 21
71.429993
  0
CIRCLE
  8
0
 62
     2
 10
75.159988
 20
-3.669999
 40
6.578500
  0
CIRCLE
  8
0
 10
75.159988
 20
-3.669999
 40
5.722500
  0
ARC
  8
0
 10
111.059998
 20
42.429993
 40
4.099998
 50
270.000000
 51
0.000000
  0
ARC
  8
0
 10
111.059998
 20
42.429993
 40
1.500000
 50
270.000000
 51
0.000000
  0
ARC
  8
0
 10
-57.023788
 20
41.929993
 40
1.000000
 50
270.000000
 51
351.285217
  0
ARC
  8
0
 10
-50.500000
 20
40.929993
 40
5.600000
 50
63.234501
 51
171.285233
  0
ARC
  8
0
 10
-13.976197
 20
41.929993
 40
1.000000
 50
188.714783
 51
270.000000
  0
ARC
  8
0
 10
-20.500000
 20
40.929993
 40
5.599999
 50
8.714735
 51
116.765480
  0
ARC
  8
0
 10
-53.000000
 20
58.329987
 40
3.500000
 50
90.000000
 51
269.999939
  0
ARC
  8
0
 10
-48.000000
 20
58.329987
 40
3.500000
 50
61.458641
 51
90.000000
  0
ARC
  8
0
 10
-48.000000
 20
58.329987
 40
3.500000
 50
270.000000
 51
296.580963
  0
ARC
  8
0
 10
-23.000000
 20
58.329987
 40
3.500000
 50
89.999969
 51
118.541328
  0
ARC
  8
0
 10
-23.000000
 20
58.329987
 40
3.500001
 50
243.419052
 51
270.000031
  0
ARC
  8
0
 10
-18.000000
 20
58.329987
 40
3.500000
 50
270.000031
 51
89.999969
  0
CIRCLE
  8
0
 10
75.159988
 20
-3.669999
 40
8.000000
  0
ARC
  8
0
 10
79.409988
 20
-23.253326
 40
12.416665
 50
249.984070
 51
290.015961
  0
ARC
  8
0
 10
70.909988
 20
-23.253326
 40
12.416665
 50
249.984070
 51
290.015961
  0
ARC
  8
0
 10
90.159988
 20
-13.669999
 40
1.000000
 50
90.000000
 51
179.999939
  0
ARC
  8
0
 10
60.159988
 20
-13.669999
 40
1.000000
 50
0.000000
 51
90.000000
  0
ARC
  8
0
 10
94.159988
 20
21.329987
 40
1.000000
 50
0.000000
 51
90.000000
  0
ARC
  8
0
 10
56.159988
 20
21.329987
 40
1.000000
 50
90.000000
 51
180.000000
  0
ARC
  8
0
 10
88.026657
 20
16.611511
 40
0.866666
 50
123.794075
 51
180.000000
  0
ARC
  8
0
 10
94.293320
 20
16.611511
 40
0.866669
 50
0.000000
 51
56.205853
  0
ARC
  8
0
 10
91.159988
 20
11.930000
 40
6.499999
 50
56.205742
 51
123.794243
  0
ARC
  8
0
 10
56.026657
 20
16.611511
 40
0.866668
 50
123.794289
 51
180.000000
  0
ARC
  8
0
 10
62.293320
 20
16.611511
 40
0.866665
 50
0.000000
 51
56.205643
  0
ARC
  8
0
 10
59.159988
 20
11.930000
 40
6.500000
 50
56.205715
 51
123.794212
  0
ARC
  8
0
 10
-42.853729
 20
-31.305527
 40
4.364464
 50
235.909927
 51
304.090057
  0
ARC
  8
0
 10
-28.146255
 20
-31.305527
 40
4.364463
 50
235.909958
 51
304.090057
  0
ARC
  8
0
 10
-35.500000
 20
-19.239441
 40
16.430542
 50
252.621658
 51
287.378357
  0
CIRCLE
  8
0
 62
     2
 10
-31.500000
 20
-3.669999
 40
6.578500
  0
CIRCLE
  8
0
 10
-31.500000
 20
-3.669999
 40
5.722500
  0
ARC
  8
0
 10
-39.049820
 20
4.330000
 40
1.999999
 50
313.341736
 51
90.000000
  0
ARC
  8
0
 10
-23.950165
 20
4.330000
 40
2.000000
 50
90.000000
 51
226.658203
  0
ARC
  8
0
 10
-31.500000
 20
-3.669999
 40
9.000000
 50
133.341812
 51
46.658241
  0
ARC
  8
0
 10
-51.500000
 20
11.930000
 40
6.500000
 50
56.205715
 51
123.794212
  0
ARC
  8
0
 10
-48.366653
 20
16.611511
 40
0.866665
 50
0.000000
 51
56.205643
  0
ARC
  8
0
 10
-54.633331
 20
16.611511
 40
0.866668
 50
123.794289
 51
180.000000
  0
ARC
  8
0
 10
-19.500000
 20
11.930000
 40
6.500000
 50
56.205715
 51
123.794228
  0
ARC
  8
0
 10
-16.366653
 20
16.611511
 40
0.866667
 50
0.000000
 51
56.205696
  0
ARC
  8
0
 10
-22.633331
 20
16.611511
 40
0.866667
 50
123.794182
 51
180.000000
  0
ARC
  8
0
 10
-20.500000
 20
22.329987
 40
1.000000
 50
180.000000
 51
270.000000
  0
ARC
  8
0
 10
-50.500000
 20
22.329987
 40
1.000000
 50
270.000000
 51
0.000000
  0
ARC
  8
0
 10
-24.502441
 20
21.327545
 40
1.002450
 50
0.139977
 51
89.860023
  0
ARC
  8
0
 10
-46.491074
 20
21.321060
 40
1.008964
 50
90.506691
 51
179.493195
  0
ARC
  8
0
 10
-31.500000
 20
-3.681301
 40
10.011124
 50
123.828171
 51
56.171825
  0
ARC
  8
0
 10
-23.500244
 20
39.849976
 40
6.080670
 50
57.353424
 51
131.130905
  0
ARC
  8
0
 10
-47.500000
 20
39.849991
 40
6.080818
 50
48.867222
 51
131.132751
  0
ARC
  8
0
 10
-35.500000
 20
23.849991
 40
22.080214
 50
68.757545
 51
111.242409
  0
ARC
  8
0
 10
-44.363937
 20
37.200439
 40
0.663944
 50
359.961487
 51
60.796589
  0
ARC
  8
0
 10
-48.633591
 20
37.204712
 40
0.666423
 50
120.317696
 51
180.405701
  0
ARC
  8
0
 10
-46.504990
 20
33.433319
 40
4.996974
 50
60.442383
 51
119.557579
  0
ARC
  8
0
 10
-22.363937
 20
37.200439
 40
0.663943
 50
359.961487
 51
60.796860
  0
ARC
  8
0
 10
-26.633591
 20
37.204712
 40
0.666417
 50
120.317444
 51
180.405701
  0
ARC
  8
0
 10
-24.504990
 20
33.433334
 40
4.996965
 50
60.442299
 51
119.557640
  0
ARC
  8
0
 10
-48.501663
 20
34.331665
 40
0.998331
 50
89.904106
 51
180.095886
  0
ARC
  8
0
 10
-42.501663
 20
37.331665
 40
0.998331
 50
89.904106
 51
180.095886
  0
ARC
  8
0
 10
-28.498337
 20
37.331650
 40
0.998342
 50
359.904755
 51
90.095123
  0
ARC
  8
0
 10
-22.498337
 20
34.331650
 40
0.998342
 50
359.904755
 51
90.095123
  0
ARC
  8
0
 10
-22.498337
 20
37.331650
 40
0.998342
 50
359.904755
 51
90.095123
  0
ARC
  8
0
 10
-48.501663
 20
37.331665
 40
0.998331
 50
89.904106
 51
180.095886
  0
ARC
  8
0
 10
-26.785477
 20
70.434509
 40
0.995495
 50
0.315722
 51
90.260178
  0
ARC
  8
0
 10
-44.219574
 20
70.429520
 40
1.000466
 50
90.023598
 51
179.400528
  0
ARC
  8
0
 10
81.909988
 20
29.995834
 40
15.934473
 50
64.937294
 51
115.062675
  0
ARC
  8
0
 10
68.409988
 20
29.995834
 40
15.934473
 50
64.937294
 51
115.062683
  0
ARC
  8
0
 10
66.301025
 20
37.203354
 40
0.658975
 50
359.707458
 51
61.050449
  0
ARC
  8
0
 10
62.028900
 20
37.197525
 40
0.668918
 50
119.453117
 51
179.788589
  0
ARC
  8
0
 10
64.159988
 20
33.433319
 40
4.994509
 50
60.492287
 51
119.507713
  0
ARC
  8
0
 10
88.301025
 20
37.203354
 40
0.658975
 50
359.707123
 51
61.051029
  0
ARC
  8
0
 10
84.028900
 20
37.197525
 40
0.668916
 50
119.452835
 51
179.788925
  0
ARC
  8
0
 10
86.159988
 20
33.433334
 40
4.994503
 50
60.492245
 51
119.507736
  0
ARC
  8
0
 10
62.161667
 20
34.328323
 40
1.001676
 50
90.095787
 51
179.903992
  0
ARC
  8
0
 10
68.161667
 20
37.328323
 40
1.001676
 50
90.096008
 51
179.903992
  0
ARC
  8
0
 10
82.164993
 20
37.334991
 40
0.995015
 50
359.712463
 51
90.287758
  0
ARC
  8
0
 10
88.164993
 20
34.334991
 40
0.995015
 50
359.712463
 51
90.287758
  0
ARC
  8
0
 10
88.164993
 20
37.334991
 40
0.995015
 50
359.712463
 51
90.287758
  0
ARC
  8
0
 10
62.161667
 20
37.328323
 40
1.001676
 50
90.095787
 51
179.903992
  0
ARC
  8
0
 10
83.882858
 20
70.432831
 40
0.997157
 50
0.411202
 51
90.164833
  0
ARC
  8
0
 10
66.448761
 20
70.431198
 40
0.998803
 50
89.929100
 51
179.495377
  0
TEXT
  8
0
 10
-34.554111
 20
-40.527279
 40
3.200000
  1
EXH
 50
0.000000
 41
1.052632
 51
0.000000
  7
STANDARD
  0
TEXT
  8
0
 10
-70.305588
 20
-0.667004
 40
3.200000
  1
IN
 50
0.000000
 41
1.052632
 51
0.000000
  7
STANDARD
  0
TEXT
  8
0
 10
-6.666867
 20
-1.107806
 40
3.200000
  1
OUT
 50
0.000000
 41
1.052632
 51
0.000000
  7
STANDARD
  0
TEXT
  8
0
 10
129.020325
 20
-130.949997
 40
8.000000
  1
HR200
 50
0.000000
 41
0.921053
 51
0.000000
  7
STANDARD
  0
POINT
  8
0
 10
-35.500000
 20
-45.669998
  0
LINE
  8
0
 10
-35.799999
 20
-44.272221
 11
-36.410431
 21
-44.272221
  0
LINE
  8
0
 10
-34.589569
 20
-44.272221
 11
-35.200001
 21
-44.272221
  0
LINE
  8
0
 10
-35.200001
 20
-40.669998
 11
-35.799999
 21
-40.669998
  0
LINE
  8
0
 10
-35.799999
 20
-40.669998
 11
-35.799999
 21
-44.272221
  0
LINE
  8
0
 10
-35.200001
 20
-40.669998
 11
-35.200001
 21
-44.272221
  0
LINE
  8
0
 10
-35.500000
 20
-47.669998
 11
-36.410431
 21
-44.272221
  0
LINE
  8
0
 10
-35.500000
 20
-47.669998
 11
-34.589569
 21
-44.272221
  0
POINT
  8
0
 10
-65.500000
 20
-3.669999
  0
LINE
  8
0
 10
-66.897781
 20
-3.969999
 11
-66.897781
 21
-4.580431
  0
LINE
  8
0
 10
-66.897781
 20
-2.759567
 11
-66.897781
 21
-3.369999
  0
LINE
  8
0
 10
-70.500000
 20
-3.369999
 11
-70.500000
 21
-3.969999
  0
LINE
  8
0
 10
-70.500000
 20
-3.969999
 11
-66.897781
 21
-3.969999
  0
LINE
  8
0
 10
-70.500000
 20
-3.369999
 11
-66.897781
 21
-3.369999
  0
LINE
  8
0
 10
-63.500000
 20
-3.669999
 11
-66.897781
 21
-4.580431
  0
LINE
  8
0
 10
-63.500000
 20
-3.669999
 11
-66.897781
 21
-2.759567
  0
POINT
  8
0
 10
-0.500000
 20
-3.669999
  0
LINE
  8
0
 10
-1.897778
 20
-3.969999
 11
-1.897778
 21
-4.580431
  0
LINE
  8
0
 10
-1.897778
 20
-2.759567
 11
-1.897778
 21
-3.369999
  0
LINE
  8
0
 10
-5.500000
 20
-3.369999
 11
-5.500000
 21
-3.969999
  0
LINE
  8
0
 10
-5.500000
 20
-3.969999
 11
-1.897778
 21
-3.969999
  0
LINE
  8
0
 10
-5.500000
 20
-3.369999
 11
-1.897778
 21
-3.369999
  0
LINE
  8
0
 10
1.500000
 20
-3.669999
 11
-1.897778
 21
-4.580431
  0
LINE
  8
0
 10
1.500000
 20
-3.669999
 11
-1.897778
 21
-2.759567
  0
ENDSEC
  0
EOF
