  0
SECTION
  2
HEADER
  0
ENDSEC
  0
SECTION
  2
TABLES
  0
TABLE
  2
LTYPE
 70
     4
  0
LTYPE
  2
CONTINUOUS
 70
    64
  3
Solid line
 72
    65
 73
     0
 40
0.000000
  0
LTYPE
  2
DASHED
 70
    64
  3
__ __ __ __ __ __ __ __ __ __ __ __ __ __ __
 72
    65
 73
     2
 40
3.500000
 49
2.000000
 49
-1.500000
  0
LTYPE
  2
CENTER
 70
    64
  3
____ _ ____ _ ____ _ ____ _ ____ _ ____ _ ____
 72
    65
 73
     4
 40
17.500000
 49
13.000000
 49
-1.500000
 49
1.500000
 49
-1.500000
  0
LTYPE
  2
PHANTOM
 70
    64
  3
_____ _ _ _____ _ _ _____ _ _ _____ _ _ ____  
 72
    65
 73
     6
 40
15.500000
 49
8.000000
 49
-1.500000
 49
1.500000
 49
-1.500000
 49
1.500000
 49
-1.500000
  0
LTYPE
  2
DASHED1
 70
    64
  3
__ __ __ __ __ __ __ __ __ __ __ __ __ __ __
 72
    65
 73
     2
 40
1.500000
 49
1.000000
 49
-0.500000
  0
LTYPE
  2
DASHED2
 70
    64
  3
__ __ __ __ __ __ __ __ __ __ __ __ __ __ __
 72
    65
 73
     2
 40
3.500000
 49
2.500000
 49
-1.000000
  0
LTYPE
  2
DASHED3
 70
    64
  3
__ __ __ __ __ __ __ __ __ __ __ __ __ __ __
 72
    65
 73
     2
 40
6.000000
 49
4.000000
 49
-2.000000
  0
LTYPE
  2
DASHED4
 70
    64
  3
__ __ __ __ __ __ __ __ __ __ __ __ __ __ __
 72
    65
 73
     2
 40
12.000000
 49
10.000000
 49
-2.000000
  0
LTYPE
  2
DASHED5
 70
    64
  3
__ __ __ __ __ __ __ __ __ __ __ __ __ __ __
 72
    65
 73
     2
 40
17.000000
 49
15.000000
 49
-2.000000
  0
LTYPE
  2
DASHED6
 70
    64
  3
__ __ __ __ __ __ __ __ __ __ __ __ __ __ __
 72
    65
 73
     2
 40
29.000000
 49
27.000000
 49
-2.000000
  0
LTYPE
  2
PHANTOM1
 70
    64
  3
_____ _ _ _____ _ _ _____ _ _ _____ _ _ ____  
 72
    65
 73
     6
 40
31.000000
 49
25.000000
 49
-1.500000
 49
1.000000
 49
-1.000000
 49
1.000000
 49
-1.500000
  0
LTYPE
  2
PHANTOM2
 70
    64
  3
_____ _ _ _____ _ _ _____ _ _ _____ _ _ ____  
 72
    65
 73
     6
 40
36.000000
 49
27.000000
 49
-1.500000
 49
2.500000
 49
-1.000000
 49
2.500000
 49
-1.500000
  0
LTYPE
  2
PHANTOM3
 70
    64
  3
_____ _ _ _____ _ _ _____ _ _ _____ _ _ ____  
 72
    65
 73
     6
 40
78.000000
 49
64.000000
 49
-2.000000
 49
4.000000
 49
-2.000000
 49
4.000000
 49
-2.000000
  0
LTYPE
  2
CENTER1
 70
    64
  3
____ _ ____ _ ____ _ ____ _ ____ _ ____ _ ____
 72
    65
 73
     4
 40
19.000000
 49
14.000000
 49
-1.000000
 49
3.000000
 49
-1.000000
  0
LTYPE
  2
CENTER2
 70
    64
  3
____ _ ____ _ ____ _ ____ _ ____ _ ____ _ ____
 72
    65
 73
     4
 40
28.500000
 49
25.000000
 49
-1.000000
 49
1.500000
 49
-1.000000
  0
LTYPE
  2
CENTER3
 70
    64
  3
____ _ ____ _ ____ _ ____ _ ____ _ ____ _ ____
 72
    65
 73
     4
 40
31.500000
 49
27.000000
 49
-1.000000
 49
2.500000
 49
-1.000000
  0
LTYPE
  2
CENTER4
 70
    64
  3
____ _ ____ _ ____ _ ____ _ ____ _ ____ _ ____
 72
    65
 73
     4
 40
50.000000
 49
45.000000
 49
-1.000000
 49
3.000000
 49
-1.000000
  0
LTYPE
  2
CENTER5
 70
    64
  3
____ _ ____ _ ____ _ ____ _ ____ _ ____ _ ____
 72
    65
 73
     4
 40
100.000000
 49
92.000000
 49
-2.000000
 49
4.000000
 49
-2.000000
  0
LTYPE
  2
SBK1
 70
    64
  3
______ _ _ _ ______ _ _ _ ______ _ _ _ _____  
 72
    65
 73
     8
 40
60.500000
 49
45.000000
 49
-2.000000
 49
2.500000
 49
-2.000000
 49
2.500000
 49
-2.000000
 49
2.500000
 49
-2.000000
  0
LTYPE
  2
SBK2
 70
    64
  3
______ _ _ _ ______ _ _ _ ______ _ _ _ _____  
 72
    65
 73
     8
 40
84.000000
 49
64.000000
 49
-2.000000
 49
4.000000
 49
-2.000000
 49
4.000000
 49
-2.000000
 49
4.000000
 49
-2.000000
  0
LTYPE
  2
STCH
 70
    64
  3
__ __ __ __ __ __ __ __ __ __ __ __ __ __ __
 72
    65
 73
     2
 40
3.000000
 49
1.000000
 49
-2.000000
  0
LTYPE
  2
MTCH
 70
    64
  3
_____ _ _ _____ _ _ _____ _ _ _____ _ _ ____  
 72
    65
 73
     6
 40
80.000000
 49
66.000000
 49
-2.000000
 49
4.000000
 49
-2.000000
 49
4.000000
 49
-2.000000
  0
ENDTAB
  0
TABLE
  2
LAYER
 70
     1
  0
LAYER
  2
0
 70
     0
 62
     7
  6
CONTINUOUS
  0
ENDTAB
  0
TABLE
  2
STYLE
 70
     1
  0
STYLE
  2
STANDARD
 70
     0
 40
0.000000
 41
1.000000
 50
0.000000
 71
     0
 42
0.200000
  3
txt
  4
BIGFONT
  0
ENDTAB
  0
TABLE
  2
VIEW
 70
     0
  0
ENDTAB
  0
ENDSEC
  0
SECTION
  2
BLOCKS
  0
ENDSEC
  0
SECTION
  2
ENTITIES
  0
LINE
  8
0
 10
-181.250000
 20
195.500000
 11
-181.250000
 21
180.500000
  0
LINE
  8
0
 10
182.099976
 20
195.500000
 11
182.099976
 21
180.500000
  0
LINE
  8
0
 10
-281.250000
 20
180.500000
 11
-181.250000
 21
180.500000
  0
LINE
  8
0
 10
182.099976
 20
-175.000000
 11
182.099976
 21
-195.000000
  0
LINE
  8
0
 10
182.099976
 20
180.500000
 11
282.099976
 21
180.500000
  0
LINE
  8
0
 10
182.099976
 20
-175.000000
 11
282.099976
 21
-175.000000
  0
LINE
  8
0
 10
-281.250000
 20
-64.833344
 11
282.099976
 21
-64.833344
  0
LINE
  8
0
 10
-281.250000
 20
-185.000000
 11
182.099976
 21
-185.000000
  0
LINE
  8
0
 10
-297.000000
 20
210.000000
 11
297.000000
 21
210.000000
  0
LINE
  8
0
 10
-297.000000
 20
-210.000000
 11
297.000000
 21
-210.000000
  0
LINE
  8
0
 10
297.000000
 20
210.000000
 11
297.000000
 21
-210.000000
  0
LINE
  8
0
 10
-297.000000
 20
210.000000
 11
-297.000000
 21
-210.000000
  0
LINE
  8
0
 10
-281.250000
 20
195.500000
 11
282.099976
 21
195.500000
  0
LINE
  8
0
 10
-281.250000
 20
195.500000
 11
-281.250000
 21
-195.000000
  0
LINE
  8
0
 10
282.099976
 20
195.500000
 11
282.099976
 21
-195.000000
  0
LINE
  8
0
 10
-281.250000
 20
-195.000000
 11
282.099976
 21
-195.000000
  0
LINE
  8
0
 10
-281.250000
 20
-54.833344
 11
282.099976
 21
-54.833344
  0
LINE
  8
0
 10
-281.250000
 20
75.333328
 11
282.099976
 21
75.333328
  0
LINE
  8
0
 10
-281.250000
 20
65.333328
 11
282.099976
 21
65.333328
  0
LINE
  8
0
 10
0.424988
 20
-195.000000
 11
0.424988
 21
195.500000
  0
TEXT
  8
0
 10
188.021667
 20
183.779999
 40
5.800000
  1
DATE: MAY ,1992
 50
0.000000
 41
1.052632
 51
0.000000
  7
STANDARD
  0
TEXT
  8
0
 10
178.000870
 20
-190.300003
 40
7.000000
  1
ＫＯＧＡＮＥＩ，ＣＯＲＰ．
 50
0.000000
 41
0.902367
 51
15.000000
  7
STANDARD
  0
TEXT
  8
0
 10
-276.000000
 20
-61.833344
 40
5.000000
  1
MODEL:FVA10-04
 50
0.000000
 41
1.052632
 51
0.000000
  7
STANDARD
  0
TEXT
  8
0
 10
5.674988
 20
-192.000015
 40
5.000000
  1
MODEL:FVA12-04
 50
0.000000
 41
1.052632
 51
0.000000
  7
STANDARD
  0
TEXT
  8
0
 10
-279.571136
 20
182.880005
 40
6.800000
  1
HAND VALVE,FVA
 50
0.000000
 41
1.052632
 51
0.000000
  7
STANDARD
  0
TEXT
  8
0
 10
-276.000000
 20
68.333328
 40
5.000000
  1
MODEL:FVA10-02
 50
0.000000
 41
1.052632
 51
0.000000
  7
STANDARD
  0
TEXT
  8
0
 10
5.674988
 20
68.333328
 40
5.000000
  1
MODEL:FVA10-03
 50
0.000000
 41
1.052632
 51
0.000000
  7
STANDARD
  0
TEXT
  8
0
 10
5.674988
 20
-61.833344
 40
5.000000
  1
MODEL:FVA12-02
 50
0.000000
 41
1.052632
 51
0.000000
  7
STANDARD
  0
TEXT
  8
0
 10
-276.000000
 20
-192.000015
 40
5.000000
  1
MODEL:FVA12-03
 50
0.000000
 41
1.052632
 51
0.000000
  7
STANDARD
  0
POINT
  8
0
 10
-113.844620
 20
97.465874
  0
POINT
  8
0
 10
-98.844620
 20
97.465874
  0
LINE
  8
0
  6
CENTER
 10
-150.344620
 20
129.422836
 11
-150.344604
 21
85.235779
  0
LINE
  8
0
 10
-167.344620
 20
86.965866
 11
-133.344620
 21
86.965866
  0
LINE
  8
0
 10
-133.344620
 20
107.965866
 11
-133.344620
 21
86.965866
  0
LINE
  8
0
 10
-134.880524
 20
107.965866
 11
-133.344620
 21
107.965866
  0
LINE
  8
0
  6
CENTER
 10
-138.344620
 20
111.433426
 11
-138.344620
 21
103.542557
  0
LINE
  8
0
  6
CENTER
 10
-187.032471
 20
97.465858
 11
-103.397682
 21
97.465874
  0
LINE
  8
0
  6
CENTER
 10
-141.738419
 20
108.465866
 11
-133.344620
 21
108.465866
  0
LINE
  8
0
 10
-137.844620
 20
112.465866
 11
-137.844620
 21
111.929962
  0
LINE
  8
0
 10
-135.844620
 20
106.016373
 11
-135.844620
 21
89.465866
  0
LINE
  8
0
 10
-164.844620
 20
89.465866
 11
-135.844620
 21
89.465866
  0
LINE
  8
0
 10
-167.344620
 20
107.965866
 11
-167.344620
 21
86.965866
  0
LINE
  8
0
 10
-137.844620
 20
112.465866
 11
-162.844620
 21
112.465866
  0
LINE
  8
0
 10
-165.808716
 20
107.965866
 11
-167.344620
 21
107.965866
  0
LINE
  8
0
  6
CENTER
 10
-162.344620
 20
111.433426
 11
-162.344620
 21
103.542557
  0
LINE
  8
0
  6
CENTER
 10
-158.950806
 20
108.465866
 11
-167.344620
 21
108.465866
  0
LINE
  8
0
 10
-162.844620
 20
112.465866
 11
-162.844620
 21
111.929962
  0
LINE
  8
0
 10
-137.844620
 20
111.929962
 11
-162.844620
 21
111.929962
  0
LINE
  8
0
 10
-164.844620
 20
106.016373
 11
-164.844620
 21
89.465866
  0
LINE
  8
0
 10
-141.489609
 20
106.929962
 11
-159.199615
 21
106.929962
  0
LINE
  8
0
 10
-140.594620
 20
126.965866
 11
-140.594620
 21
112.465866
  0
LINE
  8
0
 10
-141.594620
 20
127.965866
 11
-159.094620
 21
127.965866
  0
LINE
  8
0
 10
-160.094620
 20
126.965866
 11
-160.094620
 21
112.465866
  0
LINE
  8
0
 10
-140.594620
 20
117.965866
 11
-160.094620
 21
117.965866
  0
LINE
  8
0
 10
-124.844620
 20
105.965874
 11
-124.844620
 21
97.465874
  0
LINE
  8
0
 10
-133.344620
 20
105.715866
 11
-124.844620
 21
105.715874
  0
LINE
  8
0
 10
-133.344620
 20
89.215866
 11
-124.844612
 21
89.215874
  0
LINE
  8
0
 10
-118.844620
 20
105.965874
 11
-118.844620
 21
97.465874
  0
LINE
  8
0
 10
-124.844620
 20
105.965866
 11
-124.496284
 21
107.265869
  0
LINE
  8
0
 10
-119.192947
 20
107.265877
 11
-118.844620
 21
105.965881
  0
LINE
  8
0
 10
-124.496284
 20
107.265877
 11
-119.192947
 21
107.265877
  0
LINE
  8
0
 10
-124.844620
 20
102.465874
 11
-118.844620
 21
102.465874
  0
LINE
  8
0
 10
-124.844612
 20
88.965874
 11
-124.844620
 21
97.465874
  0
LINE
  8
0
 10
-124.844612
 20
92.465874
 11
-118.844620
 21
92.465874
  0
LINE
  8
0
 10
-118.844620
 20
88.965874
 11
-118.844620
 21
97.465874
  0
LINE
  8
0
 10
-119.192947
 20
87.665863
 11
-118.844612
 21
88.965866
  0
LINE
  8
0
 10
-124.496284
 20
87.665871
 11
-119.192947
 21
87.665871
  0
LINE
  8
0
 10
-124.844604
 20
88.965866
 11
-124.496277
 21
87.665871
  0
LINE
  8
0
 10
-118.844620
 20
104.195908
 11
-108.704208
 21
103.882484
  0
LINE
  8
0
 10
-118.612144
 20
103.328316
 11
-107.871185
 21
102.996323
  0
LINE
  8
0
 10
-108.704208
 20
103.882446
 11
-107.844620
 21
102.968018
  0
LINE
  8
0
 10
-118.844620
 20
104.195869
 11
-118.612144
 21
103.328270
  0
LINE
  8
0
 10
-107.844620
 20
91.963730
 11
-107.844620
 21
102.968025
  0
LINE
  8
0
 10
-118.844612
 20
90.735878
 11
-118.612144
 21
91.603462
  0
LINE
  8
0
 10
-118.844612
 20
90.735886
 11
-108.704201
 21
91.049324
  0
LINE
  8
0
 10
-118.612144
 20
91.603455
 11
-107.871185
 21
91.935455
  0
LINE
  8
0
 10
-108.704193
 20
91.049301
 11
-107.844612
 21
91.963715
  0
LINE
  8
0
 10
-118.612144
 20
103.328270
 11
-118.612144
 21
91.603470
  0
LINE
  8
0
 10
-108.704201
 20
103.882439
 11
-108.704201
 21
91.049301
  0
LINE
  8
0
 10
-177.444611
 20
106.415863
 11
-167.344620
 21
106.415863
  0
LINE
  8
0
 10
-177.444611
 20
106.415863
 11
-177.444611
 21
88.515869
  0
LINE
  8
0
 10
-177.444611
 20
105.965866
 11
-179.344620
 21
105.965866
  0
LINE
  8
0
 10
-179.344620
 20
103.465866
 11
-180.544617
 21
103.465866
  0
LINE
  8
0
 10
-180.544617
 20
105.865860
 11
-182.744614
 21
105.865852
  0
LINE
  8
0
 10
-182.744614
 20
89.065865
 11
-182.744614
 21
105.865852
  0
LINE
  8
0
 10
-179.344620
 20
88.965866
 11
-179.344620
 21
105.965866
  0
LINE
  8
0
 10
-180.544617
 20
89.065872
 11
-180.544617
 21
105.865860
  0
LINE
  8
0
 10
-177.444611
 20
88.965866
 11
-179.344620
 21
88.965866
  0
LINE
  8
0
 10
-179.344620
 20
91.465866
 11
-180.544617
 21
91.465866
  0
LINE
  8
0
 10
-180.544617
 20
89.065872
 11
-182.744614
 21
89.065865
  0
LINE
  8
0
 10
-177.444611
 20
88.515869
 11
-167.344620
 21
88.515869
  0
LINE
  8
0
  6
CENTER
 10
-113.844620
 20
89.065880
 11
-113.844620
 21
105.865868
  0
CIRCLE
  8
0
 10
-138.344620
 20
108.465866
 40
2.100000
  0
ARC
  8
0
 10
-138.344620
 20
108.465866
 40
3.499995
 50
351.786774
 51
81.786797
  0
ARC
  8
0
 10
-138.344620
 20
108.465866
 40
3.500004
 50
206.029068
 51
315.584747
  0
CIRCLE
  8
0
 10
-162.344620
 20
108.465866
 40
2.100000
  0
ARC
  8
0
 10
-162.344620
 20
108.465866
 40
3.500002
 50
98.213203
 51
188.213226
  0
ARC
  8
0
 10
-162.344620
 20
108.465866
 40
3.500003
 50
224.415344
 51
333.970947
  0
ARC
  8
0
 10
-159.094620
 20
126.965866
 40
1.000000
 50
90.000000
 51
180.000000
  0
ARC
  8
0
 10
-141.594620
 20
126.965866
 40
1.000000
 50
0.000000
 51
90.000000
  0
POINT
  8
0
 10
-48.945404
 20
97.465874
  0
POINT
  8
0
 10
-38.445404
 20
97.465874
  0
LINE
  8
0
  6
CENTER
 10
-48.945404
 20
128.492920
 11
-48.945404
 21
84.933426
  0
LINE
  8
0
 10
-38.445404
 20
112.465874
 11
-38.445404
 21
86.965874
  0
LINE
  8
0
 10
-38.445404
 20
86.965874
 11
-59.445404
 21
86.965874
  0
LINE
  8
0
 10
-59.445404
 20
112.465874
 11
-59.445404
 21
86.965874
  0
LINE
  8
0
 10
-38.445404
 20
112.465874
 11
-59.445404
 21
112.465874
  0
LINE
  8
0
 10
-38.445404
 20
107.965874
 11
-59.445404
 21
107.965874
  0
LINE
  8
0
  6
CENTER
 10
-33.562775
 20
97.465874
 11
-60.735962
 21
97.465874
  0
LINE
  8
0
 10
-40.445404
 20
102.373344
 11
-40.445404
 21
92.558395
  0
LINE
  8
0
 10
-40.445427
 20
102.373322
 11
-48.945427
 21
107.265846
  0
LINE
  8
0
 10
-48.945408
 20
87.665871
 11
-40.445400
 21
92.558395
  0
LINE
  8
0
 10
-57.445400
 20
102.373337
 11
-48.945404
 21
107.265854
  0
LINE
  8
0
 10
-57.445404
 20
102.373344
 11
-57.445404
 21
92.558395
  0
LINE
  8
0
 10
-48.945393
 20
87.665863
 11
-57.445393
 21
92.558388
  0
LINE
  8
0
 10
-39.195404
 20
117.465874
 11
-39.195404
 21
112.465874
  0
LINE
  8
0
 10
-46.445404
 20
127.465874
 11
-46.445404
 21
117.965874
  0
LINE
  8
0
 10
-39.695404
 20
117.965874
 11
-58.195404
 21
117.965874
  0
LINE
  8
0
 10
-58.695404
 20
117.465874
 11
-58.695404
 21
112.465874
  0
LINE
  8
0
 10
-51.445404
 20
127.465874
 11
-51.445404
 21
117.965874
  0
LINE
  8
0
 10
-46.945404
 20
127.965874
 11
-50.945404
 21
127.965874
  0
CIRCLE
  8
0
 10
-48.945404
 20
97.465874
 40
4.000000
  0
CIRCLE
  8
0
 10
-48.945404
 20
97.465874
 40
6.390000
  0
CIRCLE
  8
0
 10
-48.945404
 20
97.465874
 40
6.730000
  0
ARC
  8
0
 10
-39.695404
 20
117.465874
 40
0.500000
 50
0.000000
 51
90.000000
  0
ARC
  8
0
 10
-46.945404
 20
127.465874
 40
0.500000
 50
0.000000
 51
90.000000
  0
ARC
  8
0
 10
-58.195404
 20
117.465874
 40
0.500000
 50
90.000000
 51
180.000000
  0
ARC
  8
0
 10
-50.945404
 20
127.465874
 40
0.500000
 50
90.000000
 51
180.000000
  0
POINT
  8
0
 10
-228.063889
 20
97.465866
  0
POINT
  8
0
 10
-238.563889
 20
97.465866
  0
LINE
  8
0
  6
CENTER
 10
-238.563889
 20
128.492920
 11
-238.563889
 21
84.933418
  0
LINE
  8
0
 10
-228.063889
 20
112.465874
 11
-228.063889
 21
86.965866
  0
LINE
  8
0
 10
-228.063889
 20
86.965866
 11
-249.063889
 21
86.965866
  0
LINE
  8
0
 10
-249.063889
 20
112.465874
 11
-249.063889
 21
86.965866
  0
LINE
  8
0
 10
-228.063889
 20
112.465874
 11
-249.063889
 21
112.465874
  0
LINE
  8
0
 10
-228.063889
 20
107.965874
 11
-249.063889
 21
107.965874
  0
LINE
  8
0
  6
CENTER
 10
-223.538422
 20
97.465866
 11
-250.354446
 21
97.465866
  0
LINE
  8
0
 10
-228.813889
 20
117.465874
 11
-228.813889
 21
112.465874
  0
LINE
  8
0
 10
-236.063889
 20
127.465874
 11
-236.063889
 21
117.965874
  0
LINE
  8
0
 10
-229.313889
 20
117.965874
 11
-247.813889
 21
117.965874
  0
LINE
  8
0
 10
-248.313889
 20
117.465874
 11
-248.313889
 21
112.465874
  0
LINE
  8
0
 10
-241.063889
 20
127.465874
 11
-241.063889
 21
117.965874
  0
LINE
  8
0
 10
-236.563889
 20
127.965874
 11
-240.563889
 21
127.965874
  0
ARC
  8
0
 10
-229.313889
 20
117.465874
 40
0.500000
 50
0.000000
 51
90.000000
  0
ARC
  8
0
 10
-236.563889
 20
127.465874
 40
0.500000
 50
0.000000
 51
90.000000
  0
ARC
  8
0
 10
-247.813889
 20
117.465874
 40
0.500000
 50
90.000000
 51
180.000000
  0
ARC
  8
0
 10
-240.563889
 20
127.465874
 40
0.500000
 50
90.000000
 51
180.000000
  0
CIRCLE
  8
0
 10
-238.563889
 20
97.465866
 40
8.400000
  0
CIRCLE
  8
0
 10
-238.563889
 20
97.465866
 40
5.100000
  0
CIRCLE
  8
0
 10
-238.563889
 20
97.465866
 40
8.950000
  0
POINT
  8
0
 10
-113.844620
 20
162.465881
  0
POINT
  8
0
 10
-98.844620
 20
162.465881
  0
LINE
  8
0
  6
CENTER
 10
-184.673325
 20
162.465866
 11
-106.204994
 21
162.465881
  0
LINE
  8
0
  6
CENTER
 10
-150.344620
 20
174.773804
 11
-150.344620
 21
150.087585
  0
LINE
  8
0
 10
-167.344620
 20
151.965866
 11
-133.344620
 21
151.965881
  0
LINE
  8
0
 10
-167.344620
 20
172.965866
 11
-133.344620
 21
172.965881
  0
LINE
  8
0
 10
-167.344620
 20
172.965866
 11
-167.344620
 21
151.965866
  0
LINE
  8
0
 10
-133.344620
 20
172.965881
 11
-133.344620
 21
151.965881
  0
LINE
  8
0
 10
-141.111526
 20
167.465881
 11
-138.888184
 21
167.465881
  0
LINE
  8
0
 10
-141.111526
 20
157.465881
 11
-138.888184
 21
157.465881
  0
LINE
  8
0
 10
-161.801056
 20
157.465866
 11
-159.577713
 21
157.465866
  0
LINE
  8
0
 10
-161.801056
 20
167.465866
 11
-159.577713
 21
167.465866
  0
LINE
  8
0
 10
-159.375824
 20
159.965866
 11
-141.313416
 21
159.965881
  0
LINE
  8
0
 10
-159.375824
 20
164.965866
 11
-141.313416
 21
164.965881
  0
LINE
  8
0
 10
-158.344620
 20
161.615860
 11
-142.344620
 21
161.615875
  0
LINE
  8
0
 10
-158.344620
 20
163.315872
 11
-142.344620
 21
163.315887
  0
LINE
  8
0
 10
-158.344620
 20
163.315872
 11
-158.344620
 21
161.615860
  0
LINE
  8
0
 10
-142.344620
 20
163.315887
 11
-142.344620
 21
161.615875
  0
LINE
  8
0
 10
-133.344620
 20
170.715881
 11
-124.844620
 21
170.715881
  0
LINE
  8
0
 10
-133.344620
 20
154.215881
 11
-124.844620
 21
154.215881
  0
LINE
  8
0
 10
-124.844620
 20
153.965881
 11
-124.844620
 21
170.965881
  0
LINE
  8
0
 10
-118.844620
 20
153.965881
 11
-118.844620
 21
170.965881
  0
LINE
  8
0
 10
-118.844620
 20
169.195923
 11
-108.704201
 21
168.882492
  0
LINE
  8
0
 10
-118.612152
 20
168.328323
 11
-107.871185
 21
167.996323
  0
LINE
  8
0
 10
-108.704224
 20
168.882462
 11
-107.844627
 21
167.968033
  0
LINE
  8
0
 10
-118.844612
 20
169.195862
 11
-118.612137
 21
168.328278
  0
LINE
  8
0
 10
-107.844620
 20
156.963745
 11
-107.844620
 21
167.968033
  0
LINE
  8
0
 10
-118.844620
 20
155.735886
 11
-118.612152
 21
156.603470
  0
LINE
  8
0
 10
-118.844620
 20
155.735901
 11
-108.704208
 21
156.049332
  0
LINE
  8
0
 10
-118.612137
 20
156.603455
 11
-107.871185
 21
156.935455
  0
LINE
  8
0
 10
-108.704208
 20
156.049301
 11
-107.844620
 21
156.963730
  0
LINE
  8
0
 10
-118.612152
 20
168.328278
 11
-118.612152
 21
156.603485
  0
LINE
  8
0
 10
-108.704208
 20
168.882446
 11
-108.704208
 21
156.049316
  0
LINE
  8
0
 10
-180.544617
 20
154.065872
 11
-182.744614
 21
154.065872
  0
LINE
  8
0
 10
-177.444611
 20
171.215866
 11
-177.444611
 21
153.715866
  0
LINE
  8
0
 10
-167.344620
 20
171.215866
 11
-177.444611
 21
171.215866
  0
LINE
  8
0
 10
-167.344620
 20
153.715866
 11
-177.444611
 21
153.715866
  0
LINE
  8
0
 10
-177.444611
 20
170.965866
 11
-179.344620
 21
170.965866
  0
LINE
  8
0
 10
-179.344620
 20
168.465866
 11
-180.544617
 21
168.465866
  0
LINE
  8
0
 10
-180.544617
 20
170.865860
 11
-182.744614
 21
170.865860
  0
LINE
  8
0
 10
-182.744614
 20
154.065872
 11
-182.744614
 21
170.865860
  0
LINE
  8
0
 10
-179.344620
 20
153.965866
 11
-179.344620
 21
170.965866
  0
LINE
  8
0
 10
-180.544617
 20
154.065872
 11
-180.544617
 21
170.865860
  0
LINE
  8
0
 10
-177.444611
 20
153.965866
 11
-179.344620
 21
153.965866
  0
LINE
  8
0
 10
-179.344620
 20
156.465866
 11
-180.544617
 21
156.465866
  0
LINE
  8
0
  6
CENTER
 10
-113.844620
 20
154.065887
 11
-113.844620
 21
170.865875
  0
LINE
  8
0
 10
-124.844620
 20
153.965881
 11
-118.844620
 21
153.965881
  0
LINE
  8
0
 10
-124.844620
 20
170.965881
 11
-118.844620
 21
170.965881
  0
LINE
  8
0
 10
-124.844620
 20
162.465881
 11
-118.844620
 21
162.465881
  0
ARC
  8
0
 10
-150.344620
 20
162.465881
 40
12.500000
 50
0.000000
 51
23.578184
  0
CIRCLE
  8
0
 10
-150.344620
 20
162.465881
 40
10.500000
  0
ARC
  8
0
 10
-150.344620
 20
162.465881
 40
12.499991
 50
156.421875
 51
203.578186
  0
ARC
  8
0
 10
-150.344620
 20
162.465881
 40
12.499997
 50
336.421814
 51
0.000000
  0
ARC
  8
0
 10
-141.313416
 20
164.465881
 40
0.499987
 50
12.487272
 51
90.000000
  0
ARC
  8
0
 10
-159.375824
 20
164.465866
 40
0.500000
 50
90.000000
 51
167.512726
  0
ARC
  8
0
 10
-141.313416
 20
160.465881
 40
0.500000
 50
270.000000
 51
347.512726
  0
ARC
  8
0
 10
-159.375824
 20
160.465866
 40
0.499984
 50
192.485565
 51
270.000000
  0
ARC
  8
0
 10
-150.344620
 20
162.465881
 40
9.750000
 50
0.000000
 51
359.464569
  0
POINT
  8
0
 10
153.527878
 20
97.465866
  0
POINT
  8
0
 10
168.527878
 20
97.465866
  0
LINE
  8
0
  6
CENTER
 10
116.527878
 20
129.422836
 11
116.527878
 21
85.235771
  0
LINE
  8
0
 10
133.527878
 20
107.965866
 11
133.527878
 21
86.965866
  0
LINE
  8
0
 10
131.991974
 20
107.965866
 11
133.527878
 21
107.965866
  0
LINE
  8
0
  6
CENTER
 10
128.527878
 20
111.433411
 11
128.527878
 21
103.542557
  0
LINE
  8
0
  6
CENTER
 10
125.134071
 20
108.465858
 11
133.527878
 21
108.465866
  0
LINE
  8
0
 10
129.027878
 20
112.465866
 11
129.027878
 21
111.929962
  0
LINE
  8
0
 10
131.027878
 20
106.016373
 11
131.027878
 21
89.465866
  0
LINE
  8
0
 10
133.527878
 20
86.965866
 11
99.527878
 21
86.965858
  0
LINE
  8
0
 10
99.527878
 20
107.965858
 11
99.527878
 21
86.965858
  0
LINE
  8
0
 10
129.027878
 20
112.465866
 11
104.027878
 21
112.465858
  0
LINE
  8
0
 10
101.063782
 20
107.965858
 11
99.527878
 21
107.965858
  0
LINE
  8
0
  6
CENTER
 10
104.527878
 20
111.433411
 11
104.527878
 21
103.542557
  0
LINE
  8
0
  6
CENTER
 10
107.921677
 20
108.465858
 11
99.527878
 21
108.465858
  0
LINE
  8
0
 10
104.027878
 20
112.465858
 11
104.027878
 21
111.929962
  0
LINE
  8
0
 10
129.027878
 20
111.929962
 11
104.027878
 21
111.929962
  0
LINE
  8
0
 10
102.027878
 20
106.016365
 11
102.027878
 21
89.465858
  0
LINE
  8
0
 10
131.027878
 20
89.465866
 11
102.027878
 21
89.465858
  0
LINE
  8
0
 10
125.382874
 20
106.929962
 11
107.672882
 21
106.929962
  0
LINE
  8
0
 10
126.277870
 20
126.965866
 11
126.277878
 21
112.465858
  0
LINE
  8
0
 10
125.277870
 20
127.965858
 11
107.777878
 21
127.965858
  0
LINE
  8
0
 10
106.777878
 20
126.965858
 11
106.777878
 21
112.465858
  0
LINE
  8
0
 10
126.277878
 20
117.965866
 11
106.777878
 21
117.965858
  0
LINE
  8
0
 10
133.527878
 20
105.715858
 11
142.027878
 21
105.715858
  0
LINE
  8
0
 10
133.527878
 20
89.215866
 11
142.027878
 21
89.215866
  0
LINE
  8
0
 10
142.027878
 20
89.065865
 11
142.027878
 21
105.865829
  0
LINE
  8
0
 10
148.027878
 20
88.958366
 11
148.027878
 21
105.973366
  0
LINE
  8
0
 10
142.403015
 20
87.665863
 11
147.681549
 21
87.665863
  0
LINE
  8
0
 10
142.027878
 20
89.065865
 11
142.403015
 21
87.665863
  0
LINE
  8
0
 10
160.027878
 20
90.200890
 11
160.027878
 21
104.730850
  0
LINE
  8
0
 10
148.027893
 20
88.958374
 11
159.188293
 21
89.307137
  0
LINE
  8
0
 10
148.254974
 20
89.805878
 11
160.001648
 21
90.172958
  0
LINE
  8
0
 10
159.188278
 20
89.307129
 11
160.027878
 21
90.200890
  0
LINE
  8
0
 10
148.027863
 20
88.958366
 11
148.254959
 21
89.805878
  0
LINE
  8
0
 10
148.254959
 20
105.125854
 11
148.254974
 21
89.805870
  0
LINE
  8
0
 10
142.403000
 20
107.265862
 11
147.681549
 21
107.265862
  0
LINE
  8
0
 10
142.027878
 20
105.865860
 11
142.403015
 21
107.265862
  0
LINE
  8
0
 10
148.027878
 20
105.973366
 11
159.188278
 21
105.624603
  0
LINE
  8
0
 10
148.254959
 20
105.125854
 11
160.001633
 21
104.758774
  0
LINE
  8
0
 10
159.188278
 20
105.624596
 11
160.027863
 21
104.730835
  0
LINE
  8
0
 10
148.027893
 20
105.973373
 11
148.254990
 21
105.125862
  0
LINE
  8
0
 10
142.027878
 20
92.465866
 11
148.027878
 21
92.465866
  0
LINE
  8
0
 10
142.027878
 20
102.465866
 11
148.027878
 21
102.465866
  0
LINE
  8
0
 10
159.188278
 20
105.624603
 11
159.188278
 21
89.307129
  0
LINE
  8
0
 10
89.427872
 20
106.415848
 11
99.527878
 21
106.415848
  0
LINE
  8
0
 10
89.427872
 20
106.415848
 11
89.427872
 21
88.515854
  0
LINE
  8
0
 10
89.427872
 20
105.965851
 11
87.527878
 21
105.965851
  0
LINE
  8
0
 10
87.527878
 20
103.465851
 11
86.327881
 21
103.465851
  0
LINE
  8
0
 10
86.327881
 20
105.865845
 11
84.127876
 21
105.865845
  0
LINE
  8
0
 10
84.127876
 20
89.065857
 11
84.127876
 21
105.865845
  0
LINE
  8
0
 10
87.527878
 20
88.965851
 11
87.527878
 21
105.965851
  0
LINE
  8
0
 10
86.327881
 20
89.065857
 11
86.327881
 21
105.865845
  0
LINE
  8
0
 10
89.427872
 20
88.965851
 11
87.527878
 21
88.965851
  0
LINE
  8
0
 10
87.527878
 20
91.465851
 11
86.327881
 21
91.465851
  0
LINE
  8
0
 10
86.327881
 20
89.065857
 11
84.127876
 21
89.065857
  0
LINE
  8
0
 10
89.427872
 20
88.515854
 11
99.527878
 21
88.515854
  0
LINE
  8
0
  6
CENTER
 10
77.192566
 20
97.465851
 11
163.186630
 21
97.465866
  0
LINE
  8
0
  6
CENTER
 10
153.527878
 20
84.750351
 11
153.527878
 21
109.526466
  0
LINE
  8
0
 10
147.681549
 20
107.265862
 11
148.054749
 21
105.873062
  0
LINE
  8
0
 10
147.681549
 20
87.665863
 11
148.054749
 21
89.058662
  0
CIRCLE
  8
0
 10
128.527878
 20
108.465858
 40
2.100000
  0
ARC
  8
0
 10
128.527878
 20
108.465858
 40
3.499993
 50
351.786896
 51
81.786797
  0
ARC
  8
0
 10
128.527878
 20
108.465858
 40
3.500004
 50
206.029068
 51
315.584747
  0
CIRCLE
  8
0
 10
104.527878
 20
108.465858
 40
2.100000
  0
ARC
  8
0
 10
104.527878
 20
108.465858
 40
3.500002
 50
98.213203
 51
188.213211
  0
ARC
  8
0
 10
104.527878
 20
108.465858
 40
3.499997
 50
224.415268
 51
333.970886
  0
ARC
  8
0
 10
107.777878
 20
126.965858
 40
1.000000
 50
90.000000
 51
180.000000
  0
ARC
  8
0
 10
125.277870
 20
126.965858
 40
1.000000
 50
0.000437
 51
90.000000
  0
POINT
  8
0
 10
212.927078
 20
97.465881
  0
POINT
  8
0
 10
223.427078
 20
97.465881
  0
LINE
  8
0
  6
CENTER
 10
212.927078
 20
128.492920
 11
212.927078
 21
84.933434
  0
LINE
  8
0
 10
223.427078
 20
112.465881
 11
223.427078
 21
86.965881
  0
LINE
  8
0
 10
223.427078
 20
86.965881
 11
202.427078
 21
86.965881
  0
LINE
  8
0
 10
202.427078
 20
112.465881
 11
202.427078
 21
86.965881
  0
LINE
  8
0
 10
223.427078
 20
112.465881
 11
202.427078
 21
112.465881
  0
LINE
  8
0
 10
223.427078
 20
107.965881
 11
202.427078
 21
107.965881
  0
LINE
  8
0
  6
CENTER
 10
228.182922
 20
97.465881
 11
201.136520
 21
97.465881
  0
LINE
  8
0
 10
222.677078
 20
117.465881
 11
222.677078
 21
112.465881
  0
LINE
  8
0
 10
215.427078
 20
127.465881
 11
215.427078
 21
117.965881
  0
LINE
  8
0
 10
222.177078
 20
117.965881
 11
203.677078
 21
117.965881
  0
LINE
  8
0
 10
203.177078
 20
117.465881
 11
203.177078
 21
112.465881
  0
LINE
  8
0
 10
210.427078
 20
127.465881
 11
210.427078
 21
117.965881
  0
LINE
  8
0
 10
214.927078
 20
127.965881
 11
210.927078
 21
127.965881
  0
LINE
  8
0
 10
221.427078
 20
102.373360
 11
221.427078
 21
92.558403
  0
LINE
  8
0
 10
212.927094
 20
87.665878
 11
221.427094
 21
92.558403
  0
LINE
  8
0
 10
221.427078
 20
102.373360
 11
212.927094
 21
107.265884
  0
LINE
  8
0
 10
204.427078
 20
102.373352
 11
212.927078
 21
107.265877
  0
LINE
  8
0
 10
204.427078
 20
102.373360
 11
204.427078
 21
92.558403
  0
LINE
  8
0
 10
212.927063
 20
87.665886
 11
204.427078
 21
92.558411
  0
ARC
  8
0
 10
222.177078
 20
117.465881
 40
0.500000
 50
0.000000
 51
90.000000
  0
ARC
  8
0
 10
214.927078
 20
127.465881
 40
0.500000
 50
0.000000
 51
90.000000
  0
ARC
  8
0
 10
203.677078
 20
117.465881
 40
0.500000
 50
90.000000
 51
180.000000
  0
ARC
  8
0
 10
210.927078
 20
127.465881
 40
0.500000
 50
90.000000
 51
180.000000
  0
CIRCLE
  8
0
 10
212.927078
 20
97.465881
 40
8.132500
  0
CIRCLE
  8
0
 10
212.927078
 20
97.465881
 40
8.507500
  0
CIRCLE
  8
0
 10
212.927078
 20
97.465881
 40
4.000000
  0
POINT
  8
0
 10
43.308609
 20
97.465866
  0
POINT
  8
0
 10
53.808609
 20
97.465866
  0
LINE
  8
0
 10
40.808609
 20
127.465866
 11
40.808609
 21
117.965866
  0
LINE
  8
0
 10
33.558609
 20
117.465866
 11
33.558609
 21
112.465866
  0
LINE
  8
0
 10
52.558609
 20
117.965866
 11
34.058609
 21
117.965866
  0
LINE
  8
0
 10
45.808609
 20
127.465866
 11
45.808609
 21
117.965866
  0
LINE
  8
0
 10
53.058609
 20
117.465866
 11
53.058609
 21
112.465866
  0
LINE
  8
0
  6
CENTER
 10
43.308609
 20
97.465866
 11
31.518047
 21
97.465866
  0
LINE
  8
0
 10
53.808609
 20
107.965866
 11
32.808609
 21
107.965866
  0
LINE
  8
0
 10
53.808609
 20
112.465866
 11
32.808609
 21
112.465866
  0
LINE
  8
0
 10
32.808609
 20
112.465866
 11
32.808609
 21
86.965866
  0
LINE
  8
0
 10
53.808609
 20
86.965866
 11
32.808609
 21
86.965866
  0
LINE
  8
0
  6
CENTER
 10
43.308609
 20
97.465866
 11
55.099171
 21
97.465866
  0
LINE
  8
0
 10
53.808609
 20
112.465866
 11
53.808609
 21
86.965866
  0
LINE
  8
0
  6
CENTER
 10
43.308609
 20
128.492905
 11
43.308609
 21
84.933418
  0
LINE
  8
0
 10
45.308609
 20
127.965866
 11
41.308609
 21
127.965866
  0
ARC
  8
0
 10
52.558609
 20
117.465866
 40
0.500000
 50
0.000000
 51
90.000000
  0
ARC
  8
0
 10
45.308609
 20
127.465866
 40
0.500000
 50
0.000000
 51
90.000000
  0
ARC
  8
0
 10
34.058609
 20
117.465866
 40
0.500000
 50
90.000000
 51
180.000000
  0
ARC
  8
0
 10
41.308609
 20
127.465866
 40
0.500000
 50
90.000000
 51
180.000000
  0
CIRCLE
  8
0
 10
43.308609
 20
97.465866
 40
8.400000
  0
CIRCLE
  8
0
 10
43.308609
 20
97.465866
 40
5.100000
  0
CIRCLE
  8
0
 10
43.308609
 20
97.465866
 40
8.950000
  0
POINT
  8
0
 10
153.527878
 20
153.465866
  0
POINT
  8
0
 10
168.527878
 20
153.465866
  0
LINE
  8
0
  6
CENTER
 10
82.099167
 20
153.465851
 11
160.667496
 21
153.465866
  0
LINE
  8
0
  6
CENTER
 10
116.527870
 20
165.773773
 11
116.527878
 21
141.087555
  0
LINE
  8
0
 10
99.527878
 20
142.965851
 11
133.527878
 21
142.965866
  0
LINE
  8
0
 10
99.527878
 20
163.965851
 11
133.527878
 21
163.965866
  0
LINE
  8
0
 10
99.527878
 20
163.965851
 11
99.527878
 21
142.965851
  0
LINE
  8
0
 10
133.527878
 20
163.965866
 11
133.527878
 21
142.965866
  0
LINE
  8
0
 10
125.760971
 20
158.465866
 11
127.984314
 21
158.465866
  0
LINE
  8
0
 10
125.760971
 20
148.465866
 11
127.984314
 21
148.465866
  0
LINE
  8
0
 10
105.071434
 20
148.465851
 11
107.294785
 21
148.465851
  0
LINE
  8
0
 10
105.071434
 20
158.465851
 11
107.294785
 21
158.465851
  0
LINE
  8
0
 10
107.496674
 20
150.965851
 11
125.559067
 21
150.965866
  0
LINE
  8
0
 10
107.496674
 20
155.965851
 11
125.559067
 21
155.965866
  0
LINE
  8
0
 10
108.527878
 20
152.615860
 11
124.527878
 21
152.615860
  0
LINE
  8
0
 10
108.527878
 20
154.315857
 11
124.527878
 21
154.315857
  0
LINE
  8
0
 10
108.527878
 20
154.315857
 11
108.527878
 21
152.615860
  0
LINE
  8
0
 10
124.527878
 20
154.315857
 11
124.527878
 21
152.615860
  0
LINE
  8
0
 10
133.527878
 20
161.715866
 11
142.027878
 21
161.715866
  0
LINE
  8
0
 10
133.527878
 20
145.215866
 11
142.027878
 21
145.215866
  0
LINE
  8
0
 10
142.027878
 20
144.965866
 11
142.027878
 21
161.965866
  0
LINE
  8
0
 10
148.027878
 20
144.965866
 11
148.027878
 21
161.965866
  0
LINE
  8
0
 10
160.027878
 20
146.200882
 11
160.027878
 21
160.730835
  0
LINE
  8
0
 10
148.027878
 20
144.958359
 11
159.188293
 21
145.307129
  0
LINE
  8
0
 10
148.254974
 20
145.805878
 11
160.001633
 21
146.172958
  0
LINE
  8
0
 10
159.188278
 20
145.307129
 11
160.027863
 21
146.200882
  0
LINE
  8
0
 10
148.027878
 20
144.958359
 11
148.254959
 21
145.805878
  0
LINE
  8
0
 10
148.254959
 20
161.125854
 11
148.254974
 21
145.805878
  0
LINE
  8
0
 10
148.027863
 20
161.973358
 11
159.188278
 21
161.624603
  0
LINE
  8
0
 10
148.254959
 20
161.125854
 11
160.001617
 21
160.758774
  0
LINE
  8
0
 10
159.188263
 20
161.624588
 11
160.027847
 21
160.730835
  0
LINE
  8
0
 10
148.027908
 20
161.973373
 11
148.254990
 21
161.125870
  0
LINE
  8
0
 10
89.427872
 20
162.415848
 11
99.527878
 21
162.415848
  0
LINE
  8
0
 10
89.427872
 20
162.415848
 11
89.427872
 21
144.515854
  0
LINE
  8
0
 10
89.427872
 20
161.965851
 11
87.527870
 21
161.965851
  0
LINE
  8
0
 10
87.527870
 20
159.465851
 11
86.327873
 21
159.465851
  0
LINE
  8
0
 10
86.327873
 20
161.865845
 11
84.127869
 21
161.865845
  0
LINE
  8
0
 10
84.127869
 20
145.065857
 11
84.127869
 21
161.865845
  0
LINE
  8
0
 10
87.527870
 20
144.965851
 11
87.527870
 21
161.965851
  0
LINE
  8
0
 10
86.327873
 20
145.065857
 11
86.327873
 21
161.865845
  0
LINE
  8
0
 10
89.427872
 20
144.965851
 11
87.527870
 21
144.965851
  0
LINE
  8
0
 10
87.527870
 20
147.465851
 11
86.327873
 21
147.465851
  0
LINE
  8
0
 10
86.327873
 20
145.065857
 11
84.127869
 21
145.065857
  0
LINE
  8
0
 10
89.427872
 20
144.515854
 11
99.527878
 21
144.515854
  0
LINE
  8
0
  6
CENTER
 10
153.527878
 20
140.836823
 11
153.527878
 21
165.612946
  0
LINE
  8
0
 10
159.188278
 20
145.307129
 11
159.188278
 21
161.624603
  0
LINE
  8
0
 10
142.027878
 20
144.965866
 11
148.027878
 21
144.965866
  0
LINE
  8
0
 10
142.027878
 20
161.965866
 11
148.027878
 21
161.965866
  0
LINE
  8
0
 10
142.027878
 20
153.465866
 11
148.027878
 21
153.465866
  0
CIRCLE
  8
0
 10
116.527878
 20
153.465866
 40
10.500000
  0
ARC
  8
0
 10
116.527878
 20
153.465866
 40
12.499998
 50
156.421890
 51
203.578171
  0
ARC
  8
0
 10
116.527878
 20
153.465866
 40
12.499997
 50
336.421814
 51
23.578184
  0
ARC
  8
0
 10
125.559067
 20
155.465866
 40
0.500002
 50
12.486895
 51
90.000000
  0
ARC
  8
0
 10
107.496674
 20
155.465851
 40
0.500000
 50
90.000000
 51
167.513107
  0
ARC
  8
0
 10
125.559067
 20
151.465866
 40
0.500000
 50
270.000000
 51
347.513092
  0
ARC
  8
0
 10
107.496674
 20
151.465851
 40
0.499998
 50
192.485184
 51
270.000000
  0
ARC
  8
0
 10
116.527878
 20
153.465866
 40
9.750000
 50
0.000000
 51
359.464569
  0
POINT
  8
0
 10
-111.844597
 20
-31.649849
  0
POINT
  8
0
 10
-96.844597
 20
-31.649847
  0
LINE
  8
0
 10
-177.444611
 20
-22.699863
 11
-177.444611
 21
-40.599857
  0
LINE
  8
0
 10
-177.444611
 20
-23.149860
 11
-179.344604
 21
-23.149860
  0
LINE
  8
0
 10
-179.344604
 20
-25.649860
 11
-180.544586
 21
-25.649860
  0
LINE
  8
0
 10
-180.544586
 20
-23.249866
 11
-182.744598
 21
-23.249866
  0
LINE
  8
0
 10
-182.744598
 20
-40.049854
 11
-182.744598
 21
-23.249866
  0
LINE
  8
0
 10
-179.344604
 20
-40.149860
 11
-179.344604
 21
-23.149860
  0
LINE
  8
0
 10
-180.544586
 20
-40.049854
 11
-180.544586
 21
-23.249866
  0
LINE
  8
0
 10
-177.444611
 20
-40.149860
 11
-179.344604
 21
-40.149860
  0
LINE
  8
0
 10
-179.344604
 20
-37.649860
 11
-180.544586
 21
-37.649860
  0
LINE
  8
0
 10
-180.544586
 20
-40.049854
 11
-182.744598
 21
-40.049854
  0
LINE
  8
0
  6
CENTER
 10
-150.344604
 20
0.307121
 11
-150.344589
 21
-43.879944
  0
LINE
  8
0
 10
-133.344604
 20
-21.149853
 11
-133.344589
 21
-42.149853
  0
LINE
  8
0
 10
-134.880493
 20
-21.149853
 11
-133.344604
 21
-21.149853
  0
LINE
  8
0
  6
CENTER
 10
-138.344604
 20
-17.682301
 11
-138.344604
 21
-25.573154
  0
LINE
  8
0
  6
CENTER
 10
-141.738403
 20
-20.649853
 11
-133.344604
 21
-20.649853
  0
LINE
  8
0
 10
-137.844604
 20
-16.649853
 11
-137.844604
 21
-17.185757
  0
LINE
  8
0
 10
-135.844604
 20
-23.099346
 11
-135.844589
 21
-39.649853
  0
LINE
  8
0
 10
-133.344589
 20
-42.149853
 11
-167.344604
 21
-42.149857
  0
LINE
  8
0
 10
-167.344604
 20
-21.149858
 11
-167.344604
 21
-42.149857
  0
LINE
  8
0
 10
-137.844604
 20
-16.649853
 11
-162.844604
 21
-16.649857
  0
LINE
  8
0
 10
-165.808701
 20
-21.149858
 11
-167.344604
 21
-21.149858
  0
LINE
  8
0
  6
CENTER
 10
-162.344604
 20
-17.682304
 11
-162.344604
 21
-25.573160
  0
LINE
  8
0
  6
CENTER
 10
-158.950790
 20
-20.649857
 11
-167.344604
 21
-20.649858
  0
LINE
  8
0
 10
-162.844604
 20
-16.649857
 11
-162.844604
 21
-17.185760
  0
LINE
  8
0
 10
-137.844604
 20
-17.185757
 11
-162.844604
 21
-17.185760
  0
LINE
  8
0
 10
-164.844604
 20
-23.099352
 11
-164.844604
 21
-39.649857
  0
LINE
  8
0
 10
-135.844589
 20
-39.649853
 11
-164.844604
 21
-39.649857
  0
LINE
  8
0
 10
-141.489594
 20
-22.185757
 11
-159.199600
 21
-22.185760
  0
LINE
  8
0
 10
-140.594604
 20
-2.149855
 11
-140.594604
 21
-16.649853
  0
LINE
  8
0
 10
-141.594604
 20
-1.149855
 11
-159.094604
 21
-1.149857
  0
LINE
  8
0
 10
-160.094604
 20
-2.149857
 11
-160.094604
 21
-16.649857
  0
LINE
  8
0
 10
-140.594604
 20
-11.149855
 11
-160.094604
 21
-11.149857
  0
LINE
  8
0
 10
-133.344604
 20
-23.399853
 11
-124.844597
 21
-23.399851
  0
LINE
  8
0
 10
-133.344589
 20
-39.899853
 11
-124.844597
 21
-39.899849
  0
LINE
  8
0
 10
-124.844597
 20
-42.049843
 11
-124.844597
 21
-21.249857
  0
LINE
  8
0
 10
-118.844597
 20
-42.341087
 11
-118.844597
 21
-20.958603
  0
LINE
  8
0
 10
-124.389084
 20
-43.749855
 11
-119.222076
 21
-43.749855
  0
LINE
  8
0
 10
-124.844604
 20
-42.049843
 11
-124.389084
 21
-43.749851
  0
LINE
  8
0
 10
-103.844597
 20
-40.674339
 11
-103.844597
 21
-22.625343
  0
LINE
  8
0
 10
-119.222076
 20
-43.749844
 11
-118.844604
 21
-42.341095
  0
LINE
  8
0
 10
-118.844604
 20
-42.341087
 11
-105.004028
 21
-41.908566
  0
LINE
  8
0
 10
-118.531006
 20
-41.170731
 11
-103.880829
 21
-40.712914
  0
LINE
  8
0
 10
-105.004028
 20
-41.908588
 11
-103.844589
 21
-40.674351
  0
LINE
  8
0
 10
-118.844604
 20
-42.341095
 11
-118.531006
 21
-41.170731
  0
LINE
  8
0
 10
-118.530998
 20
-22.128967
 11
-118.530998
 21
-41.170738
  0
LINE
  8
0
 10
-124.389084
 20
-19.549852
 11
-119.222076
 21
-19.549850
  0
LINE
  8
0
 10
-119.222076
 20
-19.549860
 11
-118.844604
 21
-20.958607
  0
LINE
  8
0
 10
-118.844604
 20
-20.958607
 11
-105.004044
 21
-21.391125
  0
LINE
  8
0
 10
-118.530991
 20
-22.128965
 11
-103.880829
 21
-22.586781
  0
LINE
  8
0
 10
-105.004028
 20
-21.391113
 11
-103.844597
 21
-22.625347
  0
LINE
  8
0
 10
-118.844604
 20
-20.958595
 11
-118.531006
 21
-22.128956
  0
LINE
  8
0
 10
-124.844604
 20
-21.249844
 11
-124.389099
 21
-19.549850
  0
LINE
  8
0
 10
-124.844597
 20
-37.649853
 11
-118.844597
 21
-37.649849
  0
LINE
  8
0
 10
-124.844597
 20
-25.649851
 11
-118.844597
 21
-25.649851
  0
LINE
  8
0
 10
-105.004028
 20
-21.391121
 11
-105.004028
 21
-41.908577
  0
LINE
  8
0
 10
-177.444611
 20
-40.599857
 11
-167.344604
 21
-40.599854
  0
LINE
  8
0
 10
-177.444611
 20
-22.699863
 11
-167.344604
 21
-22.699862
  0
LINE
  8
0
  6
CENTER
 10
-200.344604
 20
-31.649864
 11
-100.344597
 21
-31.649847
  0
LINE
  8
0
  6
CENTER
 10
-111.844597
 20
-48.647163
 11
-111.844597
 21
-13.310051
  0
CIRCLE
  8
0
 10
-138.344604
 20
-20.649853
 40
2.100000
  0
ARC
  8
0
 10
-138.344604
 20
-20.649853
 40
3.500010
 50
351.786804
 51
81.786789
  0
ARC
  8
0
 10
-138.344604
 20
-20.649853
 40
3.499991
 50
206.029205
 51
315.584686
  0
CIRCLE
  8
0
 10
-162.344604
 20
-20.649857
 40
2.100000
  0
ARC
  8
0
 10
-162.344604
 20
-20.649857
 40
3.499998
 50
98.213211
 51
188.213226
  0
ARC
  8
0
 10
-162.344604
 20
-20.649857
 40
3.500000
 50
224.415314
 51
333.970886
  0
ARC
  8
0
 10
-159.094604
 20
-2.149857
 40
1.000000
 50
90.000000
 51
180.000000
  0
ARC
  8
0
 10
-141.594604
 20
-2.149855
 40
1.000000
 50
0.000000
 51
90.000000
  0
POINT
  8
0
 10
-48.945389
 20
-31.649849
  0
POINT
  8
0
 10
-38.254139
 20
-31.649849
  0
LINE
  8
0
  6
CENTER
 10
-48.945389
 20
-0.622810
 11
-48.945389
 21
-44.182289
  0
LINE
  8
0
 10
-46.162933
 20
-42.149849
 11
-38.445389
 21
-42.149849
  0
LINE
  8
0
 10
-38.445389
 20
-16.649849
 11
-38.445389
 21
-29.636688
  0
LINE
  8
0
 10
-59.445389
 20
-16.649849
 11
-38.445389
 21
-16.649849
  0
LINE
  8
0
 10
-46.162933
 20
-21.149849
 11
-38.445389
 21
-21.149849
  0
LINE
  8
0
  6
CENTER
 10
-48.945389
 20
-31.649849
 11
-37.154831
 21
-31.649849
  0
LINE
  8
0
 10
-51.727844
 20
-42.149849
 11
-59.445389
 21
-42.149849
  0
LINE
  8
0
 10
-59.445389
 20
-16.649849
 11
-59.445389
 21
-29.636688
  0
LINE
  8
0
 10
-51.727852
 20
-21.149849
 11
-59.445389
 21
-21.149849
  0
LINE
  8
0
  6
CENTER
 10
-48.945389
 20
-31.649849
 11
-60.735947
 21
-31.649849
  0
LINE
  8
0
 10
-58.195389
 20
-11.149849
 11
-39.695389
 21
-11.149849
  0
LINE
  8
0
 10
-39.195389
 20
-11.649849
 11
-39.195389
 21
-16.649849
  0
LINE
  8
0
 10
-46.445389
 20
-1.649849
 11
-46.445389
 21
-11.149849
  0
LINE
  8
0
 10
-50.945389
 20
-1.149849
 11
-46.945389
 21
-1.149849
  0
LINE
  8
0
 10
-58.695389
 20
-11.649849
 11
-58.695389
 21
-16.649849
  0
LINE
  8
0
 10
-51.445389
 20
-1.649849
 11
-51.445389
 21
-11.149849
  0
LINE
  8
0
 10
-48.945400
 20
-19.549847
 11
-45.508865
 21
-21.525961
  0
LINE
  8
0
 10
-38.445385
 20
-37.712029
 11
-41.924149
 21
-39.712425
  0
LINE
  8
0
 10
-48.945400
 20
-19.549849
 11
-52.381939
 21
-21.525965
  0
LINE
  8
0
 10
-59.445396
 20
-37.712025
 11
-55.966625
 21
-39.712425
  0
LINE
  8
0
 10
-38.445389
 20
-33.663010
 11
-38.445389
 21
-42.149849
  0
LINE
  8
0
 10
-59.445389
 20
-33.663010
 11
-59.445389
 21
-42.149849
  0
LINE
  8
0
 10
-45.508842
 20
-41.773735
 11
-48.945385
 21
-43.749855
  0
LINE
  8
0
 10
-52.381927
 20
-41.773735
 11
-48.945393
 21
-43.749847
  0
LINE
  8
0
 10
-55.966629
 20
-23.587273
 11
-59.445400
 21
-25.587671
  0
LINE
  8
0
 10
-41.924171
 20
-23.587273
 11
-38.445400
 21
-25.587671
  0
ARC
  8
0
 10
-39.695389
 20
-11.649849
 40
0.500000
 50
0.000000
 51
90.000000
  0
ARC
  8
0
 10
-46.945389
 20
-1.649849
 40
0.500000
 50
0.000000
 51
90.000000
  0
ARC
  8
0
 10
-58.195389
 20
-11.649849
 40
0.500000
 50
90.000000
 51
180.000000
  0
ARC
  8
0
 10
-50.945389
 20
-1.649849
 40
0.500000
 50
90.000000
 51
180.000000
  0
CIRCLE
  8
0
 10
-48.945389
 20
-31.649849
 40
10.222500
  0
CIRCLE
  8
0
 10
-48.945389
 20
-31.649849
 40
10.691250
  0
CIRCLE
  8
0
 10
-48.945389
 20
-31.649849
 40
4.000000
  0
POINT
  8
0
 10
-238.563858
 20
-31.649849
  0
POINT
  8
0
 10
-228.063858
 20
-31.649849
  0
LINE
  8
0
  6
CENTER
 10
-238.563858
 20
-0.622810
 11
-238.563858
 21
-44.182304
  0
LINE
  8
0
 10
-228.063858
 20
-16.649849
 11
-228.063858
 21
-42.149849
  0
LINE
  8
0
  6
CENTER
 10
-238.563858
 20
-31.649849
 11
-226.773300
 21
-31.649849
  0
LINE
  8
0
 10
-228.063858
 20
-42.149849
 11
-249.063858
 21
-42.149849
  0
LINE
  8
0
 10
-249.063858
 20
-16.649849
 11
-249.063858
 21
-42.149849
  0
LINE
  8
0
 10
-228.063858
 20
-16.649849
 11
-249.063858
 21
-16.649849
  0
LINE
  8
0
 10
-228.063858
 20
-21.149849
 11
-249.063858
 21
-21.149849
  0
LINE
  8
0
  6
CENTER
 10
-238.563858
 20
-31.649849
 11
-250.354416
 21
-31.649849
  0
LINE
  8
0
 10
-228.813858
 20
-11.649849
 11
-228.813858
 21
-16.649849
  0
LINE
  8
0
 10
-236.063858
 20
-1.649849
 11
-236.063858
 21
-11.149849
  0
LINE
  8
0
 10
-229.313858
 20
-11.149849
 11
-247.813858
 21
-11.149849
  0
LINE
  8
0
 10
-248.313858
 20
-11.649849
 11
-248.313858
 21
-16.649849
  0
LINE
  8
0
 10
-241.063858
 20
-1.649849
 11
-241.063858
 21
-11.149849
  0
LINE
  8
0
 10
-240.563858
 20
-1.149849
 11
-236.563858
 21
-1.149849
  0
ARC
  8
0
 10
-229.313858
 20
-11.649849
 40
0.500000
 50
0.000000
 51
90.000000
  0
ARC
  8
0
 10
-236.563858
 20
-1.649849
 40
0.500000
 50
0.000000
 51
90.000000
  0
ARC
  8
0
 10
-247.813858
 20
-11.649849
 40
0.500000
 50
90.000000
 51
180.000000
  0
ARC
  8
0
 10
-240.563858
 20
-1.649849
 40
0.500000
 50
90.000000
 51
180.000000
  0
CIRCLE
  8
0
 10
-238.563858
 20
-31.649849
 40
8.400000
  0
CIRCLE
  8
0
 10
-238.563858
 20
-31.649849
 40
5.100000
  0
CIRCLE
  8
0
 10
-238.563858
 20
-31.649849
 40
8.950000
  0
POINT
  8
0
 10
-111.844604
 20
33.350143
  0
POINT
  8
0
 10
-96.844604
 20
33.350147
  0
LINE
  8
0
  6
CENTER
 10
-150.344604
 20
45.658051
 11
-150.344604
 21
20.971840
  0
LINE
  8
0
 10
-167.344604
 20
22.850134
 11
-133.344604
 21
22.850140
  0
LINE
  8
0
 10
-167.344604
 20
43.850136
 11
-133.344604
 21
43.850140
  0
LINE
  8
0
 10
-167.344604
 20
43.850136
 11
-167.344604
 21
22.850134
  0
LINE
  8
0
 10
-133.344604
 20
43.850140
 11
-133.344604
 21
22.850140
  0
LINE
  8
0
 10
-141.111511
 20
38.350140
 11
-138.888153
 21
38.350140
  0
LINE
  8
0
 10
-141.111511
 20
28.350138
 11
-138.888153
 21
28.350140
  0
LINE
  8
0
 10
-161.801041
 20
28.350136
 11
-159.577698
 21
28.350136
  0
LINE
  8
0
 10
-161.801041
 20
38.350136
 11
-159.577698
 21
38.350136
  0
LINE
  8
0
 10
-159.375793
 20
30.850136
 11
-141.313416
 21
30.850138
  0
LINE
  8
0
 10
-159.375793
 20
35.850136
 11
-141.313416
 21
35.850140
  0
LINE
  8
0
 10
-158.344604
 20
32.500137
 11
-142.344604
 21
32.500141
  0
LINE
  8
0
 10
-158.344604
 20
34.200134
 11
-142.344604
 21
34.200138
  0
LINE
  8
0
 10
-158.344604
 20
34.200134
 11
-158.344604
 21
32.500137
  0
LINE
  8
0
 10
-142.344604
 20
34.200138
 11
-142.344604
 21
32.500141
  0
LINE
  8
0
 10
-133.344604
 20
41.600140
 11
-124.844604
 21
41.600143
  0
LINE
  8
0
 10
-133.344604
 20
25.100140
 11
-124.844597
 21
25.100142
  0
LINE
  8
0
 10
-124.844597
 20
22.950132
 11
-124.844604
 21
43.750160
  0
LINE
  8
0
 10
-118.844597
 20
22.658897
 11
-118.844597
 21
44.041389
  0
LINE
  8
0
 10
-124.844597
 20
22.950138
 11
-124.817802
 21
22.850142
  0
LINE
  8
0
 10
-103.844597
 20
24.325645
 11
-103.844597
 21
42.374649
  0
LINE
  8
0
 10
-118.844597
 20
22.658897
 11
-105.004028
 21
23.091417
  0
LINE
  8
0
 10
-118.531006
 20
23.829254
 11
-103.880836
 21
24.287071
  0
LINE
  8
0
 10
-105.003990
 20
23.091385
 11
-103.844559
 21
24.325624
  0
LINE
  8
0
 10
-118.844597
 20
22.658897
 11
-118.530998
 21
23.829262
  0
LINE
  8
0
 10
-118.530998
 20
42.871029
 11
-118.530998
 21
23.829254
  0
LINE
  8
0
 10
-118.844604
 20
44.041389
 11
-105.004044
 21
43.608871
  0
LINE
  8
0
 10
-118.531006
 20
42.871025
 11
-103.880844
 21
42.413212
  0
LINE
  8
0
 10
-105.004028
 20
43.608883
 11
-103.844597
 21
42.374649
  0
LINE
  8
0
 10
-118.844589
 20
44.041405
 11
-118.530991
 21
42.871033
  0
LINE
  8
0
 10
-105.004028
 20
43.608871
 11
-105.004028
 21
23.091408
  0
LINE
  8
0
 10
-177.444611
 20
42.300129
 11
-167.344604
 21
42.300133
  0
LINE
  8
0
 10
-177.444611
 20
42.300129
 11
-177.444611
 21
24.400135
  0
LINE
  8
0
 10
-177.444611
 20
41.850132
 11
-179.344604
 21
41.850132
  0
LINE
  8
0
 10
-179.344604
 20
39.350132
 11
-180.544601
 21
39.350132
  0
LINE
  8
0
 10
-180.544601
 20
41.750126
 11
-182.744598
 21
41.750126
  0
LINE
  8
0
 10
-182.744598
 20
24.950138
 11
-182.744598
 21
41.750126
  0
LINE
  8
0
 10
-179.344604
 20
24.850132
 11
-179.344604
 21
41.850132
  0
LINE
  8
0
 10
-180.544601
 20
24.950138
 11
-180.544601
 21
41.750126
  0
LINE
  8
0
 10
-177.444611
 20
24.850132
 11
-179.344604
 21
24.850132
  0
LINE
  8
0
 10
-179.344604
 20
27.350132
 11
-180.544601
 21
27.350132
  0
LINE
  8
0
 10
-180.544601
 20
24.950138
 11
-182.744598
 21
24.950138
  0
LINE
  8
0
 10
-177.444611
 20
24.400135
 11
-167.344604
 21
24.400137
  0
LINE
  8
0
  6
CENTER
 10
-200.344604
 20
33.350128
 11
-100.344604
 21
33.350147
  0
LINE
  8
0
  6
CENTER
 10
-111.844604
 20
18.391541
 11
-111.844604
 21
47.184742
  0
LINE
  8
0
 10
-124.817810
 20
43.850143
 11
-118.844597
 21
43.850143
  0
LINE
  8
0
 10
-124.817802
 20
22.850142
 11
-118.844597
 21
22.850143
  0
LINE
  8
0
 10
-124.844604
 20
43.750137
 11
-124.817810
 21
43.850143
  0
LINE
  8
0
 10
-124.817810
 20
33.350140
 11
-118.844597
 21
33.350143
  0
ARC
  8
0
 10
-150.344604
 20
33.350136
 40
12.500000
 50
0.000017
 51
23.578199
  0
CIRCLE
  8
0
 10
-150.344604
 20
33.350136
 40
10.500000
  0
ARC
  8
0
 10
-150.344604
 20
33.350136
 40
12.499995
 50
156.421829
 51
203.578156
  0
ARC
  8
0
 10
-150.344604
 20
33.350136
 40
12.499995
 50
336.421844
 51
0.000017
  0
ARC
  8
0
 10
-141.313416
 20
35.350140
 40
0.500002
 50
12.486895
 51
90.000000
  0
ARC
  8
0
 10
-159.375793
 20
35.350136
 40
0.500000
 50
90.000000
 51
167.513107
  0
ARC
  8
0
 10
-141.313416
 20
31.350138
 40
0.500000
 50
270.000000
 51
347.513306
  0
ARC
  8
0
 10
-159.375793
 20
31.350136
 40
0.500002
 50
192.486893
 51
270.000000
  0
ARC
  8
0
 10
-150.344604
 20
33.350136
 40
9.750000
 50
0.000022
 51
359.464630
  0
POINT
  8
0
 10
166.349411
 20
-31.649834
  0
POINT
  8
0
 10
181.349411
 20
-31.649832
  0
LINE
  8
0
  6
CENTER
 10
129.849411
 20
0.307146
 11
129.849411
 21
-43.879929
  0
LINE
  8
0
 10
146.849411
 20
-21.149837
 11
146.849411
 21
-42.149837
  0
LINE
  8
0
 10
145.313507
 20
-21.149837
 11
146.849411
 21
-21.149837
  0
LINE
  8
0
  6
CENTER
 10
141.849411
 20
-17.682293
 11
141.849411
 21
-25.573139
  0
LINE
  8
0
  6
CENTER
 10
88.867493
 20
-31.649847
 11
175.505005
 21
-31.649832
  0
LINE
  8
0
  6
CENTER
 10
138.455597
 20
-20.649837
 11
146.849411
 21
-20.649837
  0
LINE
  8
0
 10
142.349411
 20
-16.649837
 11
142.349411
 21
-17.185741
  0
LINE
  8
0
 10
144.349411
 20
-23.099331
 11
144.349411
 21
-39.649837
  0
LINE
  8
0
 10
129.849411
 20
-22.185745
 11
138.704407
 21
-22.185741
  0
LINE
  8
0
 10
112.849411
 20
-20.899843
 11
112.849411
 21
-42.149841
  0
LINE
  8
0
 10
142.349411
 20
-16.649837
 11
117.349411
 21
-16.649841
  0
LINE
  8
0
  6
CENTER
 10
117.849411
 20
-17.682297
 11
117.849411
 21
-25.573143
  0
LINE
  8
0
  6
CENTER
 10
121.243210
 20
-20.649841
 11
112.849411
 21
-20.649843
  0
LINE
  8
0
 10
117.349411
 20
-16.649841
 11
117.349411
 21
-17.185745
  0
LINE
  8
0
 10
142.349411
 20
-17.185741
 11
117.349411
 21
-17.185745
  0
LINE
  8
0
 10
115.349411
 20
-23.099335
 11
115.349411
 21
-39.649841
  0
LINE
  8
0
 10
144.349411
 20
-39.649837
 11
115.349411
 21
-39.649841
  0
LINE
  8
0
 10
129.849411
 20
-22.185745
 11
120.994415
 21
-22.185745
  0
LINE
  8
0
 10
139.599411
 20
-2.149837
 11
139.599411
 21
-16.649837
  0
LINE
  8
0
 10
138.599411
 20
-1.149839
 11
121.099411
 21
-1.149841
  0
LINE
  8
0
 10
120.099411
 20
-2.149841
 11
120.099411
 21
-16.649841
  0
LINE
  8
0
 10
139.599411
 20
-11.149837
 11
120.099411
 21
-11.149841
  0
LINE
  8
0
 10
146.849411
 20
-23.399837
 11
155.349411
 21
-23.399836
  0
LINE
  8
0
 10
146.849411
 20
-39.899837
 11
155.349411
 21
-39.899834
  0
LINE
  8
0
 10
155.349411
 20
-23.149837
 11
155.697739
 21
-21.849842
  0
LINE
  8
0
 10
161.001068
 20
-21.849827
 11
161.349396
 21
-23.149824
  0
LINE
  8
0
 10
155.697739
 20
-21.849833
 11
161.001068
 21
-21.849831
  0
LINE
  8
0
 10
155.349411
 20
-26.649836
 11
161.349411
 21
-26.649834
  0
LINE
  8
0
 10
155.349411
 20
-36.649834
 11
161.349411
 21
-36.649834
  0
LINE
  8
0
 10
161.349411
 20
-40.149834
 11
161.349411
 21
-23.149849
  0
LINE
  8
0
 10
161.001099
 20
-41.449837
 11
161.349426
 21
-40.149834
  0
LINE
  8
0
 10
155.697754
 20
-41.449837
 11
161.001083
 21
-41.449837
  0
LINE
  8
0
 10
155.349411
 20
-40.149826
 11
155.697754
 21
-41.449829
  0
LINE
  8
0
 10
161.349411
 20
-24.919796
 11
171.489807
 21
-25.233227
  0
LINE
  8
0
 10
161.581879
 20
-25.787422
 11
172.322845
 21
-26.119415
  0
LINE
  8
0
 10
171.489807
 20
-25.233253
 11
172.349396
 21
-26.147675
  0
LINE
  8
0
 10
161.349396
 20
-24.919828
 11
161.581879
 21
-25.787424
  0
LINE
  8
0
 10
172.349411
 20
-37.151978
 11
172.349411
 21
-26.147682
  0
LINE
  8
0
 10
161.349411
 20
-38.379829
 11
161.581879
 21
-37.512241
  0
LINE
  8
0
 10
161.349411
 20
-38.379822
 11
171.489838
 21
-38.066387
  0
LINE
  8
0
 10
161.581879
 20
-37.512249
 11
172.322845
 21
-37.180252
  0
LINE
  8
0
 10
171.489822
 20
-38.066414
 11
172.349396
 21
-37.151997
  0
LINE
  8
0
 10
161.581879
 20
-25.787430
 11
161.581879
 21
-37.512238
  0
LINE
  8
0
 10
171.489822
 20
-25.233253
 11
171.489838
 21
-38.066406
  0
LINE
  8
0
 10
112.849411
 20
-42.149841
 11
146.849411
 21
-42.149837
  0
LINE
  8
0
 10
155.349411
 20
-23.399836
 11
155.349411
 21
-39.899834
  0
LINE
  8
0
  6
CENTER
 10
166.349411
 20
-41.549843
 11
166.349411
 21
-21.749840
  0
LINE
  8
0
 10
100.249420
 20
-20.899845
 11
112.849411
 21
-20.899843
  0
LINE
  8
0
 10
100.249420
 20
-20.899845
 11
100.249420
 21
-42.399845
  0
LINE
  8
0
 10
97.049416
 20
-21.749851
 11
94.849411
 21
-21.749851
  0
LINE
  8
0
 10
98.649414
 20
-24.149845
 11
97.049416
 21
-24.149845
  0
LINE
  8
0
 10
100.249420
 20
-21.649845
 11
98.649414
 21
-21.649845
  0
LINE
  8
0
 10
94.849411
 20
-41.549854
 11
94.849411
 21
-21.749851
  0
LINE
  8
0
 10
97.049416
 20
-41.549854
 11
97.049416
 21
-21.749851
  0
LINE
  8
0
 10
98.649414
 20
-41.649845
 11
98.649414
 21
-21.649845
  0
LINE
  8
0
 10
97.049416
 20
-41.549854
 11
94.849411
 21
-41.549854
  0
LINE
  8
0
 10
98.649414
 20
-39.149845
 11
97.049416
 21
-39.149845
  0
LINE
  8
0
 10
100.249420
 20
-41.649845
 11
98.649414
 21
-41.649845
  0
LINE
  8
0
 10
100.249420
 20
-42.399845
 11
112.849411
 21
-42.399841
  0
LINE
  8
0
 10
112.849411
 20
-21.149843
 11
114.385315
 21
-21.149843
  0
CIRCLE
  8
0
 10
141.849411
 20
-20.649837
 40
2.100000
  0
ARC
  8
0
 10
141.849411
 20
-20.649837
 40
3.499995
 50
351.786774
 51
81.786789
  0
ARC
  8
0
 10
141.849411
 20
-20.649837
 40
3.500005
 50
206.029083
 51
315.584686
  0
CIRCLE
  8
0
 10
117.849411
 20
-20.649841
 40
2.100000
  0
ARC
  8
0
 10
117.849411
 20
-20.649841
 40
3.499998
 50
98.213211
 51
188.213211
  0
ARC
  8
0
 10
117.849411
 20
-20.649841
 40
3.500000
 50
224.415314
 51
333.970856
  0
ARC
  8
0
 10
121.099411
 20
-2.149841
 40
1.000000
 50
90.000000
 51
180.000000
  0
ARC
  8
0
 10
138.599411
 20
-2.149839
 40
1.000000
 50
0.000109
 51
90.000000
  0
POINT
  8
0
 10
227.404968
 20
-31.649834
  0
POINT
  8
0
 10
237.904968
 20
-31.649834
  0
LINE
  8
0
 10
217.404968
 20
-42.149834
 11
237.404968
 21
-42.149834
  0
LINE
  8
0
  6
CENTER
 10
227.404968
 20
-0.620827
 11
227.404968
 21
-44.057899
  0
LINE
  8
0
 10
217.404968
 20
-16.649834
 11
237.404968
 21
-16.649834
  0
LINE
  8
0
 10
216.904968
 20
-17.149834
 11
216.904968
 21
-41.649834
  0
LINE
  8
0
 10
237.904968
 20
-17.149834
 11
237.904968
 21
-41.649834
  0
LINE
  8
0
 10
237.404968
 20
-16.649834
 11
237.904968
 21
-17.149834
  0
LINE
  8
0
 10
217.404968
 20
-16.649845
 11
216.904968
 21
-17.149834
  0
LINE
  8
0
 10
216.904968
 20
-41.649834
 11
217.404968
 21
-42.149834
  0
LINE
  8
0
 10
237.404984
 20
-42.149822
 11
237.904984
 21
-41.649822
  0
LINE
  8
0
  6
CENTER
 10
215.926971
 20
-31.649834
 11
238.432617
 21
-31.649834
  0
LINE
  8
0
 10
218.154968
 20
-11.149834
 11
236.654968
 21
-11.149834
  0
LINE
  8
0
 10
237.154968
 20
-11.649834
 11
237.154968
 21
-16.649834
  0
LINE
  8
0
 10
217.654968
 20
-11.649834
 11
217.654968
 21
-16.649834
  0
LINE
  8
0
 10
224.904968
 20
-1.649834
 11
224.904968
 21
-10.649834
  0
LINE
  8
0
 10
229.904968
 20
-1.649834
 11
229.904968
 21
-10.649834
  0
LINE
  8
0
 10
225.404968
 20
-1.149834
 11
229.404968
 21
-1.149834
  0
LINE
  8
0
 10
235.904968
 20
-26.742355
 11
235.904968
 21
-36.557312
  0
LINE
  8
0
 10
235.904968
 20
-26.742365
 11
227.404968
 21
-21.849844
  0
LINE
  8
0
 10
227.404968
 20
-41.449844
 11
235.904968
 21
-36.557312
  0
LINE
  8
0
 10
218.904968
 20
-26.742352
 11
227.404953
 21
-21.849831
  0
LINE
  8
0
 10
218.904968
 20
-26.742355
 11
218.904968
 21
-36.557312
  0
LINE
  8
0
 10
227.404968
 20
-41.449852
 11
218.904968
 21
-36.557327
  0
ARC
  8
0
 10
236.654968
 20
-11.649834
 40
0.500000
 50
0.000000
 51
90.000000
  0
ARC
  8
0
 10
218.154968
 20
-11.649834
 40
0.500000
 50
90.000000
 51
180.000000
  0
ARC
  8
0
 10
225.404968
 20
-1.649834
 40
0.500000
 50
90.000000
 51
180.000000
  0
ARC
  8
0
 10
229.404968
 20
-1.649834
 40
0.500000
 50
0.000000
 51
90.000000
  0
ARC
  8
0
 10
224.404968
 20
-10.649834
 40
0.500000
 50
270.000000
 51
0.000000
  0
ARC
  8
0
 10
230.404968
 20
-10.649834
 40
0.500000
 50
180.000000
 51
270.000000
  0
CIRCLE
  8
0
 10
227.404968
 20
-31.649834
 40
4.000000
  0
CIRCLE
  8
0
 10
227.404968
 20
-31.649834
 40
6.390000
  0
CIRCLE
  8
0
 10
227.404968
 20
-31.649834
 40
6.730000
  0
POINT
  8
0
 10
43.308609
 20
-31.649849
  0
POINT
  8
0
 10
54.058609
 20
-31.649849
  0
LINE
  8
0
 10
33.308609
 20
-42.149849
 11
41.003723
 21
-42.149849
  0
LINE
  8
0
  6
CENTER
 10
43.308609
 20
-0.620842
 11
43.308609
 21
-44.057915
  0
LINE
  8
0
 10
33.308609
 20
-16.649849
 11
53.308609
 21
-16.649849
  0
LINE
  8
0
 10
32.808609
 20
-17.149849
 11
32.808609
 21
-29.344963
  0
LINE
  8
0
 10
53.808609
 20
-17.149849
 11
53.808609
 21
-29.344963
  0
LINE
  8
0
 10
53.308613
 20
-16.649853
 11
53.808609
 21
-17.149847
  0
LINE
  8
0
 10
33.308632
 20
-16.649887
 11
32.808640
 21
-17.149879
  0
LINE
  8
0
 10
32.808617
 20
-41.649853
 11
33.308617
 21
-42.149853
  0
LINE
  8
0
 10
53.308601
 20
-42.149841
 11
53.808601
 21
-41.649845
  0
LINE
  8
0
  6
CENTER
 10
31.830608
 20
-31.649849
 11
54.336266
 21
-31.649849
  0
LINE
  8
0
 10
34.058609
 20
-11.149849
 11
52.558609
 21
-11.149849
  0
LINE
  8
0
 10
53.058609
 20
-11.649849
 11
53.058609
 21
-16.649849
  0
LINE
  8
0
 10
33.558609
 20
-11.649849
 11
33.558609
 21
-16.649849
  0
LINE
  8
0
 10
40.808609
 20
-1.649849
 11
40.808609
 21
-10.649849
  0
LINE
  8
0
 10
45.808609
 20
-1.649849
 11
45.808609
 21
-10.649849
  0
LINE
  8
0
 10
41.308609
 20
-1.149849
 11
45.308609
 21
-1.149849
  0
LINE
  8
0
 10
32.808609
 20
-33.954735
 11
32.808609
 21
-41.649849
  0
LINE
  8
0
 10
53.808609
 20
-33.954735
 11
53.808609
 21
-41.649849
  0
LINE
  8
0
 10
45.613495
 20
-42.149849
 11
53.308609
 21
-42.149849
  0
ARC
  8
0
 10
52.558609
 20
-11.649849
 40
0.500000
 50
0.000000
 51
90.000000
  0
ARC
  8
0
 10
34.058609
 20
-11.649849
 40
0.500000
 50
90.000000
 51
180.000000
  0
ARC
  8
0
 10
41.308609
 20
-1.649849
 40
0.500000
 50
90.000000
 51
180.000000
  0
ARC
  8
0
 10
45.308609
 20
-1.649849
 40
0.500000
 50
0.000000
 51
90.000000
  0
ARC
  8
0
 10
40.308609
 20
-10.649849
 40
0.500000
 50
270.000000
 51
0.000000
  0
ARC
  8
0
 10
46.308609
 20
-10.649849
 40
0.500000
 50
180.000000
 51
270.000000
  0
CIRCLE
  8
0
 10
43.308609
 20
-31.649849
 40
9.900000
  0
CIRCLE
  8
0
 10
43.308609
 20
-31.649849
 40
6.100000
  0
CIRCLE
  8
0
 10
43.308609
 20
-31.649849
 40
10.750000
  0
POINT
  8
0
 10
166.349411
 20
38.350151
  0
POINT
  8
0
 10
181.349411
 20
38.350155
  0
LINE
  8
0
  6
CENTER
 10
129.849396
 20
50.658066
 11
129.849411
 21
25.971848
  0
LINE
  8
0
 10
112.849403
 20
27.850142
 11
146.849411
 21
27.850147
  0
LINE
  8
0
 10
112.849403
 20
48.850143
 11
146.849411
 21
48.850147
  0
LINE
  8
0
 10
112.849403
 20
49.100143
 11
112.849403
 21
27.600142
  0
LINE
  8
0
 10
146.849411
 20
48.850147
 11
146.849411
 21
27.850147
  0
LINE
  8
0
 10
139.082504
 20
43.350147
 11
141.305847
 21
43.350147
  0
LINE
  8
0
 10
139.082504
 20
33.350147
 11
141.305847
 21
33.350147
  0
LINE
  8
0
 10
118.392967
 20
33.350143
 11
120.616318
 21
33.350143
  0
LINE
  8
0
 10
118.392967
 20
43.350143
 11
120.616318
 21
43.350143
  0
LINE
  8
0
 10
120.818214
 20
35.850143
 11
138.880600
 21
35.850147
  0
LINE
  8
0
 10
120.818214
 20
40.850143
 11
138.880600
 21
40.850147
  0
LINE
  8
0
 10
121.849411
 20
37.500137
 11
137.849411
 21
37.500141
  0
LINE
  8
0
 10
121.849411
 20
39.200150
 11
137.849411
 21
39.200153
  0
LINE
  8
0
 10
121.849411
 20
39.200150
 11
121.849411
 21
37.500137
  0
LINE
  8
0
 10
137.849411
 20
39.200153
 11
137.849411
 21
37.500141
  0
LINE
  8
0
 10
155.349411
 20
46.850151
 11
155.349411
 21
29.850149
  0
LINE
  8
0
 10
146.849411
 20
46.600147
 11
155.349411
 21
46.600151
  0
LINE
  8
0
 10
146.849411
 20
30.100147
 11
155.349411
 21
30.100149
  0
LINE
  8
0
 10
161.349411
 20
29.850151
 11
161.349411
 21
46.850151
  0
LINE
  8
0
 10
161.349411
 20
45.080181
 11
171.489822
 21
44.766750
  0
LINE
  8
0
 10
161.581879
 20
44.212585
 11
172.322845
 21
43.880592
  0
LINE
  8
0
 10
171.489822
 20
44.766720
 11
172.349411
 21
43.852299
  0
LINE
  8
0
 10
161.349396
 20
45.080124
 11
161.581863
 21
44.212536
  0
LINE
  8
0
 10
172.349411
 20
32.848000
 11
172.349411
 21
43.879738
  0
LINE
  8
0
 10
161.349396
 20
31.620142
 11
161.581879
 21
32.487747
  0
LINE
  8
0
 10
161.349411
 20
31.620165
 11
171.489838
 21
31.933599
  0
LINE
  8
0
 10
161.581879
 20
32.487732
 11
172.322845
 21
32.819725
  0
LINE
  8
0
 10
171.489822
 20
31.933586
 11
172.349411
 21
32.848000
  0
LINE
  8
0
 10
161.581879
 20
44.212547
 11
161.581879
 21
32.487740
  0
LINE
  8
0
  6
CENTER
 10
90.556351
 20
38.350140
 11
173.100586
 21
38.350151
  0
LINE
  8
0
 10
100.249413
 20
49.100140
 11
100.249413
 21
27.600140
  0
LINE
  8
0
 10
97.049408
 20
48.250134
 11
94.849411
 21
48.250134
  0
LINE
  8
0
 10
98.649406
 20
45.850140
 11
97.049408
 21
45.850140
  0
LINE
  8
0
 10
100.249413
 20
48.350140
 11
98.649406
 21
48.350140
  0
LINE
  8
0
 10
94.849411
 20
28.450130
 11
94.849411
 21
48.250134
  0
LINE
  8
0
 10
97.049408
 20
28.450130
 11
97.049408
 21
48.250134
  0
LINE
  8
0
 10
98.649406
 20
28.350140
 11
98.649406
 21
48.350140
  0
LINE
  8
0
 10
97.049408
 20
28.450130
 11
94.849411
 21
28.450130
  0
LINE
  8
0
 10
98.649406
 20
30.850140
 11
97.049408
 21
30.850140
  0
LINE
  8
0
 10
100.249413
 20
28.350140
 11
98.649406
 21
28.350140
  0
LINE
  8
0
 10
100.249413
 20
27.600140
 11
112.849403
 21
27.600142
  0
LINE
  8
0
 10
100.249413
 20
49.100140
 11
112.849403
 21
49.100143
  0
LINE
  8
0
  6
CENTER
 10
166.349411
 20
28.450142
 11
166.349411
 21
48.250145
  0
LINE
  8
0
 10
171.489838
 20
31.933586
 11
171.489822
 21
44.766716
  0
LINE
  8
0
 10
155.349411
 20
46.850151
 11
161.349411
 21
46.850151
  0
LINE
  8
0
 10
155.349411
 20
29.850149
 11
161.349411
 21
29.850151
  0
LINE
  8
0
 10
155.349411
 20
38.350147
 11
161.349411
 21
38.350151
  0
ARC
  8
0
 10
129.849411
 20
38.350143
 40
12.500000
 50
0.000017
 51
23.578199
  0
CIRCLE
  8
0
 10
129.849411
 20
38.350143
 40
10.500000
  0
ARC
  8
0
 10
129.849411
 20
38.350143
 40
12.500003
 50
156.421844
 51
203.578140
  0
ARC
  8
0
 10
129.849411
 20
38.350143
 40
12.499995
 50
336.421844
 51
0.000017
  0
ARC
  8
0
 10
138.880600
 20
40.350147
 40
0.500002
 50
12.486895
 51
90.000000
  0
ARC
  8
0
 10
120.818214
 20
40.350143
 40
0.500000
 50
90.000000
 51
167.513107
  0
ARC
  8
0
 10
138.880600
 20
36.350147
 40
0.500000
 50
270.000000
 51
347.513092
  0
ARC
  8
0
 10
120.818214
 20
36.350143
 40
0.500002
 50
192.486893
 51
270.000000
  0
ARC
  8
0
 10
129.849411
 20
38.350143
 40
9.750000
 50
0.000022
 51
359.464630
  0
POINT
  8
0
 10
-112.023071
 20
-159.119675
  0
POINT
  8
0
 10
-97.023071
 20
-159.119675
  0
LINE
  8
0
  6
CENTER
 10
-149.023071
 20
-127.162704
 11
-149.023071
 21
-171.349777
  0
LINE
  8
0
 10
-166.023071
 20
-169.619690
 11
-132.023071
 21
-169.619675
  0
LINE
  8
0
 10
-132.023071
 20
-148.619675
 11
-132.023071
 21
-169.619675
  0
LINE
  8
0
 10
-133.558975
 20
-148.619675
 11
-132.023071
 21
-148.619675
  0
LINE
  8
0
  6
CENTER
 10
-137.023071
 20
-145.152130
 11
-137.023071
 21
-153.042984
  0
LINE
  8
0
  6
CENTER
 10
-140.416870
 20
-148.119675
 11
-132.023071
 21
-148.119675
  0
LINE
  8
0
 10
-136.523071
 20
-144.119675
 11
-136.523071
 21
-144.655579
  0
LINE
  8
0
 10
-134.523071
 20
-150.569168
 11
-134.523071
 21
-167.119675
  0
LINE
  8
0
 10
-166.023071
 20
-148.369690
 11
-166.023071
 21
-169.869690
  0
LINE
  8
0
 10
-136.523071
 20
-144.119675
 11
-161.523071
 21
-144.119675
  0
LINE
  8
0
  6
CENTER
 10
-161.023071
 20
-145.152130
 11
-161.023071
 21
-153.042984
  0
LINE
  8
0
  6
CENTER
 10
-157.629272
 20
-148.119690
 11
-164.260513
 21
-148.119690
  0
LINE
  8
0
 10
-161.523071
 20
-144.119675
 11
-161.523071
 21
-144.655579
  0
LINE
  8
0
 10
-136.523071
 20
-144.655579
 11
-161.523071
 21
-144.655579
  0
LINE
  8
0
 10
-163.523071
 20
-150.569168
 11
-163.523071
 21
-167.119675
  0
LINE
  8
0
 10
-134.523071
 20
-167.119675
 11
-163.523071
 21
-167.119690
  0
LINE
  8
0
 10
-140.168076
 20
-149.655579
 11
-157.878067
 21
-149.655579
  0
LINE
  8
0
 10
-139.273071
 20
-129.619675
 11
-139.273071
 21
-144.119675
  0
LINE
  8
0
 10
-140.273071
 20
-128.619675
 11
-157.773071
 21
-128.619690
  0
LINE
  8
0
 10
-158.773071
 20
-129.619690
 11
-158.773071
 21
-144.119675
  0
LINE
  8
0
 10
-139.273071
 20
-138.619675
 11
-158.773071
 21
-138.619675
  0
LINE
  8
0
 10
-123.523064
 20
-150.869675
 11
-123.523064
 21
-167.369675
  0
LINE
  8
0
 10
-132.023071
 20
-150.869675
 11
-123.523064
 21
-150.869675
  0
LINE
  8
0
 10
-132.023071
 20
-167.369675
 11
-123.523064
 21
-167.369675
  0
LINE
  8
0
 10
-123.523071
 20
-167.519669
 11
-123.147942
 21
-168.919662
  0
LINE
  8
0
 10
-123.523064
 20
-150.719681
 11
-123.147934
 21
-149.319672
  0
LINE
  8
0
  6
CENTER
 10
-187.916138
 20
-159.119690
 11
-105.371887
 21
-159.119675
  0
LINE
  8
0
 10
-117.523064
 20
-167.519684
 11
-117.523064
 21
-150.719635
  0
LINE
  8
0
 10
-123.147934
 20
-168.919678
 11
-117.898193
 21
-168.919678
  0
LINE
  8
0
 10
-117.898201
 20
-168.919662
 11
-117.523071
 21
-167.519669
  0
LINE
  8
0
 10
-105.523056
 20
-166.384644
 11
-105.523056
 21
-151.854721
  0
LINE
  8
0
 10
-117.523056
 20
-167.627151
 11
-106.362656
 21
-167.278397
  0
LINE
  8
0
 10
-117.295967
 20
-166.779648
 11
-105.549301
 21
-166.412552
  0
LINE
  8
0
 10
-106.362656
 20
-167.278412
 11
-105.523064
 21
-166.384644
  0
LINE
  8
0
 10
-117.523056
 20
-167.627167
 11
-117.295967
 21
-166.779648
  0
LINE
  8
0
 10
-117.295975
 20
-151.459686
 11
-117.295975
 21
-166.779678
  0
LINE
  8
0
 10
-123.147934
 20
-149.319687
 11
-117.898186
 21
-149.319687
  0
LINE
  8
0
 10
-117.898170
 20
-149.319672
 11
-117.523041
 21
-150.719666
  0
LINE
  8
0
 10
-117.523071
 20
-150.612183
 11
-106.362656
 21
-150.960937
  0
LINE
  8
0
 10
-117.295975
 20
-151.459686
 11
-105.549309
 21
-151.826767
  0
LINE
  8
0
 10
-106.362679
 20
-150.960968
 11
-105.523087
 21
-151.854721
  0
LINE
  8
0
 10
-117.523026
 20
-150.612167
 11
-117.295929
 21
-151.459686
  0
LINE
  8
0
 10
-123.523064
 20
-164.119675
 11
-117.523064
 21
-164.119675
  0
LINE
  8
0
 10
-123.523064
 20
-154.119675
 11
-117.523056
 21
-154.119675
  0
LINE
  8
0
 10
-106.362656
 20
-150.960937
 11
-106.362656
 21
-167.278412
  0
LINE
  8
0
 10
-178.623062
 20
-148.369690
 11
-166.023071
 21
-148.369690
  0
LINE
  8
0
 10
-178.623062
 20
-148.369690
 11
-178.623062
 21
-169.869690
  0
LINE
  8
0
 10
-181.823059
 20
-149.219696
 11
-184.023071
 21
-149.219696
  0
LINE
  8
0
 10
-180.223068
 20
-151.619690
 11
-181.823059
 21
-151.619690
  0
LINE
  8
0
 10
-178.623062
 20
-149.119690
 11
-180.223068
 21
-149.119690
  0
LINE
  8
0
 10
-184.023071
 20
-169.019699
 11
-184.023071
 21
-149.219696
  0
LINE
  8
0
 10
-181.823059
 20
-169.019699
 11
-181.823059
 21
-149.219696
  0
LINE
  8
0
 10
-180.223068
 20
-169.119690
 11
-180.223068
 21
-149.119690
  0
LINE
  8
0
 10
-181.823059
 20
-169.019699
 11
-184.023071
 21
-169.019699
  0
LINE
  8
0
 10
-180.223068
 20
-166.619690
 11
-181.823059
 21
-166.619690
  0
LINE
  8
0
 10
-178.623062
 20
-169.119690
 11
-180.223068
 21
-169.119690
  0
LINE
  8
0
 10
-178.623062
 20
-169.869690
 11
-166.023071
 21
-169.869690
  0
LINE
  8
0
  6
CENTER
 10
-112.023064
 20
-169.019684
 11
-112.023064
 21
-149.219681
  0
LINE
  8
0
 10
-123.523064
 20
-167.369675
 11
-123.523064
 21
-150.869675
  0
LINE
  8
0
 10
-166.023071
 20
-148.619690
 11
-164.523071
 21
-148.619690
  0
CIRCLE
  8
0
 10
-137.023071
 20
-148.119675
 40
2.100000
  0
ARC
  8
0
 10
-137.023071
 20
-148.119675
 40
3.500010
 50
351.786804
 51
81.786774
  0
ARC
  8
0
 10
-137.023071
 20
-148.119675
 40
3.500008
 50
206.029175
 51
315.584656
  0
CIRCLE
  8
0
 10
-161.023071
 20
-148.119690
 40
2.100000
  0
ARC
  8
0
 10
-161.023071
 20
-148.119690
 40
3.500010
 50
98.213188
 51
188.212982
  0
ARC
  8
0
 10
-161.023071
 20
-148.119690
 40
3.499992
 50
224.415176
 51
333.971039
  0
ARC
  8
0
 10
-157.773071
 20
-129.619690
 40
1.000000
 50
90.000000
 51
180.000000
  0
ARC
  8
0
 10
-140.273071
 20
-129.619675
 40
1.000000
 50
0.000000
 51
90.000000
  0
POINT
  8
0
 10
-35.967499
 20
-159.119659
  0
POINT
  8
0
 10
-46.467499
 20
-159.119659
  0
LINE
  8
0
 10
-56.467499
 20
-169.619659
 11
-36.467499
 21
-169.619659
  0
LINE
  8
0
  6
CENTER
 10
-46.467499
 20
-128.090652
 11
-46.467499
 21
-171.527725
  0
LINE
  8
0
 10
-56.467499
 20
-144.119659
 11
-36.467499
 21
-144.119659
  0
LINE
  8
0
 10
-56.967499
 20
-144.619659
 11
-56.967499
 21
-169.119659
  0
LINE
  8
0
 10
-35.967499
 20
-144.619659
 11
-35.967499
 21
-169.119659
  0
LINE
  8
0
 10
-36.467499
 20
-144.119659
 11
-35.967506
 21
-144.619659
  0
LINE
  8
0
 10
-56.467503
 20
-144.119659
 11
-56.967503
 21
-144.619659
  0
LINE
  8
0
 10
-56.967499
 20
-169.119675
 11
-56.467499
 21
-169.619675
  0
LINE
  8
0
 10
-36.467506
 20
-169.619659
 11
-35.967506
 21
-169.119659
  0
LINE
  8
0
  6
CENTER
 10
-57.945496
 20
-159.119659
 11
-35.439850
 21
-159.119659
  0
LINE
  8
0
 10
-55.717499
 20
-138.619659
 11
-37.217499
 21
-138.619659
  0
LINE
  8
0
 10
-36.717499
 20
-139.119659
 11
-36.717499
 21
-144.119659
  0
LINE
  8
0
 10
-56.217499
 20
-139.119659
 11
-56.217499
 21
-144.119659
  0
LINE
  8
0
 10
-48.967499
 20
-129.119659
 11
-48.967499
 21
-138.119659
  0
LINE
  8
0
 10
-43.967499
 20
-129.119659
 11
-43.967499
 21
-138.119659
  0
LINE
  8
0
 10
-48.467499
 20
-128.619659
 11
-44.467499
 21
-128.619659
  0
LINE
  8
0
 10
-37.967499
 20
-154.212173
 11
-37.967499
 21
-164.027130
  0
LINE
  8
0
 10
-46.467484
 20
-168.919662
 11
-37.967484
 21
-164.027145
  0
LINE
  8
0
 10
-37.967499
 20
-154.212173
 11
-46.467495
 21
-149.319656
  0
LINE
  8
0
 10
-54.967487
 20
-154.212204
 11
-46.467484
 21
-149.319672
  0
LINE
  8
0
 10
-54.967499
 20
-154.212173
 11
-54.967499
 21
-164.027130
  0
LINE
  8
0
 10
-46.467518
 20
-168.919678
 11
-54.967514
 21
-164.027161
  0
ARC
  8
0
 10
-37.217499
 20
-139.119659
 40
0.500000
 50
0.000000
 51
90.000000
  0
ARC
  8
0
 10
-55.717499
 20
-139.119659
 40
0.500000
 50
90.000000
 51
180.000000
  0
ARC
  8
0
 10
-48.467499
 20
-129.119659
 40
0.500000
 50
90.000000
 51
180.000000
  0
ARC
  8
0
 10
-44.467499
 20
-129.119659
 40
0.500000
 50
0.000000
 51
90.000000
  0
ARC
  8
0
 10
-49.467499
 20
-138.119659
 40
0.500000
 50
270.000000
 51
0.000000
  0
ARC
  8
0
 10
-43.467499
 20
-138.119659
 40
0.500000
 50
180.000000
 51
270.000000
  0
CIRCLE
  8
0
 10
-46.467499
 20
-159.119659
 40
8.132500
  0
CIRCLE
  8
0
 10
-46.467499
 20
-159.119659
 40
8.507500
  0
CIRCLE
  8
0
 10
-46.467499
 20
-159.119659
 40
4.000000
  0
POINT
  8
0
 10
-238.563858
 20
-159.119675
  0
POINT
  8
0
 10
-227.813858
 20
-159.119675
  0
LINE
  8
0
 10
-248.563858
 20
-169.619675
 11
-240.868744
 21
-169.619675
  0
LINE
  8
0
  6
CENTER
 10
-238.563858
 20
-128.090668
 11
-238.563858
 21
-171.527740
  0
LINE
  8
0
 10
-248.563858
 20
-144.119675
 11
-228.563858
 21
-144.119675
  0
LINE
  8
0
 10
-249.063858
 20
-144.619675
 11
-249.063858
 21
-156.814789
  0
LINE
  8
0
 10
-228.563858
 20
-144.119675
 11
-228.063858
 21
-144.619675
  0
LINE
  8
0
 10
-248.563843
 20
-144.119690
 11
-249.063843
 21
-144.619690
  0
LINE
  8
0
 10
-249.063858
 20
-169.119675
 11
-248.563858
 21
-169.619675
  0
LINE
  8
0
 10
-228.563858
 20
-169.619675
 11
-228.063858
 21
-169.119675
  0
LINE
  8
0
  6
CENTER
 10
-250.041855
 20
-159.119675
 11
-227.536209
 21
-159.119675
  0
LINE
  8
0
 10
-247.813858
 20
-138.619675
 11
-229.313858
 21
-138.619675
  0
LINE
  8
0
 10
-228.813858
 20
-139.119675
 11
-228.813858
 21
-144.119675
  0
LINE
  8
0
 10
-248.313858
 20
-139.119675
 11
-248.313858
 21
-144.119675
  0
LINE
  8
0
 10
-241.063858
 20
-129.119675
 11
-241.063858
 21
-138.119675
  0
LINE
  8
0
 10
-236.063858
 20
-129.119675
 11
-236.063858
 21
-138.119675
  0
LINE
  8
0
 10
-240.563858
 20
-128.619675
 11
-236.563858
 21
-128.619675
  0
LINE
  8
0
 10
-249.063858
 20
-161.424561
 11
-249.063858
 21
-169.119675
  0
LINE
  8
0
 10
-236.258972
 20
-169.619675
 11
-228.563858
 21
-169.619675
  0
LINE
  8
0
 10
-228.063858
 20
-144.619675
 11
-228.063858
 21
-156.814789
  0
LINE
  8
0
 10
-228.063858
 20
-161.424561
 11
-228.063858
 21
-169.119675
  0
ARC
  8
0
 10
-229.313858
 20
-139.119675
 40
0.500000
 50
0.000000
 51
90.000000
  0
ARC
  8
0
 10
-247.813858
 20
-139.119675
 40
0.500000
 50
90.000000
 51
180.000000
  0
ARC
  8
0
 10
-240.563858
 20
-129.119675
 40
0.500000
 50
90.000000
 51
180.000000
  0
ARC
  8
0
 10
-236.563858
 20
-129.119675
 40
0.500000
 50
0.000000
 51
90.000000
  0
ARC
  8
0
 10
-241.563858
 20
-138.119675
 40
0.500000
 50
270.000000
 51
0.000000
  0
ARC
  8
0
 10
-235.563858
 20
-138.119675
 40
0.500000
 50
180.000000
 51
270.000000
  0
CIRCLE
  8
0
 10
-238.563858
 20
-159.119675
 40
9.900000
  0
CIRCLE
  8
0
 10
-238.563858
 20
-159.119675
 40
6.100000
  0
CIRCLE
  8
0
 10
-238.563858
 20
-159.119675
 40
10.750000
  0
POINT
  8
0
 10
-112.023071
 20
-95.119675
  0
POINT
  8
0
 10
-97.023071
 20
-95.119675
  0
LINE
  8
0
  6
CENTER
 10
-149.023071
 20
-82.811768
 11
-149.023071
 21
-107.497978
  0
LINE
  8
0
 10
-166.023071
 20
-105.619682
 11
-132.023071
 21
-105.619675
  0
LINE
  8
0
 10
-166.023071
 20
-84.619682
 11
-132.023071
 21
-84.619675
  0
LINE
  8
0
 10
-166.023071
 20
-84.369682
 11
-166.023071
 21
-105.869682
  0
LINE
  8
0
 10
-132.023071
 20
-84.619675
 11
-132.023071
 21
-105.619675
  0
LINE
  8
0
 10
-139.789978
 20
-90.119682
 11
-137.566635
 21
-90.119682
  0
LINE
  8
0
 10
-139.789978
 20
-100.119682
 11
-137.566635
 21
-100.119682
  0
LINE
  8
0
 10
-160.479507
 20
-100.119682
 11
-158.256165
 21
-100.119682
  0
LINE
  8
0
 10
-160.479507
 20
-90.119682
 11
-158.256165
 21
-90.119682
  0
LINE
  8
0
 10
-158.054260
 20
-97.619682
 11
-139.991882
 21
-97.619682
  0
LINE
  8
0
 10
-158.054260
 20
-92.619682
 11
-139.991882
 21
-92.619682
  0
LINE
  8
0
 10
-157.023071
 20
-95.969681
 11
-141.023071
 21
-95.969681
  0
LINE
  8
0
 10
-157.023071
 20
-94.269684
 11
-141.023071
 21
-94.269684
  0
LINE
  8
0
 10
-157.023071
 20
-94.269684
 11
-157.023071
 21
-95.969681
  0
LINE
  8
0
 10
-141.023071
 20
-94.269684
 11
-141.023071
 21
-95.969681
  0
LINE
  8
0
 10
-132.023071
 20
-86.869675
 11
-123.523071
 21
-86.869675
  0
LINE
  8
0
 10
-132.023071
 20
-103.369675
 11
-123.523071
 21
-103.369675
  0
LINE
  8
0
 10
-178.623062
 20
-84.369690
 11
-166.023071
 21
-84.369682
  0
LINE
  8
0
 10
-178.623062
 20
-84.369690
 11
-178.623062
 21
-105.869690
  0
LINE
  8
0
 10
-181.823059
 20
-85.219696
 11
-184.023071
 21
-85.219696
  0
LINE
  8
0
 10
-180.223068
 20
-87.619690
 11
-181.823059
 21
-87.619690
  0
LINE
  8
0
 10
-178.623062
 20
-85.119690
 11
-180.223068
 21
-85.119690
  0
LINE
  8
0
 10
-184.023071
 20
-105.019699
 11
-184.023071
 21
-85.219696
  0
LINE
  8
0
 10
-181.823059
 20
-105.019699
 11
-181.823059
 21
-85.219696
  0
LINE
  8
0
 10
-180.223068
 20
-105.119690
 11
-180.223068
 21
-85.119690
  0
LINE
  8
0
 10
-181.823059
 20
-105.019699
 11
-184.023071
 21
-105.019699
  0
LINE
  8
0
 10
-180.223068
 20
-102.619690
 11
-181.823059
 21
-102.619690
  0
LINE
  8
0
 10
-178.623062
 20
-105.119690
 11
-180.223068
 21
-105.119690
  0
LINE
  8
0
 10
-178.623062
 20
-105.869690
 11
-166.023071
 21
-105.869682
  0
LINE
  8
0
 10
-123.523071
 20
-103.619675
 11
-123.523071
 21
-86.619675
  0
LINE
  8
0
  6
CENTER
 10
-187.916138
 20
-95.119690
 11
-105.371895
 21
-95.119675
  0
LINE
  8
0
 10
-117.523071
 20
-103.619675
 11
-117.523071
 21
-86.612175
  0
LINE
  8
0
 10
-105.523064
 20
-102.384651
 11
-105.523064
 21
-87.854729
  0
LINE
  8
0
 10
-117.523064
 20
-103.627167
 11
-106.362663
 21
-103.278404
  0
LINE
  8
0
 10
-117.295975
 20
-102.779648
 11
-105.549309
 21
-102.412567
  0
LINE
  8
0
 10
-106.362656
 20
-103.278404
 11
-105.523064
 21
-102.384644
  0
LINE
  8
0
 10
-117.523064
 20
-103.627167
 11
-117.295975
 21
-102.779655
  0
LINE
  8
0
 10
-117.295982
 20
-87.459679
 11
-117.295982
 21
-102.779671
  0
LINE
  8
0
 10
-117.523033
 20
-86.612175
 11
-106.362663
 21
-86.960937
  0
LINE
  8
0
 10
-117.295982
 20
-87.459679
 11
-105.549316
 21
-87.826759
  0
LINE
  8
0
 10
-106.362694
 20
-86.960953
 11
-105.523102
 21
-87.854706
  0
LINE
  8
0
 10
-117.523033
 20
-86.612175
 11
-117.295952
 21
-87.459679
  0
LINE
  8
0
 10
-106.362663
 20
-86.960945
 11
-106.362663
 21
-103.278419
  0
LINE
  8
0
  6
CENTER
 10
-112.023071
 20
-105.019684
 11
-112.023071
 21
-85.219681
  0
LINE
  8
0
 10
-123.523071
 20
-103.619675
 11
-117.523071
 21
-103.619675
  0
LINE
  8
0
 10
-123.523071
 20
-86.619675
 11
-117.521027
 21
-86.619675
  0
LINE
  8
0
 10
-123.523071
 20
-95.119675
 11
-117.523071
 21
-95.119675
  0
CIRCLE
  8
0
 10
-149.023071
 20
-95.119682
 40
10.500000
  0
ARC
  8
0
 10
-149.023071
 20
-95.119682
 40
12.499994
 50
156.421844
 51
203.578125
  0
ARC
  8
0
 10
-149.023071
 20
-95.119682
 40
12.499997
 50
336.421814
 51
23.578184
  0
ARC
  8
0
 10
-139.991882
 20
-93.119682
 40
0.500002
 50
12.486895
 51
90.000000
  0
ARC
  8
0
 10
-158.054260
 20
-93.119682
 40
0.500000
 50
90.000000
 51
167.513489
  0
ARC
  8
0
 10
-139.991882
 20
-97.119682
 40
0.500000
 50
270.000000
 51
347.513092
  0
ARC
  8
0
 10
-158.054260
 20
-97.119682
 40
0.500017
 50
192.486511
 51
270.000000
  0
ARC
  8
0
 10
-149.023071
 20
-95.119682
 40
9.750000
 50
0.000000
 51
359.464630
  0
POINT
  8
0
 10
176.349411
 20
-155.119675
  0
POINT
  8
0
 10
191.349411
 20
-155.119675
  0
LINE
  8
0
 10
108.249420
 20
-144.369690
 11
108.249420
 21
-165.869690
  0
LINE
  8
0
 10
105.049416
 20
-145.219696
 11
102.849411
 21
-145.219696
  0
LINE
  8
0
 10
106.649414
 20
-147.619690
 11
105.049416
 21
-147.619690
  0
LINE
  8
0
 10
108.249420
 20
-145.119690
 11
106.649414
 21
-145.119690
  0
LINE
  8
0
 10
102.849411
 20
-165.019699
 11
102.849411
 21
-145.219696
  0
LINE
  8
0
 10
105.049416
 20
-165.019699
 11
105.049416
 21
-145.219696
  0
LINE
  8
0
 10
106.649414
 20
-165.119690
 11
106.649414
 21
-145.119690
  0
LINE
  8
0
 10
105.049416
 20
-165.019699
 11
102.849411
 21
-165.019699
  0
LINE
  8
0
 10
106.649414
 20
-162.619690
 11
105.049416
 21
-162.619690
  0
LINE
  8
0
 10
108.249420
 20
-165.119690
 11
106.649414
 21
-165.119690
  0
LINE
  8
0
  6
CENTER
 10
137.849396
 20
-123.162704
 11
137.849411
 21
-167.349762
  0
LINE
  8
0
 10
120.849411
 20
-165.619690
 11
154.849411
 21
-165.619675
  0
LINE
  8
0
 10
154.849411
 20
-144.619675
 11
154.849411
 21
-165.619675
  0
LINE
  8
0
 10
125.349403
 20
-140.119690
 11
150.349411
 21
-140.119675
  0
LINE
  8
0
 10
153.313507
 20
-144.619675
 11
154.849411
 21
-144.619675
  0
LINE
  8
0
  6
CENTER
 10
149.849411
 20
-141.152130
 11
149.849411
 21
-149.042984
  0
LINE
  8
0
  6
CENTER
 10
100.922958
 20
-155.119690
 11
186.680527
 21
-155.119675
  0
LINE
  8
0
  6
CENTER
 10
146.455597
 20
-144.119675
 11
154.849411
 21
-144.119675
  0
LINE
  8
0
 10
150.349411
 20
-140.119675
 11
150.349411
 21
-140.655579
  0
LINE
  8
0
 10
125.349403
 20
-140.655579
 11
150.349411
 21
-140.655579
  0
LINE
  8
0
 10
152.349411
 20
-146.569168
 11
152.349411
 21
-163.119675
  0
LINE
  8
0
 10
123.349411
 20
-163.119690
 11
152.349411
 21
-163.119675
  0
LINE
  8
0
 10
128.994415
 20
-145.655579
 11
146.704407
 21
-145.655579
  0
LINE
  8
0
 10
120.849411
 20
-144.369690
 11
120.849411
 21
-165.869690
  0
LINE
  8
0
  6
CENTER
 10
125.849403
 20
-141.152130
 11
125.849411
 21
-149.042984
  0
LINE
  8
0
  6
CENTER
 10
129.243210
 20
-144.119690
 11
120.849403
 21
-144.119690
  0
LINE
  8
0
 10
125.349403
 20
-140.119690
 11
125.349403
 21
-140.655579
  0
LINE
  8
0
 10
123.349411
 20
-146.569183
 11
123.349411
 21
-163.119690
  0
LINE
  8
0
 10
129.099396
 20
-124.619682
 11
146.599396
 21
-124.619682
  0
LINE
  8
0
 10
128.099396
 20
-134.619690
 11
147.599396
 21
-134.619675
  0
LINE
  8
0
 10
147.599396
 20
-125.619682
 11
147.599411
 21
-140.119675
  0
LINE
  8
0
 10
128.099396
 20
-125.619682
 11
128.099396
 21
-140.119690
  0
LINE
  8
0
 10
163.349396
 20
-144.719681
 11
163.349411
 21
-165.519684
  0
LINE
  8
0
 10
154.849411
 20
-146.869675
 11
163.349396
 21
-146.869675
  0
LINE
  8
0
 10
154.849411
 20
-163.369675
 11
163.349411
 21
-163.369675
  0
LINE
  8
0
 10
163.349411
 20
-165.519684
 11
163.804916
 21
-167.219696
  0
LINE
  8
0
 10
163.349396
 20
-144.719666
 11
163.804916
 21
-143.019669
  0
LINE
  8
0
 10
108.249420
 20
-165.869690
 11
120.849411
 21
-165.869690
  0
LINE
  8
0
 10
108.249420
 20
-144.369690
 11
120.849411
 21
-144.369690
  0
LINE
  8
0
 10
120.849411
 20
-144.619690
 11
122.385307
 21
-144.619690
  0
LINE
  8
0
 10
163.349396
 20
-149.119675
 11
169.349396
 21
-149.119675
  0
LINE
  8
0
 10
169.349411
 20
-165.810913
 11
169.349396
 21
-144.428452
  0
LINE
  8
0
 10
163.804932
 20
-167.219666
 11
168.971939
 21
-167.219666
  0
LINE
  8
0
 10
168.971924
 20
-167.219681
 11
169.349396
 21
-165.810944
  0
LINE
  8
0
 10
169.349396
 20
-165.810913
 11
183.189972
 21
-165.378387
  0
LINE
  8
0
 10
169.662994
 20
-164.640533
 11
184.313171
 21
-164.182724
  0
LINE
  8
0
 10
183.190002
 20
-165.378433
 11
184.349442
 21
-164.144196
  0
LINE
  8
0
 10
169.349396
 20
-165.810944
 11
169.662994
 21
-164.640564
  0
LINE
  8
0
 10
169.662994
 20
-145.598785
 11
169.663010
 21
-164.640549
  0
LINE
  8
0
 10
163.804916
 20
-143.019684
 11
168.971924
 21
-143.019684
  0
LINE
  8
0
 10
168.971924
 20
-143.019684
 11
169.349396
 21
-144.428436
  0
LINE
  8
0
 10
169.349411
 20
-144.428436
 11
183.189972
 21
-144.860947
  0
LINE
  8
0
 10
169.662994
 20
-145.598785
 11
184.313171
 21
-146.056595
  0
LINE
  8
0
 10
183.189987
 20
-144.860931
 11
184.349426
 21
-146.095169
  0
LINE
  8
0
 10
169.349411
 20
-144.428436
 11
169.663010
 21
-145.598801
  0
LINE
  8
0
 10
163.349411
 20
-161.119675
 11
169.349411
 21
-161.119675
  0
LINE
  8
0
 10
183.189972
 20
-165.378403
 11
183.189972
 21
-144.860947
  0
LINE
  8
0
  6
CENTER
 10
176.349411
 20
-169.697113
 11
176.349411
 21
-140.984436
  0
LINE
  8
0
 10
184.349411
 20
-164.181595
 11
184.349411
 21
-146.057724
  0
CIRCLE
  8
0
 10
149.849411
 20
-144.119675
 40
2.100000
  0
ARC
  8
0
 10
149.849411
 20
-144.119675
 40
3.499995
 50
351.786774
 51
81.786774
  0
ARC
  8
0
 10
149.849411
 20
-144.119675
 40
3.500008
 50
206.029175
 51
315.584656
  0
CIRCLE
  8
0
 10
125.849403
 20
-144.119690
 40
2.100000
  0
ARC
  8
0
 10
125.849403
 20
-144.119690
 40
3.500009
 50
98.213066
 51
188.212952
  0
ARC
  8
0
 10
125.849403
 20
-144.119690
 40
3.499986
 50
224.415268
 51
333.971100
  0
ARC
  8
0
 10
129.099396
 20
-125.619682
 40
1.000000
 50
90.000000
 51
180.000000
  0
ARC
  8
0
 10
146.599396
 20
-125.619682
 40
1.000000
 50
0.000000
 51
90.000000
  0
POINT
  8
0
 10
235.404968
 20
-155.119675
  0
POINT
  8
0
 10
246.096222
 20
-155.119675
  0
LINE
  8
0
 10
225.404968
 20
-165.619675
 11
232.622498
 21
-165.619675
  0
LINE
  8
0
  6
CENTER
 10
235.404968
 20
-124.090668
 11
235.404968
 21
-167.527740
  0
LINE
  8
0
 10
225.404968
 20
-140.119675
 11
245.404968
 21
-140.119675
  0
LINE
  8
0
 10
224.904968
 20
-140.619675
 11
224.904968
 21
-153.106506
  0
LINE
  8
0
 10
245.904968
 20
-140.619675
 11
245.904968
 21
-153.106506
  0
LINE
  8
0
 10
245.404968
 20
-140.119675
 11
245.904968
 21
-140.619675
  0
LINE
  8
0
 10
225.404953
 20
-140.119659
 11
224.904953
 21
-140.619659
  0
LINE
  8
0
 10
224.904968
 20
-165.119690
 11
225.404953
 21
-165.619675
  0
LINE
  8
0
 10
245.404953
 20
-165.619659
 11
245.904953
 21
-165.119659
  0
LINE
  8
0
  6
CENTER
 10
223.926971
 20
-155.119675
 11
246.432617
 21
-155.119675
  0
LINE
  8
0
 10
226.154968
 20
-134.619675
 11
244.654968
 21
-134.619675
  0
LINE
  8
0
 10
245.154968
 20
-135.119675
 11
245.154968
 21
-140.119675
  0
LINE
  8
0
 10
225.654968
 20
-135.119675
 11
225.654968
 21
-140.119675
  0
LINE
  8
0
 10
232.904968
 20
-125.119675
 11
232.904968
 21
-134.119675
  0
LINE
  8
0
 10
237.904968
 20
-125.119675
 11
237.904968
 21
-134.119675
  0
LINE
  8
0
 10
233.404968
 20
-124.619675
 11
237.404968
 21
-124.619675
  0
LINE
  8
0
 10
235.404953
 20
-143.019669
 11
238.841507
 21
-144.995789
  0
LINE
  8
0
 10
245.904984
 20
-161.181854
 11
242.426208
 21
-163.182251
  0
LINE
  8
0
 10
235.404984
 20
-143.019669
 11
231.968445
 21
-144.995789
  0
LINE
  8
0
 10
224.904968
 20
-161.181854
 11
228.383728
 21
-163.182251
  0
LINE
  8
0
 10
238.841522
 20
-165.243561
 11
235.404984
 21
-167.219681
  0
LINE
  8
0
 10
231.968430
 20
-165.243561
 11
235.404968
 21
-167.219666
  0
LINE
  8
0
 10
228.383743
 20
-147.057098
 11
224.904984
 21
-149.057495
  0
LINE
  8
0
 10
242.426193
 20
-147.057098
 11
245.904953
 21
-149.057495
  0
LINE
  8
0
 10
238.187439
 20
-165.619675
 11
245.404968
 21
-165.619675
  0
LINE
  8
0
 10
224.904968
 20
-157.132843
 11
224.904968
 21
-165.119675
  0
LINE
  8
0
 10
245.904968
 20
-157.132843
 11
245.904968
 21
-165.119675
  0
ARC
  8
0
 10
244.654968
 20
-135.119675
 40
0.500000
 50
0.000000
 51
90.000000
  0
ARC
  8
0
 10
226.154968
 20
-135.119675
 40
0.500000
 50
90.000000
 51
180.000000
  0
ARC
  8
0
 10
233.404968
 20
-125.119675
 40
0.500000
 50
90.000000
 51
180.000000
  0
ARC
  8
0
 10
237.404968
 20
-125.119675
 40
0.500000
 50
0.000000
 51
90.000000
  0
ARC
  8
0
 10
232.404968
 20
-134.119675
 40
0.500000
 50
270.000000
 51
0.000000
  0
ARC
  8
0
 10
238.404968
 20
-134.119675
 40
0.500000
 50
180.000000
 51
270.000000
  0
CIRCLE
  8
0
 10
235.404968
 20
-155.119675
 40
10.222500
  0
CIRCLE
  8
0
 10
235.404968
 20
-155.119675
 40
10.691250
  0
CIRCLE
  8
0
 10
235.404968
 20
-155.119675
 40
4.000000
  0
POINT
  8
0
 10
43.308609
 20
-155.119675
  0
POINT
  8
0
 10
54.058609
 20
-155.119675
  0
LINE
  8
0
 10
33.308609
 20
-165.619675
 11
41.003723
 21
-165.619675
  0
LINE
  8
0
  6
CENTER
 10
43.308609
 20
-124.090675
 11
43.308609
 21
-167.527740
  0
LINE
  8
0
 10
33.308609
 20
-140.119675
 11
53.308609
 21
-140.119675
  0
LINE
  8
0
 10
32.808609
 20
-140.619675
 11
32.808609
 21
-152.814789
  0
LINE
  8
0
 10
53.808609
 20
-140.619675
 11
53.808609
 21
-152.814789
  0
LINE
  8
0
 10
53.308609
 20
-140.119675
 11
53.808609
 21
-140.619675
  0
LINE
  8
0
 10
33.308617
 20
-140.119690
 11
32.808617
 21
-140.619690
  0
LINE
  8
0
 10
32.808609
 20
-165.119675
 11
33.308609
 21
-165.619675
  0
LINE
  8
0
 10
53.308601
 20
-165.619675
 11
53.808601
 21
-165.119675
  0
LINE
  8
0
  6
CENTER
 10
31.830608
 20
-155.119675
 11
54.336266
 21
-155.119675
  0
LINE
  8
0
 10
34.058609
 20
-134.619675
 11
52.558609
 21
-134.619675
  0
LINE
  8
0
 10
53.058609
 20
-135.119675
 11
53.058609
 21
-140.119675
  0
LINE
  8
0
 10
33.558609
 20
-135.119675
 11
33.558609
 21
-140.119675
  0
LINE
  8
0
 10
40.808609
 20
-125.119675
 11
40.808609
 21
-134.119675
  0
LINE
  8
0
 10
45.808609
 20
-125.119675
 11
45.808609
 21
-134.119675
  0
LINE
  8
0
 10
41.308609
 20
-124.619675
 11
45.308609
 21
-124.619675
  0
LINE
  8
0
 10
45.613495
 20
-165.619675
 11
53.308609
 21
-165.619675
  0
LINE
  8
0
 10
53.808609
 20
-157.424561
 11
53.808609
 21
-165.119675
  0
LINE
  8
0
 10
32.808609
 20
-157.424561
 11
32.808609
 21
-165.119675
  0
ARC
  8
0
 10
52.558609
 20
-135.119675
 40
0.500000
 50
0.000000
 51
90.000000
  0
ARC
  8
0
 10
34.058609
 20
-135.119675
 40
0.500000
 50
90.000000
 51
180.000000
  0
ARC
  8
0
 10
41.308609
 20
-125.119675
 40
0.500000
 50
90.000000
 51
180.000000
  0
ARC
  8
0
 10
45.308609
 20
-125.119675
 40
0.500000
 50
0.000000
 51
90.000000
  0
ARC
  8
0
 10
40.308609
 20
-134.119675
 40
0.500000
 50
270.000000
 51
0.000000
  0
ARC
  8
0
 10
46.308609
 20
-134.119675
 40
0.500000
 50
180.000000
 51
270.000000
  0
CIRCLE
  8
0
 10
43.308609
 20
-155.119675
 40
9.900000
  0
CIRCLE
  8
0
 10
43.308609
 20
-155.119675
 40
6.100000
  0
CIRCLE
  8
0
 10
43.308609
 20
-155.119675
 40
10.750000
  0
POINT
  8
0
 10
176.349396
 20
-91.119659
  0
POINT
  8
0
 10
191.349396
 20
-91.119659
  0
LINE
  8
0
 10
169.349396
 20
-101.810905
 11
169.349396
 21
-80.428444
  0
LINE
  8
0
 10
184.349396
 20
-100.144150
 11
184.349396
 21
-82.095146
  0
LINE
  8
0
 10
169.349396
 20
-101.810898
 11
183.189957
 21
-101.378372
  0
LINE
  8
0
 10
169.662994
 20
-100.640533
 11
184.313171
 21
-100.182709
  0
LINE
  8
0
 10
183.190002
 20
-101.378426
 11
184.349442
 21
-100.144188
  0
LINE
  8
0
 10
169.349380
 20
-101.810921
 11
169.662979
 21
-100.640556
  0
LINE
  8
0
 10
169.662994
 20
-81.598778
 11
169.662994
 21
-100.640541
  0
LINE
  8
0
 10
169.349411
 20
-80.428421
 11
183.189972
 21
-80.860939
  0
LINE
  8
0
 10
169.662979
 20
-81.598770
 11
184.313156
 21
-82.056580
  0
LINE
  8
0
 10
183.189972
 20
-80.860909
 11
184.349411
 21
-82.095146
  0
LINE
  8
0
 10
169.349411
 20
-80.428429
 11
169.662994
 21
-81.598778
  0
LINE
  8
0
  6
CENTER
 10
101.298515
 20
-91.119675
 11
187.559570
 21
-91.119659
  0
LINE
  8
0
  6
CENTER
 10
137.849396
 20
-78.811745
 11
137.849396
 21
-103.497963
  0
LINE
  8
0
 10
120.849396
 20
-101.619675
 11
154.849396
 21
-101.619667
  0
LINE
  8
0
 10
120.849396
 20
-80.619667
 11
154.849396
 21
-80.619659
  0
LINE
  8
0
 10
120.849396
 20
-80.369667
 11
120.849396
 21
-101.869675
  0
LINE
  8
0
 10
154.849396
 20
-80.619659
 11
154.849396
 21
-101.619667
  0
LINE
  8
0
 10
147.082489
 20
-86.119667
 11
149.305832
 21
-86.119667
  0
LINE
  8
0
 10
147.082489
 20
-96.119667
 11
149.305832
 21
-96.119667
  0
LINE
  8
0
 10
126.392960
 20
-96.119675
 11
128.616302
 21
-96.119675
  0
LINE
  8
0
 10
126.392960
 20
-86.119667
 11
128.616302
 21
-86.119667
  0
LINE
  8
0
 10
128.818207
 20
-93.619667
 11
146.880585
 21
-93.619667
  0
LINE
  8
0
 10
128.818207
 20
-88.619667
 11
146.880585
 21
-88.619667
  0
LINE
  8
0
 10
129.849396
 20
-91.969666
 11
145.849396
 21
-91.969666
  0
LINE
  8
0
 10
129.849396
 20
-90.269669
 11
145.849396
 21
-90.269661
  0
LINE
  8
0
 10
129.849396
 20
-90.269669
 11
129.849396
 21
-91.969666
  0
LINE
  8
0
 10
145.849396
 20
-90.269661
 11
145.849396
 21
-91.969666
  0
LINE
  8
0
 10
163.349396
 20
-80.619659
 11
163.349396
 21
-101.619659
  0
LINE
  8
0
 10
154.849396
 20
-82.869667
 11
163.349396
 21
-82.869667
  0
LINE
  8
0
 10
154.849396
 20
-99.369667
 11
163.349396
 21
-99.369667
  0
LINE
  8
0
 10
108.249405
 20
-80.369675
 11
120.849396
 21
-80.369667
  0
LINE
  8
0
 10
108.249405
 20
-80.369675
 11
108.249405
 21
-101.869675
  0
LINE
  8
0
 10
105.049400
 20
-81.219681
 11
102.849396
 21
-81.219681
  0
LINE
  8
0
 10
106.649399
 20
-83.619675
 11
105.049400
 21
-83.619675
  0
LINE
  8
0
 10
108.249405
 20
-81.119675
 11
106.649399
 21
-81.119675
  0
LINE
  8
0
 10
102.849396
 20
-101.019684
 11
102.849396
 21
-81.219681
  0
LINE
  8
0
 10
105.049400
 20
-101.019684
 11
105.049400
 21
-81.219681
  0
LINE
  8
0
 10
106.649399
 20
-101.119675
 11
106.649399
 21
-81.119675
  0
LINE
  8
0
 10
105.049400
 20
-101.019684
 11
102.849396
 21
-101.019684
  0
LINE
  8
0
 10
106.649399
 20
-98.619675
 11
105.049400
 21
-98.619675
  0
LINE
  8
0
 10
108.249405
 20
-101.119675
 11
106.649399
 21
-101.119675
  0
LINE
  8
0
 10
108.249405
 20
-101.869675
 11
120.849396
 21
-101.869675
  0
LINE
  8
0
 10
183.189972
 20
-101.378372
 11
183.189957
 21
-80.860939
  0
LINE
  8
0
  6
CENTER
 10
176.349396
 20
-104.112076
 11
176.349396
 21
-78.349335
  0
LINE
  8
0
 10
163.349396
 20
-80.619659
 11
169.349396
 21
-80.619659
  0
LINE
  8
0
 10
163.349396
 20
-101.619659
 11
169.349396
 21
-101.619659
  0
LINE
  8
0
 10
163.349396
 20
-91.119659
 11
169.349396
 21
-91.119659
  0
CIRCLE
  8
0
 10
137.849396
 20
-91.119667
 40
10.500000
  0
ARC
  8
0
 10
137.849396
 20
-91.119667
 40
12.499994
 50
156.421844
 51
203.578140
  0
ARC
  8
0
 10
137.849396
 20
-91.119667
 40
12.499997
 50
336.421814
 51
23.578184
  0
ARC
  8
0
 10
146.880585
 20
-89.119667
 40
0.500002
 50
12.486895
 51
90.000000
  0
ARC
  8
0
 10
128.818207
 20
-89.119667
 40
0.500000
 50
90.000000
 51
167.513489
  0
ARC
  8
0
 10
146.880585
 20
-93.119667
 40
0.500000
 50
270.000000
 51
347.513092
  0
ARC
  8
0
 10
128.818207
 20
-93.119667
 40
0.500017
 50
192.486511
 51
270.000000
  0
ARC
  8
0
 10
137.849396
 20
-91.119667
 40
9.750000
 50
0.000000
 51
359.464630
  0
ENDSEC
  0
EOF
