  0
SECTION
  2
HEADER
  0
ENDSEC
  0
SECTION
  2
TABLES
  0
TABLE
  2
LTYPE
 70
     4
  0
LTYPE
  2
CONTINUOUS
 70
    64
  3
Solid line
 72
    65
 73
     0
 40
0.000000
  0
LTYPE
  2
DASHED
 70
    64
  3
__ __ __ __ __ __ __ __ __ __ __ __ __ __ __
 72
    65
 73
     2
 40
3.500000
 49
2.000000
 49
-1.500000
  0
LTYPE
  2
CENTER
 70
    64
  3
____ _ ____ _ ____ _ ____ _ ____ _ ____ _ ____
 72
    65
 73
     4
 40
17.500000
 49
13.000000
 49
-1.500000
 49
1.500000
 49
-1.500000
  0
LTYPE
  2
PHANTOM
 70
    64
  3
_____ _ _ _____ _ _ _____ _ _ _____ _ _ ____  
 72
    65
 73
     6
 40
15.500000
 49
8.000000
 49
-1.500000
 49
1.500000
 49
-1.500000
 49
1.500000
 49
-1.500000
  0
LTYPE
  2
DASHED1
 70
    64
  3
__ __ __ __ __ __ __ __ __ __ __ __ __ __ __
 72
    65
 73
     2
 40
1.500000
 49
1.000000
 49
-0.500000
  0
LTYPE
  2
DASHED2
 70
    64
  3
__ __ __ __ __ __ __ __ __ __ __ __ __ __ __
 72
    65
 73
     2
 40
3.500000
 49
2.500000
 49
-1.000000
  0
LTYPE
  2
DASHED3
 70
    64
  3
__ __ __ __ __ __ __ __ __ __ __ __ __ __ __
 72
    65
 73
     2
 40
6.000000
 49
4.000000
 49
-2.000000
  0
LTYPE
  2
DASHED4
 70
    64
  3
__ __ __ __ __ __ __ __ __ __ __ __ __ __ __
 72
    65
 73
     2
 40
12.000000
 49
10.000000
 49
-2.000000
  0
LTYPE
  2
DASHED5
 70
    64
  3
__ __ __ __ __ __ __ __ __ __ __ __ __ __ __
 72
    65
 73
     2
 40
17.000000
 49
15.000000
 49
-2.000000
  0
LTYPE
  2
DASHED6
 70
    64
  3
__ __ __ __ __ __ __ __ __ __ __ __ __ __ __
 72
    65
 73
     2
 40
29.000000
 49
27.000000
 49
-2.000000
  0
LTYPE
  2
PHANTOM1
 70
    64
  3
_____ _ _ _____ _ _ _____ _ _ _____ _ _ ____  
 72
    65
 73
     6
 40
31.000000
 49
25.000000
 49
-1.500000
 49
1.000000
 49
-1.000000
 49
1.000000
 49
-1.500000
  0
LTYPE
  2
PHANTOM2
 70
    64
  3
_____ _ _ _____ _ _ _____ _ _ _____ _ _ ____  
 72
    65
 73
     6
 40
36.000000
 49
27.000000
 49
-1.500000
 49
2.500000
 49
-1.000000
 49
2.500000
 49
-1.500000
  0
LTYPE
  2
PHANTOM3
 70
    64
  3
_____ _ _ _____ _ _ _____ _ _ _____ _ _ ____  
 72
    65
 73
     6
 40
78.000000
 49
64.000000
 49
-2.000000
 49
4.000000
 49
-2.000000
 49
4.000000
 49
-2.000000
  0
LTYPE
  2
CENTER1
 70
    64
  3
____ _ ____ _ ____ _ ____ _ ____ _ ____ _ ____
 72
    65
 73
     4
 40
19.000000
 49
14.000000
 49
-1.000000
 49
3.000000
 49
-1.000000
  0
LTYPE
  2
CENTER2
 70
    64
  3
____ _ ____ _ ____ _ ____ _ ____ _ ____ _ ____
 72
    65
 73
     4
 40
28.500000
 49
25.000000
 49
-1.000000
 49
1.500000
 49
-1.000000
  0
LTYPE
  2
CENTER3
 70
    64
  3
____ _ ____ _ ____ _ ____ _ ____ _ ____ _ ____
 72
    65
 73
     4
 40
31.500000
 49
27.000000
 49
-1.000000
 49
2.500000
 49
-1.000000
  0
LTYPE
  2
CENTER4
 70
    64
  3
____ _ ____ _ ____ _ ____ _ ____ _ ____ _ ____
 72
    65
 73
     4
 40
50.000000
 49
45.000000
 49
-1.000000
 49
3.000000
 49
-1.000000
  0
LTYPE
  2
CENTER5
 70
    64
  3
____ _ ____ _ ____ _ ____ _ ____ _ ____ _ ____
 72
    65
 73
     4
 40
100.000000
 49
92.000000
 49
-2.000000
 49
4.000000
 49
-2.000000
  0
LTYPE
  2
SBK1
 70
    64
  3
______ _ _ _ ______ _ _ _ ______ _ _ _ _____  
 72
    65
 73
     8
 40
60.500000
 49
45.000000
 49
-2.000000
 49
2.500000
 49
-2.000000
 49
2.500000
 49
-2.000000
 49
2.500000
 49
-2.000000
  0
LTYPE
  2
SBK2
 70
    64
  3
______ _ _ _ ______ _ _ _ ______ _ _ _ _____  
 72
    65
 73
     8
 40
84.000000
 49
64.000000
 49
-2.000000
 49
4.000000
 49
-2.000000
 49
4.000000
 49
-2.000000
 49
4.000000
 49
-2.000000
  0
LTYPE
  2
STCH
 70
    64
  3
__ __ __ __ __ __ __ __ __ __ __ __ __ __ __
 72
    65
 73
     2
 40
3.000000
 49
1.000000
 49
-2.000000
  0
LTYPE
  2
MTCH
 70
    64
  3
_____ _ _ _____ _ _ _____ _ _ _____ _ _ ____  
 72
    65
 73
     6
 40
80.000000
 49
66.000000
 49
-2.000000
 49
4.000000
 49
-2.000000
 49
4.000000
 49
-2.000000
  0
ENDTAB
  0
TABLE
  2
LAYER
 70
     1
  0
LAYER
  2
0
 70
     0
 62
     7
  6
CONTINUOUS
  0
ENDTAB
  0
TABLE
  2
STYLE
 70
     1
  0
STYLE
  2
STANDARD
 70
     0
 40
0.000000
 41
1.000000
 50
0.000000
 71
     0
 42
0.200000
  3
txt
  4
BIGFONT
  0
ENDTAB
  0
TABLE
  2
VIEW
 70
     0
  0
ENDTAB
  0
ENDSEC
  0
SECTION
  2
BLOCKS
  0
ENDSEC
  0
SECTION
  2
ENTITIES
  0
LINE
  8
0
 10
-181.250000
 20
195.500000
 11
-181.250000
 21
180.500000
  0
LINE
  8
0
 10
182.099976
 20
195.500000
 11
182.099976
 21
180.500000
  0
LINE
  8
0
 10
-281.250000
 20
180.500000
 11
-181.250000
 21
180.500000
  0
LINE
  8
0
 10
182.099976
 20
-175.000000
 11
182.099976
 21
-195.000000
  0
LINE
  8
0
 10
182.099976
 20
180.500000
 11
282.099976
 21
180.500000
  0
LINE
  8
0
 10
182.099976
 20
-175.000000
 11
282.099976
 21
-175.000000
  0
LINE
  8
0
 10
-281.250000
 20
-64.833344
 11
282.099976
 21
-64.833344
  0
LINE
  8
0
 10
-281.250000
 20
-185.000000
 11
182.099976
 21
-185.000000
  0
LINE
  8
0
 10
-297.000000
 20
210.000000
 11
297.000000
 21
210.000000
  0
LINE
  8
0
 10
-297.000000
 20
-210.000000
 11
297.000000
 21
-210.000000
  0
LINE
  8
0
 10
297.000000
 20
210.000000
 11
297.000000
 21
-210.000000
  0
LINE
  8
0
 10
-297.000000
 20
210.000000
 11
-297.000000
 21
-210.000000
  0
LINE
  8
0
 10
-281.250000
 20
195.500000
 11
282.099976
 21
195.500000
  0
LINE
  8
0
 10
-281.250000
 20
195.500000
 11
-281.250000
 21
-195.000000
  0
LINE
  8
0
 10
282.099976
 20
195.500000
 11
282.099976
 21
-195.000000
  0
LINE
  8
0
 10
-281.250000
 20
-195.000000
 11
282.099976
 21
-195.000000
  0
LINE
  8
0
 10
-281.250000
 20
-54.833344
 11
282.099976
 21
-54.833344
  0
LINE
  8
0
 10
-281.250000
 20
75.333328
 11
282.099976
 21
75.333328
  0
LINE
  8
0
 10
-281.250000
 20
65.333328
 11
282.099976
 21
65.333328
  0
LINE
  8
0
 10
0.424988
 20
-64.833344
 11
0.424988
 21
195.500000
  0
TEXT
  8
0
 10
188.021667
 20
183.779999
 40
5.800000
  1
DATE: MAY ,1992
 50
0.000000
 41
1.052632
 51
0.000000
  7
STANDARD
  0
TEXT
  8
0
 10
178.000870
 20
-190.300003
 40
7.000000
  1
ＫＯＧＡＮＥＩ，ＣＯＲＰ．
 50
0.000000
 41
0.902367
 51
15.000000
  7
STANDARD
  0
TEXT
  8
0
 10
-272.428314
 20
183.779999
 40
5.800000
  1
HAND VALVE,FVN
 50
0.000000
 41
1.052632
 51
0.000000
  7
STANDARD
  0
TEXT
  8
0
 10
-276.000000
 20
-192.000000
 40
5.000000
  1
MODEL:FVN03-03
 50
0.000000
 41
1.052632
 51
0.000000
  7
STANDARD
  0
TEXT
  8
0
 10
5.674988
 20
68.333328
 40
5.000000
  1
MODEL:FVN02-01
 50
0.000000
 41
1.052632
 51
0.000000
  7
STANDARD
  0
TEXT
  8
0
 10
-276.000000
 20
68.333328
 40
5.000000
  1
MODEL:FVN01-01
 50
0.000000
 41
1.052632
 51
0.000000
  7
STANDARD
  0
TEXT
  8
0
 10
5.674988
 20
-61.833344
 40
5.000000
  1
MODEL:FVN03-02
 50
0.000000
 41
1.052632
 51
0.000000
  7
STANDARD
  0
TEXT
  8
0
 10
-276.000000
 20
-61.833344
 40
5.000000
  1
MODEL:FVN02-02
 50
0.000000
 41
1.052632
 51
0.000000
  7
STANDARD
  0
POINT
  8
0
 10
-169.502548
 20
97.718124
  0
POINT
  8
0
 10
-106.502548
 20
97.718124
  0
LINE
  8
0
  6
CENTER
 10
-140.002548
 20
128.579071
 11
-140.002548
 21
85.817192
  0
LINE
  8
0
 10
-134.502548
 20
90.218124
 11
-134.502548
 21
87.218124
  0
LINE
  8
0
 10
-126.002548
 20
105.218124
 11
-126.002548
 21
90.218124
  0
LINE
  8
0
 10
-127.538445
 20
105.218124
 11
-126.002548
 21
105.218124
  0
LINE
  8
0
 10
-130.002548
 20
112.718124
 11
-130.002548
 21
109.218124
  0
LINE
  8
0
  6
CENTER
 10
-133.693542
 20
105.718124
 11
-126.618332
 21
105.718124
  0
LINE
  8
0
  6
CENTER
 10
-131.002548
 20
108.826042
 11
-131.002548
 21
102.441078
  0
LINE
  8
0
 10
-128.502548
 20
100.819145
 11
-128.502548
 21
92.718124
  0
LINE
  8
0
 10
-127.502548
 20
102.889694
 11
-127.502548
 21
91.718124
  0
LINE
  8
0
  6
CENTER
 10
-176.053436
 20
97.718124
 11
-104.986816
 21
97.718124
  0
LINE
  8
0
 10
-133.002548
 20
112.718124
 11
-133.002548
 21
109.218124
  0
LINE
  8
0
 10
-134.502548
 20
112.718124
 11
-134.502548
 21
109.218124
  0
LINE
  8
0
 10
-126.002548
 20
90.218124
 11
-154.002548
 21
90.218124
  0
LINE
  8
0
 10
-134.502548
 20
87.218124
 11
-145.502548
 21
87.218124
  0
LINE
  8
0
 10
-145.502548
 20
90.218124
 11
-145.502548
 21
87.218124
  0
LINE
  8
0
 10
-154.002548
 20
105.218124
 11
-154.002548
 21
90.218124
  0
LINE
  8
0
 10
-130.002548
 20
112.718124
 11
-150.002548
 21
112.718124
  0
LINE
  8
0
 10
-130.002548
 20
109.218124
 11
-150.002548
 21
109.218124
  0
LINE
  8
0
 10
-152.466644
 20
105.218124
 11
-154.002548
 21
105.218124
  0
LINE
  8
0
 10
-150.002548
 20
112.718124
 11
-150.002548
 21
109.218124
  0
LINE
  8
0
  6
CENTER
 10
-146.311554
 20
105.718124
 11
-153.386765
 21
105.718124
  0
LINE
  8
0
  6
CENTER
 10
-149.002548
 20
108.826042
 11
-149.002548
 21
102.441078
  0
LINE
  8
0
 10
-135.474686
 20
106.218124
 11
-144.530411
 21
106.218124
  0
LINE
  8
0
 10
-136.479767
 20
105.218124
 11
-143.525330
 21
105.218124
  0
LINE
  8
0
 10
-128.502548
 20
92.718124
 11
-151.502548
 21
92.718124
  0
LINE
  8
0
 10
-127.502548
 20
91.718124
 11
-152.502548
 21
91.718124
  0
LINE
  8
0
 10
-151.502548
 20
100.819145
 11
-151.502548
 21
92.718124
  0
LINE
  8
0
 10
-152.502548
 20
102.889694
 11
-152.502548
 21
91.718124
  0
LINE
  8
0
 10
-147.002548
 20
112.718124
 11
-147.002548
 21
109.218124
  0
LINE
  8
0
 10
-145.502548
 20
112.718124
 11
-145.502548
 21
109.218124
  0
LINE
  8
0
 10
-131.752548
 20
126.718132
 11
-131.752548
 21
112.718124
  0
LINE
  8
0
 10
-131.752548
 20
117.718124
 11
-148.252548
 21
117.718124
  0
LINE
  8
0
 10
-132.752548
 20
127.718132
 11
-147.252548
 21
127.718132
  0
LINE
  8
0
 10
-148.252548
 20
126.718132
 11
-148.252548
 21
112.718124
  0
LINE
  8
0
 10
-154.002548
 20
90.718124
 11
-160.502548
 21
90.718124
  0
LINE
  8
0
 10
-154.002548
 20
104.718124
 11
-160.502548
 21
104.718124
  0
LINE
  8
0
 10
-160.502548
 20
104.718124
 11
-160.502548
 21
90.718124
  0
LINE
  8
0
 10
-119.502548
 20
104.718124
 11
-119.502548
 21
90.718124
  0
LINE
  8
0
 10
-126.002548
 20
90.718124
 11
-119.502548
 21
90.718124
  0
LINE
  8
0
 10
-126.002548
 20
104.718124
 11
-119.502548
 21
104.718124
  0
LINE
  8
0
 10
-165.502548
 20
104.618126
 11
-165.502548
 21
90.718124
  0
LINE
  8
0
 10
-160.770508
 20
105.618126
 11
-165.234604
 21
105.618126
  0
LINE
  8
0
 10
-165.234589
 20
105.618111
 11
-165.502533
 21
104.618111
  0
LINE
  8
0
 10
-160.502548
 20
104.618118
 11
-160.770493
 21
105.618118
  0
LINE
  8
0
 10
-160.770508
 20
89.818123
 11
-165.234604
 21
89.818123
  0
LINE
  8
0
 10
-160.502548
 20
90.818130
 11
-160.770508
 21
89.818123
  0
LINE
  8
0
 10
-165.234589
 20
89.818130
 11
-165.502548
 21
90.818130
  0
LINE
  8
0
 10
-160.502548
 20
93.718124
 11
-165.502548
 21
93.718124
  0
LINE
  8
0
 10
-160.502548
 20
101.718124
 11
-165.502548
 21
101.718124
  0
LINE
  8
0
 10
-165.502548
 20
102.708130
 11
-173.002792
 21
102.473747
  0
LINE
  8
0
 10
-165.502548
 20
102.708115
 11
-165.679184
 21
102.048904
  0
LINE
  8
0
 10
-173.002777
 20
102.473717
 11
-173.502533
 21
101.941719
  0
LINE
  8
0
 10
-165.679184
 20
102.048904
 11
-173.502548
 21
101.941734
  0
LINE
  8
0
 10
-173.502548
 20
93.494507
 11
-173.502548
 21
101.941734
  0
LINE
  8
0
 10
-165.502548
 20
92.728127
 11
-173.002792
 21
92.962509
  0
LINE
  8
0
 10
-173.002792
 20
92.962509
 11
-173.502548
 21
93.494507
  0
LINE
  8
0
 10
-165.679184
 20
93.387344
 11
-173.502548
 21
93.494514
  0
LINE
  8
0
 10
-165.502548
 20
92.728134
 11
-165.679184
 21
93.387344
  0
LINE
  8
0
 10
-165.679184
 20
102.048912
 11
-165.679184
 21
93.387337
  0
LINE
  8
0
 10
-173.002792
 20
102.473740
 11
-173.002792
 21
92.962502
  0
LINE
  8
0
 10
-107.002304
 20
102.473740
 11
-107.002304
 21
92.962502
  0
LINE
  8
0
 10
-114.502548
 20
104.618126
 11
-114.502548
 21
90.718124
  0
LINE
  8
0
 10
-119.234596
 20
105.618126
 11
-114.770500
 21
105.618126
  0
LINE
  8
0
 10
-114.770531
 20
105.618111
 11
-114.502579
 21
104.618103
  0
LINE
  8
0
 10
-119.502579
 20
104.618118
 11
-119.234627
 21
105.618118
  0
LINE
  8
0
 10
-119.234596
 20
89.818123
 11
-114.770500
 21
89.818123
  0
LINE
  8
0
 10
-119.502548
 20
90.818115
 11
-119.234596
 21
89.818115
  0
LINE
  8
0
 10
-114.770485
 20
89.818123
 11
-114.502533
 21
90.818123
  0
LINE
  8
0
 10
-119.502548
 20
93.718124
 11
-114.502548
 21
93.718124
  0
LINE
  8
0
 10
-119.502548
 20
101.718124
 11
-114.502548
 21
101.718124
  0
LINE
  8
0
 10
-114.502556
 20
102.708122
 11
-107.002304
 21
102.473740
  0
LINE
  8
0
 10
-114.502525
 20
102.708122
 11
-114.325890
 21
102.048920
  0
LINE
  8
0
 10
-107.002296
 20
102.473747
 11
-106.502533
 21
101.941750
  0
LINE
  8
0
 10
-114.325912
 20
102.048927
 11
-106.502533
 21
101.941757
  0
LINE
  8
0
 10
-106.502548
 20
93.494507
 11
-106.502548
 21
101.941742
  0
LINE
  8
0
 10
-114.502548
 20
92.728127
 11
-107.002304
 21
92.962509
  0
LINE
  8
0
 10
-107.002304
 20
92.962509
 11
-106.502548
 21
93.494514
  0
LINE
  8
0
 10
-114.325920
 20
93.387329
 11
-106.502548
 21
93.494499
  0
LINE
  8
0
 10
-114.502548
 20
92.728127
 11
-114.325912
 21
93.387344
  0
LINE
  8
0
 10
-114.325912
 20
102.048912
 11
-114.325912
 21
93.387337
  0
LINE
  8
0
  6
CENTER
 10
-110.502548
 20
108.000702
 11
-110.502548
 21
85.817192
  0
LINE
  8
0
  6
CENTER
 10
-169.502548
 20
109.933640
 11
-169.502548
 21
85.817192
  0
ARC
  8
0
 10
-131.002548
 20
105.718124
 40
3.499995
 50
351.786774
 51
90.000000
  0
CIRCLE
  8
0
 10
-131.002548
 20
105.718124
 40
2.100000
  0
ARC
  8
0
 10
-131.002548
 20
105.718124
 40
4.500001
 50
173.620636
 51
321.057526
  0
ARC
  8
0
 10
-131.002548
 20
105.718124
 40
5.499993
 50
185.215912
 51
297.035706
  0
ARC
  8
0
 10
-149.002548
 20
105.718124
 40
3.500000
 50
90.000000
 51
188.213226
  0
CIRCLE
  8
0
 10
-149.002548
 20
105.718124
 40
2.100000
  0
ARC
  8
0
 10
-149.002548
 20
105.718124
 40
4.499997
 50
218.942398
 51
6.379272
  0
ARC
  8
0
 10
-149.002548
 20
105.718124
 40
5.500000
 50
242.964310
 51
354.784088
  0
ARC
  8
0
 10
-147.252548
 20
126.718132
 40
1.000000
 50
90.000000
 51
180.000000
  0
ARC
  8
0
 10
-132.752548
 20
126.718132
 40
1.000000
 50
0.000000
 51
90.000000
  0
POINT
  8
0
 10
-215.267059
 20
97.718124
  0
POINT
  8
0
 10
-206.517059
 20
97.718124
  0
LINE
  8
0
  6
CENTER
 10
-215.267059
 20
128.568604
 11
-215.267059
 21
85.425598
  0
LINE
  8
0
  6
CENTER
 10
-224.677094
 20
97.718124
 11
-205.605316
 21
97.718124
  0
LINE
  8
0
 10
-208.267059
 20
101.759575
 11
-208.267059
 21
93.676674
  0
LINE
  8
0
 10
-208.267059
 20
93.676659
 11
-215.267075
 21
89.818108
  0
LINE
  8
0
 10
-208.267059
 20
101.759567
 11
-215.267075
 21
105.618118
  0
LINE
  8
0
 10
-222.267044
 20
101.759575
 11
-215.267044
 21
105.618126
  0
LINE
  8
0
 10
-222.267059
 20
101.759575
 11
-222.267059
 21
93.676674
  0
LINE
  8
0
 10
-222.267075
 20
93.676682
 11
-215.267075
 21
89.818130
  0
LINE
  8
0
 10
-224.017059
 20
90.218124
 11
-215.992722
 21
90.218124
  0
LINE
  8
0
 10
-209.767059
 20
90.218124
 11
-209.767059
 21
87.218124
  0
LINE
  8
0
 10
-220.767059
 20
90.218124
 11
-220.767059
 21
87.218124
  0
LINE
  8
0
 10
-220.767059
 20
87.218124
 11
-209.767059
 21
87.218124
  0
LINE
  8
0
 10
-214.541397
 20
90.218124
 11
-206.517059
 21
90.218124
  0
LINE
  8
0
 10
-224.017059
 20
112.718124
 11
-206.517059
 21
112.718124
  0
LINE
  8
0
 10
-224.017059
 20
109.218124
 11
-206.517059
 21
109.218124
  0
LINE
  8
0
 10
-214.541397
 20
105.218124
 11
-206.517059
 21
105.218124
  0
LINE
  8
0
 10
-210.267059
 20
112.718124
 11
-210.267059
 21
109.218124
  0
LINE
  8
0
 10
-220.267059
 20
112.718124
 11
-220.267059
 21
109.218124
  0
LINE
  8
0
 10
-215.992722
 20
105.218124
 11
-224.017059
 21
105.218124
  0
LINE
  8
0
 10
-223.017059
 20
117.718124
 11
-207.517059
 21
117.718124
  0
LINE
  8
0
 10
-207.017059
 20
117.218124
 11
-207.017059
 21
112.718124
  0
LINE
  8
0
 10
-212.767059
 20
127.218124
 11
-212.767059
 21
118.718124
  0
LINE
  8
0
 10
-217.267059
 20
127.718124
 11
-213.267059
 21
127.718124
  0
LINE
  8
0
 10
-223.517059
 20
117.218124
 11
-223.517059
 21
112.718124
  0
LINE
  8
0
 10
-217.767059
 20
127.218124
 11
-217.767059
 21
118.718124
  0
LINE
  8
0
 10
-206.517059
 20
112.718124
 11
-206.517059
 21
90.218124
  0
LINE
  8
0
 10
-224.017059
 20
112.718124
 11
-224.017059
 21
90.218124
  0
CIRCLE
  8
0
 10
-215.267059
 20
97.718124
 40
4.740000
  0
CIRCLE
  8
0
 10
-215.267059
 20
97.718124
 40
4.990000
  0
CIRCLE
  8
0
 10
-215.267059
 20
97.718124
 40
3.000000
  0
ARC
  8
0
 10
-207.517059
 20
117.218124
 40
0.500000
 50
0.000000
 51
90.000000
  0
ARC
  8
0
 10
-213.267059
 20
127.218124
 40
0.500000
 50
0.000000
 51
90.000000
  0
ARC
  8
0
 10
-211.767059
 20
118.718124
 40
1.000000
 50
180.000000
 51
270.000000
  0
ARC
  8
0
 10
-223.017059
 20
117.218124
 40
0.500000
 50
90.000000
 51
180.000000
  0
ARC
  8
0
 10
-217.267059
 20
127.218124
 40
0.500000
 50
90.000000
 51
180.000000
  0
ARC
  8
0
 10
-218.767059
 20
118.718124
 40
1.000000
 50
270.000000
 51
0.000000
  0
POINT
  8
0
 10
-169.502563
 20
161.718124
  0
POINT
  8
0
 10
-106.502556
 20
161.718124
  0
LINE
  8
0
  6
CENTER
 10
-174.919235
 20
161.718124
 11
-105.550407
 21
161.718124
  0
LINE
  8
0
  6
CENTER
 10
-140.002563
 20
171.010284
 11
-140.002563
 21
152.312820
  0
LINE
  8
0
 10
-154.002563
 20
153.218124
 11
-126.002563
 21
153.218124
  0
LINE
  8
0
 10
-154.002563
 20
170.218124
 11
-126.002563
 21
170.218124
  0
LINE
  8
0
 10
-154.002563
 20
170.218124
 11
-154.002563
 21
153.218124
  0
LINE
  8
0
 10
-126.002563
 20
170.218124
 11
-126.002563
 21
153.218124
  0
LINE
  8
0
 10
-148.662811
 20
156.718124
 11
-146.876434
 21
156.718124
  0
LINE
  8
0
 10
-148.662811
 20
166.718124
 11
-146.876434
 21
166.718124
  0
LINE
  8
0
 10
-133.128693
 20
166.718124
 11
-131.342316
 21
166.718124
  0
LINE
  8
0
 10
-133.128693
 20
156.718124
 11
-131.342316
 21
156.718124
  0
LINE
  8
0
 10
-147.490051
 20
159.218124
 11
-132.515076
 21
159.218124
  0
LINE
  8
0
 10
-147.490051
 20
164.218124
 11
-132.515076
 21
164.218124
  0
LINE
  8
0
 10
-146.002563
 20
162.568130
 11
-134.002563
 21
162.568130
  0
LINE
  8
0
 10
-146.002563
 20
160.868118
 11
-134.002563
 21
160.868118
  0
LINE
  8
0
 10
-134.002563
 20
162.568130
 11
-134.002563
 21
160.868118
  0
LINE
  8
0
 10
-146.002563
 20
162.568130
 11
-146.002563
 21
160.868118
  0
LINE
  8
0
 10
-119.502563
 20
168.718124
 11
-119.502563
 21
154.718124
  0
LINE
  8
0
 10
-126.002563
 20
168.718124
 11
-119.502563
 21
168.718124
  0
LINE
  8
0
 10
-126.002563
 20
154.718124
 11
-119.502563
 21
154.718124
  0
LINE
  8
0
 10
-114.502563
 20
168.618118
 11
-114.502563
 21
154.718124
  0
LINE
  8
0
 10
-114.529358
 20
168.718124
 11
-114.502563
 21
168.618134
  0
LINE
  8
0
 10
-119.502563
 20
168.618134
 11
-119.475777
 21
168.718124
  0
LINE
  8
0
 10
-119.502548
 20
154.818130
 11
-119.475754
 21
154.718124
  0
LINE
  8
0
 10
-114.529381
 20
154.718124
 11
-114.502586
 21
154.818130
  0
LINE
  8
0
 10
-114.502563
 20
166.708145
 11
-107.002319
 21
166.473755
  0
LINE
  8
0
 10
-114.502563
 20
166.708099
 11
-114.325928
 21
166.048889
  0
LINE
  8
0
 10
-107.002319
 20
166.473740
 11
-106.502563
 21
165.941742
  0
LINE
  8
0
 10
-114.325928
 20
166.048920
 11
-106.502563
 21
165.941742
  0
LINE
  8
0
 10
-106.502556
 20
157.494507
 11
-106.502556
 21
165.941757
  0
LINE
  8
0
 10
-114.502563
 20
156.728119
 11
-107.002319
 21
156.962494
  0
LINE
  8
0
 10
-107.002319
 20
156.962509
 11
-106.502563
 21
157.494522
  0
LINE
  8
0
 10
-114.325935
 20
157.387329
 11
-106.502556
 21
157.494507
  0
LINE
  8
0
 10
-114.502579
 20
156.728119
 11
-114.325943
 21
157.387329
  0
LINE
  8
0
 10
-114.325928
 20
166.048920
 11
-114.325928
 21
157.387344
  0
LINE
  8
0
 10
-107.002327
 20
166.473740
 11
-107.002327
 21
156.962509
  0
LINE
  8
0
 10
-119.502563
 20
168.718124
 11
-114.529358
 21
168.718124
  0
LINE
  8
0
 10
-119.475769
 20
154.718124
 11
-114.502563
 21
154.718124
  0
LINE
  8
0
 10
-160.529358
 20
154.718124
 11
-165.502563
 21
154.718124
  0
LINE
  8
0
 10
-160.502563
 20
168.718124
 11
-160.502563
 21
154.718124
  0
LINE
  8
0
 10
-154.002563
 20
168.718124
 11
-160.502563
 21
168.718124
  0
LINE
  8
0
 10
-154.002563
 20
154.718124
 11
-160.502563
 21
154.718124
  0
LINE
  8
0
 10
-165.502563
 20
168.618118
 11
-165.502563
 21
154.718124
  0
LINE
  8
0
 10
-165.475769
 20
168.718124
 11
-165.502563
 21
168.618134
  0
LINE
  8
0
 10
-160.502548
 20
168.618134
 11
-160.529343
 21
168.718140
  0
LINE
  8
0
 10
-160.502563
 20
154.818115
 11
-160.529358
 21
154.718109
  0
LINE
  8
0
 10
-165.475754
 20
154.718094
 11
-165.502563
 21
154.818100
  0
LINE
  8
0
 10
-165.502563
 20
166.708130
 11
-173.002808
 21
166.473755
  0
LINE
  8
0
 10
-165.502563
 20
166.708130
 11
-165.679199
 21
166.048920
  0
LINE
  8
0
 10
-173.002823
 20
166.473755
 11
-173.502579
 21
165.941757
  0
LINE
  8
0
 10
-165.679199
 20
166.048920
 11
-173.502563
 21
165.941742
  0
LINE
  8
0
 10
-173.502563
 20
157.494507
 11
-173.502563
 21
165.941742
  0
LINE
  8
0
 10
-165.502563
 20
156.728119
 11
-173.002808
 21
156.962509
  0
LINE
  8
0
 10
-173.002808
 20
156.962509
 11
-173.502563
 21
157.494507
  0
LINE
  8
0
 10
-165.679199
 20
157.387329
 11
-173.502563
 21
157.494492
  0
LINE
  8
0
 10
-165.502548
 20
156.728134
 11
-165.679184
 21
157.387344
  0
LINE
  8
0
 10
-165.679199
 20
166.048920
 11
-165.679199
 21
157.387344
  0
LINE
  8
0
 10
-173.002808
 20
166.473740
 11
-173.002808
 21
156.962509
  0
LINE
  8
0
 10
-160.502563
 20
168.718124
 11
-165.475769
 21
168.718124
  0
LINE
  8
0
  6
CENTER
 10
-110.502563
 20
171.010284
 11
-110.502563
 21
152.312820
  0
LINE
  8
0
  6
CENTER
 10
-169.502563
 20
171.010284
 11
-169.502563
 21
152.312820
  0
LINE
  8
0
 10
-160.502563
 20
161.718124
 11
-165.475769
 21
161.718124
  0
LINE
  8
0
 10
-119.502563
 20
161.718124
 11
-114.529358
 21
161.718124
  0
ARC
  8
0
 10
-140.002563
 20
161.718124
 40
10.000000
 50
0.000000
 51
30.000017
  0
CIRCLE
  8
0
 10
-140.002563
 20
161.718124
 40
8.500000
  0
ARC
  8
0
 10
-140.002563
 20
161.718124
 40
9.999994
 50
149.999985
 51
209.999969
  0
ARC
  8
0
 10
-140.002563
 20
161.718124
 40
9.999994
 50
329.999969
 51
0.000000
  0
ARC
  8
0
 10
-140.002563
 20
161.718124
 40
8.249996
 50
345.044769
 51
0.000000
  0
ARC
  8
0
 10
-132.515076
 20
159.718124
 40
0.500000
 50
270.000000
 51
345.045166
  0
ARC
  8
0
 10
-140.002563
 20
161.718124
 40
8.250000
 50
0.000000
 51
14.955227
  0
ARC
  8
0
 10
-132.515076
 20
163.718124
 40
0.499998
 50
14.954844
 51
90.000000
  0
ARC
  8
0
 10
-140.002563
 20
161.718124
 40
8.249996
 50
165.044769
 51
194.955231
  0
ARC
  8
0
 10
-147.490051
 20
163.718124
 40
0.500000
 50
90.000000
 51
165.045151
  0
ARC
  8
0
 10
-147.490051
 20
159.718124
 40
0.499998
 50
194.954849
 51
270.000000
  0
POINT
  8
0
 10
99.289703
 20
97.718109
  0
POINT
  8
0
 10
163.289703
 20
97.718109
  0
LINE
  8
0
  6
CENTER
 10
129.789703
 20
128.579041
 11
129.789703
 21
85.817177
  0
LINE
  8
0
 10
135.289703
 20
90.218109
 11
135.289703
 21
87.218109
  0
LINE
  8
0
 10
143.789703
 20
105.218109
 11
143.789703
 21
90.218109
  0
LINE
  8
0
 10
142.253815
 20
105.218109
 11
143.789703
 21
105.218109
  0
LINE
  8
0
 10
139.789703
 20
112.718109
 11
139.789703
 21
109.218109
  0
LINE
  8
0
  6
CENTER
 10
136.098694
 20
105.718109
 11
143.173920
 21
105.718109
  0
LINE
  8
0
  6
CENTER
 10
138.789703
 20
108.826019
 11
138.789703
 21
102.441071
  0
LINE
  8
0
 10
141.289703
 20
100.819130
 11
141.289703
 21
92.718109
  0
LINE
  8
0
 10
142.289703
 20
102.889679
 11
142.289703
 21
91.718109
  0
LINE
  8
0
  6
CENTER
 10
129.789703
 20
97.718109
 11
91.828529
 21
97.718109
  0
LINE
  8
0
 10
134.965149
 20
96.218109
 11
141.289703
 21
96.218109
  0
LINE
  8
0
 10
136.789703
 20
112.718109
 11
136.789703
 21
109.218109
  0
LINE
  8
0
 10
135.289703
 20
112.718109
 11
135.289703
 21
109.218109
  0
LINE
  8
0
 10
143.789703
 20
90.218109
 11
115.789703
 21
90.218109
  0
LINE
  8
0
 10
124.289703
 20
90.218109
 11
124.289703
 21
87.218109
  0
LINE
  8
0
 10
115.789703
 20
105.218109
 11
115.789703
 21
90.218109
  0
LINE
  8
0
 10
139.789703
 20
112.718109
 11
119.789703
 21
112.718109
  0
LINE
  8
0
 10
139.789703
 20
109.218109
 11
119.789703
 21
109.218109
  0
LINE
  8
0
 10
117.325600
 20
105.218109
 11
115.789703
 21
105.218109
  0
LINE
  8
0
 10
119.789703
 20
112.718109
 11
119.789703
 21
109.218109
  0
LINE
  8
0
  6
CENTER
 10
123.480705
 20
105.718109
 11
116.405487
 21
105.718109
  0
LINE
  8
0
  6
CENTER
 10
120.789703
 20
108.826019
 11
120.789703
 21
102.441071
  0
LINE
  8
0
 10
134.317566
 20
106.218109
 11
125.261841
 21
106.218109
  0
LINE
  8
0
 10
133.312469
 20
105.218109
 11
126.266930
 21
105.218109
  0
LINE
  8
0
 10
141.289703
 20
92.718109
 11
118.289703
 21
92.718109
  0
LINE
  8
0
 10
142.289703
 20
91.718109
 11
117.289703
 21
91.718109
  0
LINE
  8
0
 10
118.289703
 20
100.819130
 11
118.289703
 21
92.718109
  0
LINE
  8
0
 10
117.289703
 20
102.889679
 11
117.289703
 21
91.718109
  0
LINE
  8
0
  6
CENTER
 10
129.789703
 20
97.718109
 11
165.217438
 21
97.718109
  0
LINE
  8
0
 10
122.789703
 20
112.718109
 11
122.789703
 21
109.218109
  0
LINE
  8
0
 10
124.289703
 20
112.718109
 11
124.289703
 21
109.218109
  0
LINE
  8
0
 10
124.614258
 20
99.218109
 11
118.289703
 21
99.218109
  0
LINE
  8
0
 10
121.789703
 20
100.309784
 11
121.789703
 21
99.218109
  0
LINE
  8
0
 10
123.289703
 20
100.819130
 11
123.289703
 21
99.218109
  0
LINE
  8
0
 10
137.789703
 20
96.218109
 11
137.789703
 21
92.718109
  0
LINE
  8
0
 10
136.289703
 20
96.218109
 11
136.289703
 21
92.718109
  0
LINE
  8
0
 10
138.039703
 20
126.718109
 11
138.039703
 21
112.718109
  0
LINE
  8
0
 10
138.039703
 20
117.718109
 11
121.539703
 21
117.718109
  0
LINE
  8
0
 10
137.039703
 20
127.718109
 11
122.539703
 21
127.718109
  0
LINE
  8
0
 10
121.539703
 20
126.718109
 11
121.539703
 21
112.718109
  0
LINE
  8
0
 10
143.789703
 20
90.718109
 11
150.289703
 21
90.718109
  0
LINE
  8
0
 10
143.789703
 20
104.718109
 11
150.289703
 21
104.718109
  0
LINE
  8
0
 10
150.289703
 20
104.718109
 11
150.289703
 21
90.718109
  0
LINE
  8
0
 10
109.289703
 20
104.718109
 11
109.289703
 21
90.718109
  0
LINE
  8
0
 10
115.789703
 20
90.718109
 11
109.289703
 21
90.718109
  0
LINE
  8
0
 10
115.789703
 20
104.718109
 11
109.289703
 21
104.718109
  0
LINE
  8
0
 10
155.289703
 20
104.618103
 11
155.289703
 21
90.818169
  0
LINE
  8
0
 10
150.557648
 20
105.618111
 11
155.021759
 21
105.618111
  0
LINE
  8
0
 10
155.021729
 20
105.618103
 11
155.289673
 21
104.618095
  0
LINE
  8
0
 10
150.289703
 20
104.618111
 11
150.557648
 21
105.618111
  0
LINE
  8
0
 10
150.557648
 20
89.818108
 11
155.021759
 21
89.818108
  0
LINE
  8
0
 10
150.289703
 20
90.818115
 11
150.557648
 21
89.818115
  0
LINE
  8
0
 10
155.021744
 20
89.818130
 11
155.289703
 21
90.818169
  0
LINE
  8
0
 10
150.289703
 20
93.718109
 11
155.289703
 21
93.718109
  0
LINE
  8
0
 10
150.289703
 20
101.718109
 11
155.289703
 21
101.718109
  0
LINE
  8
0
 10
155.289703
 20
102.708115
 11
162.789948
 21
102.473732
  0
LINE
  8
0
 10
155.289734
 20
102.708099
 11
155.466370
 21
102.048889
  0
LINE
  8
0
 10
162.789948
 20
102.473732
 11
163.289703
 21
101.941727
  0
LINE
  8
0
 10
155.466339
 20
102.048889
 11
163.289703
 21
101.941719
  0
LINE
  8
0
 10
163.289703
 20
93.494492
 11
163.289703
 21
101.941719
  0
LINE
  8
0
 10
155.289703
 20
92.728111
 11
162.789948
 21
92.962494
  0
LINE
  8
0
 10
162.789963
 20
92.962486
 11
163.289719
 21
93.494492
  0
LINE
  8
0
 10
155.466339
 20
93.387337
 11
163.289703
 21
93.494507
  0
LINE
  8
0
 10
155.289703
 20
92.728104
 11
155.466339
 21
93.387314
  0
LINE
  8
0
 10
155.466339
 20
102.048897
 11
155.466339
 21
93.387321
  0
LINE
  8
0
 10
162.789948
 20
102.473724
 11
162.789948
 21
92.962494
  0
LINE
  8
0
 10
104.289703
 20
104.618111
 11
104.289703
 21
90.818291
  0
LINE
  8
0
 10
108.994965
 20
105.718109
 11
104.584450
 21
105.718109
  0
LINE
  8
0
 10
109.289719
 20
104.618118
 11
108.994965
 21
105.718109
  0
LINE
  8
0
 10
104.584457
 20
105.718109
 11
104.289711
 21
104.618103
  0
LINE
  8
0
 10
109.289719
 20
90.818123
 11
108.994980
 21
89.718132
  0
LINE
  8
0
 10
108.994965
 20
89.718109
 11
104.584450
 21
89.718109
  0
LINE
  8
0
 10
104.584488
 20
89.718124
 11
104.289703
 21
90.818291
  0
LINE
  8
0
 10
109.289703
 20
101.718109
 11
104.289703
 21
101.718109
  0
LINE
  8
0
 10
109.289703
 20
93.718109
 11
104.289703
 21
93.718109
  0
LINE
  8
0
 10
104.289696
 20
104.448097
 11
104.057220
 21
103.580505
  0
LINE
  8
0
 10
104.289703
 20
104.448082
 11
93.789459
 21
104.123528
  0
LINE
  8
0
 10
104.057220
 20
103.580521
 11
93.316269
 21
103.248528
  0
LINE
  8
0
 10
93.789474
 20
104.123558
 11
93.289726
 21
103.247704
  0
LINE
  8
0
 10
93.289703
 20
92.188522
 11
93.289703
 21
103.247688
  0
LINE
  8
0
 10
104.289696
 20
90.988083
 11
93.789459
 21
91.312637
  0
LINE
  8
0
 10
104.057236
 20
91.855728
 11
93.316277
 21
92.187721
  0
LINE
  8
0
 10
93.789459
 20
91.312675
 11
93.289696
 21
92.188530
  0
LINE
  8
0
 10
104.289688
 20
90.988113
 11
104.057220
 21
91.855705
  0
LINE
  8
0
 10
104.057236
 20
103.580513
 11
104.057236
 21
91.855705
  0
LINE
  8
0
  6
CENTER
 10
99.289703
 20
107.652924
 11
99.289703
 21
85.817177
  0
LINE
  8
0
  6
CENTER
 10
159.289703
 20
107.380035
 11
159.289703
 21
85.817177
  0
LINE
  8
0
 10
135.289703
 20
87.218109
 11
124.289703
 21
87.218109
  0
LINE
  8
0
 10
93.789459
 20
91.312637
 11
93.789459
 21
104.123528
  0
ARC
  8
0
 10
138.789703
 20
105.718109
 40
3.499995
 50
351.786774
 51
90.000000
  0
CIRCLE
  8
0
 10
138.789703
 20
105.718109
 40
2.100000
  0
ARC
  8
0
 10
138.789703
 20
105.718109
 40
4.500001
 50
173.620636
 51
321.057526
  0
ARC
  8
0
 10
138.789703
 20
105.718109
 40
5.500008
 50
185.215897
 51
297.035706
  0
ARC
  8
0
 10
120.789703
 20
105.718109
 40
3.500000
 50
90.000000
 51
188.213211
  0
CIRCLE
  8
0
 10
120.789703
 20
105.718109
 40
2.100000
  0
ARC
  8
0
 10
120.789703
 20
105.718109
 40
4.499997
 50
218.942398
 51
6.379272
  0
ARC
  8
0
 10
120.789703
 20
105.718109
 40
5.500000
 50
242.964310
 51
354.784088
  0
ARC
  8
0
 10
118.289703
 20
97.718109
 40
6.500000
 50
309.715149
 51
13.342365
  0
ARC
  8
0
 10
141.289703
 20
97.718109
 40
6.500001
 50
148.340469
 51
193.342361
  0
ARC
  8
0
 10
122.539703
 20
126.718109
 40
1.000000
 50
90.000000
 51
180.000000
  0
ARC
  8
0
 10
137.039703
 20
126.718109
 40
1.000000
 50
0.000000
 51
90.000000
  0
POINT
  8
0
 10
215.054199
 20
97.718109
  0
POINT
  8
0
 10
223.804199
 20
97.718109
  0
LINE
  8
0
  6
CENTER
 10
215.054199
 20
128.568588
 11
215.054199
 21
85.425583
  0
LINE
  8
0
  6
CENTER
 10
224.464233
 20
97.718109
 11
205.392456
 21
97.718109
  0
LINE
  8
0
 10
208.054199
 20
101.759560
 11
208.054199
 21
93.676659
  0
LINE
  8
0
 10
208.054214
 20
93.676659
 11
215.054199
 21
89.818115
  0
LINE
  8
0
 10
208.054214
 20
101.759560
 11
215.054199
 21
105.618111
  0
LINE
  8
0
 10
222.054214
 20
101.759552
 11
215.054199
 21
105.618103
  0
LINE
  8
0
 10
222.054199
 20
101.759560
 11
222.054199
 21
93.676659
  0
LINE
  8
0
 10
222.054199
 20
93.676651
 11
215.054199
 21
89.818108
  0
LINE
  8
0
 10
223.804199
 20
90.218109
 11
215.779877
 21
90.218109
  0
LINE
  8
0
 10
209.554199
 20
90.218109
 11
209.554199
 21
87.218109
  0
LINE
  8
0
 10
220.554199
 20
90.218109
 11
220.554199
 21
87.218109
  0
LINE
  8
0
 10
220.554199
 20
87.218109
 11
209.554199
 21
87.218109
  0
LINE
  8
0
 10
214.328552
 20
90.218109
 11
206.304199
 21
90.218109
  0
LINE
  8
0
 10
223.804199
 20
112.718109
 11
206.304199
 21
112.718109
  0
LINE
  8
0
 10
223.804199
 20
109.218109
 11
206.304199
 21
109.218109
  0
LINE
  8
0
 10
214.328552
 20
105.218109
 11
206.304199
 21
105.218109
  0
LINE
  8
0
 10
210.054199
 20
112.718109
 11
210.054199
 21
109.218109
  0
LINE
  8
0
 10
220.054199
 20
112.718109
 11
220.054199
 21
109.218109
  0
LINE
  8
0
 10
215.779877
 20
105.218109
 11
223.804199
 21
105.218109
  0
LINE
  8
0
 10
222.804199
 20
117.718109
 11
207.304199
 21
117.718109
  0
LINE
  8
0
 10
206.804199
 20
117.218109
 11
206.804199
 21
112.718109
  0
LINE
  8
0
 10
212.554199
 20
127.218109
 11
212.554199
 21
118.718109
  0
LINE
  8
0
 10
217.054199
 20
127.718109
 11
213.054199
 21
127.718109
  0
LINE
  8
0
 10
223.304199
 20
117.218109
 11
223.304199
 21
112.718109
  0
LINE
  8
0
 10
217.554199
 20
127.218109
 11
217.554199
 21
118.718109
  0
LINE
  8
0
 10
223.804199
 20
112.718109
 11
223.804199
 21
90.218109
  0
LINE
  8
0
 10
206.304199
 20
112.718109
 11
206.304199
 21
90.218109
  0
CIRCLE
  8
0
 10
215.054199
 20
97.718109
 40
4.740000
  0
CIRCLE
  8
0
 10
215.054199
 20
97.718109
 40
4.990000
  0
CIRCLE
  8
0
 10
215.054199
 20
97.718109
 40
3.000000
  0
ARC
  8
0
 10
207.304199
 20
117.218109
 40
0.500000
 50
90.000000
 51
180.000000
  0
ARC
  8
0
 10
213.054199
 20
127.218109
 40
0.500000
 50
89.998253
 51
180.000000
  0
ARC
  8
0
 10
211.554199
 20
118.718109
 40
1.000000
 50
270.000000
 51
0.000000
  0
ARC
  8
0
 10
222.804199
 20
117.218109
 40
0.500000
 50
0.000000
 51
90.000000
  0
ARC
  8
0
 10
217.054199
 20
127.218109
 40
0.500000
 50
0.000000
 51
90.000000
  0
ARC
  8
0
 10
218.554199
 20
118.718109
 40
1.000000
 50
180.000000
 51
270.000000
  0
POINT
  8
0
 10
54.525208
 20
97.718109
  0
POINT
  8
0
 10
63.275208
 20
97.718109
  0
LINE
  8
0
  6
CENTER
 10
54.525208
 20
128.568588
 11
54.525208
 21
85.425583
  0
LINE
  8
0
  6
CENTER
 10
63.935234
 20
97.718109
 11
44.863464
 21
97.718109
  0
LINE
  8
0
 10
47.525208
 20
101.759560
 11
47.525208
 21
93.676659
  0
LINE
  8
0
 10
47.525227
 20
93.676666
 11
54.525227
 21
89.818115
  0
LINE
  8
0
 10
47.525211
 20
101.759544
 11
54.525227
 21
105.618095
  0
LINE
  8
0
 10
61.525208
 20
101.759552
 11
54.525208
 21
105.618103
  0
LINE
  8
0
 10
61.525208
 20
101.759560
 11
61.525208
 21
93.676659
  0
LINE
  8
0
 10
61.525219
 20
93.676659
 11
54.525211
 21
89.818108
  0
LINE
  8
0
 10
63.275208
 20
90.218109
 11
55.250870
 21
90.218109
  0
LINE
  8
0
 10
49.025208
 20
90.218109
 11
49.025208
 21
87.218109
  0
LINE
  8
0
 10
60.025208
 20
90.218109
 11
60.025208
 21
87.218109
  0
LINE
  8
0
 10
60.025208
 20
87.218109
 11
49.025208
 21
87.218109
  0
LINE
  8
0
 10
53.799545
 20
90.218109
 11
45.775208
 21
90.218109
  0
LINE
  8
0
 10
63.275208
 20
112.718109
 11
45.775208
 21
112.718109
  0
LINE
  8
0
 10
63.275208
 20
109.218109
 11
45.775208
 21
109.218109
  0
LINE
  8
0
 10
53.799545
 20
105.218109
 11
45.775208
 21
105.218109
  0
LINE
  8
0
 10
49.525208
 20
112.718109
 11
49.525208
 21
109.218109
  0
LINE
  8
0
 10
59.525208
 20
112.718109
 11
59.525208
 21
109.218109
  0
LINE
  8
0
 10
55.250870
 20
105.218109
 11
63.275208
 21
105.218109
  0
LINE
  8
0
 10
62.275208
 20
117.718109
 11
46.775208
 21
117.718109
  0
LINE
  8
0
 10
46.275208
 20
117.218109
 11
46.275208
 21
112.718109
  0
LINE
  8
0
 10
52.025208
 20
127.218109
 11
52.025208
 21
118.718109
  0
LINE
  8
0
 10
56.525208
 20
127.718109
 11
52.525208
 21
127.718109
  0
LINE
  8
0
 10
62.775208
 20
117.218109
 11
62.775208
 21
112.718109
  0
LINE
  8
0
 10
57.025208
 20
127.218109
 11
57.025208
 21
118.718109
  0
LINE
  8
0
 10
45.775208
 20
112.718109
 11
45.775208
 21
90.218109
  0
LINE
  8
0
 10
63.275208
 20
112.718109
 11
63.275208
 21
90.218109
  0
CIRCLE
  8
0
 10
54.525208
 20
97.718109
 40
3.000000
  0
ARC
  8
0
 10
46.775208
 20
117.218109
 40
0.500000
 50
90.000000
 51
180.000000
  0
ARC
  8
0
 10
52.525208
 20
127.218109
 40
0.500000
 50
90.000000
 51
180.000000
  0
ARC
  8
0
 10
51.025208
 20
118.718109
 40
1.000000
 50
270.000000
 51
0.000000
  0
ARC
  8
0
 10
62.275208
 20
117.218109
 40
0.500000
 50
0.000000
 51
90.000000
  0
ARC
  8
0
 10
56.525208
 20
127.218109
 40
0.500000
 50
0.000000
 51
90.000000
  0
ARC
  8
0
 10
58.025208
 20
118.718109
 40
1.000000
 50
180.000000
 51
270.000000
  0
CIRCLE
  8
0
 10
54.525208
 20
97.718109
 40
6.729980
  0
CIRCLE
  8
0
 10
54.525208
 20
97.718109
 40
6.405426
  0
POINT
  8
0
 10
99.289703
 20
154.718094
  0
POINT
  8
0
 10
163.289703
 20
154.718094
  0
LINE
  8
0
  6
CENTER
 10
166.162125
 20
154.718094
 11
93.020531
 21
154.718094
  0
LINE
  8
0
  6
CENTER
 10
129.789703
 20
164.010254
 11
129.789703
 21
145.312790
  0
LINE
  8
0
 10
115.789703
 20
146.218094
 11
143.789703
 21
146.218094
  0
LINE
  8
0
 10
115.789703
 20
163.218094
 11
143.789703
 21
163.218094
  0
LINE
  8
0
 10
115.789703
 20
163.218094
 11
115.789703
 21
146.218094
  0
LINE
  8
0
 10
143.789703
 20
163.218094
 11
143.789703
 21
146.218094
  0
LINE
  8
0
 10
121.129448
 20
149.718094
 11
122.915840
 21
149.718094
  0
LINE
  8
0
 10
121.129448
 20
159.718094
 11
122.915840
 21
159.718094
  0
LINE
  8
0
 10
136.663574
 20
159.718094
 11
138.449951
 21
159.718094
  0
LINE
  8
0
 10
136.663574
 20
149.718094
 11
138.449951
 21
149.718094
  0
LINE
  8
0
 10
122.302216
 20
152.218094
 11
137.277191
 21
152.218094
  0
LINE
  8
0
 10
122.302216
 20
157.218094
 11
137.277191
 21
157.218094
  0
LINE
  8
0
 10
123.789703
 20
155.568100
 11
135.789703
 21
155.568100
  0
LINE
  8
0
 10
123.789703
 20
153.868088
 11
135.789703
 21
153.868088
  0
LINE
  8
0
 10
135.789703
 20
155.568100
 11
135.789703
 21
153.868088
  0
LINE
  8
0
 10
123.789703
 20
155.568100
 11
123.789703
 21
153.868088
  0
LINE
  8
0
 10
109.289703
 20
161.718094
 11
109.289703
 21
147.718094
  0
LINE
  8
0
 10
115.789703
 20
161.718094
 11
109.289703
 21
161.718094
  0
LINE
  8
0
 10
115.789703
 20
147.718094
 11
109.289703
 21
147.718094
  0
LINE
  8
0
 10
104.289703
 20
161.618103
 11
104.289703
 21
147.718094
  0
LINE
  8
0
 10
109.289711
 20
161.618103
 11
109.262917
 21
161.718094
  0
LINE
  8
0
 10
104.316498
 20
161.718094
 11
104.289696
 21
161.618088
  0
LINE
  8
0
 10
109.289734
 20
147.818100
 11
109.262932
 21
147.718094
  0
LINE
  8
0
 10
104.316544
 20
147.718094
 11
104.289749
 21
147.818115
  0
LINE
  8
0
 10
93.289711
 20
160.247681
 11
93.289711
 21
154.718094
  0
LINE
  8
0
 10
104.289703
 20
161.448090
 11
104.057236
 21
160.580490
  0
LINE
  8
0
 10
104.289703
 20
161.448090
 11
93.789459
 21
161.123535
  0
LINE
  8
0
 10
104.057228
 20
160.580490
 11
93.316269
 21
160.248505
  0
LINE
  8
0
 10
93.789482
 20
161.123535
 11
93.289719
 21
160.247681
  0
LINE
  8
0
 10
93.289711
 20
149.188507
 11
93.289711
 21
154.718094
  0
LINE
  8
0
 10
104.289696
 20
147.988083
 11
93.789452
 21
148.312637
  0
LINE
  8
0
 10
104.057228
 20
148.855698
 11
93.316277
 21
149.187698
  0
LINE
  8
0
 10
93.789459
 20
148.312637
 11
93.289696
 21
149.188507
  0
LINE
  8
0
 10
104.289696
 20
147.988083
 11
104.057220
 21
148.855682
  0
LINE
  8
0
 10
104.057228
 20
160.580505
 11
104.057228
 21
148.855698
  0
LINE
  8
0
 10
109.289703
 20
147.718094
 11
104.289703
 21
147.718094
  0
LINE
  8
0
 10
109.289703
 20
161.718094
 11
104.289703
 21
161.718094
  0
LINE
  8
0
 10
150.316498
 20
147.718094
 11
155.289703
 21
147.718094
  0
LINE
  8
0
 10
150.289703
 20
161.718094
 11
150.289703
 21
147.718094
  0
LINE
  8
0
 10
143.789703
 20
161.718094
 11
150.289703
 21
161.718094
  0
LINE
  8
0
 10
143.789703
 20
147.718094
 11
150.289703
 21
147.718094
  0
LINE
  8
0
 10
155.289703
 20
161.618088
 11
155.289703
 21
147.718094
  0
LINE
  8
0
 10
155.262909
 20
161.718109
 11
155.289719
 21
161.618103
  0
LINE
  8
0
 10
150.289673
 20
161.618103
 11
150.316467
 21
161.718094
  0
LINE
  8
0
 10
150.289703
 20
147.818100
 11
150.316498
 21
147.718094
  0
LINE
  8
0
 10
155.262878
 20
147.718109
 11
155.289673
 21
147.818115
  0
LINE
  8
0
 10
163.289703
 20
158.941711
 11
163.289703
 21
154.718094
  0
LINE
  8
0
 10
155.289703
 20
159.708099
 11
162.789948
 21
159.473709
  0
LINE
  8
0
 10
155.289688
 20
159.708084
 11
155.466324
 21
159.048874
  0
LINE
  8
0
 10
162.789948
 20
159.473709
 11
163.289703
 21
158.941696
  0
LINE
  8
0
 10
155.466339
 20
159.048889
 11
163.289703
 21
158.941711
  0
LINE
  8
0
 10
163.289703
 20
150.494476
 11
163.289703
 21
154.718094
  0
LINE
  8
0
 10
155.289703
 20
149.728088
 11
162.789948
 21
149.962479
  0
LINE
  8
0
 10
162.789963
 20
149.962479
 11
163.289719
 21
150.494476
  0
LINE
  8
0
 10
155.466339
 20
150.387299
 11
163.289703
 21
150.494476
  0
LINE
  8
0
 10
155.289688
 20
149.728088
 11
155.466324
 21
150.387299
  0
LINE
  8
0
 10
155.466339
 20
159.048889
 11
155.466339
 21
150.387299
  0
LINE
  8
0
 10
162.789948
 20
159.473709
 11
162.789948
 21
149.962479
  0
LINE
  8
0
 10
150.289703
 20
161.718094
 11
155.262909
 21
161.718094
  0
LINE
  8
0
  6
CENTER
 10
99.289703
 20
164.010254
 11
99.289703
 21
145.312790
  0
LINE
  8
0
  6
CENTER
 10
159.289703
 20
164.010254
 11
159.289703
 21
145.312790
  0
LINE
  8
0
 10
93.789452
 20
148.312637
 11
93.789452
 21
161.123535
  0
LINE
  8
0
 10
109.289703
 20
154.718094
 11
104.289703
 21
154.718094
  0
LINE
  8
0
 10
150.316498
 20
154.718094
 11
155.289703
 21
154.718094
  0
ARC
  8
0
 10
129.789703
 20
154.718094
 40
10.000000
 50
0.000000
 51
30.000017
  0
CIRCLE
  8
0
 10
129.789703
 20
154.718094
 40
8.500000
  0
ARC
  8
0
 10
129.789703
 20
154.718094
 40
10.000001
 50
150.000000
 51
210.000000
  0
ARC
  8
0
 10
129.789703
 20
154.718094
 40
9.999994
 50
329.999969
 51
0.000000
  0
ARC
  8
0
 10
129.789703
 20
154.718094
 40
8.249996
 50
345.044769
 51
0.000000
  0
ARC
  8
0
 10
137.277191
 20
152.718094
 40
0.500000
 50
270.000000
 51
345.045166
  0
ARC
  8
0
 10
129.789703
 20
154.718094
 40
8.250000
 50
0.000000
 51
14.955227
  0
ARC
  8
0
 10
137.277191
 20
156.718094
 40
0.499998
 50
14.954844
 51
90.000000
  0
ARC
  8
0
 10
129.789703
 20
154.718094
 40
8.249996
 50
165.044769
 51
194.955231
  0
ARC
  8
0
 10
122.302216
 20
156.718094
 40
0.500000
 50
90.000000
 51
165.045380
  0
ARC
  8
0
 10
122.302216
 20
152.718094
 40
0.500005
 50
194.954620
 51
270.000000
  0
POINT
  8
0
 10
-177.359985
 20
-27.258163
  0
POINT
  8
0
 10
-98.359985
 20
-27.258163
  0
LINE
  8
0
  6
CENTER
 10
-140.859985
 20
4.698822
 11
-140.859985
 21
-39.488251
  0
LINE
  8
0
 10
-123.859985
 20
-16.758163
 11
-123.859985
 21
-37.758163
  0
LINE
  8
0
 10
-125.395882
 20
-16.758163
 11
-123.859985
 21
-16.758163
  0
LINE
  8
0
  6
CENTER
 10
-128.859985
 20
-13.290619
 11
-128.859985
 21
-21.181473
  0
LINE
  8
0
  6
CENTER
 10
-132.253784
 20
-16.258163
 11
-123.859985
 21
-16.258163
  0
LINE
  8
0
 10
-128.359985
 20
-12.258163
 11
-128.359985
 21
-12.794067
  0
LINE
  8
0
 10
-126.359985
 20
-18.707657
 11
-126.359985
 21
-35.258163
  0
LINE
  8
0
 10
-123.859985
 20
-37.758163
 11
-157.859985
 21
-37.758163
  0
LINE
  8
0
 10
-157.859985
 20
-16.758163
 11
-157.859985
 21
-37.758163
  0
LINE
  8
0
 10
-128.359985
 20
-12.258163
 11
-153.359985
 21
-12.258163
  0
LINE
  8
0
 10
-156.324081
 20
-16.758163
 11
-157.859985
 21
-16.758163
  0
LINE
  8
0
  6
CENTER
 10
-152.859985
 20
-13.290619
 11
-152.859985
 21
-21.181473
  0
LINE
  8
0
  6
CENTER
 10
-95.612923
 20
-27.258163
 11
-184.984619
 21
-27.258163
  0
LINE
  8
0
  6
CENTER
 10
-149.466187
 20
-16.258163
 11
-157.859985
 21
-16.258163
  0
LINE
  8
0
 10
-153.359985
 20
-12.258163
 11
-153.359985
 21
-12.794067
  0
LINE
  8
0
 10
-128.359985
 20
-12.794067
 11
-153.359985
 21
-12.794067
  0
LINE
  8
0
 10
-155.359985
 20
-18.707657
 11
-155.359985
 21
-35.258163
  0
LINE
  8
0
 10
-126.359985
 20
-35.258163
 11
-155.359985
 21
-35.258163
  0
LINE
  8
0
 10
-132.004974
 20
-17.794067
 11
-149.714981
 21
-17.794067
  0
LINE
  8
0
 10
-131.109985
 20
2.241837
 11
-131.109985
 21
-12.258163
  0
LINE
  8
0
 10
-132.109985
 20
3.241837
 11
-149.609985
 21
3.241837
  0
LINE
  8
0
 10
-150.609985
 20
2.241837
 11
-150.609985
 21
-12.258163
  0
LINE
  8
0
 10
-131.109985
 20
-6.758163
 11
-150.609985
 21
-6.758163
  0
LINE
  8
0
 10
-182.500397
 20
-20.841599
 11
-182.500397
 21
-33.674744
  0
LINE
  8
0
 10
-166.359985
 20
-18.758163
 11
-166.359985
 21
-35.758148
  0
LINE
  8
0
 10
-157.859985
 20
-19.008163
 11
-166.359985
 21
-19.008163
  0
LINE
  8
0
 10
-157.859985
 20
-35.508163
 11
-166.359985
 21
-35.508163
  0
LINE
  8
0
 10
-166.359985
 20
-18.758167
 11
-166.708313
 21
-17.458172
  0
LINE
  8
0
 10
-172.011642
 20
-17.458164
 11
-172.359985
 21
-18.758175
  0
LINE
  8
0
 10
-166.708313
 20
-17.458160
 11
-172.011658
 21
-17.458160
  0
LINE
  8
0
 10
-166.359985
 20
-22.258163
 11
-172.359985
 21
-22.258163
  0
LINE
  8
0
 10
-166.359985
 20
-32.258163
 11
-172.359985
 21
-32.258163
  0
LINE
  8
0
 10
-172.359985
 20
-35.758163
 11
-172.359985
 21
-18.758179
  0
LINE
  8
0
 10
-172.011642
 20
-37.058182
 11
-172.359985
 21
-35.758179
  0
LINE
  8
0
 10
-166.708313
 20
-37.058167
 11
-172.011658
 21
-37.058167
  0
LINE
  8
0
 10
-166.359985
 20
-35.758163
 11
-166.708328
 21
-37.058159
  0
LINE
  8
0
 10
-172.359985
 20
-20.528133
 11
-182.500397
 21
-20.841564
  0
LINE
  8
0
 10
-172.592468
 20
-21.395792
 11
-183.333420
 21
-21.727785
  0
LINE
  8
0
 10
-182.500397
 20
-20.841591
 11
-183.359985
 21
-21.756012
  0
LINE
  8
0
 10
-172.359985
 20
-20.528170
 11
-172.592453
 21
-21.395773
  0
LINE
  8
0
 10
-172.359985
 20
-33.988163
 11
-172.592453
 21
-33.120571
  0
LINE
  8
0
 10
-172.359985
 20
-33.988178
 11
-182.500397
 21
-33.674744
  0
LINE
  8
0
 10
-172.592453
 20
-33.120567
 11
-183.333420
 21
-32.788574
  0
LINE
  8
0
 10
-182.500397
 20
-33.674732
 11
-183.359970
 21
-32.760311
  0
LINE
  8
0
 10
-172.592453
 20
-21.395752
 11
-172.592453
 21
-33.120575
  0
LINE
  8
0
  6
CENTER
 10
-177.359985
 20
-15.051132
 11
-177.359985
 21
-39.488251
  0
LINE
  8
0
 10
-99.219574
 20
-20.841599
 11
-99.219574
 21
-33.674744
  0
LINE
  8
0
 10
-115.359985
 20
-18.758163
 11
-115.359985
 21
-35.758148
  0
LINE
  8
0
 10
-123.859985
 20
-19.008163
 11
-115.359985
 21
-19.008163
  0
LINE
  8
0
 10
-123.859985
 20
-35.508163
 11
-115.359985
 21
-35.508163
  0
LINE
  8
0
 10
-115.359985
 20
-18.758163
 11
-115.011658
 21
-17.458183
  0
LINE
  8
0
 10
-109.708298
 20
-17.458157
 11
-109.359962
 21
-18.758160
  0
LINE
  8
0
 10
-115.011650
 20
-17.458160
 11
-109.708321
 21
-17.458160
  0
LINE
  8
0
 10
-115.359985
 20
-22.258163
 11
-109.359985
 21
-22.258163
  0
LINE
  8
0
 10
-115.359985
 20
-32.258163
 11
-109.359985
 21
-32.258163
  0
LINE
  8
0
 10
-109.359985
 20
-35.758163
 11
-109.359985
 21
-18.758179
  0
LINE
  8
0
 10
-109.708313
 20
-37.058159
 11
-109.359978
 21
-35.758163
  0
LINE
  8
0
 10
-115.011650
 20
-37.058167
 11
-109.708321
 21
-37.058167
  0
LINE
  8
0
 10
-115.359993
 20
-35.758144
 11
-115.011673
 21
-37.058144
  0
LINE
  8
0
 10
-109.359985
 20
-20.528116
 11
-99.219559
 21
-20.841549
  0
LINE
  8
0
 10
-109.127502
 20
-21.395744
 11
-98.386536
 21
-21.727730
  0
LINE
  8
0
 10
-99.219589
 20
-20.841602
 11
-98.360008
 21
-21.756033
  0
LINE
  8
0
 10
-109.360016
 20
-20.528156
 11
-109.127548
 21
-21.395767
  0
LINE
  8
0
 10
-98.359985
 20
-32.760315
 11
-98.359985
 21
-21.728577
  0
LINE
  8
0
 10
-109.359978
 20
-33.988152
 11
-109.127510
 21
-33.120564
  0
LINE
  8
0
 10
-109.359978
 20
-33.988148
 11
-99.219566
 21
-33.674717
  0
LINE
  8
0
 10
-109.127518
 20
-33.120590
 11
-98.386566
 21
-32.788605
  0
LINE
  8
0
 10
-99.219574
 20
-33.674728
 11
-98.359993
 21
-32.760311
  0
LINE
  8
0
 10
-109.127518
 20
-21.395752
 11
-109.127518
 21
-33.120575
  0
LINE
  8
0
  6
CENTER
 10
-104.359985
 20
-15.051132
 11
-104.359985
 21
-39.488251
  0
LINE
  8
0
 10
-183.359985
 20
-32.760315
 11
-183.359985
 21
-21.728577
  0
CIRCLE
  8
0
 10
-128.859985
 20
-16.258163
 40
2.100000
  0
ARC
  8
0
 10
-128.859985
 20
-16.258163
 40
3.499995
 50
351.786774
 51
81.786789
  0
ARC
  8
0
 10
-128.859985
 20
-16.258163
 40
3.499993
 50
206.029251
 51
315.584686
  0
CIRCLE
  8
0
 10
-152.859985
 20
-16.258163
 40
2.100000
  0
ARC
  8
0
 10
-152.859985
 20
-16.258163
 40
3.500000
 50
98.213211
 51
188.213120
  0
ARC
  8
0
 10
-152.859985
 20
-16.258163
 40
3.500000
 50
224.415314
 51
333.970795
  0
ARC
  8
0
 10
-149.609985
 20
2.241837
 40
1.000000
 50
90.000000
 51
180.000000
  0
ARC
  8
0
 10
-132.109985
 20
2.241837
 40
1.000000
 50
0.000000
 51
90.000000
  0
POINT
  8
0
 10
-233.267059
 20
-27.258148
  0
POINT
  8
0
 10
-222.767059
 20
-27.258148
  0
LINE
  8
0
  6
CENTER
 10
-233.267059
 20
3.768890
 11
-233.267059
 21
-39.790596
  0
LINE
  8
0
 10
-233.267059
 20
-37.758148
 11
-222.767059
 21
-37.758148
  0
LINE
  8
0
 10
-222.767059
 20
-12.258148
 11
-222.767059
 21
-37.758148
  0
LINE
  8
0
 10
-233.267059
 20
-12.258148
 11
-222.767059
 21
-12.258148
  0
LINE
  8
0
 10
-233.267059
 20
-16.758148
 11
-222.767059
 21
-16.758148
  0
LINE
  8
0
  6
CENTER
 10
-233.267059
 20
-27.258148
 11
-221.476501
 21
-27.258148
  0
LINE
  8
0
 10
-233.267059
 20
-37.758148
 11
-243.767059
 21
-37.758148
  0
LINE
  8
0
 10
-243.767059
 20
-12.258148
 11
-243.767059
 21
-37.758148
  0
LINE
  8
0
 10
-233.267059
 20
-12.258148
 11
-243.767059
 21
-12.258148
  0
LINE
  8
0
 10
-233.267059
 20
-16.758148
 11
-243.767059
 21
-16.758148
  0
LINE
  8
0
  6
CENTER
 10
-233.267059
 20
-27.258148
 11
-245.057617
 21
-27.258148
  0
LINE
  8
0
 10
-224.767059
 20
-22.350677
 11
-224.767059
 21
-32.165619
  0
LINE
  8
0
 10
-224.767075
 20
-22.350706
 11
-233.267075
 21
-17.458185
  0
LINE
  8
0
 10
-233.267059
 20
-37.058159
 11
-224.767044
 21
-32.165630
  0
LINE
  8
0
 10
-241.767075
 20
-22.350693
 11
-233.267075
 21
-17.458172
  0
LINE
  8
0
 10
-241.767059
 20
-22.350677
 11
-241.767059
 21
-32.165619
  0
LINE
  8
0
 10
-233.267059
 20
-37.058140
 11
-241.767059
 21
-32.165615
  0
LINE
  8
0
 10
-233.267059
 20
-6.758148
 11
-224.017059
 21
-6.758148
  0
LINE
  8
0
 10
-223.517059
 20
-7.258148
 11
-223.517059
 21
-12.258148
  0
LINE
  8
0
 10
-230.767059
 20
2.741852
 11
-230.767059
 21
-6.758148
  0
LINE
  8
0
 10
-233.267059
 20
3.241852
 11
-231.267059
 21
3.241852
  0
LINE
  8
0
 10
-233.267059
 20
-6.758148
 11
-242.517059
 21
-6.758148
  0
LINE
  8
0
 10
-243.017059
 20
-7.258148
 11
-243.017059
 21
-12.258148
  0
LINE
  8
0
 10
-235.767059
 20
2.741852
 11
-235.767059
 21
-6.758148
  0
LINE
  8
0
 10
-233.267059
 20
3.241852
 11
-235.267059
 21
3.241852
  0
CIRCLE
  8
0
 10
-233.267059
 20
-27.258148
 40
4.000000
  0
CIRCLE
  8
0
 10
-233.267059
 20
-27.258148
 40
6.390000
  0
CIRCLE
  8
0
 10
-233.267059
 20
-27.258148
 40
6.730000
  0
ARC
  8
0
 10
-224.017059
 20
-7.258148
 40
0.500000
 50
0.000000
 51
90.000000
  0
ARC
  8
0
 10
-231.267059
 20
2.741852
 40
0.500000
 50
0.000000
 51
90.000000
  0
ARC
  8
0
 10
-242.517059
 20
-7.258148
 40
0.500000
 50
90.000000
 51
180.000000
  0
ARC
  8
0
 10
-235.267059
 20
2.741852
 40
0.500000
 50
90.000000
 51
180.000000
  0
POINT
  8
0
 10
-177.359985
 20
32.741840
  0
POINT
  8
0
 10
-98.359993
 20
32.741840
  0
LINE
  8
0
  6
CENTER
 10
-97.817955
 20
32.741840
 11
-184.999619
 21
32.741840
  0
LINE
  8
0
  6
CENTER
 10
-140.859985
 20
45.049763
 11
-140.859985
 21
20.363544
  0
LINE
  8
0
 10
-157.859985
 20
22.241840
 11
-123.859985
 21
22.241840
  0
LINE
  8
0
 10
-157.859985
 20
43.241840
 11
-123.859985
 21
43.241840
  0
LINE
  8
0
 10
-157.859985
 20
43.241840
 11
-157.859985
 21
22.241840
  0
LINE
  8
0
 10
-123.859985
 20
43.241840
 11
-123.859985
 21
22.241840
  0
LINE
  8
0
 10
-131.626892
 20
37.741840
 11
-129.403549
 21
37.741840
  0
LINE
  8
0
 10
-131.626892
 20
27.741840
 11
-129.403549
 21
27.741840
  0
LINE
  8
0
 10
-152.316437
 20
27.741840
 11
-150.093079
 21
27.741840
  0
LINE
  8
0
 10
-152.316437
 20
37.741840
 11
-150.093079
 21
37.741840
  0
LINE
  8
0
 10
-149.891190
 20
30.241840
 11
-131.828796
 21
30.241840
  0
LINE
  8
0
 10
-149.891190
 20
35.241840
 11
-131.828796
 21
35.241840
  0
LINE
  8
0
 10
-148.859985
 20
31.891834
 11
-132.859985
 21
31.891834
  0
LINE
  8
0
 10
-148.859985
 20
33.591846
 11
-132.859985
 21
33.591846
  0
LINE
  8
0
 10
-148.859985
 20
33.591846
 11
-148.859985
 21
31.891834
  0
LINE
  8
0
 10
-132.859985
 20
33.591846
 11
-132.859985
 21
31.891834
  0
LINE
  8
0
 10
-115.359993
 20
41.241840
 11
-109.359993
 21
41.241840
  0
LINE
  8
0
 10
-123.859985
 20
40.991840
 11
-115.359993
 21
40.991840
  0
LINE
  8
0
 10
-123.859985
 20
24.491840
 11
-115.359993
 21
24.491840
  0
LINE
  8
0
 10
-115.359993
 20
24.241840
 11
-115.359993
 21
41.241840
  0
LINE
  8
0
 10
-109.359993
 20
24.241840
 11
-109.359993
 21
41.241840
  0
LINE
  8
0
 10
-109.359985
 20
39.471886
 11
-99.219574
 21
39.158455
  0
LINE
  8
0
 10
-109.127518
 20
38.604233
 11
-98.386566
 21
38.272232
  0
LINE
  8
0
 10
-99.219620
 20
39.158394
 11
-98.360023
 21
38.243980
  0
LINE
  8
0
 10
-109.359970
 20
39.471870
 11
-109.127495
 21
38.604271
  0
LINE
  8
0
 10
-98.359993
 20
27.239689
 11
-98.359993
 21
38.271427
  0
LINE
  8
0
 10
-109.359978
 20
26.011860
 11
-109.127502
 21
26.879461
  0
LINE
  8
0
 10
-109.359978
 20
26.011858
 11
-99.219574
 21
26.325289
  0
LINE
  8
0
 10
-109.127525
 20
26.879412
 11
-98.386566
 21
27.211397
  0
LINE
  8
0
 10
-99.219566
 20
26.325260
 11
-98.359978
 21
27.239691
  0
LINE
  8
0
 10
-109.127518
 20
38.604252
 11
-109.127518
 21
26.879429
  0
LINE
  8
0
 10
-99.219574
 20
39.158421
 11
-99.219574
 21
26.325260
  0
LINE
  8
0
 10
-115.359993
 20
24.241840
 11
-109.359993
 21
24.241840
  0
LINE
  8
0
  6
CENTER
 10
-104.359993
 20
45.049763
 11
-104.359993
 21
20.363544
  0
LINE
  8
0
 10
-166.359985
 20
41.241840
 11
-172.359985
 21
41.241840
  0
LINE
  8
0
 10
-157.859985
 20
40.991840
 11
-166.359985
 21
40.991840
  0
LINE
  8
0
 10
-157.859985
 20
24.491840
 11
-166.359985
 21
24.491840
  0
LINE
  8
0
 10
-166.359985
 20
24.241840
 11
-166.359985
 21
41.241840
  0
LINE
  8
0
 10
-172.359985
 20
24.241840
 11
-172.359985
 21
41.241840
  0
LINE
  8
0
 10
-172.359985
 20
39.471901
 11
-182.500397
 21
39.158470
  0
LINE
  8
0
 10
-172.592453
 20
38.604229
 11
-183.333405
 21
38.272228
  0
LINE
  8
0
 10
-182.500381
 20
39.158394
 11
-183.359985
 21
38.243977
  0
LINE
  8
0
 10
-172.360001
 20
39.471859
 11
-172.592468
 21
38.604271
  0
LINE
  8
0
 10
-183.359985
 20
27.239689
 11
-183.359985
 21
38.271427
  0
LINE
  8
0
 10
-172.360001
 20
26.011864
 11
-172.592484
 21
26.879465
  0
LINE
  8
0
 10
-172.360001
 20
26.011843
 11
-182.500412
 21
26.325274
  0
LINE
  8
0
 10
-172.592453
 20
26.879406
 11
-183.333420
 21
27.211391
  0
LINE
  8
0
 10
-182.500412
 20
26.325256
 11
-183.360001
 21
27.239685
  0
LINE
  8
0
 10
-172.592468
 20
38.604252
 11
-172.592468
 21
26.879429
  0
LINE
  8
0
 10
-182.500397
 20
39.158421
 11
-182.500397
 21
26.325260
  0
LINE
  8
0
 10
-166.359985
 20
24.241840
 11
-172.359985
 21
24.241840
  0
LINE
  8
0
  6
CENTER
 10
-177.359985
 20
45.049763
 11
-177.359985
 21
20.363544
  0
LINE
  8
0
 10
-166.359985
 20
32.741840
 11
-172.359985
 21
32.741840
  0
LINE
  8
0
 10
-115.359993
 20
32.741840
 11
-109.359993
 21
32.741840
  0
ARC
  8
0
 10
-140.859985
 20
32.741840
 40
12.500000
 50
0.000000
 51
23.578184
  0
CIRCLE
  8
0
 10
-140.859985
 20
32.741840
 40
10.500000
  0
ARC
  8
0
 10
-140.859985
 20
32.741840
 40
12.500010
 50
156.421860
 51
203.578125
  0
ARC
  8
0
 10
-140.859985
 20
32.741840
 40
12.499997
 50
336.421814
 51
0.000000
  0
ARC
  8
0
 10
-131.828796
 20
34.741840
 40
0.500002
 50
12.486895
 51
90.000000
  0
ARC
  8
0
 10
-149.891190
 20
34.741840
 40
0.500000
 50
90.000000
 51
167.513107
  0
ARC
  8
0
 10
-131.828796
 20
30.741840
 40
0.500000
 50
270.000000
 51
347.513092
  0
ARC
  8
0
 10
-149.891190
 20
30.741840
 40
0.500002
 50
192.486893
 51
270.000000
  0
ARC
  8
0
 10
-140.859985
 20
32.741840
 40
9.750000
 50
0.000000
 51
359.464600
  0
POINT
  8
0
 10
99.901810
 20
-27.258179
  0
POINT
  8
0
 10
179.401810
 20
-27.258179
  0
LINE
  8
0
  6
CENTER
 10
136.901810
 20
4.698799
 11
136.901810
 21
-39.488270
  0
LINE
  8
0
 10
153.901810
 20
-16.758179
 11
153.901810
 21
-37.758179
  0
LINE
  8
0
 10
152.365906
 20
-16.758179
 11
153.901810
 21
-16.758179
  0
LINE
  8
0
  6
CENTER
 10
148.901810
 20
-13.290627
 11
148.901810
 21
-21.181482
  0
LINE
  8
0
  6
CENTER
 10
183.810196
 20
-27.258179
 11
92.078049
 21
-27.258179
  0
LINE
  8
0
  6
CENTER
 10
145.507996
 20
-16.258179
 11
153.901810
 21
-16.258179
  0
LINE
  8
0
 10
149.401810
 20
-12.258179
 11
149.401810
 21
-12.794077
  0
LINE
  8
0
 10
151.401810
 20
-18.707668
 11
151.401810
 21
-35.258179
  0
LINE
  8
0
 10
153.901810
 20
-37.758179
 11
119.901810
 21
-37.758179
  0
LINE
  8
0
 10
119.901810
 20
-16.758179
 11
119.901810
 21
-37.758179
  0
LINE
  8
0
 10
149.401810
 20
-12.258179
 11
124.401810
 21
-12.258179
  0
LINE
  8
0
 10
121.437706
 20
-16.758179
 11
119.901810
 21
-16.758179
  0
LINE
  8
0
  6
CENTER
 10
124.901810
 20
-13.290627
 11
124.901810
 21
-21.181482
  0
LINE
  8
0
  6
CENTER
 10
128.295609
 20
-16.258179
 11
119.901810
 21
-16.258179
  0
LINE
  8
0
 10
124.401810
 20
-12.258179
 11
124.401810
 21
-12.794077
  0
LINE
  8
0
 10
149.401810
 20
-12.794077
 11
124.401810
 21
-12.794077
  0
LINE
  8
0
 10
122.401810
 20
-18.707668
 11
122.401810
 21
-35.258179
  0
LINE
  8
0
 10
151.401810
 20
-35.258179
 11
122.401810
 21
-35.258179
  0
LINE
  8
0
 10
145.756805
 20
-17.794077
 11
128.046814
 21
-17.794077
  0
LINE
  8
0
 10
146.651810
 20
2.241821
 11
146.651810
 21
-12.258179
  0
LINE
  8
0
 10
145.651810
 20
3.241821
 11
128.151810
 21
3.241821
  0
LINE
  8
0
 10
127.151810
 20
2.241821
 11
127.151810
 21
-12.258179
  0
LINE
  8
0
 10
146.651810
 20
-6.758179
 11
127.151810
 21
-6.758179
  0
LINE
  8
0
 10
111.401810
 20
-18.750681
 11
111.401810
 21
-35.765675
  0
LINE
  8
0
 10
119.901810
 20
-19.008179
 11
111.401810
 21
-19.008179
  0
LINE
  8
0
 10
119.901810
 20
-35.508179
 11
111.401810
 21
-35.508179
  0
LINE
  8
0
 10
178.542221
 20
-20.841610
 11
178.542221
 21
-33.674751
  0
LINE
  8
0
 10
162.401810
 20
-18.758184
 11
162.401810
 21
-35.758167
  0
LINE
  8
0
 10
153.901810
 20
-19.008179
 11
162.401810
 21
-19.008179
  0
LINE
  8
0
 10
153.901810
 20
-35.508179
 11
162.401810
 21
-35.508179
  0
LINE
  8
0
 10
162.401794
 20
-18.758179
 11
162.750122
 21
-17.458183
  0
LINE
  8
0
 10
168.053467
 20
-17.458181
 11
168.401810
 21
-18.758183
  0
LINE
  8
0
 10
162.750137
 20
-17.458179
 11
168.053482
 21
-17.458179
  0
LINE
  8
0
 10
162.401810
 20
-22.258179
 11
168.401810
 21
-22.258179
  0
LINE
  8
0
 10
162.401810
 20
-32.258179
 11
168.401810
 21
-32.258179
  0
LINE
  8
0
 10
168.401810
 20
-35.758179
 11
168.401810
 21
-18.758177
  0
LINE
  8
0
 10
168.053497
 20
-37.058193
 11
168.401825
 21
-35.758186
  0
LINE
  8
0
 10
162.750137
 20
-37.058182
 11
168.053482
 21
-37.058182
  0
LINE
  8
0
 10
162.401794
 20
-35.758183
 11
162.750137
 21
-37.058178
  0
LINE
  8
0
 10
168.401810
 20
-20.528164
 11
178.542221
 21
-20.841595
  0
LINE
  8
0
 10
168.634277
 20
-21.395786
 11
179.375244
 21
-21.727779
  0
LINE
  8
0
 10
178.542206
 20
-20.841618
 11
179.401794
 21
-21.756039
  0
LINE
  8
0
 10
168.401825
 20
-20.528179
 11
168.634293
 21
-21.395779
  0
LINE
  8
0
 10
179.401810
 20
-32.760323
 11
179.401810
 21
-21.728596
  0
LINE
  8
0
 10
168.401825
 20
-33.988174
 11
168.634277
 21
-33.120579
  0
LINE
  8
0
 10
168.401825
 20
-33.988190
 11
178.542236
 21
-33.674759
  0
LINE
  8
0
 10
168.634277
 20
-33.120579
 11
179.375244
 21
-32.788586
  0
LINE
  8
0
 10
178.542221
 20
-33.674747
 11
179.401810
 21
-32.760330
  0
LINE
  8
0
 10
168.634277
 20
-21.395775
 11
168.634277
 21
-33.120583
  0
LINE
  8
0
 10
111.026672
 20
-37.058182
 11
105.776932
 21
-37.058182
  0
LINE
  8
0
 10
93.401810
 20
-34.523159
 11
93.401810
 21
-19.993208
  0
LINE
  8
0
 10
105.401825
 20
-35.765675
 11
94.241409
 21
-35.416912
  0
LINE
  8
0
 10
105.174728
 20
-34.918163
 11
93.428055
 21
-34.551079
  0
LINE
  8
0
 10
94.241402
 20
-35.416912
 11
93.401810
 21
-34.523155
  0
LINE
  8
0
 10
105.401810
 20
-35.765678
 11
105.174728
 21
-34.918175
  0
LINE
  8
0
 10
105.174713
 20
-27.258181
 11
105.174713
 21
-34.918171
  0
LINE
  8
0
 10
105.174713
 20
-27.258181
 11
105.174713
 21
-19.598188
  0
LINE
  8
0
 10
111.026672
 20
-17.458181
 11
105.776932
 21
-17.458181
  0
LINE
  8
0
 10
105.401817
 20
-18.750679
 11
94.241409
 21
-19.099442
  0
LINE
  8
0
 10
105.174721
 20
-19.598186
 11
93.428055
 21
-19.965267
  0
LINE
  8
0
 10
94.241409
 20
-19.099449
 11
93.401810
 21
-19.993210
  0
LINE
  8
0
 10
105.401794
 20
-18.750671
 11
105.174706
 21
-19.598183
  0
LINE
  8
0
 10
111.401810
 20
-32.258179
 11
105.401810
 21
-32.258179
  0
LINE
  8
0
 10
111.401810
 20
-22.258181
 11
105.401810
 21
-22.258181
  0
LINE
  8
0
 10
94.241409
 20
-19.099447
 11
94.241409
 21
-35.416916
  0
LINE
  8
0
  6
CENTER
 10
173.401810
 20
-12.723415
 11
173.401810
 21
-39.488270
  0
LINE
  8
0
  6
CENTER
 10
99.901810
 20
-13.996422
 11
99.901810
 21
-39.488270
  0
LINE
  8
0
 10
105.401825
 20
-35.765675
 11
105.401825
 21
-18.750679
  0
LINE
  8
0
 10
105.401825
 20
-18.750681
 11
105.748146
 21
-17.458183
  0
LINE
  8
0
 10
111.401817
 20
-18.750679
 11
111.055489
 21
-17.458179
  0
LINE
  8
0
 10
105.401825
 20
-35.765678
 11
105.748146
 21
-37.058182
  0
LINE
  8
0
 10
111.401810
 20
-35.765675
 11
111.055489
 21
-37.058182
  0
CIRCLE
  8
0
 10
148.901810
 20
-16.258179
 40
2.100000
  0
ARC
  8
0
 10
148.901810
 20
-16.258179
 40
3.499995
 50
351.786774
 51
81.786789
  0
ARC
  8
0
 10
148.901810
 20
-16.258179
 40
3.500004
 50
206.029068
 51
315.584686
  0
CIRCLE
  8
0
 10
124.901810
 20
-16.258179
 40
2.100000
  0
ARC
  8
0
 10
124.901810
 20
-16.258179
 40
3.500000
 50
98.213211
 51
188.213150
  0
ARC
  8
0
 10
124.901810
 20
-16.258179
 40
3.500000
 50
224.415314
 51
333.970917
  0
ARC
  8
0
 10
128.151810
 20
2.241821
 40
1.000000
 50
90.000000
 51
180.000000
  0
ARC
  8
0
 10
145.651810
 20
2.241821
 40
1.000000
 50
0.000000
 51
90.000000
  0
POINT
  8
0
 10
233.308899
 20
-27.258179
  0
POINT
  8
0
 10
243.808899
 20
-27.258179
  0
LINE
  8
0
  6
CENTER
 10
233.308899
 20
3.768864
 11
233.308899
 21
-39.790627
  0
LINE
  8
0
 10
243.808899
 20
-37.758179
 11
222.808899
 21
-37.758179
  0
LINE
  8
0
 10
222.808899
 20
-12.258179
 11
222.808899
 21
-37.758179
  0
LINE
  8
0
 10
243.808899
 20
-12.258179
 11
222.808899
 21
-12.258179
  0
LINE
  8
0
 10
243.808899
 20
-16.758179
 11
222.808899
 21
-16.758179
  0
LINE
  8
0
  6
CENTER
 10
233.308899
 20
-27.258179
 11
221.518341
 21
-27.258179
  0
LINE
  8
0
 10
243.808899
 20
-12.258179
 11
243.808899
 21
-37.758179
  0
LINE
  8
0
  6
CENTER
 10
233.308899
 20
-27.258179
 11
245.099457
 21
-27.258179
  0
LINE
  8
0
 10
224.808899
 20
-22.350702
 11
224.808899
 21
-32.165657
  0
LINE
  8
0
 10
224.808899
 20
-22.350712
 11
233.308899
 21
-17.458189
  0
LINE
  8
0
 10
233.308899
 20
-37.058186
 11
224.808899
 21
-32.165661
  0
LINE
  8
0
 10
241.808899
 20
-22.350693
 11
233.308899
 21
-17.458170
  0
LINE
  8
0
 10
241.808899
 20
-22.350702
 11
241.808899
 21
-32.165657
  0
LINE
  8
0
 10
233.308899
 20
-37.058178
 11
241.808929
 21
-32.165653
  0
LINE
  8
0
 10
242.558899
 20
-6.758179
 11
224.058899
 21
-6.758179
  0
LINE
  8
0
 10
223.558899
 20
-7.258179
 11
223.558899
 21
-12.258179
  0
LINE
  8
0
 10
230.808899
 20
2.741821
 11
230.808899
 21
-6.758179
  0
LINE
  8
0
 10
235.308899
 20
3.241821
 11
231.308899
 21
3.241821
  0
LINE
  8
0
 10
243.058899
 20
-7.258179
 11
243.058899
 21
-12.258179
  0
LINE
  8
0
 10
235.808899
 20
2.741821
 11
235.808899
 21
-6.758179
  0
CIRCLE
  8
0
 10
233.308899
 20
-27.258179
 40
4.000000
  0
CIRCLE
  8
0
 10
233.308899
 20
-27.258179
 40
6.390000
  0
CIRCLE
  8
0
 10
233.308899
 20
-27.258179
 40
6.730000
  0
ARC
  8
0
 10
224.058899
 20
-7.258179
 40
0.500000
 50
90.000000
 51
180.000000
  0
ARC
  8
0
 10
231.308899
 20
2.741821
 40
0.500000
 50
90.000000
 51
180.000000
  0
ARC
  8
0
 10
242.558899
 20
-7.258179
 40
0.500000
 50
0.000000
 51
90.000000
  0
ARC
  8
0
 10
235.308899
 20
2.741821
 40
0.500000
 50
0.000000
 51
90.000000
  0
POINT
  8
0
 10
46.525208
 20
-27.258163
  0
POINT
  8
0
 10
57.025208
 20
-27.258163
  0
LINE
  8
0
  6
CENTER
 10
46.525208
 20
3.768883
 11
46.525208
 21
-39.790611
  0
LINE
  8
0
 10
57.025208
 20
-37.758163
 11
36.025208
 21
-37.758163
  0
LINE
  8
0
 10
36.025208
 20
-12.258163
 11
36.025208
 21
-37.758163
  0
LINE
  8
0
 10
57.025208
 20
-12.258163
 11
36.025208
 21
-12.258163
  0
LINE
  8
0
 10
57.025208
 20
-16.758163
 11
36.025208
 21
-16.758163
  0
LINE
  8
0
  6
CENTER
 10
46.525208
 20
-27.258163
 11
34.734650
 21
-27.258163
  0
LINE
  8
0
 10
57.025208
 20
-12.258163
 11
57.025208
 21
-37.758163
  0
LINE
  8
0
  6
CENTER
 10
46.525208
 20
-27.258163
 11
58.315765
 21
-27.258163
  0
LINE
  8
0
 10
55.775208
 20
-6.758163
 11
37.275208
 21
-6.758163
  0
LINE
  8
0
 10
36.775208
 20
-7.258163
 11
36.775208
 21
-12.258163
  0
LINE
  8
0
 10
44.025208
 20
2.741837
 11
44.025208
 21
-6.758163
  0
LINE
  8
0
 10
48.525208
 20
3.241837
 11
44.525208
 21
3.241837
  0
LINE
  8
0
 10
56.275208
 20
-7.258163
 11
56.275208
 21
-12.258163
  0
LINE
  8
0
 10
49.025208
 20
2.741837
 11
49.025208
 21
-6.758163
  0
LINE
  8
0
 10
38.025208
 20
-22.350687
 11
38.025208
 21
-32.165642
  0
LINE
  8
0
 10
46.525208
 20
-37.058163
 11
38.025208
 21
-32.165642
  0
LINE
  8
0
 10
38.025223
 20
-22.350685
 11
46.525223
 21
-17.458166
  0
LINE
  8
0
 10
55.025208
 20
-22.350676
 11
46.525208
 21
-17.458157
  0
LINE
  8
0
 10
55.025208
 20
-22.350687
 11
55.025208
 21
-32.165642
  0
LINE
  8
0
 10
46.525211
 20
-37.058167
 11
55.025208
 21
-32.165646
  0
ARC
  8
0
 10
37.275208
 20
-7.258163
 40
0.500000
 50
90.000000
 51
180.000000
  0
ARC
  8
0
 10
44.525208
 20
2.741837
 40
0.500000
 50
90.000000
 51
180.000000
  0
ARC
  8
0
 10
55.775208
 20
-7.258163
 40
0.500000
 50
0.000000
 51
90.000000
  0
ARC
  8
0
 10
48.525208
 20
2.741837
 40
0.500000
 50
0.000000
 51
90.000000
  0
CIRCLE
  8
0
 10
46.525208
 20
-27.258163
 40
8.132500
  0
CIRCLE
  8
0
 10
46.525208
 20
-27.258163
 40
8.507500
  0
CIRCLE
  8
0
 10
46.525208
 20
-27.258163
 40
4.000000
  0
POINT
  8
0
 10
99.901810
 20
32.741829
  0
POINT
  8
0
 10
179.401810
 20
32.741829
  0
LINE
  8
0
  6
CENTER
 10
179.943848
 20
32.741829
 11
92.762184
 21
32.741829
  0
LINE
  8
0
  6
CENTER
 10
136.901810
 20
45.049744
 11
136.901810
 21
20.363529
  0
LINE
  8
0
 10
119.901810
 20
22.241829
 11
153.901810
 21
22.241829
  0
LINE
  8
0
 10
119.901810
 20
43.241829
 11
153.901810
 21
43.241829
  0
LINE
  8
0
 10
119.901810
 20
43.241829
 11
119.901810
 21
22.241829
  0
LINE
  8
0
 10
153.901810
 20
43.241829
 11
153.901810
 21
22.241829
  0
LINE
  8
0
 10
146.134903
 20
37.741829
 11
148.358246
 21
37.741829
  0
LINE
  8
0
 10
146.134903
 20
27.741829
 11
148.358246
 21
27.741829
  0
LINE
  8
0
 10
125.445374
 20
27.741829
 11
127.668716
 21
27.741829
  0
LINE
  8
0
 10
125.445374
 20
37.741829
 11
127.668716
 21
37.741829
  0
LINE
  8
0
 10
127.870613
 20
30.241829
 11
145.933014
 21
30.241829
  0
LINE
  8
0
 10
127.870613
 20
35.241829
 11
145.933014
 21
35.241829
  0
LINE
  8
0
 10
128.901810
 20
31.891830
 11
144.901810
 21
31.891830
  0
LINE
  8
0
 10
128.901810
 20
33.591827
 11
144.901810
 21
33.591827
  0
LINE
  8
0
 10
128.901810
 20
33.591827
 11
128.901810
 21
31.891830
  0
LINE
  8
0
 10
144.901810
 20
33.591827
 11
144.901810
 21
31.891830
  0
LINE
  8
0
 10
111.401810
 20
41.241829
 11
111.401810
 21
32.741829
  0
LINE
  8
0
 10
119.901810
 20
40.991829
 11
111.401810
 21
40.991829
  0
LINE
  8
0
 10
119.901810
 20
24.491829
 11
111.401810
 21
24.491829
  0
LINE
  8
0
 10
111.401810
 20
24.241829
 11
111.401810
 21
32.741829
  0
LINE
  8
0
 10
162.401810
 20
41.241829
 11
168.401810
 21
41.241829
  0
LINE
  8
0
 10
162.401810
 20
41.241829
 11
162.401810
 21
32.741829
  0
LINE
  8
0
 10
153.901810
 20
40.991829
 11
162.401810
 21
40.991829
  0
LINE
  8
0
 10
153.901810
 20
24.491829
 11
162.401810
 21
24.491829
  0
LINE
  8
0
 10
162.401810
 20
24.241829
 11
162.401810
 21
32.741829
  0
LINE
  8
0
 10
168.401810
 20
24.241829
 11
168.401810
 21
41.241829
  0
LINE
  8
0
 10
168.401810
 20
39.471851
 11
178.542221
 21
39.158421
  0
LINE
  8
0
 10
168.634277
 20
38.604225
 11
179.375229
 21
38.272232
  0
LINE
  8
0
 10
178.542236
 20
39.158386
 11
179.401825
 21
38.243961
  0
LINE
  8
0
 10
168.401825
 20
39.471832
 11
168.634308
 21
38.604233
  0
LINE
  8
0
 10
179.401810
 20
27.239685
 11
179.401810
 21
38.271416
  0
LINE
  8
0
 10
168.401794
 20
26.011841
 11
168.634247
 21
26.879436
  0
LINE
  8
0
 10
168.401810
 20
26.011831
 11
178.542236
 21
26.325262
  0
LINE
  8
0
 10
168.634277
 20
26.879421
 11
179.375229
 21
27.211414
  0
LINE
  8
0
 10
178.542236
 20
26.325251
 11
179.401825
 21
27.239670
  0
LINE
  8
0
 10
168.634277
 20
38.604233
 11
168.634277
 21
26.879425
  0
LINE
  8
0
 10
178.542221
 20
39.158401
 11
178.542221
 21
26.325256
  0
LINE
  8
0
 10
162.401810
 20
24.241829
 11
168.401810
 21
24.241829
  0
LINE
  8
0
 10
105.401810
 20
24.234343
 11
105.401810
 21
41.249313
  0
LINE
  8
0
 10
93.401810
 20
25.476845
 11
93.401810
 21
40.033920
  0
LINE
  8
0
 10
105.401810
 20
24.234343
 11
94.241409
 21
24.583103
  0
LINE
  8
0
 10
105.174728
 20
25.081860
 11
93.428055
 21
25.448940
  0
LINE
  8
0
 10
94.241402
 20
24.583088
 11
93.401817
 21
25.476852
  0
LINE
  8
0
 10
105.401810
 20
24.234337
 11
105.174721
 21
25.081841
  0
LINE
  8
0
 10
105.174721
 20
32.741829
 11
105.174721
 21
25.081833
  0
LINE
  8
0
 10
105.174721
 20
32.741829
 11
105.174721
 21
40.401825
  0
LINE
  8
0
 10
105.401810
 20
41.249313
 11
94.241402
 21
40.900551
  0
LINE
  8
0
 10
105.174721
 20
40.401817
 11
93.428055
 21
40.034737
  0
LINE
  8
0
 10
94.241425
 20
40.900558
 11
93.401840
 21
40.006809
  0
LINE
  8
0
 10
105.401779
 20
41.249352
 11
105.174690
 21
40.401844
  0
LINE
  8
0
 10
94.241402
 20
40.900566
 11
94.241402
 21
24.583092
  0
LINE
  8
0
 10
111.401810
 20
41.241829
 11
105.401810
 21
41.241829
  0
LINE
  8
0
 10
111.401810
 20
24.241829
 11
105.401810
 21
24.241829
  0
LINE
  8
0
  6
CENTER
 10
99.901810
 20
45.049744
 11
99.901810
 21
20.363529
  0
LINE
  8
0
  6
CENTER
 10
173.401810
 20
45.049744
 11
173.401810
 21
20.363529
  0
LINE
  8
0
 10
111.401810
 20
32.741829
 11
105.399796
 21
32.741829
  0
LINE
  8
0
 10
162.401810
 20
32.741829
 11
168.401810
 21
32.741829
  0
ARC
  8
0
 10
136.901810
 20
32.741829
 40
12.500000
 50
0.000000
 51
23.578184
  0
CIRCLE
  8
0
 10
136.901810
 20
32.741829
 40
10.500000
  0
ARC
  8
0
 10
136.901810
 20
32.741829
 40
12.499995
 50
156.421829
 51
203.578140
  0
ARC
  8
0
 10
136.901810
 20
32.741829
 40
12.499997
 50
336.421814
 51
0.000000
  0
ARC
  8
0
 10
145.933014
 20
34.741829
 40
0.499987
 50
12.487272
 51
90.000000
  0
ARC
  8
0
 10
127.870613
 20
34.741829
 40
0.500000
 50
90.000000
 51
167.513107
  0
ARC
  8
0
 10
145.933014
 20
30.741829
 40
0.500000
 50
270.000000
 51
347.512726
  0
ARC
  8
0
 10
127.870613
 20
30.741829
 40
0.500002
 50
192.486893
 51
270.000000
  0
ARC
  8
0
 10
136.901810
 20
32.741829
 40
9.750000
 50
0.000000
 51
359.464600
  0
POINT
  8
0
 10
-93.359970
 20
-162.756668
  0
POINT
  8
0
 10
-173.859970
 20
-162.756668
  0
LINE
  8
0
  6
CENTER
 10
-136.859970
 20
-130.799683
 11
-136.859970
 21
-174.986755
  0
LINE
  8
0
 10
-119.859970
 20
-152.256668
 11
-119.859970
 21
-173.256668
  0
LINE
  8
0
 10
-121.395874
 20
-152.256668
 11
-119.859970
 21
-152.256668
  0
LINE
  8
0
  6
CENTER
 10
-124.859970
 20
-148.789124
 11
-124.859970
 21
-156.679962
  0
LINE
  8
0
  6
CENTER
 10
-128.253784
 20
-151.756668
 11
-119.859970
 21
-151.756668
  0
LINE
  8
0
 10
-124.359970
 20
-147.756668
 11
-124.359970
 21
-148.292572
  0
LINE
  8
0
 10
-122.359970
 20
-154.206161
 11
-122.359970
 21
-170.756668
  0
LINE
  8
0
 10
-119.859970
 20
-173.256668
 11
-153.859970
 21
-173.256668
  0
LINE
  8
0
 10
-153.859970
 20
-152.256668
 11
-153.859970
 21
-173.256668
  0
LINE
  8
0
 10
-124.359970
 20
-147.756668
 11
-149.359970
 21
-147.756668
  0
LINE
  8
0
 10
-152.324066
 20
-152.256668
 11
-153.859970
 21
-152.256668
  0
LINE
  8
0
  6
CENTER
 10
-148.859970
 20
-148.789124
 11
-148.859970
 21
-156.679962
  0
LINE
  8
0
  6
CENTER
 10
-89.111511
 20
-162.756668
 11
-180.984589
 21
-162.756668
  0
LINE
  8
0
  6
CENTER
 10
-145.466171
 20
-151.756668
 11
-153.859970
 21
-151.756668
  0
LINE
  8
0
 10
-149.359970
 20
-147.756668
 11
-149.359970
 21
-148.292572
  0
LINE
  8
0
 10
-124.359970
 20
-148.292572
 11
-149.359970
 21
-148.292572
  0
LINE
  8
0
 10
-151.359970
 20
-154.206161
 11
-151.359970
 21
-170.756668
  0
LINE
  8
0
 10
-122.359970
 20
-170.756668
 11
-151.359970
 21
-170.756668
  0
LINE
  8
0
 10
-128.004974
 20
-153.292572
 11
-145.714966
 21
-153.292572
  0
LINE
  8
0
 10
-127.109970
 20
-133.256668
 11
-127.109970
 21
-147.756668
  0
LINE
  8
0
 10
-128.109970
 20
-132.256668
 11
-145.609970
 21
-132.256668
  0
LINE
  8
0
 10
-146.609970
 20
-133.256668
 11
-146.609970
 21
-147.756668
  0
LINE
  8
0
 10
-127.109970
 20
-142.256668
 11
-146.609970
 21
-142.256668
  0
LINE
  8
0
 10
-162.359970
 20
-154.249176
 11
-162.359970
 21
-171.264160
  0
LINE
  8
0
 10
-153.859970
 20
-154.506668
 11
-162.359970
 21
-154.506668
  0
LINE
  8
0
 10
-153.859970
 20
-171.006668
 11
-162.359970
 21
-171.006668
  0
LINE
  8
0
 10
-179.520370
 20
-154.597931
 11
-179.520370
 21
-170.915405
  0
LINE
  8
0
 10
-162.706299
 20
-152.956665
 11
-168.013641
 21
-152.956665
  0
LINE
  8
0
 10
-162.359970
 20
-157.756668
 11
-168.359970
 21
-157.756668
  0
LINE
  8
0
 10
-162.359970
 20
-167.756668
 11
-168.359970
 21
-167.756668
  0
LINE
  8
0
 10
-168.359970
 20
-171.264160
 11
-168.359970
 21
-154.249176
  0
LINE
  8
0
 10
-162.706299
 20
-172.556671
 11
-168.013641
 21
-172.556671
  0
LINE
  8
0
 10
-180.359970
 20
-170.021652
 11
-180.359970
 21
-155.464569
  0
LINE
  8
0
 10
-168.359955
 20
-171.264160
 11
-179.520370
 21
-170.915405
  0
LINE
  8
0
 10
-168.587067
 20
-170.416656
 11
-180.333725
 21
-170.049576
  0
LINE
  8
0
 10
-179.520401
 20
-170.915421
 11
-180.359985
 21
-170.021667
  0
LINE
  8
0
 10
-168.359970
 20
-171.264160
 11
-168.587051
 21
-170.416656
  0
LINE
  8
0
 10
-168.587067
 20
-162.756668
 11
-168.587067
 21
-170.416656
  0
LINE
  8
0
 10
-168.587067
 20
-162.756668
 11
-168.587067
 21
-155.096680
  0
LINE
  8
0
 10
-168.359970
 20
-154.249176
 11
-179.520370
 21
-154.597931
  0
LINE
  8
0
 10
-168.587067
 20
-155.096680
 11
-180.333725
 21
-155.463760
  0
LINE
  8
0
 10
-179.520355
 20
-154.597931
 11
-180.359955
 21
-155.491699
  0
LINE
  8
0
 10
-168.359985
 20
-154.249161
 11
-168.587067
 21
-155.096664
  0
LINE
  8
0
  6
CENTER
 10
-173.859970
 20
-146.976807
 11
-173.859970
 21
-174.986755
  0
LINE
  8
0
 10
-111.359970
 20
-154.249176
 11
-111.359970
 21
-171.264160
  0
LINE
  8
0
 10
-119.859970
 20
-154.506668
 11
-111.359970
 21
-154.506668
  0
LINE
  8
0
 10
-119.859970
 20
-171.006668
 11
-111.359970
 21
-171.006668
  0
LINE
  8
0
 10
-94.199570
 20
-154.597931
 11
-94.199570
 21
-170.915405
  0
LINE
  8
0
 10
-111.013641
 20
-152.956665
 11
-105.706299
 21
-152.956665
  0
LINE
  8
0
 10
-111.359970
 20
-157.756668
 11
-105.359970
 21
-157.756668
  0
LINE
  8
0
 10
-111.359970
 20
-167.756668
 11
-105.359970
 21
-167.756668
  0
LINE
  8
0
 10
-105.359970
 20
-171.264160
 11
-105.359970
 21
-154.249191
  0
LINE
  8
0
 10
-111.013641
 20
-172.556671
 11
-105.706299
 21
-172.556671
  0
LINE
  8
0
 10
-93.359970
 20
-170.021652
 11
-93.359970
 21
-155.464569
  0
LINE
  8
0
 10
-105.359978
 20
-171.264160
 11
-94.199562
 21
-170.915405
  0
LINE
  8
0
 10
-105.132881
 20
-170.416641
 11
-93.386215
 21
-170.049561
  0
LINE
  8
0
 10
-94.199554
 20
-170.915421
 11
-93.359962
 21
-170.021667
  0
LINE
  8
0
 10
-105.359947
 20
-171.264175
 11
-105.132866
 21
-170.416656
  0
LINE
  8
0
 10
-105.132889
 20
-162.756668
 11
-105.132889
 21
-170.416656
  0
LINE
  8
0
 10
-105.132889
 20
-162.756668
 11
-105.132889
 21
-155.096680
  0
LINE
  8
0
 10
-105.359970
 20
-154.249176
 11
-94.199570
 21
-154.597931
  0
LINE
  8
0
 10
-105.132881
 20
-155.096664
 11
-93.386215
 21
-155.463745
  0
LINE
  8
0
 10
-94.199554
 20
-154.597931
 11
-93.359962
 21
-155.491684
  0
LINE
  8
0
 10
-105.359962
 20
-154.249161
 11
-105.132874
 21
-155.096664
  0
LINE
  8
0
  6
CENTER
 10
-99.859970
 20
-146.976807
 11
-99.859970
 21
-174.986755
  0
LINE
  8
0
 10
-168.359970
 20
-154.249176
 11
-168.013641
 21
-152.956680
  0
LINE
  8
0
 10
-162.359970
 20
-154.249176
 11
-162.706299
 21
-152.956665
  0
LINE
  8
0
 10
-168.359970
 20
-171.264160
 11
-168.013641
 21
-172.556671
  0
LINE
  8
0
 10
-162.359970
 20
-171.264160
 11
-162.706299
 21
-172.556671
  0
LINE
  8
0
 10
-105.359970
 20
-171.264160
 11
-105.706299
 21
-172.556671
  0
LINE
  8
0
 10
-111.359970
 20
-171.264160
 11
-111.013641
 21
-172.556671
  0
LINE
  8
0
 10
-111.359970
 20
-154.249176
 11
-111.013641
 21
-152.956665
  0
LINE
  8
0
 10
-105.359970
 20
-154.249176
 11
-105.706291
 21
-152.956665
  0
CIRCLE
  8
0
 10
-124.859970
 20
-151.756668
 40
2.100000
  0
ARC
  8
0
 10
-124.859970
 20
-151.756668
 40
3.499995
 50
351.786774
 51
81.786774
  0
ARC
  8
0
 10
-124.859970
 20
-151.756668
 40
3.500001
 50
206.028946
 51
315.584656
  0
CIRCLE
  8
0
 10
-148.859970
 20
-151.756668
 40
2.100000
  0
ARC
  8
0
 10
-148.859970
 20
-151.756668
 40
3.499995
 50
98.213226
 51
188.213181
  0
ARC
  8
0
 10
-148.859970
 20
-151.756668
 40
3.500003
 50
224.415344
 51
333.970825
  0
ARC
  8
0
 10
-145.609970
 20
-133.256668
 40
1.000000
 50
90.000000
 51
180.000000
  0
ARC
  8
0
 10
-128.109970
 20
-133.256668
 40
1.000000
 50
0.000000
 51
90.000000
  0
POINT
  8
0
 10
-225.267059
 20
-162.756668
  0
POINT
  8
0
 10
-214.767059
 20
-162.756668
  0
LINE
  8
0
  6
CENTER
 10
-225.267059
 20
-131.729614
 11
-225.267059
 21
-175.289124
  0
LINE
  8
0
 10
-235.767059
 20
-147.756668
 11
-235.767059
 21
-173.256668
  0
LINE
  8
0
  6
CENTER
 10
-225.267059
 20
-162.756668
 11
-237.057617
 21
-162.756668
  0
LINE
  8
0
 10
-235.767059
 20
-173.256668
 11
-214.767059
 21
-173.256668
  0
LINE
  8
0
 10
-214.767059
 20
-147.756668
 11
-214.767059
 21
-173.256668
  0
LINE
  8
0
 10
-235.767059
 20
-147.756668
 11
-214.767059
 21
-147.756668
  0
LINE
  8
0
 10
-235.767059
 20
-152.256668
 11
-214.767059
 21
-152.256668
  0
LINE
  8
0
  6
CENTER
 10
-225.267059
 20
-162.756668
 11
-213.476486
 21
-162.756668
  0
LINE
  8
0
 10
-235.017059
 20
-142.756668
 11
-235.017059
 21
-147.756668
  0
LINE
  8
0
 10
-227.767059
 20
-132.756668
 11
-227.767059
 21
-142.256668
  0
LINE
  8
0
 10
-234.517059
 20
-142.256668
 11
-216.017059
 21
-142.256668
  0
LINE
  8
0
 10
-215.517059
 20
-142.756668
 11
-215.517059
 21
-147.756668
  0
LINE
  8
0
 10
-222.767059
 20
-132.756668
 11
-222.767059
 21
-142.256668
  0
LINE
  8
0
 10
-227.267059
 20
-132.256668
 11
-223.267059
 21
-132.256668
  0
LINE
  8
0
 10
-233.767059
 20
-157.849182
 11
-233.767059
 21
-167.664154
  0
LINE
  8
0
 10
-225.267059
 20
-172.556671
 11
-233.767075
 21
-167.664154
  0
LINE
  8
0
 10
-233.767044
 20
-157.849182
 11
-225.267044
 21
-152.956665
  0
LINE
  8
0
 10
-216.767029
 20
-157.849213
 11
-225.267044
 21
-152.956680
  0
LINE
  8
0
 10
-216.767059
 20
-157.849182
 11
-216.767059
 21
-167.664154
  0
LINE
  8
0
 10
-225.267029
 20
-172.556702
 11
-216.767029
 21
-167.664169
  0
ARC
  8
0
 10
-234.517059
 20
-142.756668
 40
0.500000
 50
90.000000
 51
180.000000
  0
ARC
  8
0
 10
-227.267059
 20
-132.756668
 40
0.500000
 50
90.000000
 51
180.000000
  0
ARC
  8
0
 10
-216.017059
 20
-142.756668
 40
0.500000
 50
0.000000
 51
90.000000
  0
ARC
  8
0
 10
-223.267059
 20
-132.756668
 40
0.500000
 50
0.000000
 51
90.000000
  0
CIRCLE
  8
0
 10
-225.267059
 20
-162.756668
 40
8.132500
  0
CIRCLE
  8
0
 10
-225.267059
 20
-162.756668
 40
8.507500
  0
CIRCLE
  8
0
 10
-225.267059
 20
-162.756668
 40
4.000000
  0
POINT
  8
0
 10
-173.859970
 20
-102.756668
  0
POINT
  8
0
 10
-93.359970
 20
-102.756668
  0
LINE
  8
0
  6
CENTER
 10
-181.925461
 20
-102.756668
 11
-92.720345
 21
-102.756668
  0
LINE
  8
0
  6
CENTER
 10
-136.859970
 20
-90.448746
 11
-136.859970
 21
-115.134964
  0
LINE
  8
0
 10
-153.859970
 20
-113.256668
 11
-119.859970
 21
-113.256668
  0
LINE
  8
0
 10
-153.859970
 20
-92.256668
 11
-119.859970
 21
-92.256668
  0
LINE
  8
0
 10
-153.859970
 20
-92.256668
 11
-153.859970
 21
-113.256668
  0
LINE
  8
0
 10
-119.859970
 20
-92.256668
 11
-119.859970
 21
-113.256668
  0
LINE
  8
0
 10
-127.626877
 20
-97.756668
 11
-125.403534
 21
-97.756668
  0
LINE
  8
0
 10
-127.626877
 20
-107.756668
 11
-125.403534
 21
-107.756668
  0
LINE
  8
0
 10
-148.316406
 20
-107.756668
 11
-146.093063
 21
-107.756668
  0
LINE
  8
0
 10
-148.316406
 20
-97.756668
 11
-146.093063
 21
-97.756668
  0
LINE
  8
0
 10
-145.891174
 20
-105.256668
 11
-127.828773
 21
-105.256668
  0
LINE
  8
0
 10
-145.891174
 20
-100.256668
 11
-127.828773
 21
-100.256668
  0
LINE
  8
0
 10
-144.859970
 20
-103.606674
 11
-128.859970
 21
-103.606674
  0
LINE
  8
0
 10
-144.859970
 20
-101.906662
 11
-128.859970
 21
-101.906662
  0
LINE
  8
0
 10
-144.859970
 20
-101.906662
 11
-144.859970
 21
-103.606674
  0
LINE
  8
0
 10
-128.859970
 20
-101.906662
 11
-128.859970
 21
-103.606674
  0
LINE
  8
0
 10
-162.386765
 20
-111.256668
 11
-168.359970
 21
-111.256668
  0
LINE
  8
0
 10
-153.859970
 20
-94.506668
 11
-162.359970
 21
-94.506668
  0
LINE
  8
0
 10
-153.859970
 20
-111.006668
 11
-162.359970
 21
-111.006668
  0
LINE
  8
0
 10
-162.359970
 20
-111.256668
 11
-162.359970
 21
-94.256668
  0
LINE
  8
0
 10
-168.359970
 20
-111.264145
 11
-168.359970
 21
-94.249168
  0
LINE
  8
0
 10
-180.359970
 20
-110.021652
 11
-180.359970
 21
-95.464569
  0
LINE
  8
0
 10
-168.359955
 20
-111.264145
 11
-179.520370
 21
-110.915382
  0
LINE
  8
0
 10
-168.587051
 20
-110.416634
 11
-180.333725
 21
-110.049553
  0
LINE
  8
0
 10
-179.520370
 20
-110.915405
 11
-180.359955
 21
-110.021652
  0
LINE
  8
0
 10
-168.359955
 20
-111.264160
 11
-168.587051
 21
-110.416656
  0
LINE
  8
0
 10
-168.587067
 20
-102.756668
 11
-168.587067
 21
-110.416656
  0
LINE
  8
0
 10
-168.587067
 20
-102.756668
 11
-168.587067
 21
-95.096680
  0
LINE
  8
0
 10
-168.359970
 20
-94.249168
 11
-179.520370
 21
-94.597931
  0
LINE
  8
0
 10
-168.587067
 20
-95.096664
 11
-180.333725
 21
-95.463745
  0
LINE
  8
0
 10
-179.520355
 20
-94.597931
 11
-180.359955
 21
-95.491692
  0
LINE
  8
0
 10
-168.360001
 20
-94.249161
 11
-168.587082
 21
-95.096672
  0
LINE
  8
0
 10
-179.520386
 20
-94.597931
 11
-179.520386
 21
-110.915405
  0
LINE
  8
0
 10
-162.359970
 20
-94.256668
 11
-168.359970
 21
-94.256668
  0
LINE
  8
0
  6
CENTER
 10
-173.859970
 20
-90.448746
 11
-173.859970
 21
-115.134964
  0
LINE
  8
0
 10
-111.359970
 20
-111.256668
 11
-105.359970
 21
-111.256668
  0
LINE
  8
0
 10
-119.859970
 20
-94.506668
 11
-111.359970
 21
-94.506668
  0
LINE
  8
0
 10
-119.859970
 20
-111.006668
 11
-111.359970
 21
-111.006668
  0
LINE
  8
0
 10
-111.359970
 20
-111.256668
 11
-111.359970
 21
-94.256668
  0
LINE
  8
0
 10
-105.359970
 20
-111.264145
 11
-105.359970
 21
-94.256668
  0
LINE
  8
0
 10
-93.359970
 20
-110.021652
 11
-93.359970
 21
-95.464569
  0
LINE
  8
0
 10
-105.359985
 20
-111.264145
 11
-94.199570
 21
-110.915382
  0
LINE
  8
0
 10
-105.132881
 20
-110.416634
 11
-93.386208
 21
-110.049545
  0
LINE
  8
0
 10
-94.199577
 20
-110.915390
 11
-93.359993
 21
-110.021637
  0
LINE
  8
0
 10
-105.359955
 20
-111.264160
 11
-105.132866
 21
-110.416649
  0
LINE
  8
0
 10
-105.132881
 20
-102.756668
 11
-105.132881
 21
-110.416656
  0
LINE
  8
0
 10
-105.132881
 20
-102.756668
 11
-105.132881
 21
-95.096680
  0
LINE
  8
0
 10
-105.359970
 20
-94.249168
 11
-94.199562
 21
-94.597931
  0
LINE
  8
0
 10
-105.132881
 20
-95.096664
 11
-93.386215
 21
-95.463753
  0
LINE
  8
0
 10
-94.199585
 20
-94.597939
 11
-93.359985
 21
-95.491692
  0
LINE
  8
0
 10
-105.359947
 20
-94.249161
 11
-105.132858
 21
-95.096664
  0
LINE
  8
0
 10
-94.199562
 20
-94.597931
 11
-94.199562
 21
-110.915405
  0
LINE
  8
0
 10
-111.359970
 20
-94.256668
 11
-105.357948
 21
-94.256668
  0
LINE
  8
0
  6
CENTER
 10
-99.859970
 20
-90.448746
 11
-99.859970
 21
-115.134964
  0
LINE
  8
0
 10
-162.359970
 20
-102.756668
 11
-168.361984
 21
-102.756668
  0
LINE
  8
0
 10
-111.359970
 20
-102.756668
 11
-105.357948
 21
-102.756668
  0
ARC
  8
0
 10
-136.859970
 20
-102.756668
 40
12.500000
 50
0.000000
 51
23.578184
  0
CIRCLE
  8
0
 10
-136.859970
 20
-102.756668
 40
10.500000
  0
ARC
  8
0
 10
-136.859970
 20
-102.756668
 40
12.499997
 50
156.421814
 51
203.578156
  0
ARC
  8
0
 10
-136.859970
 20
-102.756668
 40
12.499997
 50
336.421814
 51
0.000000
  0
ARC
  8
0
 10
-127.828773
 20
-100.756668
 40
0.500002
 50
12.486895
 51
90.000000
  0
ARC
  8
0
 10
-145.891174
 20
-100.756668
 40
0.500000
 50
90.000000
 51
167.512726
  0
ARC
  8
0
 10
-127.828773
 20
-104.756668
 40
0.500000
 50
270.000000
 51
347.513092
  0
ARC
  8
0
 10
-145.891174
 20
-104.756668
 40
0.499987
 50
192.487274
 51
270.000000
  0
ARC
  8
0
 10
-136.859970
 20
-102.756668
 40
9.750000
 50
0.000000
 51
359.464569
  0
POINT
  8
0
 10
-54.738052
 20
97.718124
  0
POINT
  8
0
 10
-45.988052
 20
97.718124
  0
LINE
  8
0
  6
CENTER
 10
-54.738052
 20
128.568604
 11
-54.738052
 21
85.425598
  0
LINE
  8
0
  6
CENTER
 10
-64.148087
 20
97.718124
 11
-45.076309
 21
97.718124
  0
LINE
  8
0
 10
-47.738052
 20
101.759575
 11
-47.738052
 21
93.676674
  0
LINE
  8
0
 10
-47.738060
 20
93.676659
 11
-54.738064
 21
89.818108
  0
LINE
  8
0
 10
-47.738056
 20
101.759567
 11
-54.738060
 21
105.618118
  0
LINE
  8
0
 10
-61.738041
 20
101.759575
 11
-54.738037
 21
105.618126
  0
LINE
  8
0
 10
-61.738052
 20
101.759575
 11
-61.738052
 21
93.676674
  0
LINE
  8
0
 10
-61.738060
 20
93.676682
 11
-54.738064
 21
89.818130
  0
LINE
  8
0
 10
-63.488052
 20
90.218124
 11
-55.463715
 21
90.218124
  0
LINE
  8
0
 10
-49.238052
 20
90.218124
 11
-49.238052
 21
87.218124
  0
LINE
  8
0
 10
-60.238052
 20
90.218124
 11
-60.238052
 21
87.218124
  0
LINE
  8
0
 10
-60.238052
 20
87.218124
 11
-49.238052
 21
87.218124
  0
LINE
  8
0
 10
-54.012390
 20
90.218124
 11
-45.988052
 21
90.218124
  0
LINE
  8
0
 10
-63.488052
 20
112.718124
 11
-45.988052
 21
112.718124
  0
LINE
  8
0
 10
-63.488052
 20
109.218124
 11
-45.988052
 21
109.218124
  0
LINE
  8
0
 10
-54.012390
 20
105.218124
 11
-45.988052
 21
105.218124
  0
LINE
  8
0
 10
-49.738052
 20
112.718124
 11
-49.738052
 21
109.218124
  0
LINE
  8
0
 10
-59.738052
 20
112.718124
 11
-59.738052
 21
109.218124
  0
LINE
  8
0
 10
-55.463715
 20
105.218124
 11
-63.488052
 21
105.218124
  0
LINE
  8
0
 10
-62.488052
 20
117.718124
 11
-46.988052
 21
117.718124
  0
LINE
  8
0
 10
-46.488052
 20
117.218124
 11
-46.488052
 21
112.718124
  0
LINE
  8
0
 10
-52.238052
 20
127.218124
 11
-52.238052
 21
118.718124
  0
LINE
  8
0
 10
-56.738052
 20
127.718124
 11
-52.738052
 21
127.718124
  0
LINE
  8
0
 10
-62.988052
 20
117.218124
 11
-62.988052
 21
112.718124
  0
LINE
  8
0
 10
-57.238052
 20
127.218124
 11
-57.238052
 21
118.718124
  0
LINE
  8
0
 10
-45.988052
 20
112.718124
 11
-45.988052
 21
90.218124
  0
LINE
  8
0
 10
-63.488052
 20
112.718124
 11
-63.488052
 21
90.218124
  0
CIRCLE
  8
0
 10
-54.738052
 20
97.718124
 40
4.740000
  0
CIRCLE
  8
0
 10
-54.738052
 20
97.718124
 40
4.990000
  0
CIRCLE
  8
0
 10
-54.738052
 20
97.718124
 40
3.000000
  0
ARC
  8
0
 10
-46.988052
 20
117.218124
 40
0.500000
 50
0.000000
 51
90.000000
  0
ARC
  8
0
 10
-52.738052
 20
127.218124
 40
0.500000
 50
0.000000
 51
90.000000
  0
ARC
  8
0
 10
-51.238052
 20
118.718124
 40
1.000000
 50
180.000000
 51
270.000000
  0
ARC
  8
0
 10
-62.488052
 20
117.218124
 40
0.500000
 50
90.000000
 51
180.000000
  0
ARC
  8
0
 10
-56.738052
 20
127.218124
 40
0.500000
 50
90.000000
 51
180.000000
  0
ARC
  8
0
 10
-58.238052
 20
118.718124
 40
1.000000
 50
270.000000
 51
0.000000
  0
POINT
  8
0
 10
-46.483368
 20
-27.258148
  0
POINT
  8
0
 10
-35.983368
 20
-27.258148
  0
LINE
  8
0
  6
CENTER
 10
-46.483368
 20
3.768890
 11
-46.483368
 21
-39.790596
  0
LINE
  8
0
 10
-46.483368
 20
-37.758148
 11
-35.983368
 21
-37.758148
  0
LINE
  8
0
 10
-35.983368
 20
-12.258148
 11
-35.983368
 21
-37.758148
  0
LINE
  8
0
 10
-46.483368
 20
-12.258148
 11
-35.983368
 21
-12.258148
  0
LINE
  8
0
 10
-46.483368
 20
-16.758148
 11
-35.983368
 21
-16.758148
  0
LINE
  8
0
  6
CENTER
 10
-46.483368
 20
-27.258148
 11
-34.692810
 21
-27.258148
  0
LINE
  8
0
 10
-46.483368
 20
-37.758148
 11
-56.983368
 21
-37.758148
  0
LINE
  8
0
 10
-56.983368
 20
-12.258148
 11
-56.983368
 21
-37.758148
  0
LINE
  8
0
 10
-46.483368
 20
-12.258148
 11
-56.983368
 21
-12.258148
  0
LINE
  8
0
 10
-46.483368
 20
-16.758148
 11
-56.983368
 21
-16.758148
  0
LINE
  8
0
  6
CENTER
 10
-46.483368
 20
-27.258148
 11
-58.273926
 21
-27.258148
  0
LINE
  8
0
 10
-37.983368
 20
-22.350677
 11
-37.983368
 21
-32.165619
  0
LINE
  8
0
 10
-37.983383
 20
-22.350706
 11
-46.483383
 21
-17.458185
  0
LINE
  8
0
 10
-46.483368
 20
-37.058159
 11
-37.983360
 21
-32.165630
  0
LINE
  8
0
 10
-54.983376
 20
-22.350693
 11
-46.483383
 21
-17.458172
  0
LINE
  8
0
 10
-54.983368
 20
-22.350677
 11
-54.983368
 21
-32.165619
  0
LINE
  8
0
 10
-46.483372
 20
-37.058140
 11
-54.983368
 21
-32.165615
  0
LINE
  8
0
 10
-46.483368
 20
-6.758148
 11
-37.233368
 21
-6.758148
  0
LINE
  8
0
 10
-36.733368
 20
-7.258148
 11
-36.733368
 21
-12.258148
  0
LINE
  8
0
 10
-43.983368
 20
2.741852
 11
-43.983368
 21
-6.758148
  0
LINE
  8
0
 10
-46.483368
 20
3.241852
 11
-44.483368
 21
3.241852
  0
LINE
  8
0
 10
-46.483368
 20
-6.758148
 11
-55.733368
 21
-6.758148
  0
LINE
  8
0
 10
-56.233368
 20
-7.258148
 11
-56.233368
 21
-12.258148
  0
LINE
  8
0
 10
-48.983368
 20
2.741852
 11
-48.983368
 21
-6.758148
  0
LINE
  8
0
 10
-46.483368
 20
3.241852
 11
-48.483368
 21
3.241852
  0
CIRCLE
  8
0
 10
-46.483368
 20
-27.258148
 40
4.000000
  0
CIRCLE
  8
0
 10
-46.483368
 20
-27.258148
 40
6.390000
  0
CIRCLE
  8
0
 10
-46.483368
 20
-27.258148
 40
6.730000
  0
ARC
  8
0
 10
-37.233368
 20
-7.258148
 40
0.500000
 50
0.000000
 51
90.000000
  0
ARC
  8
0
 10
-44.483368
 20
2.741852
 40
0.500000
 50
0.000000
 51
90.000000
  0
ARC
  8
0
 10
-55.733368
 20
-7.258148
 40
0.500000
 50
90.000000
 51
180.000000
  0
ARC
  8
0
 10
-48.483368
 20
2.741852
 40
0.500000
 50
90.000000
 51
180.000000
  0
POINT
  8
0
 10
-36.452896
 20
-162.756668
  0
POINT
  8
0
 10
-25.952896
 20
-162.756668
  0
LINE
  8
0
  6
CENTER
 10
-36.452896
 20
-131.729614
 11
-36.452896
 21
-175.289124
  0
LINE
  8
0
 10
-46.952896
 20
-147.756668
 11
-46.952896
 21
-173.256668
  0
LINE
  8
0
  6
CENTER
 10
-36.452896
 20
-162.756668
 11
-48.243454
 21
-162.756668
  0
LINE
  8
0
 10
-46.952896
 20
-173.256668
 11
-25.952896
 21
-173.256668
  0
LINE
  8
0
 10
-25.952896
 20
-147.756668
 11
-25.952896
 21
-173.256668
  0
LINE
  8
0
 10
-46.952896
 20
-147.756668
 11
-25.952896
 21
-147.756668
  0
LINE
  8
0
 10
-46.952896
 20
-152.256668
 11
-25.952896
 21
-152.256668
  0
LINE
  8
0
  6
CENTER
 10
-36.452896
 20
-162.756668
 11
-24.662323
 21
-162.756668
  0
LINE
  8
0
 10
-46.202896
 20
-142.756668
 11
-46.202896
 21
-147.756668
  0
LINE
  8
0
 10
-38.952896
 20
-132.756668
 11
-38.952896
 21
-142.256668
  0
LINE
  8
0
 10
-45.702896
 20
-142.256668
 11
-27.202896
 21
-142.256668
  0
LINE
  8
0
 10
-26.702896
 20
-142.756668
 11
-26.702896
 21
-147.756668
  0
LINE
  8
0
 10
-33.952896
 20
-132.756668
 11
-33.952896
 21
-142.256668
  0
LINE
  8
0
 10
-38.452896
 20
-132.256668
 11
-34.452896
 21
-132.256668
  0
LINE
  8
0
 10
-44.952896
 20
-157.849182
 11
-44.952896
 21
-167.664154
  0
LINE
  8
0
 10
-36.452896
 20
-172.556671
 11
-44.952904
 21
-167.664154
  0
LINE
  8
0
 10
-44.952885
 20
-157.849182
 11
-36.452885
 21
-152.956665
  0
LINE
  8
0
 10
-27.952871
 20
-157.849213
 11
-36.452881
 21
-152.956680
  0
LINE
  8
0
 10
-27.952896
 20
-157.849182
 11
-27.952896
 21
-167.664154
  0
LINE
  8
0
 10
-36.452869
 20
-172.556702
 11
-27.952868
 21
-167.664169
  0
ARC
  8
0
 10
-45.702896
 20
-142.756668
 40
0.500000
 50
90.000000
 51
180.000000
  0
ARC
  8
0
 10
-38.452896
 20
-132.756668
 40
0.500000
 50
90.000000
 51
180.000000
  0
ARC
  8
0
 10
-27.202896
 20
-142.756668
 40
0.500000
 50
0.000000
 51
90.000000
  0
ARC
  8
0
 10
-34.452896
 20
-132.756668
 40
0.500000
 50
0.000000
 51
90.000000
  0
CIRCLE
  8
0
 10
-36.452896
 20
-162.756668
 40
8.132500
  0
CIRCLE
  8
0
 10
-36.452896
 20
-162.756668
 40
8.507500
  0
CIRCLE
  8
0
 10
-36.452896
 20
-162.756668
 40
4.000000
  0
ENDSEC
  0
EOF
