  0
SECTION
  2
HEADER
  0
ENDSEC
  0
SECTION
  2
TABLES
  0
TABLE
  2
LTYPE
 70
     4
  0
LTYPE
  2
CONTINUOUS
 70
    64
  3
Solid line
 72
    65
 73
     0
 40
0.000000
  0
LTYPE
  2
DASHED
 70
    64
  3
__ __ __ __ __ __ __ __ __ __ __ __ __ __ __
 72
    65
 73
     2
 40
3.500000
 49
2.000000
 49
-1.500000
  0
LTYPE
  2
CENTER
 70
    64
  3
____ _ ____ _ ____ _ ____ _ ____ _ ____ _ ____
 72
    65
 73
     4
 40
17.500000
 49
13.000000
 49
-1.500000
 49
1.500000
 49
-1.500000
  0
LTYPE
  2
PHANTOM
 70
    64
  3
_____ _ _ _____ _ _ _____ _ _ _____ _ _ ____  
 72
    65
 73
     6
 40
15.500000
 49
8.000000
 49
-1.500000
 49
1.500000
 49
-1.500000
 49
1.500000
 49
-1.500000
  0
LTYPE
  2
DASHED1
 70
    64
  3
__ __ __ __ __ __ __ __ __ __ __ __ __ __ __
 72
    65
 73
     2
 40
1.500000
 49
1.000000
 49
-0.500000
  0
LTYPE
  2
DASHED2
 70
    64
  3
__ __ __ __ __ __ __ __ __ __ __ __ __ __ __
 72
    65
 73
     2
 40
3.500000
 49
2.500000
 49
-1.000000
  0
LTYPE
  2
DASHED3
 70
    64
  3
__ __ __ __ __ __ __ __ __ __ __ __ __ __ __
 72
    65
 73
     2
 40
6.000000
 49
4.000000
 49
-2.000000
  0
LTYPE
  2
DASHED4
 70
    64
  3
__ __ __ __ __ __ __ __ __ __ __ __ __ __ __
 72
    65
 73
     2
 40
12.000000
 49
10.000000
 49
-2.000000
  0
LTYPE
  2
DASHED5
 70
    64
  3
__ __ __ __ __ __ __ __ __ __ __ __ __ __ __
 72
    65
 73
     2
 40
17.000000
 49
15.000000
 49
-2.000000
  0
LTYPE
  2
DASHED6
 70
    64
  3
__ __ __ __ __ __ __ __ __ __ __ __ __ __ __
 72
    65
 73
     2
 40
29.000000
 49
27.000000
 49
-2.000000
  0
LTYPE
  2
PHANTOM1
 70
    64
  3
_____ _ _ _____ _ _ _____ _ _ _____ _ _ ____  
 72
    65
 73
     6
 40
31.000000
 49
25.000000
 49
-1.500000
 49
1.000000
 49
-1.000000
 49
1.000000
 49
-1.500000
  0
LTYPE
  2
PHANTOM2
 70
    64
  3
_____ _ _ _____ _ _ _____ _ _ _____ _ _ ____  
 72
    65
 73
     6
 40
36.000000
 49
27.000000
 49
-1.500000
 49
2.500000
 49
-1.000000
 49
2.500000
 49
-1.500000
  0
LTYPE
  2
PHANTOM3
 70
    64
  3
_____ _ _ _____ _ _ _____ _ _ _____ _ _ ____  
 72
    65
 73
     6
 40
78.000000
 49
64.000000
 49
-2.000000
 49
4.000000
 49
-2.000000
 49
4.000000
 49
-2.000000
  0
LTYPE
  2
CENTER1
 70
    64
  3
____ _ ____ _ ____ _ ____ _ ____ _ ____ _ ____
 72
    65
 73
     4
 40
19.000000
 49
14.000000
 49
-1.000000
 49
3.000000
 49
-1.000000
  0
LTYPE
  2
CENTER2
 70
    64
  3
____ _ ____ _ ____ _ ____ _ ____ _ ____ _ ____
 72
    65
 73
     4
 40
28.500000
 49
25.000000
 49
-1.000000
 49
1.500000
 49
-1.000000
  0
LTYPE
  2
CENTER3
 70
    64
  3
____ _ ____ _ ____ _ ____ _ ____ _ ____ _ ____
 72
    65
 73
     4
 40
31.500000
 49
27.000000
 49
-1.000000
 49
2.500000
 49
-1.000000
  0
LTYPE
  2
CENTER4
 70
    64
  3
____ _ ____ _ ____ _ ____ _ ____ _ ____ _ ____
 72
    65
 73
     4
 40
50.000000
 49
45.000000
 49
-1.000000
 49
3.000000
 49
-1.000000
  0
LTYPE
  2
CENTER5
 70
    64
  3
____ _ ____ _ ____ _ ____ _ ____ _ ____ _ ____
 72
    65
 73
     4
 40
100.000000
 49
92.000000
 49
-2.000000
 49
4.000000
 49
-2.000000
  0
LTYPE
  2
SBK1
 70
    64
  3
______ _ _ _ ______ _ _ _ ______ _ _ _ _____  
 72
    65
 73
     8
 40
60.500000
 49
45.000000
 49
-2.000000
 49
2.500000
 49
-2.000000
 49
2.500000
 49
-2.000000
 49
2.500000
 49
-2.000000
  0
LTYPE
  2
SBK2
 70
    64
  3
______ _ _ _ ______ _ _ _ ______ _ _ _ _____  
 72
    65
 73
     8
 40
84.000000
 49
64.000000
 49
-2.000000
 49
4.000000
 49
-2.000000
 49
4.000000
 49
-2.000000
 49
4.000000
 49
-2.000000
  0
LTYPE
  2
STCH
 70
    64
  3
__ __ __ __ __ __ __ __ __ __ __ __ __ __ __
 72
    65
 73
     2
 40
3.000000
 49
1.000000
 49
-2.000000
  0
LTYPE
  2
MTCH
 70
    64
  3
_____ _ _ _____ _ _ _____ _ _ _____ _ _ ____  
 72
    65
 73
     6
 40
80.000000
 49
66.000000
 49
-2.000000
 49
4.000000
 49
-2.000000
 49
4.000000
 49
-2.000000
  0
ENDTAB
  0
TABLE
  2
LAYER
 70
     1
  0
LAYER
  2
0
 70
     0
 62
     7
  6
CONTINUOUS
  0
ENDTAB
  0
TABLE
  2
STYLE
 70
     1
  0
STYLE
  2
STANDARD
 70
     0
 40
0.000000
 41
1.000000
 50
0.000000
 71
     0
 42
0.200000
  3
txt
  4
BIGFONT
  0
ENDTAB
  0
TABLE
  2
VIEW
 70
     0
  0
ENDTAB
  0
ENDSEC
  0
SECTION
  2
BLOCKS
  0
ENDSEC
  0
SECTION
  2
ENTITIES
  0
LINE
  8
0
 10
49.723042
 20
44.064846
 11
50.723042
 21
44.064846
  0
LINE
  8
0
 10
49.223042
 20
46.064846
 11
76.223045
 21
46.064846
  0
LINE
  8
0
 10
-76.266960
 20
44.064846
 11
-75.266960
 21
44.064846
  0
LINE
  8
0
 10
-76.766960
 20
46.064846
 11
-49.776958
 21
46.064846
  0
LINE
  8
0
 10
-63.266956
 20
49.854843
 11
-63.266956
 21
46.564846
  0
LINE
  8
0
  6
CENTER
 62
     2
 10
-63.266956
 20
46.564846
 11
-63.266956
 21
-51.453083
  0
LINE
  8
0
 10
-72.166954
 20
57.364845
 11
-72.166954
 21
54.064846
  0
LINE
  8
0
 10
-54.376957
 20
57.364845
 11
-54.376957
 21
54.064846
  0
LINE
  8
0
 10
-54.596958
 20
57.364845
 11
-54.596958
 21
54.064846
  0
LINE
  8
0
 10
-57.236958
 20
57.364845
 11
-57.236958
 21
54.064846
  0
LINE
  8
0
 10
-60.626957
 20
57.364845
 11
-60.626957
 21
54.064846
  0
LINE
  8
0
 10
-65.906960
 20
57.364845
 11
-65.906960
 21
54.064846
  0
LINE
  8
0
 10
-69.306961
 20
57.364845
 11
-69.306961
 21
54.064846
  0
LINE
  8
0
 10
-71.946960
 20
57.364845
 11
-71.946960
 21
54.064846
  0
LINE
  8
0
 10
-74.266960
 20
53.064846
 11
-52.276958
 21
53.064846
  0
LINE
  8
0
 10
-51.286957
 20
44.064846
 11
-50.276958
 21
44.064846
  0
LINE
  8
0
 10
-55.076958
 20
42.734844
 11
-55.076958
 21
40.764843
  0
LINE
  8
0
 10
-49.476959
 20
41.464844
 11
-55.076958
 21
41.464844
  0
LINE
  8
0
 10
-49.476959
 20
42.734844
 11
-49.476959
 21
40.764843
  0
LINE
  8
0
 10
-77.066956
 20
41.464844
 11
-71.466957
 21
41.464844
  0
LINE
  8
0
 10
-73.276955
 20
44.064846
 11
-53.276958
 21
44.064846
  0
LINE
  8
0
 10
-71.466957
 20
42.734844
 11
-71.466957
 21
40.764843
  0
LINE
  8
0
 10
-55.276958
 20
40.764843
 11
-49.476959
 21
40.764843
  0
LINE
  8
0
 10
-71.266960
 20
43.064846
 11
-71.266960
 21
40.764843
  0
LINE
  8
0
 10
-55.276958
 20
43.064846
 11
-55.276958
 21
40.764843
  0
LINE
  8
0
 10
-77.066956
 20
40.764843
 11
-71.266960
 21
40.764843
  0
LINE
  8
0
 10
-59.956955
 20
75.364845
 11
-60.266956
 21
74.784843
  0
LINE
  8
0
 10
-59.156960
 20
60.404846
 11
-58.126957
 21
59.864845
  0
LINE
  8
0
 10
-58.126957
 20
59.864845
 11
-60.266956
 21
59.864845
  0
LINE
  8
0
 10
-59.956959
 20
60.404846
 11
-60.266956
 21
59.864845
  0
LINE
  8
0
 10
-59.156956
 20
60.404846
 11
-59.956959
 21
60.404846
  0
LINE
  8
0
 10
-60.266956
 20
74.784843
 11
-60.266956
 21
59.864845
  0
LINE
  8
0
 10
-59.956959
 20
75.364845
 11
-59.956959
 21
60.404846
  0
LINE
  8
0
 10
-59.156956
 20
75.364845
 11
-59.156956
 21
60.404846
  0
LINE
  8
0
 10
-58.126957
 20
74.784843
 11
-58.126957
 21
59.864845
  0
LINE
  8
0
 10
-59.156956
 20
75.364845
 11
-58.126957
 21
74.784843
  0
LINE
  8
0
 10
-54.486958
 20
75.364845
 11
-59.156956
 21
75.364845
  0
LINE
  8
0
 10
-54.486958
 20
75.364845
 11
-53.896961
 21
74.784851
  0
LINE
  8
0
 10
-53.896957
 20
74.784843
 11
-58.126957
 21
74.784843
  0
LINE
  8
0
 10
-53.896957
 20
74.784843
 11
-53.896957
 21
59.864845
  0
LINE
  8
0
 10
-52.336956
 20
59.864845
 11
-53.896957
 21
59.864845
  0
LINE
  8
0
 10
-53.276958
 20
60.404846
 11
-53.896957
 21
60.404846
  0
LINE
  8
0
 10
-73.266960
 20
60.404846
 11
-72.656960
 21
60.404846
  0
LINE
  8
0
 10
-66.576958
 20
60.404846
 11
-66.266960
 21
59.864849
  0
LINE
  8
0
 10
-67.376953
 20
60.404842
 11
-68.406952
 21
59.864841
  0
LINE
  8
0
 10
-72.056961
 20
75.364845
 11
-72.656960
 21
74.784843
  0
LINE
  8
0
 10
-66.576958
 20
75.364845
 11
-66.266960
 21
74.784851
  0
LINE
  8
0
 10
-67.376961
 20
75.364845
 11
-68.406960
 21
74.784843
  0
LINE
  8
0
 10
-74.206955
 20
59.864845
 11
-72.656960
 21
59.864845
  0
LINE
  8
0
 10
-68.406960
 20
59.864845
 11
-66.266960
 21
59.864845
  0
LINE
  8
0
 10
-67.376961
 20
60.404846
 11
-66.576958
 21
60.404846
  0
LINE
  8
0
 10
-72.056961
 20
75.364845
 11
-67.376961
 21
75.364845
  0
LINE
  8
0
 10
-72.656960
 20
74.784843
 11
-68.406960
 21
74.784843
  0
LINE
  8
0
 10
-72.656960
 20
74.784843
 11
-72.656960
 21
59.864845
  0
LINE
  8
0
 10
-66.266960
 20
74.784843
 11
-60.266956
 21
74.784843
  0
LINE
  8
0
 10
-66.576958
 20
75.364845
 11
-59.956959
 21
75.364845
  0
LINE
  8
0
 10
-68.406960
 20
74.784843
 11
-68.406960
 21
59.864845
  0
LINE
  8
0
 10
-67.376961
 20
75.364845
 11
-67.376961
 21
60.404846
  0
LINE
  8
0
 10
-66.576958
 20
75.364845
 11
-66.576958
 21
60.404846
  0
LINE
  8
0
 10
-66.266960
 20
74.784843
 11
-66.266960
 21
59.864845
  0
LINE
  8
0
  6
CENTER
 62
     2
 10
-77.266960
 20
37.764843
 11
-49.276958
 21
37.764843
  0
LINE
  8
0
 10
-77.066956
 20
42.734844
 11
-77.066956
 21
40.764843
  0
LINE
  8
0
  6
CENTER
 62
     2
 10
-74.266960
 20
44.624844
 11
-74.266960
 21
39.564846
  0
LINE
  8
0
 10
-76.766960
 20
51.064846
 11
-49.776958
 21
51.064846
  0
LINE
  8
0
 10
-49.776958
 20
51.064846
 11
-49.776958
 21
46.064846
  0
LINE
  8
0
 10
-76.766960
 20
51.064846
 11
-76.766960
 21
46.064846
  0
LINE
  8
0
 10
-76.766960
 20
46.564846
 11
-49.776958
 21
46.564846
  0
LINE
  8
0
 10
-53.276955
 20
60.404846
 11
-53.596954
 21
76.384842
  0
LINE
  8
0
 10
-73.266960
 20
60.404842
 11
-72.946960
 21
76.384850
  0
LINE
  8
0
 10
-53.276955
 20
60.404842
 11
-52.336960
 21
59.864845
  0
LINE
  8
0
 10
-74.206955
 20
59.864841
 11
-73.266953
 21
60.404842
  0
LINE
  8
0
 10
-52.576958
 20
74.784843
 11
-52.306957
 21
57.824844
  0
LINE
  8
0
 10
-73.966957
 20
74.784843
 11
-74.236954
 21
57.824844
  0
LINE
  8
0
 10
-53.576958
 20
75.364845
 11
-52.576958
 21
74.784843
  0
LINE
  8
0
 10
-73.966957
 20
74.784843
 11
-72.966957
 21
75.364838
  0
LINE
  8
0
 10
-73.766953
 20
57.364845
 11
-74.236954
 21
57.824844
  0
LINE
  8
0
 10
-52.776958
 20
57.364841
 11
-52.306957
 21
57.824841
  0
LINE
  8
0
 10
-73.766960
 20
57.364845
 11
-52.776958
 21
57.364845
  0
LINE
  8
0
 10
-71.946960
 20
77.364845
 11
-54.596958
 21
77.364845
  0
LINE
  8
0
 10
-74.266953
 20
52.064842
 11
-75.266953
 21
51.064842
  0
LINE
  8
0
 10
-52.276955
 20
52.064842
 11
-51.276958
 21
51.064846
  0
LINE
  8
0
 10
-53.276955
 20
54.064842
 11
-52.276955
 21
53.064842
  0
LINE
  8
0
 10
-74.266953
 20
53.064842
 11
-73.266953
 21
54.064842
  0
LINE
  8
0
 10
-74.266960
 20
53.064846
 11
-74.266960
 21
51.064846
  0
LINE
  8
0
 10
-52.276958
 20
53.064846
 11
-52.276958
 21
51.064846
  0
LINE
  8
0
 10
-73.266960
 20
54.064846
 11
-53.276958
 21
54.064846
  0
LINE
  8
0
 10
-75.266960
 20
46.064846
 11
-75.266960
 21
45.064846
  0
LINE
  8
0
 10
-51.276958
 20
46.064846
 11
-51.276958
 21
45.064846
  0
LINE
  8
0
 10
-49.276958
 20
43.064846
 11
-49.276958
 21
37.764843
  0
LINE
  8
0
 10
-77.266960
 20
43.064846
 11
-77.266960
 21
37.764843
  0
LINE
  8
0
  6
CENTER
 62
     2
 10
-63.266956
 20
79.624847
 11
-63.266956
 21
49.854843
  0
LINE
  8
0
 10
53.823044
 20
57.364845
 11
53.823044
 21
54.064846
  0
LINE
  8
0
 10
71.623039
 20
57.364845
 11
71.623039
 21
54.064846
  0
LINE
  8
0
 10
71.403046
 20
57.364845
 11
71.403046
 21
54.064846
  0
LINE
  8
0
 10
68.763046
 20
57.364845
 11
68.763046
 21
54.064846
  0
LINE
  8
0
 10
65.363045
 20
57.364845
 11
65.363045
 21
54.064846
  0
LINE
  8
0
 10
60.083042
 20
57.364845
 11
60.083042
 21
54.064846
  0
LINE
  8
0
 10
56.683044
 20
57.364845
 11
56.683044
 21
54.064846
  0
LINE
  8
0
 10
54.043041
 20
57.364845
 11
54.043041
 21
54.064846
  0
LINE
  8
0
 10
51.723042
 20
53.064846
 11
73.723045
 21
53.064846
  0
LINE
  8
0
 10
70.513046
 20
49.854843
 11
70.513046
 21
46.564846
  0
LINE
  8
0
 10
54.923042
 20
49.854843
 11
54.923042
 21
46.564846
  0
LINE
  8
0
 10
76.223045
 20
51.064846
 11
78.313042
 21
49.854847
  0
LINE
  8
0
 10
47.133041
 20
49.854843
 11
49.223045
 21
51.064846
  0
LINE
  8
0
 10
78.313042
 20
49.854843
 11
78.313042
 21
46.564846
  0
LINE
  8
0
 10
47.133041
 20
49.854843
 11
47.133041
 21
46.564846
  0
LINE
  8
0
 10
74.713043
 20
44.064846
 11
75.723045
 21
44.064846
  0
LINE
  8
0
 10
70.923042
 20
42.734844
 11
70.923042
 21
40.764843
  0
LINE
  8
0
 10
76.523041
 20
41.464844
 11
70.923042
 21
41.464844
  0
LINE
  8
0
 10
76.523041
 20
42.734844
 11
76.523041
 21
40.764843
  0
LINE
  8
0
 10
48.923042
 20
41.464844
 11
54.523041
 21
41.464844
  0
LINE
  8
0
 10
52.713043
 20
44.064846
 11
72.723045
 21
44.064846
  0
LINE
  8
0
 10
54.523041
 20
42.734844
 11
54.523041
 21
40.764843
  0
LINE
  8
0
 10
70.723045
 20
40.764843
 11
76.523041
 21
40.764843
  0
LINE
  8
0
 10
54.723042
 20
43.064846
 11
54.723042
 21
40.764843
  0
LINE
  8
0
 10
70.723045
 20
43.064846
 11
70.723045
 21
40.764843
  0
LINE
  8
0
 10
48.923042
 20
40.764843
 11
54.723042
 21
40.764843
  0
LINE
  8
0
 10
66.033043
 20
75.364845
 11
65.723045
 21
74.784843
  0
LINE
  8
0
 10
66.833038
 20
60.404842
 11
67.863037
 21
59.864841
  0
LINE
  8
0
 10
67.863045
 20
59.864845
 11
65.723045
 21
59.864845
  0
LINE
  8
0
 10
66.033043
 20
60.404846
 11
65.723045
 21
59.864849
  0
LINE
  8
0
 10
66.833046
 20
60.404846
 11
66.033043
 21
60.404846
  0
LINE
  8
0
 10
65.723045
 20
74.784843
 11
65.723045
 21
59.864845
  0
LINE
  8
0
 10
66.033043
 20
75.364845
 11
66.033043
 21
60.404846
  0
LINE
  8
0
 10
66.833046
 20
75.364845
 11
66.833046
 21
60.404846
  0
LINE
  8
0
 10
67.863045
 20
74.784843
 11
67.863045
 21
59.864845
  0
LINE
  8
0
 10
66.833038
 20
75.364845
 11
67.863045
 21
74.784843
  0
LINE
  8
0
 10
71.513046
 20
75.364845
 11
66.833046
 21
75.364845
  0
LINE
  8
0
 10
71.513046
 20
75.364845
 11
72.103043
 21
74.784851
  0
LINE
  8
0
 10
72.103043
 20
74.784843
 11
67.863045
 21
74.784843
  0
LINE
  8
0
 10
72.103043
 20
74.784843
 11
72.103043
 21
59.864845
  0
LINE
  8
0
 10
73.663040
 20
59.864845
 11
72.103043
 21
59.864845
  0
LINE
  8
0
 10
72.723045
 20
60.404846
 11
72.103043
 21
60.404846
  0
LINE
  8
0
 10
52.723042
 20
60.404846
 11
53.333042
 21
60.404846
  0
LINE
  8
0
 10
59.413044
 20
60.404846
 11
59.723045
 21
59.864845
  0
LINE
  8
0
 10
58.613041
 20
60.404842
 11
57.583042
 21
59.864841
  0
LINE
  8
0
 10
53.933041
 20
75.364845
 11
53.333042
 21
74.784851
  0
LINE
  8
0
 10
59.413040
 20
75.364845
 11
59.723038
 21
74.784843
  0
LINE
  8
0
 10
58.613045
 20
75.364845
 11
57.583046
 21
74.784843
  0
LINE
  8
0
 10
51.783043
 20
59.864845
 11
53.333042
 21
59.864845
  0
LINE
  8
0
 10
57.583042
 20
59.864845
 11
59.723042
 21
59.864845
  0
LINE
  8
0
 10
58.613041
 20
60.404846
 11
59.413044
 21
60.404846
  0
LINE
  8
0
 10
53.933044
 20
75.364845
 11
58.613041
 21
75.364845
  0
LINE
  8
0
 10
53.333042
 20
74.784843
 11
57.583042
 21
74.784843
  0
LINE
  8
0
 10
53.333042
 20
74.784843
 11
53.333042
 21
59.864845
  0
LINE
  8
0
 10
59.723042
 20
74.784843
 11
65.723045
 21
74.784843
  0
LINE
  8
0
 10
59.413044
 20
75.364845
 11
66.033043
 21
75.364845
  0
LINE
  8
0
 10
57.583042
 20
74.784843
 11
57.583042
 21
59.864845
  0
LINE
  8
0
 10
58.613041
 20
75.364845
 11
58.613041
 21
60.404846
  0
LINE
  8
0
 10
59.413044
 20
75.364845
 11
59.413044
 21
60.404846
  0
LINE
  8
0
 10
59.723042
 20
74.784843
 11
59.723042
 21
59.864845
  0
LINE
  8
0
 10
48.723042
 20
37.764843
 11
76.723045
 21
37.764843
  0
LINE
  8
0
 10
48.923042
 20
42.734844
 11
48.923042
 21
40.764843
  0
LINE
  8
0
  6
CENTER
 62
     2
 10
51.723042
 20
44.624844
 11
51.723042
 21
39.564846
  0
LINE
  8
0
 10
49.223042
 20
51.064846
 11
76.223045
 21
51.064846
  0
LINE
  8
0
 10
76.223045
 20
46.564846
 11
76.223045
 21
46.064846
  0
LINE
  8
0
 10
49.223042
 20
46.564846
 11
49.223042
 21
46.064846
  0
LINE
  8
0
 10
47.133041
 20
46.564846
 11
78.313042
 21
46.564846
  0
LINE
  8
0
 10
72.723038
 20
60.404846
 11
72.403038
 21
76.384842
  0
LINE
  8
0
 10
52.723042
 20
60.404846
 11
53.043041
 21
76.384842
  0
LINE
  8
0
 10
72.723038
 20
60.404846
 11
73.663040
 21
59.864845
  0
LINE
  8
0
 10
51.783039
 20
59.864841
 11
52.723042
 21
60.404842
  0
LINE
  8
0
 10
73.423042
 20
74.784843
 11
73.693039
 21
57.824844
  0
LINE
  8
0
 10
52.023041
 20
74.784843
 11
51.753040
 21
57.824841
  0
LINE
  8
0
 10
72.423042
 20
75.364845
 11
73.423042
 21
74.784843
  0
LINE
  8
0
 10
52.023041
 20
74.784843
 11
53.023041
 21
75.364845
  0
LINE
  8
0
 10
52.223042
 20
57.364841
 11
51.753040
 21
57.824841
  0
LINE
  8
0
 10
73.223045
 20
57.364849
 11
73.693039
 21
57.824848
  0
LINE
  8
0
 10
52.223042
 20
57.364845
 11
73.223045
 21
57.364845
  0
LINE
  8
0
 10
54.043041
 20
77.364845
 11
71.403046
 21
77.364845
  0
LINE
  8
0
 10
51.723045
 20
52.064846
 11
50.723042
 21
51.064846
  0
LINE
  8
0
 10
73.723038
 20
52.064842
 11
74.723038
 21
51.064842
  0
LINE
  8
0
 10
72.723038
 20
54.064842
 11
73.723038
 21
53.064842
  0
LINE
  8
0
 10
51.723038
 20
53.064842
 11
52.723042
 21
54.064842
  0
LINE
  8
0
 10
51.723042
 20
53.064846
 11
51.723042
 21
51.064846
  0
LINE
  8
0
 10
73.723045
 20
53.064846
 11
73.723045
 21
51.064846
  0
LINE
  8
0
 10
52.723042
 20
54.064846
 11
72.723045
 21
54.064846
  0
LINE
  8
0
 10
50.723042
 20
46.064846
 11
50.723042
 21
45.064846
  0
LINE
  8
0
 10
74.723045
 20
46.064846
 11
74.723045
 21
45.064846
  0
LINE
  8
0
 10
76.723045
 20
43.064846
 11
76.723045
 21
37.764843
  0
LINE
  8
0
 10
48.723042
 20
43.064846
 11
48.723042
 21
37.764843
  0
LINE
  8
0
 10
51.753044
 20
57.824844
 11
73.693039
 21
57.824844
  0
LINE
  8
0
  6
CENTER
 62
     2
 10
73.723045
 20
39.885353
 11
73.723045
 21
45.265400
  0
LINE
  8
0
  6
CENTER
 62
     2
 10
-38.266956
 20
25.015245
 11
-38.266956
 21
10.631660
  0
LINE
  8
0
 10
-42.066956
 20
20.764845
 11
-34.466957
 21
20.764845
  0
LINE
  8
0
 10
-34.466957
 20
20.764845
 11
-34.466957
 21
19.764845
  0
LINE
  8
0
 10
-42.066956
 20
20.764845
 11
-42.066956
 21
19.764845
  0
LINE
  8
0
 10
-34.766956
 20
21.607485
 11
-34.766956
 21
20.764845
  0
LINE
  8
0
 10
-41.766956
 20
21.607485
 11
-41.766956
 21
20.764845
  0
LINE
  8
0
 10
-84.766960
 20
21.607485
 11
-84.766960
 21
20.764845
  0
LINE
  8
0
 10
-91.766960
 20
21.607485
 11
-91.766960
 21
20.764845
  0
LINE
  8
0
 10
-84.466957
 20
20.764845
 11
-92.066956
 21
20.764845
  0
LINE
  8
0
 10
-92.066956
 20
20.764845
 11
-92.066956
 21
19.764845
  0
LINE
  8
0
 10
-84.466957
 20
20.764845
 11
-84.466957
 21
19.764845
  0
LINE
  8
0
  6
CENTER
 62
     2
 10
-88.266960
 20
25.015245
 11
-88.266960
 21
10.631660
  0
LINE
  8
0
 10
91.223045
 20
21.607485
 11
91.223045
 21
20.764845
  0
LINE
  8
0
  6
CENTER
 62
     2
 10
87.723045
 20
25.015245
 11
87.723045
 21
10.631660
  0
LINE
  8
0
 10
84.223045
 20
21.607485
 11
84.223045
 21
20.764845
  0
LINE
  8
0
 10
83.923042
 20
20.764845
 11
91.523041
 21
20.764845
  0
LINE
  8
0
 10
83.923042
 20
20.764845
 11
83.923042
 21
19.764845
  0
LINE
  8
0
 10
91.523041
 20
20.764845
 11
91.523041
 21
19.764845
  0
LINE
  8
0
  6
CENTER
 62
     2
 10
37.723042
 20
25.015245
 11
37.723042
 21
10.631660
  0
LINE
  8
0
 10
41.523041
 20
20.764845
 11
33.923042
 21
20.764845
  0
LINE
  8
0
 10
41.523041
 20
20.764845
 11
41.523041
 21
19.764845
  0
LINE
  8
0
 10
41.223042
 20
21.607485
 11
41.223042
 21
20.764845
  0
LINE
  8
0
 10
34.223042
 20
21.607485
 11
34.223042
 21
20.764845
  0
LINE
  8
0
 10
33.923042
 20
20.764845
 11
33.923042
 21
19.764845
  0
LINE
  8
0
  6
CENTER
 62
     2
 10
-52.266956
 20
44.624844
 11
-52.266956
 21
39.564846
  0
LINE
  8
0
  6
CENTER
 62
     2
 10
62.723042
 20
-52.066200
 11
62.723042
 21
80.750809
  0
LINE
  8
0
 10
37.723042
 20
27.764845
 11
37.723042
 21
28.264845
  0
LINE
  8
0
 10
29.723043
 20
27.764845
 11
29.723043
 21
28.264845
  0
LINE
  8
0
 10
29.723043
 20
28.264845
 11
37.723042
 21
28.264845
  0
LINE
  8
0
 10
25.723043
 20
-20.035156
 11
25.723043
 21
27.764845
  0
LINE
  8
0
 10
99.723045
 20
-20.035156
 11
99.723045
 21
27.764845
  0
LINE
  8
0
 10
100.723045
 20
26.764845
 11
82.723045
 21
26.764845
  0
LINE
  8
0
 10
24.723043
 20
26.764845
 11
42.723042
 21
26.764845
  0
LINE
  8
0
 10
99.723045
 20
27.764847
 11
100.723045
 21
26.764845
  0
LINE
  8
0
 10
25.723042
 20
27.764845
 11
24.723042
 21
26.764843
  0
LINE
  8
0
 10
82.723045
 20
19.764845
 11
92.723045
 21
19.764845
  0
LINE
  8
0
 10
25.723043
 20
27.764845
 11
99.723045
 21
27.764845
  0
LINE
  8
0
 10
76.723045
 20
28.764845
 11
76.723045
 21
37.764843
  0
LINE
  8
0
 10
48.723042
 20
28.764845
 11
48.723042
 21
37.764843
  0
LINE
  8
0
 10
32.723042
 20
19.764845
 11
42.723042
 21
19.764845
  0
LINE
  8
0
 10
92.723045
 20
15.764845
 11
92.723045
 21
19.764845
  0
LINE
  8
0
 10
32.723042
 20
15.764845
 11
32.723042
 21
19.764845
  0
LINE
  8
0
 10
82.723045
 20
19.764845
 11
82.723045
 21
26.764845
  0
LINE
  8
0
 10
42.723042
 20
19.764845
 11
42.723042
 21
26.764845
  0
LINE
  8
0
 10
100.723045
 20
-19.035156
 11
100.723045
 21
26.764845
  0
LINE
  8
0
 10
24.723043
 20
-19.035156
 11
24.723043
 21
26.764845
  0
LINE
  8
0
 10
24.723043
 20
15.764845
 11
100.723045
 21
15.764845
  0
LINE
  8
0
  6
CENTER
 62
     2
 10
-65.964813
 20
25.264845
 11
-60.458988
 21
25.264845
  0
LINE
  8
0
 10
-66.266960
 20
28.264845
 11
-66.266960
 21
27.764845
  0
LINE
  8
0
 10
-60.266956
 20
28.264845
 11
-60.266956
 21
27.764845
  0
LINE
  8
0
 10
-60.266956
 20
28.264845
 11
-66.266960
 21
28.264845
  0
LINE
  8
0
 10
-82.266960
 20
27.764845
 11
-82.266960
 21
15.764845
  0
LINE
  8
0
 10
-44.266956
 20
27.764845
 11
-44.266956
 21
15.764845
  0
LINE
  8
0
 10
-83.266960
 20
26.764845
 11
-43.266956
 21
26.764845
  0
LINE
  8
0
 10
-44.266956
 20
27.764845
 11
-43.266956
 21
26.764845
  0
LINE
  8
0
 10
-82.266953
 20
27.764841
 11
-83.266953
 21
26.764843
  0
LINE
  8
0
 10
-43.266956
 20
19.764845
 11
-33.266956
 21
19.764845
  0
LINE
  8
0
 10
-92.266960
 20
27.764845
 11
-34.266956
 21
27.764845
  0
LINE
  8
0
 10
-49.266956
 20
28.764845
 11
-49.266956
 21
37.764843
  0
LINE
  8
0
 10
-77.266960
 20
28.764845
 11
-77.266960
 21
37.764843
  0
LINE
  8
0
 10
-93.266960
 20
19.764845
 11
-83.266960
 21
19.764845
  0
LINE
  8
0
 10
-33.266956
 20
15.764845
 11
-33.266956
 21
26.764845
  0
LINE
  8
0
 10
-93.266960
 20
15.764845
 11
-93.266960
 21
26.764845
  0
LINE
  8
0
 10
-43.266956
 20
15.764845
 11
-43.266956
 21
26.764845
  0
LINE
  8
0
 10
-83.266960
 20
15.764845
 11
-83.266960
 21
26.764845
  0
LINE
  8
0
 10
-93.266960
 20
15.764845
 11
-33.266956
 21
15.764845
  0
LINE
  8
0
 10
75.989540
 20
-13.312060
 11
75.989540
 21
-19.035156
  0
LINE
  8
0
  6
CENTER
 62
     2
 10
18.950897
 20
-4.035155
 11
106.563011
 21
-4.035155
  0
LINE
  8
0
 10
42.723042
 20
-25.035156
 11
82.723045
 21
-25.035156
  0
LINE
  8
0
  6
CENTER
 62
     2
 10
79.723045
 20
9.578748
 11
79.723045
 21
-16.866892
  0
LINE
  8
0
 10
49.456543
 20
-19.035156
 11
50.456543
 21
-20.035154
  0
LINE
  8
0
 10
29.723043
 20
5.664845
 11
29.723043
 21
-13.735155
  0
LINE
  8
0
 10
39.723042
 20
5.664845
 11
39.723042
 21
-13.735155
  0
LINE
  8
0
 10
39.423042
 20
-14.035155
 11
30.023043
 21
-14.035155
  0
LINE
  8
0
 10
39.423042
 20
5.964845
 11
30.023043
 21
5.964845
  0
LINE
  8
0
 10
49.456543
 20
10.764845
 11
49.456543
 21
-19.035156
  0
LINE
  8
0
 10
32.723042
 20
15.764845
 11
32.723042
 21
11.764845
  0
LINE
  8
0
 10
86.356293
 20
5.964845
 11
95.423042
 21
5.964845
  0
LINE
  8
0
 10
86.356293
 20
-14.035155
 11
95.423042
 21
-14.035155
  0
LINE
  8
0
 10
95.723045
 20
5.664845
 11
95.723045
 21
-13.735155
  0
LINE
  8
0
 10
75.989540
 20
-19.035154
 11
74.989540
 21
-20.035152
  0
LINE
  8
0
 10
75.989540
 20
10.764845
 11
75.989540
 21
5.241750
  0
LINE
  8
0
 10
37.723042
 20
-20.035156
 11
37.723042
 21
-20.735155
  0
LINE
  8
0
 10
29.723043
 20
-20.035156
 11
29.723043
 21
-20.735155
  0
LINE
  8
0
 10
29.723043
 20
-20.735155
 11
37.723042
 21
-20.735155
  0
LINE
  8
0
 10
24.723043
 20
-19.035156
 11
100.723045
 21
-19.035156
  0
LINE
  8
0
 10
99.723038
 20
-20.035152
 11
100.723038
 21
-19.035154
  0
LINE
  8
0
 10
25.723042
 20
-20.035154
 11
24.723043
 21
-19.035156
  0
LINE
  8
0
 10
32.723042
 20
11.764845
 11
92.723045
 21
11.764845
  0
LINE
  8
0
 10
25.723043
 20
-20.035156
 11
99.723045
 21
-20.035156
  0
LINE
  8
0
 10
82.723045
 20
-21.035156
 11
82.723045
 21
-25.035156
  0
LINE
  8
0
 10
42.723042
 20
-21.035156
 11
42.723042
 21
-25.035156
  0
LINE
  8
0
 10
92.723045
 20
15.764845
 11
92.723045
 21
11.764845
  0
LINE
  8
0
 10
-66.266960
 20
-20.035156
 11
-66.266960
 21
-20.735155
  0
LINE
  8
0
 10
-60.266956
 20
-20.035156
 11
-60.266956
 21
-20.735155
  0
LINE
  8
0
 10
-40.266956
 20
-20.035156
 11
-40.266956
 21
11.764845
  0
LINE
  8
0
 10
-35.766956
 20
4.964845
 11
-35.766956
 21
-13.035155
  0
LINE
  8
0
 10
-35.766956
 20
4.964845
 11
-36.766956
 21
5.964844
  0
LINE
  8
0
 10
-35.766956
 20
-13.035155
 11
-36.766956
 21
-14.035156
  0
LINE
  8
0
 10
-36.766956
 20
5.964845
 11
-36.766956
 21
-14.035155
  0
LINE
  8
0
 10
-39.266956
 20
-14.035155
 11
-36.766956
 21
-14.035155
  0
LINE
  8
0
 10
-39.266956
 20
5.964845
 11
-36.766956
 21
5.964845
  0
LINE
  8
0
  6
CENTER
 62
     2
 10
-94.044502
 20
-4.035155
 11
-32.489414
 21
-4.035155
  0
LINE
  8
0
 10
-86.266960
 20
-20.035156
 11
-86.266960
 21
11.764845
  0
LINE
  8
0
 10
-89.766960
 20
5.964845
 11
-89.766960
 21
-14.035155
  0
LINE
  8
0
 10
-90.766953
 20
-13.035155
 11
-89.766960
 21
-14.035154
  0
LINE
  8
0
 10
-90.766953
 20
4.964842
 11
-89.766953
 21
5.964843
  0
LINE
  8
0
 10
-87.266960
 20
-14.035155
 11
-89.766960
 21
-14.035155
  0
LINE
  8
0
 10
-87.266960
 20
5.964845
 11
-89.766960
 21
5.964845
  0
LINE
  8
0
 10
-90.766960
 20
4.964845
 11
-90.766960
 21
-13.035155
  0
LINE
  8
0
 10
-87.266960
 20
-19.035156
 11
-86.266960
 21
-20.035154
  0
LINE
  8
0
 10
-40.266956
 20
-20.035156
 11
-39.266956
 21
-19.035154
  0
LINE
  8
0
 10
-87.266960
 20
11.764845
 11
-87.266960
 21
-19.035156
  0
LINE
  8
0
 10
-39.266956
 20
11.764845
 11
-39.266956
 21
-19.035156
  0
LINE
  8
0
 10
-43.266956
 20
11.764845
 11
-33.266956
 21
11.764845
  0
LINE
  8
0
 10
-83.266960
 20
-25.035156
 11
-43.266956
 21
-25.035156
  0
LINE
  8
0
 10
-93.266960
 20
15.764845
 11
-93.266960
 21
11.764845
  0
LINE
  8
0
 10
-60.266956
 20
-20.735155
 11
-66.266960
 21
-20.735155
  0
LINE
  8
0
 10
-82.266960
 20
-20.035156
 11
-82.266960
 21
15.764845
  0
LINE
  8
0
 10
-44.266956
 20
-20.035156
 11
-44.266956
 21
15.764845
  0
LINE
  8
0
 10
-87.266960
 20
-19.035156
 11
-39.266956
 21
-19.035156
  0
LINE
  8
0
 10
-44.266956
 20
-20.035154
 11
-43.266956
 21
-19.035154
  0
LINE
  8
0
 10
-82.266953
 20
-20.035154
 11
-83.266953
 21
-19.035154
  0
LINE
  8
0
 10
-93.266960
 20
11.764845
 11
-83.266960
 21
11.764845
  0
LINE
  8
0
 10
-86.266960
 20
-20.035156
 11
-40.266956
 21
-20.035156
  0
LINE
  8
0
 10
-43.266956
 20
-21.035156
 11
-43.266956
 21
-25.035156
  0
LINE
  8
0
 10
-83.266960
 20
-21.035156
 11
-83.266960
 21
-25.035156
  0
LINE
  8
0
 10
-33.266956
 20
15.764845
 11
-33.266956
 21
11.764845
  0
LINE
  8
0
 10
-43.266956
 20
15.764845
 11
-43.266956
 21
-19.035156
  0
LINE
  8
0
 10
-83.266960
 20
15.764845
 11
-83.266960
 21
-19.035156
  0
LINE
  8
0
 10
50.723042
 20
-47.035156
 11
48.866638
 21
-45.963360
  0
LINE
  8
0
 10
74.723045
 20
-47.035152
 11
76.579453
 21
-45.963356
  0
LINE
  8
0
 10
48.866634
 20
-45.963360
 11
48.866634
 21
-35.035156
  0
LINE
  8
0
 10
55.794838
 20
-45.963360
 11
55.794838
 21
-35.035156
  0
LINE
  8
0
 10
69.651245
 20
-45.963360
 11
69.651245
 21
-35.035156
  0
LINE
  8
0
 10
76.579453
 20
-45.963360
 11
76.579453
 21
-35.035156
  0
LINE
  8
0
 10
42.723042
 20
-34.035156
 11
82.723045
 21
-34.035156
  0
LINE
  8
0
 10
82.723045
 20
-34.035156
 11
81.723045
 21
-35.035156
  0
LINE
  8
0
 10
42.723042
 20
-34.035152
 11
43.723042
 21
-35.035156
  0
LINE
  8
0
 10
50.723042
 20
-47.035156
 11
74.723045
 21
-47.035156
  0
LINE
  8
0
 10
43.723042
 20
-35.035156
 11
81.723045
 21
-35.035156
  0
LINE
  8
0
 10
42.723042
 20
-25.035156
 11
42.723042
 21
-34.035156
  0
LINE
  8
0
 10
82.723045
 20
-25.035156
 11
82.723045
 21
-34.035156
  0
LINE
  8
0
 10
-63.266956
 20
-35.035156
 11
-63.266956
 21
-47.035156
  0
LINE
  8
0
 10
-75.266960
 20
-47.035156
 11
-75.266960
 21
-35.035156
  0
LINE
  8
0
 10
-51.266956
 20
-47.035156
 11
-51.266956
 21
-35.035156
  0
LINE
  8
0
 10
-83.266960
 20
-34.035156
 11
-43.266956
 21
-34.035156
  0
LINE
  8
0
 10
-43.266956
 20
-34.035152
 11
-44.266956
 21
-35.035156
  0
LINE
  8
0
 10
-83.266960
 20
-34.035156
 11
-82.266960
 21
-35.035156
  0
LINE
  8
0
 10
-75.266960
 20
-47.035156
 11
-51.266956
 21
-47.035156
  0
LINE
  8
0
 10
-82.266960
 20
-35.035156
 11
-44.266956
 21
-35.035156
  0
LINE
  8
0
 10
-83.266960
 20
-25.035156
 11
-83.266960
 21
-34.035156
  0
LINE
  8
0
 10
-43.266956
 20
-25.035156
 11
-43.266956
 21
-34.035156
  0
LINE
  8
0
 10
-134.460510
 20
37.414383
 11
-93.079399
 21
37.414383
  0
LINE
  8
0
 10
-138.399994
 20
94.500000
 11
138.350006
 21
94.500000
  0
LINE
  8
0
 10
138.350006
 20
94.500000
 11
138.350006
 21
-94.800003
  0
LINE
  8
0
 10
-138.399994
 20
-94.800003
 11
138.350006
 21
-94.800003
  0
LINE
  8
0
 10
-138.399994
 20
94.500000
 11
-138.399994
 21
-94.800003
  0
ARC
  8
0
 10
-56.521957
 20
31.568422
 40
19.490723
 50
69.753349
 51
110.246643
  0
ARC
  8
0
 10
-70.016960
 20
31.568398
 40
19.492476
 50
69.739594
 51
110.260406
  0
ARC
  8
0
 10
-54.076836
 20
42.731735
 40
1.000127
 50
116.747910
 51
179.821884
  0
ARC
  8
0
 10
-52.276958
 20
39.164841
 40
4.995410
 50
63.229786
 51
116.770210
  0
ARC
  8
0
 10
-50.472244
 20
42.734722
 40
0.995289
 50
0.007027
 51
63.423164
  0
ARC
  8
0
 10
-76.270287
 20
39.768173
 40
0.996675
 50
89.808334
 51
180.191452
  0
ARC
  8
0
 10
-50.275291
 20
39.766510
 40
0.998338
 50
359.904541
 51
90.095451
  0
ARC
  8
0
 10
-56.275291
 20
43.066509
 40
0.998338
 50
359.904541
 51
90.095451
  0
ARC
  8
0
 10
-70.270287
 20
43.068176
 40
0.996675
 50
89.808334
 51
180.191452
  0
ARC
  8
0
 10
-72.469505
 20
42.730236
 40
1.002559
 50
0.263355
 51
63.166737
  0
ARC
  8
0
 10
-76.074089
 20
42.736217
 40
0.992870
 50
116.490623
 51
180.079254
  0
ARC
  8
0
 10
-74.266960
 20
39.164837
 40
4.995414
 50
63.229809
 51
116.770195
  0
ARC
  8
0
 10
-54.595352
 20
76.366280
 40
0.998567
 50
1.065130
 51
90.092148
  0
ARC
  8
0
 10
-71.950188
 20
76.367935
 40
0.996908
 50
89.814079
 51
179.028259
  0
ARC
  8
0
 10
-76.270287
 20
43.068176
 40
0.996675
 50
89.808777
 51
180.191437
  0
ARC
  8
0
 10
-50.275291
 20
43.066509
 40
0.998338
 50
359.904541
 51
90.095451
  0
ARC
  8
0
 10
-50.275291
 20
45.066513
 40
1.001668
 50
180.095352
 51
269.904633
  0
ARC
  8
0
 10
-76.270302
 20
45.068184
 40
1.003347
 50
270.190826
 51
359.809174
  0
ARC
  8
0
 10
74.411873
 20
44.163670
 40
6.898581
 50
64.396385
 51
124.413750
  0
ARC
  8
0
 10
62.718044
 20
25.270596
 40
25.790449
 50
72.407585
 51
107.592407
  0
ARC
  8
0
 10
51.024307
 20
44.164936
 40
6.897480
 50
55.581001
 51
115.608871
  0
ARC
  8
0
 10
71.923164
 20
42.731739
 40
1.000125
 50
116.747719
 51
179.821884
  0
ARC
  8
0
 10
73.723045
 20
39.164841
 40
4.995410
 50
63.229786
 51
116.770210
  0
ARC
  8
0
 10
75.527748
 20
42.734722
 40
0.995293
 50
0.007027
 51
63.423264
  0
ARC
  8
0
 10
49.724709
 20
39.763180
 40
1.001668
 50
90.095352
 51
179.904648
  0
ARC
  8
0
 10
75.724709
 20
39.766506
 40
0.998338
 50
359.904541
 51
90.095451
  0
ARC
  8
0
 10
69.724709
 20
43.066505
 40
0.998338
 50
359.904541
 51
90.095451
  0
ARC
  8
0
 10
55.724709
 20
43.063179
 40
1.001668
 50
90.095352
 51
179.904648
  0
ARC
  8
0
 10
53.527752
 20
42.734722
 40
0.995293
 50
0.007027
 51
63.423264
  0
ARC
  8
0
 10
49.923161
 20
42.731739
 40
1.000125
 50
116.747719
 51
179.821884
  0
ARC
  8
0
 10
51.723042
 20
39.164841
 40
4.995410
 50
63.229786
 51
116.770210
  0
ARC
  8
0
 10
71.404648
 20
76.366280
 40
0.998571
 50
1.065564
 51
90.091927
  0
ARC
  8
0
 10
54.044708
 20
76.362938
 40
1.001909
 50
90.095329
 51
178.747284
  0
ARC
  8
0
 10
49.724709
 20
43.063179
 40
1.001668
 50
90.095352
 51
179.904648
  0
ARC
  8
0
 10
75.724709
 20
43.066505
 40
0.998338
 50
359.904541
 51
90.095451
  0
ARC
  8
0
 10
75.724709
 20
45.066509
 40
1.001665
 50
180.095352
 51
269.904877
  0
ARC
  8
0
 10
49.724705
 20
45.063183
 40
0.998338
 50
269.904541
 51
0.095453
  0
ARC
  8
0
 10
-38.266956
 20
17.364845
 40
6.500001
 50
70.528770
 51
109.471230
  0
ARC
  8
0
 10
-39.766956
 20
21.607485
 40
2.000000
 50
109.471252
 51
180.000000
  0
ARC
  8
0
 10
-36.766956
 20
21.607485
 40
2.000000
 50
0.000000
 51
70.528748
  0
ARC
  8
0
 10
-86.766960
 20
21.607485
 40
2.000000
 50
0.000000
 51
70.528847
  0
ARC
  8
0
 10
-88.266960
 20
17.364845
 40
6.500000
 50
70.528801
 51
109.471199
  0
ARC
  8
0
 10
-89.766960
 20
21.607485
 40
1.999999
 50
109.471153
 51
180.000000
  0
ARC
  8
0
 10
86.223045
 20
21.607485
 40
1.999999
 50
109.471153
 51
180.000000
  0
ARC
  8
0
 10
87.723045
 20
17.364845
 40
6.500000
 50
70.528801
 51
109.471199
  0
ARC
  8
0
 10
89.223045
 20
21.607485
 40
2.000000
 50
0.000000
 51
70.528847
  0
ARC
  8
0
 10
37.723042
 20
17.364845
 40
6.500001
 50
70.528770
 51
109.471230
  0
ARC
  8
0
 10
39.223042
 20
21.607485
 40
2.000000
 50
0.000000
 51
70.528748
  0
ARC
  8
0
 10
36.223042
 20
21.607485
 40
2.000000
 50
109.471252
 51
180.000000
  0
ARC
  8
0
 10
47.723042
 20
28.764845
 40
1.000000
 50
270.000000
 51
0.000000
  0
ARC
  8
0
 10
77.723045
 20
28.764845
 40
1.000000
 50
180.000000
 51
270.000000
  0
ARC
  8
0
 10
81.723045
 20
26.764845
 40
1.000000
 50
0.000000
 51
90.000000
  0
ARC
  8
0
 10
43.723042
 20
26.764845
 40
1.000000
 50
90.000000
 51
180.000000
  0
CIRCLE
  8
0
 10
-63.266956
 20
25.264845
 40
1.100000
  0
ARC
  8
0
 10
-78.266960
 20
28.764845
 40
1.000000
 50
270.000000
 51
0.000000
  0
ARC
  8
0
 10
-48.266956
 20
28.764845
 40
1.000000
 50
180.000000
 51
270.000000
  0
ARC
  8
0
 10
-34.266956
 20
26.764845
 40
1.000000
 50
0.000000
 51
90.000000
  0
ARC
  8
0
 10
-92.266960
 20
26.764845
 40
1.000000
 50
90.000000
 51
180.000000
  0
CIRCLE
  8
0
 10
79.723045
 20
-4.035155
 40
9.000000
  0
CIRCLE
  8
0
 10
79.723045
 20
-4.035155
 40
10.000000
  0
CIRCLE
  8
0
 62
     2
 10
79.723045
 20
-4.035155
 40
6.578500
  0
CIRCLE
  8
0
 10
79.723045
 20
-4.035155
 40
5.722500
  0
ARC
  8
0
 10
79.723045
 20
-4.035155
 40
11.999999
 50
303.557312
 51
56.442699
  0
ARC
  8
0
 10
48.456543
 20
10.764845
 40
1.000000
 50
0.000000
 51
90.000000
  0
ARC
  8
0
 10
39.423042
 20
5.664845
 40
0.299999
 50
0.000000
 51
90.000000
  0
ARC
  8
0
 10
39.423042
 20
-13.735155
 40
0.300000
 50
270.000000
 51
0.000000
  0
ARC
  8
0
 10
30.023043
 20
-13.735155
 40
0.299999
 50
180.000000
 51
270.000000
  0
ARC
  8
0
 10
30.023043
 20
5.664845
 40
0.300000
 50
90.000000
 51
180.000000
  0
ARC
  8
0
 10
95.423042
 20
5.664845
 40
0.300003
 50
0.000000
 51
90.000000
  0
ARC
  8
0
 10
95.423042
 20
-13.735155
 40
0.300000
 50
270.000000
 51
0.000000
  0
ARC
  8
0
 10
76.989540
 20
10.764845
 40
1.000000
 50
90.000000
 51
180.000000
  0
ARC
  8
0
 10
41.723042
 20
-21.035156
 40
1.000000
 50
0.000000
 51
90.000000
  0
ARC
  8
0
 10
83.723045
 20
-21.035156
 40
1.000000
 50
90.000000
 51
180.000000
  0
CIRCLE
  8
0
 62
     2
 10
-63.266956
 20
-4.035155
 40
8.331000
  0
CIRCLE
  8
0
 10
-63.266956
 20
-4.035155
 40
7.474999
  0
CIRCLE
  8
0
 10
-63.266956
 20
-4.035155
 40
13.500000
  0
ARC
  8
0
 10
-84.266960
 20
-21.035156
 40
1.000000
 50
0.000000
 51
90.000000
  0
ARC
  8
0
 10
-42.266956
 20
-21.035156
 40
1.000000
 50
90.000000
 51
180.000000
  0
ARC
  8
0
 10
52.330738
 20
-40.901180
 40
6.133976
 50
270.000000
 51
304.384247
  0
ARC
  8
0
 10
62.723042
 20
-24.106953
 40
22.928204
 50
252.412048
 51
287.587952
  0
ARC
  8
0
 10
73.115349
 20
-40.901180
 40
6.133977
 50
235.615753
 51
270.000000
  0
ARC
  8
0
 10
-69.266960
 20
-29.705029
 40
17.330128
 50
249.743851
 51
290.256165
  0
ARC
  8
0
 10
-57.266956
 20
-29.705029
 40
17.330128
 50
249.743851
 51
290.256165
  0
TEXT
  8
0
 10
-134.191391
 20
38.686150
 40
3.200000
  1
－０４：２－Ｒｃ１／ ２
 50
0.000000
 41
0.833333
 51
0.000000
  7
STANDARD
  0
TEXT
  8
0
 10
94.207352
 20
-92.850006
 40
4.500000
  1
HR600
 50
0.000000
 41
1.052632
 51
0.000000
  7
STANDARD
  0
LINE
  8
0
 10
-68.140800
 20
2.721415
 11
-98.409645
 21
44.682896
  0
LINE
  8
0
 10
-98.409645
 20
44.682896
 11
-135.763351
 21
44.682899
  0
LINE
  8
0
 10
-68.140800
 20
2.721415
 11
-69.206352
 21
5.525804
  0
LINE
  8
0
 10
-68.140800
 20
2.721415
 11
-70.465790
 21
4.617311
  0
TEXT
  8
0
 10
-135.513351
 20
45.682899
 40
3.200000
  1
－０３：２－Ｒｃ３／ ８
 50
0.000000
 41
0.833333
 51
0.000000
  7
STANDARD
  0
ENDSEC
  0
EOF
