  0
SECTION
  2
HEADER
  9
$ACADVER
  1
AC1012
  9
$DWGCODEPAGE
  3
dos932
  9
$INSBASE
 10
0.0
 20
0.0
 30
0.0
  9
$EXTMIN
 10
-281.25
 20
-195.0
 30
0.0
  9
$EXTMAX
 10
285.6319057062413
 20
195.5
 30
0.0
  9
$LIMMIN
 10
-281.25
 20
-195.0
  9
$LIMMAX
 10
285.6319057062413
 20
195.5
  9
$ORTHOMODE
 70
               0
  9
$REGENMODE
 70
               1
  9
$FILLMODE
 70
               1
  9
$QTEXTMODE
 70
               0
  9
$MIRRTEXT
 70
               1
  9
$DRAGMODE
 70
               2
  9
$LTSCALE
 40
1.0
  9
$OSMODE
 70
               0
  9
$ATTMODE
 70
               1
  9
$TEXTSIZE
 40
3.2000000476837158
  9
$TRACEWID
 40
0.05
  9
$TEXTSTYLE
  7
MX_NOTE_STANDARD
  9
$CLAYER
  8
0
  9
$CELTYPE
  6
CONTINUOUS
  9
$CECOLOR
 62
             256
  9
$CELTSCALE
 40
1.0
  9
$DELOBJ
 70
               1
  9
$DISPSILH
 70
               0
  9
$DIMSCALE
 40
1.0
  9
$DIMASZ
 40
2.5
  9
$DIMEXO
 40
1.5
  9
$DIMDLI
 40
3.75
  9
$DIMRND
 40
0.0
  9
$DIMDLE
 40
0.0
  9
$DIMEXE
 40
1.5
  9
$DIMTP
 40
0.0
  9
$DIMTM
 40
0.0
  9
$DIMTXT
 40
3.2000000476837158
  9
$DIMCEN
 40
2.5
  9
$DIMTSZ
 40
0.0
  9
$DIMTOL
 70
               0
  9
$DIMLIM
 70
               0
  9
$DIMTIH
 70
               0
  9
$DIMTOH
 70
               0
  9
$DIMSE1
 70
               0
  9
$DIMSE2
 70
               0
  9
$DIMTAD
 70
               1
  9
$DIMZIN
 70
               8
  9
$DIMBLK
  1

  9
$DIMASO
 70
               1
  9
$DIMSHO
 70
               1
  9
$DIMPOST
  1

  9
$DIMAPOST
  1

  9
$DIMALT
 70
               0
  9
$DIMALTD
 70
               4
  9
$DIMALTF
 40
0.03937007874016
  9
$DIMLFAC
 40
1.0
  9
$DIMTOFL
 70
               1
  9
$DIMTVP
 40
0.0
  9
$DIMTIX
 70
               0
  9
$DIMSOXD
 70
               0
  9
$DIMSAH
 70
               0
  9
$DIMBLK1
  1

  9
$DIMBLK2
  1

  9
$DIMSTYLE
  2
MXDIMSTYLE
  9
$DIMCLRD
 70
               0
  9
$DIMCLRE
 70
               0
  9
$DIMCLRT
 70
               0
  9
$DIMTFAC
 40
1.0
  9
$DIMGAP
 40
1.0
  9
$DIMJUST
 70
               0
  9
$DIMSD1
 70
               0
  9
$DIMSD2
 70
               0
  9
$DIMTOLJ
 70
               1
  9
$DIMTZIN
 70
               0
  9
$DIMALTZ
 70
               0
  9
$DIMALTTZ
 70
               0
  9
$DIMFIT
 70
               3
  9
$DIMUPT
 70
               1
  9
$DIMUNIT
 70
               2
  9
$DIMDEC
 70
               4
  9
$DIMTDEC
 70
               4
  9
$DIMALTU
 70
               2
  9
$DIMALTTD
 70
               4
  9
$DIMTXSTY
  7
MX_NOTE_STANDARD
  9
$DIMAUNIT
 70
               0
  9
$LUNITS
 70
               2
  9
$LUPREC
 70
               4
  9
$SKETCHINC
 40
0.1
  9
$FILLETRAD
 40
0.0
  9
$AUNITS
 70
               0
  9
$AUPREC
 70
               0
  9
$MENU
  1
acad
  9
$ELEVATION
 40
0.0
  9
$PELEVATION
 40
0.0
  9
$THICKNESS
 40
0.0
  9
$LIMCHECK
 70
               0
  9
$BLIPMODE
 70
               1
  9
$CHAMFERA
 40
0.0
  9
$CHAMFERB
 40
0.0
  9
$CHAMFERC
 40
0.0
  9
$CHAMFERD
 40
0.0
  9
$SKPOLY
 70
               0
  9
$TDCREATE
 40
2453378.356585648
  9
$TDUPDATE
 40
2453378.356585648
  9
$TDINDWG
 40
0.0000000000
  9
$TDUSRTIMER
 40
0.0000000000
  9
$USRTIMER
 70
               1
  9
$ANGBASE
 50
0.0
  9
$ANGDIR
 70
               0
  9
$PDMODE
 70
               0
  9
$PDSIZE
 40
0.0
  9
$PLINEWID
 40
0.0
  9
$COORDS
 70
               1
  9
$SPLFRAME
 70
               0
  9
$SPLINETYPE
 70
               6
  9
$SPLINESEGS
 70
               8
  9
$ATTDIA
 70
               0
  9
$ATTREQ
 70
               1
  9
$HANDLING
 70
               1
  9
$HANDSEED
  5
3C5
  9
$SURFTAB1
 70
               6
  9
$SURFTAB2
 70
               6
  9
$SURFTYPE
 70
               6
  9
$SURFU
 70
               6
  9
$SURFV
 70
               6
  9
$UCSNAME
  2

  9
$UCSORG
 10
0.0
 20
0.0
 30
0.0
  9
$UCSXDIR
 10
1.0
 20
0.0
 30
0.0
  9
$UCSYDIR
 10
0.0
 20
1.0
 30
0.0
  9
$PUCSNAME
  2

  9
$PUCSORG
 10
0.0
 20
0.0
 30
0.0
  9
$PUCSXDIR
 10
1.0
 20
0.0
 30
0.0
  9
$PUCSYDIR
 10
0.0
 20
1.0
 30
0.0
  9
$USERI1
 70
               0
  9
$USERI2
 70
               0
  9
$USERI3
 70
               0
  9
$USERI4
 70
               0
  9
$USERI5
 70
               0
  9
$USERR1
 40
0.0
  9
$USERR2
 40
0.0
  9
$USERR3
 40
0.0
  9
$USERR4
 40
0.0
  9
$USERR5
 40
0.0
  9
$WORLDVIEW
 70
               1
  9
$SHADEDGE
 70
               3
  9
$SHADEDIF
 70
              70
  9
$TILEMODE
 70
               1
  9
$MAXACTVP
 70
              16
  9
$PINSBASE
 10
0.0
 20
0.0
 30
0.0
  9
$PLIMCHECK
 70
               0
  9
$PEXTMIN
 10
1.0000000000000000E+20
 20
1.0000000000000000E+20
 30
1.0000000000000000E+20
  9
$PEXTMAX
 10
-1.0000000000000000E+20
 20
-1.0000000000000000E+20
 30
-1.0000000000000000E+20
  9
$PLIMMIN
 10
0.0
 20
0.0
  9
$PLIMMAX
 10
12.0
 20
9.0
  9
$UNITMODE
 70
               0
  9
$VISRETAIN
 70
               0
  9
$PLINEGEN
 70
               1
  9
$PSLTSCALE
 70
               0
  9
$TREEDEPTH
 70
            3020
  9
$PICKSTYLE
 70
               1
  9
$CMLSTYLE
  2
Standard
  9
$CMLJUST
 70
               0
  9
$CMLSCALE
 40
1.0
  9
$SAVEIMAGES
 70
               0
  0
ENDSEC
  0
SECTION
  2
CLASSES
  0
CLASS
  1
LWPOLYLINE
  2
AcDbPolyline
  3
"AutoCAD"
 90
        0
280
               0
281
               1
  0
CLASS
  1
IMAGE
  2
AcDbRasterImage
  3
ISM
 90
      127
280
               0
281
               1
  0
CLASS
  1
OLE2FRAME
  2
AcDbOle2Frame
  3
""
 90
        0
280
               0
281
               1
  0
CLASS
  1
HATCH
  2
AcDbHatch
  3
"ACAD_SEDONA"
 90
        0
280
               0
281
               1
  0
CLASS
  1
DICTIONARYVAR
  2
AcDbDictionaryVar
  3
"AutoCAD"
 90
        0
280
               0
281
               0
  0
CLASS
  1
RASTERVARIABLES
  2
AcDbRasterVariables
  3
ISM
 90
        0
280
               0
281
               0
  0
CLASS
  1
IMAGEDEF
  2
AcDbRasterImageDef
  3
ISM
 90
        0
280
               0
281
               0
  0
CLASS
  1
IMAGEDEF_REACTOR
  2
AcDbRasterImageDefReactor
  3
ISM
 90
        1
280
               0
281
               0
  0
CLASS
  1
IDBUFFER
  2
AcDbIdBuffer
  3
"Acad"
 90
        0
280
               0
281
               0
  0
CLASS
  1
SPATIAL_FILTER
  2
AcDbSpatialFilter
  3
"Acad"
 90
        0
280
               0
281
               0
  0
CLASS
  1
XRECORD
  2
AcDbXrecord
  3
"<Built In>"
 90
        0
280
               0
281
               0
  0
CLASS
  1
SORTENTSTABLE
  2
AcDbSortentsTable
  3
"AutoCAD"
 90
        0
280
               0
281
               0
  0
CLASS
  1
LAYER_INDEX
  2
AcDbLayerIndex
  3
"Acad"
 90
        0
280
               0
281
               0
  0
CLASS
  1
SPATIAL_INDEX
  2
AcDbSpatialIndex
  3
"Acad"
 90
        0
280
               0
281
               0
  0
CLASS
  1
OBJECT_PTR
  2
CAseDLPNTableRecord
  3
"ASE-LPNTableRecord"
 90
        1
280
               0
281
               0
  0
CLASS
  1
LAYOUT
  2
AcDbLayout
  3
"AutoCAD 2000"
 90
        1
280
               0
281
               0
  0
CLASS
  1
PLOTSETTINGS
  2
AcDbPlotSettings
  3
"AutoCAD 2000"
 90
        1
280
               0
281
               0
  0
CLASS
  1
ACDBDICTIONARYWDFLT
  2
AcDbDictionaryWithDefault
  3
"AutoCAD 2000"
 90
        1
280
               0
281
               0
  0
CLASS
  1
ACDBPLACEHOLDER
  2
AcDbPlaceHolder
  3
"AutoCAD 2000"
 90
        1
280
               0
281
               0
  0
ENDSEC
  0
SECTION
  2
TABLES
  0
TABLE
  2
VPORT
  5
7
100
AcDbSymbolTable
 70
               1
  0
VPORT
  5
15
100
AcDbSymbolTableRecord
100
AcDbViewportTableRecord
  2
*ACTIVE
 70
               0
 10
0.0
 20
0.0
 11
1.0
 21
1.0
 12
2.1909528531206206
 22
0.25
 13
0.0
 23
0.0
 14
1.0
 24
1.0
 15
0.0
 25
0.0
 16
0.0
 26
0.0
 36
1.0
 17
0.0
 27
0.0
 37
0.0
 40
394.40500000000003
 41
1.7320508075688772
 42
50.0
 43
0.0
 44
0.0
 50
0.0
 51
0.0
 71
               0
 72
             100
 73
               1
 74
               1
 75
               0
 76
               0
 77
               0
 78
               0
  0
ENDTAB
  0
TABLE
  2
LTYPE
  5
4
100
AcDbSymbolTable
 70
               6
  0
LTYPE
  5
11
100
AcDbSymbolTableRecord
100
AcDbLinetypeTableRecord
  2
BYBLOCK
 70
              64
  3

 72
              65
 73
               0
 40
0.0
  0
LTYPE
  5
12
100
AcDbSymbolTableRecord
100
AcDbLinetypeTableRecord
  2
BYLAYER
 70
              64
  3

 72
              65
 73
               0
 40
0.0
  0
LTYPE
  5
13
100
AcDbSymbolTableRecord
100
AcDbLinetypeTableRecord
  2
CONTINUOUS
 70
              64
  3
Solid line
 72
              65
 73
               0
 40
0.0
  0
LTYPE
  5
34
100
AcDbSymbolTableRecord
100
AcDbLinetypeTableRecord
  2
CENTER
 70
              64
  3
Center ____ _ ____ _ ____ _ ____ _ ____ _ ____
 72
              65
 73
               4
 40
26.0
 49
20.0
 74
               0
 49
-2.0
 74
               0
 49
2.0
 74
               0
 49
-2.0
 74
               0
  0
LTYPE
  5
5C
100
AcDbSymbolTableRecord
100
AcDbLinetypeTableRecord
  2
DASHED
 70
              64
  3
Dashed __ __ __ __ __ __ __ __ __ __ __ __ __ _
 72
              65
 73
               2
 40
4.0
 49
2.0
 74
               0
 49
-2.0
 74
               0
  0
LTYPE
  5
FB
100
AcDbSymbolTableRecord
100
AcDbLinetypeTableRecord
  2
PHANTOM
 70
              64
  3
Phantom ______  __  __  ______  __  __  ______
 72
              65
 73
               6
 40
30.0
 49
20.0
 74
               0
 49
-2.0
 74
               0
 49
2.0
 74
               0
 49
-2.0
 74
               0
 49
2.0
 74
               0
 49
-2.0
 74
               0
  0
ENDTAB
  0
TABLE
  2
LAYER
  5
2
100
AcDbSymbolTable
 70
               2
  0
LAYER
  5
14
100
AcDbSymbolTableRecord
100
AcDbLayerTableRecord
  2
0
 70
               0
 62
               7
  6
CONTINUOUS
  0
LAYER
  5
1D
100
AcDbSymbolTableRecord
100
AcDbLayerTableRecord
  2
DEFPOINTS
 70
               0
 62
               7
  6
CONTINUOUS
  0
ENDTAB
  0
TABLE
  2
STYLE
  5
3
100
AcDbSymbolTable
 70
               1
  0
STYLE
  5
17
100
AcDbSymbolTableRecord
100
AcDbTextStyleTableRecord
  2
MX_NOTE_STANDARD
 70
               0
 40
0.0
 41
1.0
 50
0.0
 71
               0
 42
3.2000000476837158
  3
txt.shx
  4
extfont.shx
  0
ENDTAB
  0
TABLE
  2
VIEW
  5
5
100
AcDbSymbolTable
 70
               0
  0
ENDTAB
  0
TABLE
  2
UCS
  5
6
100
AcDbSymbolTable
 70
               0
  0
ENDTAB
  0
TABLE
  2
APPID
  5
8
100
AcDbSymbolTable
 70
               1
  0
APPID
  5
16
100
AcDbSymbolTableRecord
100
AcDbRegAppTableRecord
  2
ACAD
 70
               0
  0
ENDTAB
  0
TABLE
  2
DIMSTYLE
  5
9
100
AcDbSymbolTable
 70
               1
  0
DIMSTYLE
105
18
100
AcDbSymbolTableRecord
100
AcDbDimStyleTableRecord
  2
MXDIMSTYLE
 70
               0
  3

  4

  5

  6

  7

 40
1.0
 41
2.5
 42
1.5
 43
3.75
 44
1.5
 45
0.0
 46
0.0
 47
0.0
 48
0.0
 71
               0
 72
               0
 73
               0
 74
               0
 75
               0
 76
               0
 77
               1
 78
               8
140
3.2000000476837158
141
2.5
142
0.0
143
0.03937007874016
144
1.0
145
0.0
146
1.0
147
1.0
170
               0
171
               4
172
               1
173
               0
174
               0
175
               0
176
               0
177
               0
178
               0
270
               2
271
               4
272
               4
273
               2
274
               4
275
               0
280
               0
281
               0
282
               0
283
               1
284
               0
285
               0
286
               0
287
               3
288
               1
340
17
  0
ENDTAB
  0
TABLE
  2
BLOCK_RECORD
  5
1
100
AcDbSymbolTable
 70
               0
  0
BLOCK_RECORD
  5
A
100
AcDbSymbolTableRecord
100
AcDbBlockTableRecord
  2
*MODEL_SPACE
  0
BLOCK_RECORD
  5
B
100
AcDbSymbolTableRecord
100
AcDbBlockTableRecord
  2
*PAPER_SPACE
  0
ENDTAB
  0
ENDSEC
  0
SECTION
  2
BLOCKS
  0
BLOCK
  5
D
100
AcDbEntity
  8
0
100
AcDbBlockBegin
  2
*MODEL_SPACE
 70
               0
 10
0.0
 20
0.0
 30
0.0
  3
*MODEL_SPACE
  1

  0
ENDBLK
  5
E
100
AcDbEntity
  8
0
100
AcDbBlockEnd
  0
BLOCK
  5
F
100
AcDbEntity
 67
               1
  8
0
100
AcDbBlockBegin
  2
*PAPER_SPACE
 70
               0
 10
0.0
 20
0.0
 30
0.0
  3
*PAPER_SPACE
  1

  0
ENDBLK
  5
10
100
AcDbEntity
 67
               1
  8
0
100
AcDbBlockEnd
  0
ENDSEC
  0
SECTION
  2
ENTITIES
  0
MTEXT
  5
1E
100
AcDbEntity
  8
0
  6
CONTINUOUS
 62
               7
100
AcDbMText
 10
-268.27722776173874
 20
160.5
 30
0.0
 40
6.3000001907348633
 41
0.0
 71
               4
 72
               1
  1
\W1.069;\A1;MODEL:JC10A5-25-PL
  0
LINE
  5
1F
100
AcDbEntity
  8
0
  6
CONTINUOUS
 62
               7
100
AcDbLine
 10
-281.25
 20
-195.0
 30
0.0
 11
282.099853515625
 21
-195.0
 31
0.0
  0
LINE
  5
20
100
AcDbEntity
  8
0
  6
CONTINUOUS
 62
               7
100
AcDbLine
 10
-281.25
 20
195.5
 30
0.0
 11
-281.25
 21
-195.0
 31
0.0
  0
LINE
  5
21
100
AcDbEntity
  8
0
  6
CONTINUOUS
 62
               7
100
AcDbLine
 10
-281.25
 20
195.5
 30
0.0
 11
282.099853515625
 21
195.5
 31
0.0
  0
LINE
  5
22
100
AcDbEntity
  8
0
  6
CONTINUOUS
 62
               7
100
AcDbLine
 10
282.099853515625
 20
195.5
 30
0.0
 11
282.099853515625
 21
-195.0
 31
0.0
  0
LINE
  5
23
100
AcDbEntity
  8
0
  6
CONTINUOUS
 62
               7
100
AcDbLine
 10
162.0999755859375
 20
195.5
 30
0.0
 11
162.0999755859375
 21
175.5
 31
0.0
  0
LINE
  5
24
100
AcDbEntity
  8
0
  6
CONTINUOUS
 62
               7
100
AcDbLine
 10
162.0999755859375
 20
175.5
 30
0.0
 11
282.099853515625
 21
175.5
 31
0.0
  0
MTEXT
  5
25
100
AcDbEntity
  8
0
  6
CONTINUOUS
 62
               7
100
AcDbMText
 10
198.27702406779611
 20
185.5
 30
0.0
 40
6.3000001907348633
 41
0.0
 71
               4
 72
               1
  1
\W1.311;\A1;Ver. 1.0
  0
MTEXT
  5
26
100
AcDbEntity
  8
0
  6
CONTINUOUS
 62
               7
100
AcDbMText
 10
170.28099805280428
 20
-185.0
 30
0.0
 40
9.0
 41
0.0
 71
               4
 72
               1
  1
\W1.121;\A1;KOGANEI CORP.
  0
LINE
  5
27
100
AcDbEntity
  8
0
  6
CONTINUOUS
 62
               7
100
AcDbLine
 10
162.0999755859375
 20
-175.0
 30
0.0
 11
282.099853515625
 21
-175.0
 31
0.0
  0
LINE
  5
28
100
AcDbEntity
  8
0
  6
CONTINUOUS
 62
               7
100
AcDbLine
 10
162.0999755859375
 20
-175.0
 30
0.0
 11
162.0999755859375
 21
-195.0
 31
0.0
  0
LINE
  5
29
100
AcDbEntity
  8
0
  6
CONTINUOUS
 62
               7
100
AcDbLine
 10
-161.25
 20
195.5
 30
0.0
 11
-161.25
 21
175.5
 31
0.0
  0
LINE
  5
2A
100
AcDbEntity
  8
0
  6
CONTINUOUS
 62
               7
100
AcDbLine
 10
-281.25
 20
175.5
 30
0.0
 11
-161.25
 21
175.5
 31
0.0
  0
MTEXT
  5
2B
100
AcDbEntity
  8
0
  6
CONTINUOUS
 62
               7
100
AcDbMText
 10
-257.88333446177035
 20
185.5
 30
0.0
 40
6.3000001907348633
 41
0.0
 71
               4
 72
               1
  1
\W1.111;\A1;JC･JE SERIES
  0
LINE
  5
2C
100
AcDbEntity
  8
0
  6
CONTINUOUS
 62
               7
100
AcDbLine
 10
-281.25
 20
-38.799999999999983
 30
0.0
 11
282.099853515625
 21
-38.799999999999983
 31
0.0
  0
LINE
  5
2D
100
AcDbEntity
  8
0
  6
CONTINUOUS
 62
               7
100
AcDbLine
 10
0.4249267578125
 20
-38.799999999999983
 30
0.0
 11
0.4249267578125
 21
195.5
 31
0.0
  0
MTEXT
  5
2E
100
AcDbEntity
  8
0
  6
CONTINUOUS
 62
               7
100
AcDbMText
 10
13.397698996073721
 20
160.5
 30
0.0
 40
6.3000001907348633
 41
0.0
 71
               4
 72
               1
  1
\W1.069;\A1;MODEL:JC10A5-25-PS
  0
MTEXT
  5
2F
100
AcDbEntity
  8
0
  6
CONTINUOUS
 62
               7
100
AcDbMText
 10
-268.27722776173874
 20
-53.799999999999983
 30
0.0
 40
6.3000001907348633
 41
0.0
 71
               4
 72
               1
  1
\W1.069;\A1;MODEL:JC10A5-25-GL
  0
MTEXT
  5
30
100
AcDbEntity
  8
0
  6
CONTINUOUS
 62
               7
100
AcDbMText
 10
51.166927879969272
 20
150.5
 30
0.0
 40
6.3000001907348633
 41
0.0
 71
               4
 72
               1
  1
\W1.040;\A1;JC10LA5-25-PS
  0
MTEXT
  5
31
100
AcDbEntity
  8
0
  6
CONTINUOUS
 62
               7
100
AcDbMText
 10
51.166927879969272
 20
140.5
 30
0.0
 40
6.3000001907348633
 41
0.0
 71
               4
 72
               1
  1
\W1.040;\A1;JC10SA5-25-PS
  0
MTEXT
  5
32
100
AcDbEntity
  8
0
  6
CONTINUOUS
 62
               7
100
AcDbMText
 10
-230.50799887784322
 20
150.5
 30
0.0
 40
6.3000001907348633
 41
0.0
 71
               4
 72
               1
  1
\W1.040;\A1;JC10LA5-25-PL
  0
MTEXT
  5
33
100
AcDbEntity
  8
0
  6
CONTINUOUS
 62
               7
100
AcDbMText
 10
-230.50799887784322
 20
140.5
 30
0.0
 40
6.3000001907348633
 41
0.0
 71
               4
 72
               1
  1
\W1.040;\A1;JC10SA5-25-PL
  0
LINE
  5
35
100
AcDbEntity
  8
0
  6
CENTER
 62
               2
100
AcDbLine
 10
-5.3890353899606396
 20
-167.44022215652072
 30
0.0
 11
-5.3890353899606396
 21
-100.16633407615555
 31
0.0
  0
ARC
  5
36
100
AcDbEntity
  8
0
  6
CONTINUOUS
 62
               7
100
AcDbCircle
 10
-11.390123395197662
 20
-155.04817804885514
 30
0.0
 40
0.5989129830170392
100
AcDbArc
 50
89.895914524772735
 51
180.10408547522667
  0
LINE
  5
37
100
AcDbEntity
  8
0
  6
CONTINUOUS
 62
               7
100
AcDbLine
 10
-11.989036378214706
 20
-156.85035405932913
 30
0.0
 11
-11.989036378214706
 21
-155.04817804885514
 31
0.0
  0
LINE
  5
38
100
AcDbEntity
  8
0
  6
CONTINUOUS
 62
               7
100
AcDbLine
 10
-11.38903538996064
 20
-157.54926605504582
 30
0.0
 11
-11.38903538996064
 21
-154.34926605504583
 31
0.0
  0
LINE
  5
39
100
AcDbEntity
  8
0
  6
CONTINUOUS
 62
               7
100
AcDbLine
 10
-11.389035389006978
 20
-154.34926605504583
 30
0.0
 11
-12.38903538996064
 21
-154.34926605504583
 31
0.0
  0
LINE
  5
3A
100
AcDbEntity
  8
0
  6
CONTINUOUS
 62
               7
100
AcDbLine
 10
-11.389035389006978
 20
-157.54926605504582
 30
0.0
 11
-12.38903538996064
 21
-157.54926605504582
 31
0.0
  0
LINE
  5
3B
100
AcDbEntity
  8
0
  6
CONTINUOUS
 62
               7
100
AcDbLine
 10
-13.989035389960662
 20
-129.34926605504583
 30
0.0
 11
-13.989035389960662
 21
-123.34926605504583
 31
0.0
  0
LINE
  5
3C
100
AcDbEntity
  8
0
  6
CONTINUOUS
 62
               7
100
AcDbLine
 10
1.6109646100393604
 20
-136.54926605504582
 30
0.0
 11
1.6109646100393604
 21
-123.34926605504583
 31
0.0
  0
ARC
  5
3D
100
AcDbEntity
  8
0
  6
CONTINUOUS
 62
               7
100
AcDbCircle
 10
1.2119379770659862
 20
-165.85023942207246
 30
0.0
 40
0.3990278201647513
100
AcDbArc
 50
269.8602356150771
 51
0.1397643849223044
  0
LINE
  5
3E
100
AcDbEntity
  8
0
  6
CONTINUOUS
 62
               7
100
AcDbLine
 10
1.6109646100393604
 20
-136.54926605504582
 30
0.0
 11
-12.38903538996064
 21
-136.54926605504582
 31
0.0
  0
LINE
  5
3F
100
AcDbEntity
  8
0
  6
CONTINUOUS
 62
               7
100
AcDbLine
 10
1.6109646100393604
 20
-160.74926605504581
 30
0.0
 11
-12.38903538996064
 21
-160.74926605504581
 31
0.0
  0
LINE
  5
40
100
AcDbEntity
  8
0
  6
CONTINUOUS
 62
               7
100
AcDbLine
 10
-11.989035389960634
 20
-166.24926605504581
 30
0.0
 11
1.2109646100393263
 21
-166.24926605504581
 31
0.0
  0
ARC
  5
41
100
AcDbEntity
  8
0
  6
CONTINUOUS
 62
               7
100
AcDbCircle
 10
-11.990008756987294
 20
-165.85023942207246
 30
0.0
 40
0.3990278201647513
100
AcDbArc
 50
179.8602356150773
 51
270.1397643849217
  0
LINE
  5
42
100
AcDbEntity
  8
0
  6
CONTINUOUS
 62
               7
100
AcDbLine
 10
-13.989035389960662
 20
-129.34926605504583
 30
0.0
 11
-12.38903538996064
 21
-130.94926605504583
 31
0.0
  0
LINE
  5
43
100
AcDbEntity
  8
0
  6
CONTINUOUS
 62
               7
100
AcDbLine
 10
-12.38903538996064
 20
-136.54926605504582
 30
0.0
 11
-12.38903538996064
 21
-123.34926605504583
 31
0.0
  0
LINE
  5
44
100
AcDbEntity
  8
0
  6
CONTINUOUS
 62
               7
100
AcDbLine
 10
-12.38903538996064
 20
-165.84926605504583
 30
0.0
 11
-12.38903538996064
 21
-136.54926605504582
 31
0.0
  0
LINE
  5
45
100
AcDbEntity
  8
0
  6
CONTINUOUS
 62
               7
100
AcDbLine
 10
1.6109646100393604
 20
-165.84926605504583
 30
0.0
 11
1.6109646100393604
 21
-136.54926605504582
 31
0.0
  0
ARC
  5
46
100
AcDbEntity
  8
0
  6
CONTINUOUS
 62
               7
100
AcDbCircle
 10
1.0004106419303014
 20
-164.48101478639271
 30
0.0
 40
0.6105564724372723
100
AcDbArc
 50
286.22092756849014
 51
0.1641044967937703
  0
LINE
  5
47
100
AcDbEntity
  8
0
  6
CONTINUOUS
 62
               7
100
AcDbLine
 10
-1.9090353899606782
 20
-166.24926605504581
 30
0.0
 11
-1.9090353899606782
 21
-163.94926605504574
 31
0.0
  0
LINE
  5
48
100
AcDbEntity
  8
0
  6
CONTINUOUS
 62
               7
100
AcDbLine
 10
1.6109646100393604
 20
-163.94926605504574
 30
0.0
 11
-1.9090353899606782
 21
-163.94926605504574
 31
0.0
  0
ARC
  5
49
100
AcDbEntity
  8
0
  6
CONTINUOUS
 62
               7
100
AcDbCircle
 10
-0.1090353899606384
 20
-160.66184481831178
 30
0.0
 40
4.5876068132596712
100
AcDbArc
 50
253.7987189241569
 51
286.20128107584202
  0
ARC
  5
4A
100
AcDbEntity
  8
0
  6
CONTINUOUS
 62
               7
100
AcDbCircle
 10
-1.2172633941267179
 20
-164.48010333707472
 30
0.0
 40
0.6117725687931934
100
AcDbArc
 50
179.9215840265656
 51
253.6933839081498
  0
LINE
  5
4B
100
AcDbEntity
  8
0
  6
CONTINUOUS
 62
               7
100
AcDbLine
 10
-1.8290353899606373
 20
-164.47926605504571
 30
0.0
 11
-1.8290353899606373
 21
-163.94926605504574
 31
0.0
  0
ARC
  5
4C
100
AcDbEntity
  8
0
  6
CONTINUOUS
 62
               7
100
AcDbCircle
 10
-11.390123395197662
 20
-156.85035405932913
 30
0.0
 40
0.5989129830170392
100
AcDbArc
 50
179.89591452477254
 51
270.10408547522644
  0
LINE
  5
4D
100
AcDbEntity
  8
0
  6
CONTINUOUS
 62
               7
100
AcDbLine
 10
1.6109646100393604
 20
-136.6502393216474
 30
0.0
 11
2.3109646100393491
 21
-136.6502393216474
 31
0.0
  0
LINE
  5
4E
100
AcDbEntity
  8
0
  6
CONTINUOUS
 62
               7
100
AcDbLine
 10
1.6109646100393604
 20
-160.65023932164738
 30
0.0
 11
2.3109646100393206
 21
-160.65023932164738
 31
0.0
  0
LINE
  5
4F
100
AcDbEntity
  8
0
  6
CENTER
 62
               2
100
AcDbLine
 10
13.310964602214653
 20
-153.04926605504582
 30
0.0
 11
13.310964602214653
 21
-161.04926605504582
 31
0.0
  0
LINE
  5
50
100
AcDbEntity
  8
0
  6
CENTER
 62
               2
100
AcDbLine
 10
7.3109646022146535
 20
-144.64926605504581
 30
0.0
 11
7.3109646022146535
 21
-152.64926605504581
 31
0.0
  0
LINE
  5
51
100
AcDbEntity
  8
0
  6
CENTER
 62
               2
100
AcDbLine
 10
3.3109646022146535
 20
-148.64926605504581
 30
0.0
 11
11.310964602214653
 21
-148.64926605504581
 31
0.0
  0
LINE
  5
52
100
AcDbEntity
  8
0
  6
CENTER
 62
               2
100
AcDbLine
 10
9.3109646022146535
 20
-157.04926605504582
 30
0.0
 11
17.310964602214653
 21
-157.04926605504582
 31
0.0
  0
LINE
  5
53
100
AcDbEntity
  8
0
  6
CONTINUOUS
 62
               7
100
AcDbLine
 10
2.3109646022146535
 20
-165.14926605504581
 30
0.0
 11
2.3109646022146535
 21
-132.14926605504581
 31
0.0
  0
LINE
  5
54
100
AcDbEntity
  8
0
  6
CONTINUOUS
 62
               7
100
AcDbLine
 10
18.310964602214653
 20
-165.14926605504581
 30
0.0
 11
18.310964602214653
 21
-132.14926605504581
 31
0.0
  0
CIRCLE
  5
55
100
AcDbEntity
  8
0
  6
CONTINUOUS
 62
               2
100
AcDbCircle
 10
7.3109646022146535
 20
-148.64926605504581
 30
0.0
 40
2.5
  0
CIRCLE
  5
56
100
AcDbEntity
  8
0
  6
CONTINUOUS
 62
               2
100
AcDbCircle
 10
13.310964602214653
 20
-157.04926605504582
 30
0.0
 40
2.5
  0
CIRCLE
  5
57
100
AcDbEntity
  8
0
  6
CONTINUOUS
 62
               7
100
AcDbCircle
 10
7.3109646022146535
 20
-148.64926605504581
 30
0.0
 40
2.1000000000000001
  0
CIRCLE
  5
58
100
AcDbEntity
  8
0
  6
CONTINUOUS
 62
               7
100
AcDbCircle
 10
13.310964602214653
 20
-157.04926605504582
 30
0.0
 40
2.1000000000000001
  0
LINE
  5
59
100
AcDbEntity
  8
0
  6
CONTINUOUS
 62
               7
100
AcDbLine
 10
2.3109646100393206
 20
-165.14926605504581
 30
0.0
 11
18.310964602214653
 21
-165.14926605504581
 31
0.0
  0
LINE
  5
5A
100
AcDbEntity
  8
0
  6
CONTINUOUS
 62
               7
100
AcDbLine
 10
2.3109646100393206
 20
-132.14926605504581
 30
0.0
 11
18.310964610039321
 21
-132.14926605504581
 31
0.0
  0
LINE
  5
5B
100
AcDbEntity
  8
0
  6
CENTER
 62
               2
100
AcDbLine
 10
0.0482846342778487
 20
-128.64926605504581
 30
0.0
 11
2.3289436291167078
 21
-128.64926605504581
 31
0.0
  0
LINE
  5
5D
100
AcDbEntity
  8
0
  6
DASHED
 62
               2
100
AcDbLine
 10
1.6109646100393604
 20
-127.89926605504581
 30
0.0
 11
0.5158925807267281
 21
-127.89926605504581
 31
0.0
  0
LINE
  5
5E
100
AcDbEntity
  8
0
  6
DASHED
 62
               2
100
AcDbLine
 10
1.6109646100393604
 20
-129.39926605504581
 30
0.0
 11
0.5158925807267281
 21
-129.39926605504581
 31
0.0
  0
LINE
  5
5F
100
AcDbEntity
  8
0
  6
CENTER
 62
               2
100
AcDbLine
 10
15.810964602214653
 20
-135.14926605504581
 30
0.0
 11
20.810964603235618
 21
-135.14926605504581
 31
0.0
  0
LINE
  5
60
100
AcDbEntity
  8
0
  6
CENTER
 62
               2
100
AcDbLine
 10
15.810964602214653
 20
-162.14926605504581
 30
0.0
 11
20.810964603235618
 21
-162.14926605504581
 31
0.0
  0
LINE
  5
61
100
AcDbEntity
  8
0
  6
CONTINUOUS
 62
               4
100
AcDbLine
 10
-17.989038206487436
 20
-105.85126605504584
 30
0.0
 11
-17.989038206487436
 21
-121.81726605504585
 31
0.0
  0
LINE
  5
62
100
AcDbEntity
  8
0
  6
CONTINUOUS
 62
               4
100
AcDbLine
 10
-15.389038206487413
 20
-123.34926605504583
 30
0.0
 11
-15.389038206487413
 21
-104.85126605504584
 31
0.0
  0
LINE
  5
63
100
AcDbEntity
  8
0
  6
CONTINUOUS
 62
               4
100
AcDbLine
 10
1.6109646100393604
 20
-101.44926605504585
 30
0.0
 11
1.6109646100393604
 21
-123.34926605504583
 31
0.0
  0
LINE
  5
64
100
AcDbEntity
  8
0
  6
CONTINUOUS
 62
               4
100
AcDbLine
 10
-12.38903538996064
 20
-123.34926605504583
 30
0.0
 11
-12.38903538996064
 21
-101.44926606011356
 31
0.0
  0
LINE
  5
65
100
AcDbEntity
  8
0
  6
CONTINUOUS
 62
               4
100
AcDbLine
 10
-28.185939329164967
 20
-108.10126605504561
 30
0.0
 11
-28.185939329164967
 21
-108.60126605504561
 31
0.0
  0
LINE
  5
66
100
AcDbEntity
  8
0
  6
CONTINUOUS
 62
               4
100
AcDbLine
 10
-24.685939329164967
 20
-108.6012660550459
 30
0.0
 11
-28.185939329164967
 21
-108.60126605504561
 31
0.0
  0
LINE
  5
67
100
AcDbEntity
  8
0
  6
CONTINUOUS
 62
               4
100
AcDbLine
 10
-24.68593932916491
 20
-108.1012660550459
 30
0.0
 11
-28.185939329164967
 21
-108.10126605504561
 31
0.0
  0
ARC
  5
68
100
AcDbEntity
  8
0
  6
CONTINUOUS
 62
               4
100
AcDbCircle
 10
0.9280597566975359
 20
-101.44917090838763
 30
0.0
 40
0.5999048608870732
100
AcDbArc
 50
56.439949333258625
 51
90.009087277546172
  0
ARC
  5
69
100
AcDbEntity
  8
0
  6
CONTINUOUS
 62
               4
100
AcDbCircle
 10
1.1109646100393036
 20
-101.44926605504585
 30
0.0
 40
0.5
100
AcDbArc
 50
0.0
 51
65.269601303139424
  0
ARC
  5
6A
100
AcDbEntity
  8
0
  6
CONTINUOUS
 62
               4
100
AcDbCircle
 10
-11.889035389960696
 20
-101.44926605504585
 30
0.0
 40
0.5
100
AcDbArc
 50
89.999999999999815
 51
179.99999999999963
  0
LINE
  5
6B
100
AcDbEntity
  8
0
  6
CONTINUOUS
 62
               4
100
AcDbLine
 10
-11.889035389960696
 20
-100.94926605504585
 30
0.0
 11
-10.389035389960696
 21
-100.94926605504585
 31
0.0
  0
LINE
  5
6C
100
AcDbEntity
  8
0
  6
CONTINUOUS
 62
               4
100
AcDbLine
 10
1.6109646100393604
 20
-102.44926605504574
 30
0.0
 11
-10.389038206487413
 21
-102.44926605504574
 31
0.0
  0
LINE
  5
6D
100
AcDbEntity
  8
0
  6
CONTINUOUS
 62
               4
100
AcDbLine
 10
-10.389038206487413
 20
-100.84926605504577
 30
0.0
 11
-10.389038206487413
 21
-102.44926605504574
 31
0.0
  0
LINE
  5
6E
100
AcDbEntity
  8
0
  6
CONTINUOUS
 62
               4
100
AcDbLine
 10
1.6109646100393036
 20
-101.44926605504574
 30
0.0
 11
-2.0890353899606282
 21
-101.44926605504574
 31
0.0
  0
ARC
  5
6F
100
AcDbEntity
  8
0
  6
CONTINUOUS
 62
               4
100
AcDbCircle
 10
0.9280597566975359
 20
-101.44917090838763
 30
0.0
 40
0.5999048608870732
100
AcDbArc
 50
359.99091272245295
 51
56.439949333258646
  0
ARC
  5
70
100
AcDbEntity
  8
0
  6
CONTINUOUS
 62
               4
100
AcDbCircle
 10
-0.8731233951976662
 20
-101.44817804980883
 30
0.0
 40
0.5989129830170392
100
AcDbArc
 50
89.895914524772735
 51
180.10408547522667
  0
LINE
  5
71
100
AcDbEntity
  8
0
  6
CONTINUOUS
 62
               4
100
AcDbLine
 10
0.9280597566975928
 20
-100.84926605504583
 30
0.0
 11
-10.389038206487413
 21
-100.84926605504577
 31
0.0
  0
LINE
  5
72
100
AcDbEntity
  8
0
  6
CONTINUOUS
 62
               4
100
AcDbLine
 10
-2.0890353899606282
 20
-101.44926605504574
 30
0.0
 11
-2.0890353899606282
 21
-100.84926605504583
 31
0.0
  0
LINE
  5
73
100
AcDbEntity
  8
0
  6
CONTINUOUS
 62
               4
100
AcDbLine
 10
-19.189038206487425
 20
-107.70126605504586
 30
0.0
 11
-20.665939329165013
 21
-107.70126605504586
 31
0.0
  0
LINE
  5
74
100
AcDbEntity
  8
0
  6
CONTINUOUS
 62
               4
100
AcDbLine
 10
-19.189038206487425
 20
-109.00126605504587
 30
0.0
 11
-21.415939329165013
 21
-109.00126605504587
 31
0.0
  0
LINE
  5
75
100
AcDbEntity
  8
0
  6
CONTINUOUS
 62
               4
100
AcDbLine
 10
-12.389038206487413
 20
-104.85126605504584
 30
0.0
 11
-17.489038206487436
 21
-104.85126605504584
 31
0.0
  0
ARC
  5
76
100
AcDbEntity
  8
0
  6
CONTINUOUS
 62
               4
100
AcDbCircle
 10
-17.489075730492829
 20
-105.35122853104045
 30
0.0
 40
0.4999624774027422
100
AcDbArc
 50
89.995699743000799
 51
180.00430025699865
  0
LINE
  5
77
100
AcDbEntity
  8
0
  6
CONTINUOUS
 62
               4
100
AcDbLine
 10
-17.989038206487436
 20
-105.35126605504584
 30
0.0
 11
-17.989038206487436
 21
-105.85126605504584
 31
0.0
  0
LINE
  5
78
100
AcDbEntity
  8
0
  6
CONTINUOUS
 62
             200
100
AcDbLine
 10
-20.31993932916501
 20
-107.10126605504584
 30
0.0
 11
-21.76393932916497
 21
-109.60126605504584
 31
0.0
  0
LINE
  5
79
100
AcDbEntity
  8
0
  6
CONTINUOUS
 62
               4
100
AcDbLine
 10
-21.915939329165013
 20
-109.00126605504587
 30
0.0
 11
-24.685939329164995
 21
-109.00126605504587
 31
0.0
  0
LINE
  5
7A
100
AcDbEntity
  8
0
  6
CONTINUOUS
 62
               4
100
AcDbLine
 10
-21.165939329165013
 20
-107.70126605504586
 30
0.0
 11
-24.685939329164995
 21
-107.70126605504586
 31
0.0
  0
LINE
  5
7B
100
AcDbEntity
  8
0
  6
CONTINUOUS
 62
             200
100
AcDbLine
 10
-20.81993932916501
 20
-107.10126605504584
 30
0.0
 11
-22.26393932916497
 21
-109.60126605504584
 31
0.0
  0
LINE
  5
7C
100
AcDbEntity
  8
0
  6
CONTINUOUS
 62
               4
100
AcDbLine
 10
-24.685939329164995
 20
-107.70208343785842
 30
0.0
 11
-24.685939329164995
 21
-109.00208343785837
 31
0.0
  0
LINE
  5
7D
100
AcDbEntity
  8
0
  6
CONTINUOUS
 62
               4
100
AcDbLine
 10
-17.989038206487436
 20
-110.85126605504584
 30
0.0
 11
-18.689038206487425
 21
-110.85126605504584
 31
0.0
  0
LINE
  5
7E
100
AcDbEntity
  8
0
  6
CONTINUOUS
 62
               4
100
AcDbLine
 10
-19.189038206487425
 20
-110.35126605504584
 30
0.0
 11
-19.189038206487425
 21
-106.35126605504584
 31
0.0
  0
LINE
  5
7F
100
AcDbEntity
  8
0
  6
CONTINUOUS
 62
               4
100
AcDbLine
 10
-17.989038206487436
 20
-105.85126605504584
 30
0.0
 11
-18.689038206487425
 21
-105.85126605504584
 31
0.0
  0
ARC
  5
80
100
AcDbEntity
  8
0
  6
CONTINUOUS
 62
               4
100
AcDbCircle
 10
-18.689038206487425
 20
-110.35126605504584
 30
0.0
 40
0.5
100
AcDbArc
 50
179.99999999999963
 51
269.99999999999937
  0
ARC
  5
81
100
AcDbEntity
  8
0
  6
CONTINUOUS
 62
               4
100
AcDbCircle
 10
-18.689038206487425
 20
-106.35126605504584
 30
0.0
 40
0.5
100
AcDbArc
 50
89.999999999999815
 51
179.99999999999963
  0
LINE
  5
82
100
AcDbEntity
  8
0
  6
CONTINUOUS
 62
               4
100
AcDbLine
 10
1.6109646100393604
 20
-123.34926605504583
 30
0.0
 11
-15.389038206487413
 21
-123.34926605504583
 31
0.0
  0
ARC
  5
83
100
AcDbEntity
  8
0
  6
CONTINUOUS
 62
               4
100
AcDbCircle
 10
-17.488573761969434
 20
-121.81813883032956
 30
0.0
 40
0.5004652055472239
100
AcDbArc
 50
179.9000802353213
 51
244.87883575679555
  0
LINE
  5
84
100
AcDbEntity
  8
0
  6
CONTINUOUS
 62
               4
100
AcDbLine
 10
-15.389038206487413
 20
-123.34926605504583
 30
0.0
 11
-17.701038206487425
 21
-122.27126605504586
 31
0.0
  0
LINE
  5
85
100
AcDbEntity
  8
0
  6
CENTER
 62
               2
100
AcDbLine
 10
5.566521642762126
 20
-155.94926605504583
 30
0.0
 11
-1.7285229549034682
 21
-155.94926605504583
 31
0.0
  0
LINE
  5
86
100
AcDbEntity
  8
0
  6
CENTER
 62
               2
100
AcDbLine
 10
5.566521642762126
 20
-141.3492660550458
 30
0.0
 11
-1.7285229549034682
 21
-141.3492660550458
 31
0.0
  0
LINE
  5
87
100
AcDbEntity
  8
0
  6
CONTINUOUS
 62
               7
100
AcDbLine
 10
-148.61539460117532
 20
-164.47926605504574
 30
0.0
 11
-148.61539460117532
 21
-163.94926605504577
 31
0.0
  0
ARC
  5
88
100
AcDbEntity
  8
0
  6
CONTINUOUS
 62
               7
100
AcDbCircle
 10
-148.00362260534141
 20
-164.48010333707475
 30
0.0
 40
0.6117725687931934
100
AcDbArc
 50
179.9215840265656
 51
253.6933839081498
  0
ARC
  5
89
100
AcDbEntity
  8
0
  6
CONTINUOUS
 62
               7
100
AcDbCircle
 10
-146.89539460117533
 20
-160.66184481831181
 30
0.0
 40
4.5876068132596712
100
AcDbArc
 50
253.7987189241569
 51
286.20128107584202
  0
LINE
  5
8A
100
AcDbEntity
  8
0
  6
CONTINUOUS
 62
               7
100
AcDbLine
 10
-145.17539460117533
 20
-163.94926605504577
 30
0.0
 11
-148.69539460117537
 21
-163.94926605504577
 31
0.0
  0
LINE
  5
8B
100
AcDbEntity
  8
0
  6
CONTINUOUS
 62
               7
100
AcDbLine
 10
-148.69539460117537
 20
-166.24926605504584
 30
0.0
 11
-148.69539460117537
 21
-163.94926605504577
 31
0.0
  0
ARC
  5
8C
100
AcDbEntity
  8
0
  6
CONTINUOUS
 62
               7
100
AcDbCircle
 10
-145.78594856928439
 20
-164.48101478639273
 30
0.0
 40
0.6105564724372723
100
AcDbArc
 50
286.22092756849014
 51
0.1641044967937703
  0
LINE
  5
8D
100
AcDbEntity
  8
0
  6
CONTINUOUS
 62
               7
100
AcDbLine
 10
-159.17539460117533
 20
-165.84926605504586
 30
0.0
 11
-159.17539460117533
 21
-136.54926605504585
 31
0.0
  0
LINE
  5
8E
100
AcDbEntity
  8
0
  6
CONTINUOUS
 62
               7
100
AcDbLine
 10
-145.17539460117533
 20
-165.84926605504586
 30
0.0
 11
-145.17539460117533
 21
-136.54926605504585
 31
0.0
  0
LINE
  5
8F
100
AcDbEntity
  8
0
  6
CONTINUOUS
 62
               7
100
AcDbLine
 10
-145.17539460117533
 20
-136.54926605504585
 30
0.0
 11
-145.17539460117533
 21
-123.34926605504586
 31
0.0
  0
LINE
  5
90
100
AcDbEntity
  8
0
  6
CONTINUOUS
 62
               7
100
AcDbLine
 10
-143.5753946011753
 20
-129.34926605504586
 30
0.0
 11
-145.17539460117533
 21
-130.94926605504585
 31
0.0
  0
ARC
  5
91
100
AcDbEntity
  8
0
  6
CONTINUOUS
 62
               7
100
AcDbCircle
 10
-158.77636796820198
 20
-165.85023942207249
 30
0.0
 40
0.3990278201647513
100
AcDbArc
 50
179.8602356150773
 51
270.1397643849217
  0
LINE
  5
92
100
AcDbEntity
  8
0
  6
CONTINUOUS
 62
               7
100
AcDbLine
 10
-158.77539460117532
 20
-166.24926605504584
 30
0.0
 11
-145.57539460117536
 21
-166.24926605504584
 31
0.0
  0
LINE
  5
93
100
AcDbEntity
  8
0
  6
CONTINUOUS
 62
               7
100
AcDbLine
 10
-159.17539460117533
 20
-160.74926605504584
 30
0.0
 11
-145.17539460117533
 21
-160.74926605504584
 31
0.0
  0
LINE
  5
94
100
AcDbEntity
  8
0
  6
CONTINUOUS
 62
               7
100
AcDbLine
 10
-159.17539460117533
 20
-136.54926605504585
 30
0.0
 11
-145.17539460117533
 21
-136.54926605504585
 31
0.0
  0
ARC
  5
95
100
AcDbEntity
  8
0
  6
CONTINUOUS
 62
               7
100
AcDbCircle
 10
-145.5744212341487
 20
-165.85023942207249
 30
0.0
 40
0.3990278201647513
100
AcDbArc
 50
269.8602356150771
 51
0.1397643849223044
  0
LINE
  5
96
100
AcDbEntity
  8
0
  6
CONTINUOUS
 62
               7
100
AcDbLine
 10
-159.17539460117533
 20
-136.54926605504585
 30
0.0
 11
-159.17539460117533
 21
-123.34926605504586
 31
0.0
  0
LINE
  5
97
100
AcDbEntity
  8
0
  6
CONTINUOUS
 62
               7
100
AcDbLine
 10
-143.5753946011753
 20
-129.34926605504586
 30
0.0
 11
-143.5753946011753
 21
-123.34926605504586
 31
0.0
  0
LINE
  5
98
100
AcDbEntity
  8
0
  6
CONTINUOUS
 62
               7
100
AcDbLine
 10
-146.17539460212899
 20
-139.74926605504581
 30
0.0
 11
-145.17539460117533
 21
-139.74926605504581
 31
0.0
  0
LINE
  5
99
100
AcDbEntity
  8
0
  6
CONTINUOUS
 62
               7
100
AcDbLine
 10
-146.17539460212899
 20
-142.9492660550458
 30
0.0
 11
-145.17539460117533
 21
-142.9492660550458
 31
0.0
  0
LINE
  5
9A
100
AcDbEntity
  8
0
  6
CONTINUOUS
 62
               7
100
AcDbLine
 10
-146.17539460117533
 20
-139.74926605504581
 30
0.0
 11
-146.17539460117533
 21
-142.9492660550458
 31
0.0
  0
LINE
  5
9B
100
AcDbEntity
  8
0
  6
CENTER
 62
               2
100
AcDbLine
 10
-152.17539460117533
 20
-167.44022215652075
 30
0.0
 11
-152.17539460117533
 21
-100.16633407615558
 31
0.0
  0
LINE
  5
9C
100
AcDbEntity
  8
0
  6
CONTINUOUS
 62
               7
100
AcDbLine
 10
-159.17539460117533
 20
-160.65023932164738
 30
0.0
 11
-159.87539460117532
 21
-160.65023932164738
 31
0.0
  0
LINE
  5
9D
100
AcDbEntity
  8
0
  6
CONTINUOUS
 62
               7
100
AcDbLine
 10
-159.17539460117533
 20
-136.6502393216474
 30
0.0
 11
-159.87539460117532
 21
-136.6502393216474
 31
0.0
  0
LINE
  5
9E
100
AcDbEntity
  8
0
  6
CENTER
 62
               2
100
AcDbLine
 10
-170.87539460117532
 20
-148.44926605504583
 30
0.0
 11
-170.87539460117532
 21
-140.44926605504583
 31
0.0
  0
LINE
  5
9F
100
AcDbEntity
  8
0
  6
CONTINUOUS
 62
               7
100
AcDbLine
 10
-159.87539460117532
 20
-165.14926605504581
 30
0.0
 11
-159.87539460117532
 21
-132.14926605504581
 31
0.0
  0
LINE
  5
A0
100
AcDbEntity
  8
0
  6
CONTINUOUS
 62
               7
100
AcDbLine
 10
-175.87539460117532
 20
-165.14926605504581
 30
0.0
 11
-175.87539460117532
 21
-132.14926605504581
 31
0.0
  0
LINE
  5
A1
100
AcDbEntity
  8
0
  6
CENTER
 62
               2
100
AcDbLine
 10
-174.87539460117532
 20
-144.44926605504583
 30
0.0
 11
-166.87539460117532
 21
-144.44926605504583
 31
0.0
  0
LINE
  5
A2
100
AcDbEntity
  8
0
  6
CENTER
 62
               2
100
AcDbLine
 10
-168.87539460117532
 20
-152.8492660550458
 30
0.0
 11
-160.87539460117532
 21
-152.8492660550458
 31
0.0
  0
CIRCLE
  5
A3
100
AcDbEntity
  8
0
  6
CONTINUOUS
 62
               2
100
AcDbCircle
 10
-164.87539460117532
 20
-152.8492660550458
 30
0.0
 40
2.5
  0
CIRCLE
  5
A4
100
AcDbEntity
  8
0
  6
CONTINUOUS
 62
               2
100
AcDbCircle
 10
-170.87539460117532
 20
-144.44926605504583
 30
0.0
 40
2.5
  0
CIRCLE
  5
A5
100
AcDbEntity
  8
0
  6
CONTINUOUS
 62
               7
100
AcDbCircle
 10
-170.87539460117532
 20
-144.44926605504583
 30
0.0
 40
2.1000000000000001
  0
CIRCLE
  5
A6
100
AcDbEntity
  8
0
  6
CONTINUOUS
 62
               7
100
AcDbCircle
 10
-164.87539460117532
 20
-152.8492660550458
 30
0.0
 40
2.1000000000000001
  0
LINE
  5
A7
100
AcDbEntity
  8
0
  6
CENTER
 62
               2
100
AcDbLine
 10
-164.87539460117532
 20
-156.8492660550458
 30
0.0
 11
-164.87539460117532
 21
-148.8492660550458
 31
0.0
  0
LINE
  5
A8
100
AcDbEntity
  8
0
  6
CONTINUOUS
 62
               7
100
AcDbLine
 10
-175.87539461498474
 20
-132.14926605504581
 30
0.0
 11
-159.87539461498474
 21
-132.14926605504581
 31
0.0
  0
LINE
  5
A9
100
AcDbEntity
  8
0
  6
CONTINUOUS
 62
               7
100
AcDbLine
 10
-175.87539461498474
 20
-165.14926605504581
 30
0.0
 11
-159.87539460117532
 21
-165.14926605504581
 31
0.0
  0
LINE
  5
AA
100
AcDbEntity
  8
0
  6
CONTINUOUS
 62
               7
100
AcDbLine
 10
-145.57539460117533
 20
-140.2492660559995
 30
0.0
 11
-145.57539460117533
 21
-142.44926605599949
 31
0.0
  0
LINE
  5
AB
100
AcDbEntity
  8
0
  6
CONTINUOUS
 62
               7
100
AcDbLine
 10
-146.17539460117533
 20
-139.84926605599949
 30
0.0
 11
-145.97539460117534
 21
-139.84926605599949
 31
0.0
  0
LINE
  5
AC
100
AcDbEntity
  8
0
  6
CONTINUOUS
 62
               7
100
AcDbLine
 10
-146.17539460117533
 20
-142.84926605599949
 30
0.0
 11
-145.97539460117534
 21
-142.84926605599949
 31
0.0
  0
ARC
  5
AD
100
AcDbEntity
  8
0
  6
CONTINUOUS
 62
               7
100
AcDbCircle
 10
-145.97539460117534
 20
-140.2492660559995
 30
0.0
 40
0.4
100
AcDbArc
 50
0.0
 51
89.999999999999815
  0
ARC
  5
AE
100
AcDbEntity
  8
0
  6
CONTINUOUS
 62
               7
100
AcDbCircle
 10
-145.97539460117534
 20
-142.44926605599949
 30
0.0
 40
0.4
100
AcDbArc
 50
270.00000000000023
 51
0.0
  0
LINE
  5
AF
100
AcDbEntity
  8
0
  6
CENTER
 62
               2
100
AcDbLine
 10
-178.37539462346803
 20
-135.14926605504581
 30
0.0
 11
-173.37539460117532
 21
-135.14926605504581
 31
0.0
  0
LINE
  5
B0
100
AcDbEntity
  8
0
  6
CENTER
 62
               2
100
AcDbLine
 10
-178.37539462346803
 20
-162.14926605504581
 30
0.0
 11
-173.37539460117532
 21
-162.14926605504581
 31
0.0
  0
LINE
  5
B1
100
AcDbEntity
  8
0
  6
CONTINUOUS
 62
               4
100
AcDbLine
 10
-139.57539178464853
 20
-105.85126605504587
 30
0.0
 11
-139.57539178464853
 21
-121.81726605504588
 31
0.0
  0
LINE
  5
B2
100
AcDbEntity
  8
0
  6
CONTINUOUS
 62
               4
100
AcDbLine
 10
-142.17539178464855
 20
-123.34926605504586
 30
0.0
 11
-142.17539178464855
 21
-104.85126605504587
 31
0.0
  0
LINE
  5
B3
100
AcDbEntity
  8
0
  6
CONTINUOUS
 62
               4
100
AcDbLine
 10
-159.17539460117533
 20
-101.44926605504588
 30
0.0
 11
-159.17539460117533
 21
-123.34926605504586
 31
0.0
  0
LINE
  5
B4
100
AcDbEntity
  8
0
  6
CONTINUOUS
 62
               4
100
AcDbLine
 10
-145.17539460117533
 20
-123.34926605504586
 30
0.0
 11
-145.17539460117533
 21
-101.44926606011359
 31
0.0
  0
ARC
  5
B5
100
AcDbEntity
  8
0
  6
CONTINUOUS
 62
               4
100
AcDbCircle
 10
-138.87539178464854
 20
-106.35126605504587
 30
0.0
 40
0.5
100
AcDbArc
 50
0.0
 51
89.999999999999815
  0
ARC
  5
B6
100
AcDbEntity
  8
0
  6
CONTINUOUS
 62
               4
100
AcDbCircle
 10
-138.87539178464854
 20
-110.35126605504587
 30
0.0
 40
0.5
100
AcDbArc
 50
270.00000000000023
 51
0.0
  0
LINE
  5
B7
100
AcDbEntity
  8
0
  6
CONTINUOUS
 62
               4
100
AcDbLine
 10
-139.57539178464853
 20
-105.85126605504587
 30
0.0
 11
-138.87539178464854
 21
-105.85126605504587
 31
0.0
  0
LINE
  5
B8
100
AcDbEntity
  8
0
  6
CONTINUOUS
 62
               4
100
AcDbLine
 10
-138.37539178464854
 20
-110.35126605504587
 30
0.0
 11
-138.37539178464854
 21
-106.35126605504587
 31
0.0
  0
LINE
  5
B9
100
AcDbEntity
  8
0
  6
CONTINUOUS
 62
               4
100
AcDbLine
 10
-139.57539178464853
 20
-110.85126605504587
 30
0.0
 11
-138.87539178464854
 21
-110.85126605504587
 31
0.0
  0
LINE
  5
BA
100
AcDbEntity
  8
0
  6
CONTINUOUS
 62
               4
100
AcDbLine
 10
-132.87849066197097
 20
-107.70208343785845
 30
0.0
 11
-132.87849066197097
 21
-109.0020834378584
 31
0.0
  0
LINE
  5
BB
100
AcDbEntity
  8
0
  6
CONTINUOUS
 62
             200
100
AcDbLine
 10
-136.74449066197096
 20
-107.10126605504587
 30
0.0
 11
-135.300490661971
 21
-109.60126605504587
 31
0.0
  0
LINE
  5
BC
100
AcDbEntity
  8
0
  6
CONTINUOUS
 62
               4
100
AcDbLine
 10
-136.39849066197095
 20
-107.70126605504589
 30
0.0
 11
-132.87849066197097
 21
-107.70126605504589
 31
0.0
  0
LINE
  5
BD
100
AcDbEntity
  8
0
  6
CONTINUOUS
 62
               4
100
AcDbLine
 10
-135.64849066197095
 20
-109.0012660550459
 30
0.0
 11
-132.87849066197097
 21
-109.0012660550459
 31
0.0
  0
LINE
  5
BE
100
AcDbEntity
  8
0
  6
CONTINUOUS
 62
             200
100
AcDbLine
 10
-137.24449066197096
 20
-107.10126605504587
 30
0.0
 11
-135.800490661971
 21
-109.60126605504587
 31
0.0
  0
LINE
  5
BF
100
AcDbEntity
  8
0
  6
CONTINUOUS
 62
               4
100
AcDbLine
 10
-139.57539178464853
 20
-105.35126605504587
 30
0.0
 11
-139.57539178464853
 21
-105.85126605504587
 31
0.0
  0
ARC
  5
C0
100
AcDbEntity
  8
0
  6
CONTINUOUS
 62
               4
100
AcDbCircle
 10
-140.07535426064314
 20
-105.35122853104048
 30
0.0
 40
0.4999624774027422
100
AcDbArc
 50
359.99569974300096
 51
90.004300256998803
  0
LINE
  5
C1
100
AcDbEntity
  8
0
  6
CONTINUOUS
 62
               4
100
AcDbLine
 10
-145.17539178464855
 20
-104.85126605504587
 30
0.0
 11
-140.07539178464853
 21
-104.85126605504587
 31
0.0
  0
LINE
  5
C2
100
AcDbEntity
  8
0
  6
CONTINUOUS
 62
               4
100
AcDbLine
 10
-138.37539178464854
 20
-109.0012660550459
 30
0.0
 11
-136.14849066197095
 21
-109.0012660550459
 31
0.0
  0
LINE
  5
C3
100
AcDbEntity
  8
0
  6
CONTINUOUS
 62
               4
100
AcDbLine
 10
-138.37539178464854
 20
-107.70126605504589
 30
0.0
 11
-136.89849066197095
 21
-107.70126605504589
 31
0.0
  0
LINE
  5
C4
100
AcDbEntity
  8
0
  6
CONTINUOUS
 62
               4
100
AcDbLine
 10
-155.47539460117534
 20
-101.44926605504577
 30
0.0
 11
-155.47539460117534
 21
-100.84926605504586
 31
0.0
  0
LINE
  5
C5
100
AcDbEntity
  8
0
  6
CONTINUOUS
 62
               4
100
AcDbLine
 10
-158.49248974783356
 20
-100.84926605504586
 30
0.0
 11
-147.17539178464855
 21
-100.8492660550458
 31
0.0
  0
ARC
  5
C6
100
AcDbEntity
  8
0
  6
CONTINUOUS
 62
               4
100
AcDbCircle
 10
-156.6913065959383
 20
-101.44817804980886
 30
0.0
 40
0.5989129830170392
100
AcDbArc
 50
359.89591452477293
 51
90.104085475226867
  0
ARC
  5
C7
100
AcDbEntity
  8
0
  6
CONTINUOUS
 62
               4
100
AcDbCircle
 10
-158.4924897478335
 20
-101.44917090838766
 30
0.0
 40
0.5999048608870732
100
AcDbArc
 50
123.56005066674096
 51
180.00908727754583
  0
LINE
  5
C8
100
AcDbEntity
  8
0
  6
CONTINUOUS
 62
               4
100
AcDbLine
 10
-159.17539460117527
 20
-101.44926605504577
 30
0.0
 11
-155.47539460117534
 21
-101.44926605504577
 31
0.0
  0
LINE
  5
C9
100
AcDbEntity
  8
0
  6
CONTINUOUS
 62
               4
100
AcDbLine
 10
-147.17539178464855
 20
-100.8492660550458
 30
0.0
 11
-147.17539178464855
 21
-102.44926605504577
 31
0.0
  0
LINE
  5
CA
100
AcDbEntity
  8
0
  6
CONTINUOUS
 62
               4
100
AcDbLine
 10
-159.17539460117533
 20
-102.44926605504577
 30
0.0
 11
-147.17539178464855
 21
-102.44926605504577
 31
0.0
  0
LINE
  5
CB
100
AcDbEntity
  8
0
  6
CONTINUOUS
 62
               4
100
AcDbLine
 10
-145.67539460117527
 20
-100.94926605504588
 30
0.0
 11
-147.17539460117527
 21
-100.94926605504588
 31
0.0
  0
ARC
  5
CC
100
AcDbEntity
  8
0
  6
CONTINUOUS
 62
               4
100
AcDbCircle
 10
-145.67539460117527
 20
-101.44926605504588
 30
0.0
 40
0.5
100
AcDbArc
 50
0.0
 51
89.999999999999815
  0
ARC
  5
CD
100
AcDbEntity
  8
0
  6
CONTINUOUS
 62
               4
100
AcDbCircle
 10
-158.67539460117527
 20
-101.44926605504588
 30
0.0
 40
0.5
100
AcDbArc
 50
114.73039869686018
 51
179.99999999999963
  0
ARC
  5
CE
100
AcDbEntity
  8
0
  6
CONTINUOUS
 62
               4
100
AcDbCircle
 10
-158.4924897478335
 20
-101.44917090838766
 30
0.0
 40
0.5999048608870732
100
AcDbArc
 50
89.99091272245343
 51
123.56005066674096
  0
LINE
  5
CF
100
AcDbEntity
  8
0
  6
CONTINUOUS
 62
               4
100
AcDbLine
 10
-132.87849066197106
 20
-108.10126605504593
 30
0.0
 11
-129.378490661971
 21
-108.10126605504564
 31
0.0
  0
LINE
  5
D0
100
AcDbEntity
  8
0
  6
CONTINUOUS
 62
               4
100
AcDbLine
 10
-132.878490661971
 20
-108.60126605504593
 30
0.0
 11
-129.378490661971
 21
-108.60126605504564
 31
0.0
  0
LINE
  5
D1
100
AcDbEntity
  8
0
  6
CONTINUOUS
 62
               4
100
AcDbLine
 10
-129.378490661971
 20
-108.10126605504564
 30
0.0
 11
-129.378490661971
 21
-108.60126605504564
 31
0.0
  0
LINE
  5
D2
100
AcDbEntity
  8
0
  6
CONTINUOUS
 62
               4
100
AcDbLine
 10
-159.17539460117533
 20
-123.34926605504586
 30
0.0
 11
-142.17539178464855
 21
-123.34926605504586
 31
0.0
  0
LINE
  5
D3
100
AcDbEntity
  8
0
  6
CONTINUOUS
 62
               4
100
AcDbLine
 10
-142.17539178464855
 20
-123.34926605504586
 30
0.0
 11
-139.86339178464854
 21
-122.27126605504588
 31
0.0
  0
ARC
  5
D4
100
AcDbEntity
  8
0
  6
CONTINUOUS
 62
               4
100
AcDbCircle
 10
-140.07585622916653
 20
-121.81813883032959
 30
0.0
 40
0.5004652055472239
100
AcDbArc
 50
295.12116424320402
 51
0.0999197646782735
  0
LINE
  5
D5
100
AcDbEntity
  8
0
  6
CENTER
 62
               2
100
AcDbLine
 10
-156.96092100519562
 20
-141.3492660550458
 30
0.0
 11
-162.33997973398584
 21
-141.3492660550458
 31
0.0
  0
LINE
  5
D6
100
AcDbEntity
  8
0
  6
CENTER
 62
               2
100
AcDbLine
 10
-156.96092100519562
 20
-155.94926605504583
 30
0.0
 11
-162.33997973398584
 21
-155.94926605504583
 31
0.0
  0
LINE
  5
D7
100
AcDbEntity
  8
0
  6
CONTINUOUS
 62
               7
100
AcDbLine
 10
-77.282214995567983
 20
-166.04926605504582
 30
0.0
 11
-77.282214995567983
 21
-156.84926605504583
 31
0.0
  0
LINE
  5
D8
100
AcDbEntity
  8
0
  6
CONTINUOUS
 62
               7
100
AcDbLine
 10
-87.282214995567983
 20
-163.94926605504583
 30
0.0
 11
-87.282214995567983
 21
-142.24926605504581
 31
0.0
  0
ARC
  5
D9
100
AcDbEntity
  8
0
  6
CONTINUOUS
 62
               7
100
AcDbCircle
 10
-77.482214995568
 20
-166.04926605504582
 30
0.0
 40
0.2
100
AcDbArc
 50
269.99999999999937
 51
0.0
  0
ARC
  5
DA
100
AcDbEntity
  8
0
  6
CONTINUOUS
 62
               7
100
AcDbCircle
 10
-87.082214995567995
 20
-166.04926605504582
 30
0.0
 40
0.2
100
AcDbArc
 50
179.99999999999963
 51
269.99999999999937
  0
CIRCLE
  5
DB
100
AcDbEntity
  8
0
  6
CONTINUOUS
 62
               7
100
AcDbCircle
 10
-82.282214995567983
 20
-125.64926605504581
 30
0.0
 40
0.7500000000000001
  0
CIRCLE
  5
DC
100
AcDbEntity
  8
0
  6
CONTINUOUS
 62
               7
100
AcDbCircle
 10
-82.282214995567983
 20
-125.64926605504581
 30
0.0
 40
1.1000000000000001
  0
LINE
  5
DD
100
AcDbEntity
  8
0
  6
CENTER
 62
               2
100
AcDbLine
 10
-82.282214995567983
 20
-167.44022215652075
 30
0.0
 11
-82.282214995567983
 21
-100.15126605504582
 31
0.0
  0
ARC
  5
DE
100
AcDbEntity
  8
0
  6
CONTINUOUS
 62
               7
100
AcDbCircle
 10
-86.983110132426873
 20
-163.65016119190471
 30
0.0
 40
0.2991062025847394
100
AcDbArc
 50
179.82853033398985
 51
270.17146966600922
  0
LINE
  5
DF
100
AcDbEntity
  8
0
  6
CONTINUOUS
 62
               7
100
AcDbLine
 10
-87.282214995567983
 20
-166.04926605504582
 30
0.0
 11
-87.282214995567983
 21
-164.63601548569989
 31
0.0
  0
LINE
  5
E0
100
AcDbEntity
  8
0
  6
CONTINUOUS
 62
               7
100
AcDbLine
 10
-83.782214995567983
 20
-166.24926605504584
 30
0.0
 11
-83.782214995567983
 21
-163.94926605504583
 31
0.0
  0
LINE
  5
E1
100
AcDbEntity
  8
0
  6
CONTINUOUS
 62
               7
100
AcDbLine
 10
-87.302214995567994
 20
-163.94926605504583
 30
0.0
 11
-83.782214995567983
 21
-163.94926605504583
 31
0.0
  0
LINE
  5
E2
100
AcDbEntity
  8
0
  6
CONTINUOUS
 62
               7
100
AcDbLine
 10
-87.282214995567983
 20
-136.54926605504582
 30
0.0
 11
-77.282214995567983
 21
-136.54926605504582
 31
0.0
  0
LINE
  5
E3
100
AcDbEntity
  8
0
  6
CONTINUOUS
 62
               7
100
AcDbLine
 10
-87.282214995567983
 20
-160.74926605504581
 30
0.0
 11
-77.282214995567983
 21
-160.74926605504581
 31
0.0
  0
LINE
  5
E4
100
AcDbEntity
  8
0
  6
CONTINUOUS
 62
               7
100
AcDbLine
 10
-77.482214995568
 20
-166.24926605504584
 30
0.0
 11
-87.082214995567995
 21
-166.24926605504584
 31
0.0
  0
CIRCLE
  5
E5
100
AcDbEntity
  8
0
  6
CONTINUOUS
 62
               7
100
AcDbCircle
 10
-82.282214995567983
 20
-125.64926605504581
 30
0.0
 40
1.1500000000000001
  0
CIRCLE
  5
E6
100
AcDbEntity
  8
0
  6
CONTINUOUS
 62
               7
100
AcDbCircle
 10
-82.282214995567983
 20
-125.64926605504581
 30
0.0
 40
1.3000000000000012
  0
LINE
  5
E7
100
AcDbEntity
  8
0
  6
CENTER
 62
               2
100
AcDbLine
 10
-80.582214995567966
 20
-125.64926605504581
 30
0.0
 11
-83.982214995568
 21
-125.64926605504581
 31
0.0
  0
ARC
  5
E8
100
AcDbEntity
  8
0
  6
CONTINUOUS
 62
               7
100
AcDbCircle
 10
-82.282214995567983
 20
-127.3492660550458
 30
0.0
 40
3.6000000000000005
100
AcDbArc
 50
179.99999999999963
 51
0.0
  0
ARC
  5
E9
100
AcDbEntity
  8
0
  6
CONTINUOUS
 62
               7
100
AcDbCircle
 10
-82.282214995567983
 20
-127.3492660550458
 30
0.0
 40
2.0
100
AcDbArc
 50
179.99999999999963
 51
0.0
  0
LINE
  5
EA
100
AcDbEntity
  8
0
  6
CONTINUOUS
 62
               7
100
AcDbLine
 10
-78.682214995567989
 20
-127.3492660550458
 30
0.0
 11
-78.682214995567989
 21
-123.3492660550458
 31
0.0
  0
LINE
  5
EB
100
AcDbEntity
  8
0
  6
CONTINUOUS
 62
               7
100
AcDbLine
 10
-85.882214995567978
 20
-127.3492660550458
 30
0.0
 11
-85.882214995567978
 21
-123.3492660550458
 31
0.0
  0
LINE
  5
EC
100
AcDbEntity
  8
0
  6
CONTINUOUS
 62
               7
100
AcDbLine
 10
-80.282214995567983
 20
-127.3492660550458
 30
0.0
 11
-80.282214995567983
 21
-123.3492660550458
 31
0.0
  0
LINE
  5
ED
100
AcDbEntity
  8
0
  6
CONTINUOUS
 62
               7
100
AcDbLine
 10
-84.282214995568012
 20
-127.3492660550458
 30
0.0
 11
-84.282214995568012
 21
-123.3492660550458
 31
0.0
  0
LINE
  5
EE
100
AcDbEntity
  8
0
  6
CONTINUOUS
 62
               4
100
AcDbLine
 10
-77.282214995567983
 20
-123.3492660550458
 30
0.0
 11
-87.282214995567983
 21
-123.3492660550458
 31
0.0
  0
ARC
  5
EF
100
AcDbEntity
  8
0
  6
CONTINUOUS
 62
               7
100
AcDbCircle
 10
-85.582214995567966
 20
-160.66184481831186
 30
0.0
 40
4.5876068132596712
100
AcDbArc
 50
253.79871892415684
 51
286.20128107584191
  0
ARC
  5
F0
100
AcDbEntity
  8
0
  6
CONTINUOUS
 62
               7
100
AcDbCircle
 10
-84.473986991401915
 20
-164.48010333707487
 30
0.0
 40
0.6117725687931934
100
AcDbArc
 50
286.30661609184898
 51
0.0784159734340139
  0
LINE
  5
F1
100
AcDbEntity
  8
0
  6
CONTINUOUS
 62
               7
100
AcDbLine
 10
-83.862214995567996
 20
-164.47926605504583
 30
0.0
 11
-83.862214995567996
 21
-163.94926605504583
 31
0.0
  0
ARC
  5
F2
100
AcDbEntity
  8
0
  6
CONTINUOUS
 62
               7
100
AcDbCircle
 10
-86.691661027458935
 20
-164.48101478639279
 30
0.0
 40
0.6105564724372721
100
AcDbArc
 50
179.83589550320582
 51
253.77907243150949
  0
LINE
  5
F3
100
AcDbEntity
  8
0
  6
CONTINUOUS
 62
               7
100
AcDbLine
 10
-87.302214995567994
 20
-164.47926605504583
 30
0.0
 11
-87.302214995567994
 21
-163.94926605504583
 31
0.0
  0
LINE
  5
F4
100
AcDbEntity
  8
0
  6
CONTINUOUS
 62
               7
100
AcDbLine
 10
-77.282214995567983
 20
-165.14926605504581
 30
0.0
 11
-69.282214995568069
 21
-165.14926605504581
 31
0.0
  0
LINE
  5
F5
100
AcDbEntity
  8
0
  6
CONTINUOUS
 62
               7
100
AcDbLine
 10
-77.282214995567983
 20
-132.14926605504581
 30
0.0
 11
-69.282214995568069
 21
-132.14926605504581
 31
0.0
  0
LINE
  5
F6
100
AcDbEntity
  8
0
  6
CONTINUOUS
 62
               7
100
AcDbLine
 10
-69.282214995568069
 20
-165.14926605504581
 30
0.0
 11
-69.282214995568069
 21
-132.14926605504581
 31
0.0
  0
LINE
  5
F7
100
AcDbEntity
  8
0
  6
CENTER
 62
               2
100
AcDbLine
 10
-74.782214995568069
 20
-135.14926605504581
 30
0.0
 11
-69.782214995568069
 21
-135.14926605504581
 31
0.0
  0
LINE
  5
F8
100
AcDbEntity
  8
0
  6
CENTER
 62
               2
100
AcDbLine
 10
-74.782214995568069
 20
-162.14926605504581
 30
0.0
 11
-69.782214995568069
 21
-162.14926605504581
 31
0.0
  0
CIRCLE
  5
F9
100
AcDbEntity
  8
0
  6
CONTINUOUS
 62
               7
100
AcDbCircle
 10
-72.282214995568069
 20
-162.14926605504581
 30
0.0
 40
1.6000000000000001
  0
CIRCLE
  5
FA
100
AcDbEntity
  8
0
  6
CONTINUOUS
 62
               7
100
AcDbCircle
 10
-72.282214995568069
 20
-135.14926605504581
 30
0.0
 40
1.6000000000000001
  0
LINE
  5
FC
100
AcDbEntity
  8
0
  6
PHANTOM
 62
             200
100
AcDbLine
 10
-55.782214995568069
 20
-153.04926605504582
 30
0.0
 11
-55.782214995568069
 21
-161.04926605504582
 31
0.0
  0
LINE
  5
FD
100
AcDbEntity
  8
0
  6
PHANTOM
 62
             200
100
AcDbLine
 10
-57.782214995568069
 20
-153.04926605504582
 30
0.0
 11
-57.782214995568069
 21
-161.04926605504582
 31
0.0
  0
LINE
  5
FE
100
AcDbEntity
  8
0
  6
PHANTOM
 62
             200
100
AcDbLine
 10
-55.282214995568069
 20
-153.54926605504582
 30
0.0
 11
-55.282214995568069
 21
-160.54926605504582
 31
0.0
  0
ARC
  5
FF
100
AcDbEntity
  8
0
  6
PHANTOM
 62
             200
100
AcDbCircle
 10
-55.782214995568069
 20
-160.54926605504582
 30
0.0
 40
0.5
100
AcDbArc
 50
269.99999999999937
 51
0.0
  0
ARC
  5
100
100
AcDbEntity
  8
0
  6
PHANTOM
 62
             200
100
AcDbCircle
 10
-55.782214995568069
 20
-153.54926605504582
 30
0.0
 40
0.5
100
AcDbArc
 50
0.0
 51
89.999999999999815
  0
LINE
  5
101
100
AcDbEntity
  8
0
  6
PHANTOM
 62
             200
100
AcDbLine
 10
-69.282214995568069
 20
-161.04926605504582
 30
0.0
 11
-55.782214995568069
 21
-161.04926605504582
 31
0.0
  0
LINE
  5
102
100
AcDbEntity
  8
0
  6
PHANTOM
 62
             200
100
AcDbLine
 10
-69.282214995568069
 20
-153.04926605504582
 30
0.0
 11
-55.782214995568069
 21
-153.04926605504582
 31
0.0
  0
LINE
  5
103
100
AcDbEntity
  8
0
  6
CENTER
 62
               2
100
AcDbLine
 10
-71.766008789930112
 20
-157.04926605504582
 30
0.0
 11
-54.152214995568073
 21
-157.04926605504582
 31
0.0
  0
LINE
  5
104
100
AcDbEntity
  8
0
  6
CONTINUOUS
 62
               7
100
AcDbLine
 10
-89.282214995568069
 20
-132.14926605504581
 30
0.0
 11
-87.282214995567983
 21
-132.14926605504581
 31
0.0
  0
LINE
  5
105
100
AcDbEntity
  8
0
  6
CONTINUOUS
 62
               7
100
AcDbLine
 10
-89.282214995568069
 20
-165.14926605504581
 30
0.0
 11
-87.282214995567983
 21
-165.14926605504581
 31
0.0
  0
LINE
  5
106
100
AcDbEntity
  8
0
  6
CONTINUOUS
 62
               7
100
AcDbLine
 10
-89.282214995568069
 20
-165.14926605504581
 30
0.0
 11
-89.282214995568069
 21
-132.14926605504581
 31
0.0
  0
LINE
  5
107
100
AcDbEntity
  8
0
  6
CONTINUOUS
 62
               7
100
AcDbLine
 10
-87.282214995567983
 20
-140.4492660550458
 30
0.0
 11
-87.282214995567983
 21
-123.3492660550458
 31
0.0
  0
LINE
  5
108
100
AcDbEntity
  8
0
  6
CONTINUOUS
 62
               7
100
AcDbLine
 10
-77.282214995567983
 20
-155.04926605504582
 30
0.0
 11
-77.282214995567983
 21
-123.3492660550458
 31
0.0
  0
LINE
  5
109
100
AcDbEntity
  8
0
  6
CENTER
 62
               2
100
AcDbLine
 10
-72.282214995568069
 20
-164.64926605134656
 30
0.0
 11
-72.282214995568069
 21
-159.64926605134656
 31
0.0
  0
LINE
  5
10A
100
AcDbEntity
  8
0
  6
CENTER
 62
               2
100
AcDbLine
 10
-72.282214995568069
 20
-137.64926605504581
 30
0.0
 11
-72.282214995568069
 21
-132.64926605504581
 31
0.0
  0
ARC
  5
10B
100
AcDbEntity
  8
0
  6
CONTINUOUS
 62
               4
100
AcDbCircle
 10
-86.78191797136185
 20
-122.84896903083967
 30
0.0
 40
0.5002971123771115
100
AcDbArc
 50
180.03401625554557
 51
269.96598374445358
  0
LINE
  5
10C
100
AcDbEntity
  8
0
  6
CONTINUOUS
 62
               4
100
AcDbLine
 10
-87.282214995567983
 20
-100.8492660550458
 30
0.0
 11
-87.282214995567983
 21
-123.3492660550458
 31
0.0
  0
ARC
  5
10D
100
AcDbEntity
  8
0
  6
CONTINUOUS
 62
               4
100
AcDbCircle
 10
-77.781918147703777
 20
-122.84956290291001
 30
0.0
 40
0.4997032403068001
100
AcDbArc
 50
269.96596353714654
 51
0.0340364628527164
  0
LINE
  5
10E
100
AcDbEntity
  8
0
  6
CONTINUOUS
 62
               4
100
AcDbLine
 10
-77.282214995567983
 20
-100.8492660550458
 30
0.0
 11
-77.282214995567983
 21
-123.3492660550458
 31
0.0
  0
ARC
  5
10F
100
AcDbEntity
  8
0
  6
CONTINUOUS
 62
               4
100
AcDbCircle
 10
-78.078119848909807
 20
-101.4491709083876
 30
0.0
 40
0.5999048608870732
100
AcDbArc
 50
359.99091272245295
 51
90.009087277546172
  0
ARC
  5
110
100
AcDbEntity
  8
0
  6
CONTINUOUS
 62
               4
100
AcDbCircle
 10
-78.219407619034314
 20
-121.77207343584899
 30
0.0
 40
0.4991932763770037
100
AcDbArc
 50
269.90733190886618
 51
0.0926680911333844
  0
ARC
  5
111
100
AcDbEntity
  8
0
  6
CONTINUOUS
 62
               4
100
AcDbCircle
 10
-78.219639399525704
 20
-105.34869045900354
 30
0.0
 40
0.499424735650256
100
AcDbArc
 50
359.93396556302804
 51
90.066034436970796
  0
ARC
  5
112
100
AcDbEntity
  8
0
  6
CONTINUOUS
 62
               4
100
AcDbCircle
 10
-77.781918147703777
 20
-105.3489692071816
 30
0.0
 40
0.4997032403068001
100
AcDbArc
 50
359.96596353714654
 51
90.034036462852711
  0
LINE
  5
113
100
AcDbEntity
  8
0
  6
CONTINUOUS
 62
               4
100
AcDbLine
 10
-77.720214995567972
 20
-105.3492660550458
 30
0.0
 11
-77.720214995567972
 21
-121.77126605931528
 31
0.0
  0
ARC
  5
114
100
AcDbEntity
  8
0
  6
CONTINUOUS
 62
               4
100
AcDbCircle
 10
-79.879303000805066
 20
-101.4481780498088
 30
0.0
 40
0.5989129830170392
100
AcDbArc
 50
89.895914524772735
 51
180.10408547522667
  0
CIRCLE
  5
115
100
AcDbEntity
  8
0
  6
CONTINUOUS
 62
               4
100
AcDbCircle
 10
-83.531621123497644
 20
-108.3492660550458
 30
0.0
 40
0.7250000000000001
  0
CIRCLE
  5
116
100
AcDbEntity
  8
0
  6
CONTINUOUS
 62
               4
100
AcDbCircle
 10
-81.031621123497644
 20
-108.3492660550458
 30
0.0
 40
0.7250000000000001
  0
LINE
  5
117
100
AcDbEntity
  8
0
  6
CONTINUOUS
 62
               4
100
AcDbLine
 10
-81.032214995567983
 20
-110.3492660550458
 30
0.0
 11
-83.532214995567983
 21
-110.3492660550458
 31
0.0
  0
LINE
  5
118
100
AcDbEntity
  8
0
  6
CONTINUOUS
 62
               4
100
AcDbLine
 10
-81.032214995567983
 20
-106.3492660550458
 30
0.0
 11
-83.532214995567983
 21
-106.3492660550458
 31
0.0
  0
ARC
  5
119
100
AcDbEntity
  8
0
  6
CONTINUOUS
 62
               4
100
AcDbCircle
 10
-83.532214995567983
 20
-108.3492660550458
 30
0.0
 40
2.0000000881710065
100
AcDbArc
 50
89.999999999999815
 51
269.99999999999937
  0
ARC
  5
11A
100
AcDbEntity
  8
0
  6
CONTINUOUS
 62
               4
100
AcDbCircle
 10
-81.032214995567983
 20
-108.3492660550458
 30
0.0
 40
2.0000000881710065
100
AcDbArc
 50
269.99999999999937
 51
89.999999999999801
  0
ARC
  5
11B
100
AcDbEntity
  8
0
  6
CONTINUOUS
 62
               4
100
AcDbCircle
 10
-86.344428556358821
 20
-121.77147962010608
 30
0.0
 40
0.4997864848369056
100
AcDbArc
 50
179.97551728042748
 51
270.02448271957149
  0
ARC
  5
11C
100
AcDbEntity
  8
0
  6
CONTINUOUS
 62
               4
100
AcDbCircle
 10
-86.78191797136185
 20
-105.34956307925194
 30
0.0
 40
0.5002971123771114
100
AcDbArc
 50
90.034016255545609
 51
179.96598374445358
  0
ARC
  5
11D
100
AcDbEntity
  8
0
  6
CONTINUOUS
 62
               4
100
AcDbCircle
 10
-86.344197050910054
 20
-105.34928399970374
 30
0.0
 40
0.5000179449799356
100
AcDbArc
 50
90.002056232531103
 51
179.99794376746806
  0
LINE
  5
11E
100
AcDbEntity
  8
0
  6
CONTINUOUS
 62
               4
100
AcDbLine
 10
-86.844214995567995
 20
-105.3492660550458
 30
0.0
 11
-86.844214995567995
 21
-121.77126605931528
 31
0.0
  0
CIRCLE
  5
11F
100
AcDbEntity
  8
0
  6
CONTINUOUS
 62
               4
100
AcDbCircle
 10
-83.531621123497644
 20
-108.3492660550458
 30
0.0
 40
0.25
  0
CIRCLE
  5
120
100
AcDbEntity
  8
0
  6
CONTINUOUS
 62
               4
100
AcDbCircle
 10
-81.031621123497644
 20
-108.3492660550458
 30
0.0
 40
0.25
  0
ARC
  5
121
100
AcDbEntity
  8
0
  6
CONTINUOUS
 62
               4
100
AcDbCircle
 10
-86.782214995567983
 20
-101.44926605504583
 30
0.0
 40
0.5
100
AcDbArc
 50
89.999999999999815
 51
179.99999999999963
  0
LINE
  5
122
100
AcDbEntity
  8
0
  6
CONTINUOUS
 62
               4
100
AcDbLine
 10
-80.482214995568029
 20
-100.94926605504583
 30
0.0
 11
-80.482214995568029
 21
-102.44926605504583
 31
0.0
  0
LINE
  5
123
100
AcDbEntity
  8
0
  6
CONTINUOUS
 62
               4
100
AcDbLine
 10
-80.482214995568029
 20
-100.94926605504583
 30
0.0
 11
-86.782214995567983
 21
-100.94926605504583
 31
0.0
  0
LINE
  5
124
100
AcDbEntity
  8
0
  6
PHANTOM
 62
               4
100
AcDbLine
 10
-83.782233306114847
 20
-115.84926605931526
 30
0.0
 11
-80.782233306114847
 21
-115.84926605931526
 31
0.0
  0
LINE
  5
125
100
AcDbEntity
  8
0
  6
PHANTOM
 62
               4
100
AcDbLine
 10
-83.782233306114847
 20
-117.84926605931526
 30
0.0
 11
-80.782233306114847
 21
-117.84926605931526
 31
0.0
  0
LINE
  5
126
100
AcDbEntity
  8
0
  6
PHANTOM
 62
               4
100
AcDbLine
 10
-80.782233306114847
 20
-115.84926605931526
 30
0.0
 11
-80.782233306114847
 21
-117.84926605931526
 31
0.0
  0
LINE
  5
127
100
AcDbEntity
  8
0
  6
PHANTOM
 62
               4
100
AcDbLine
 10
-83.782233306114847
 20
-115.84926605931526
 30
0.0
 11
-83.782233306114847
 21
-117.84926605931526
 31
0.0
  0
LINE
  5
128
100
AcDbEntity
  8
0
  6
CONTINUOUS
 62
               4
100
AcDbLine
 10
-77.282214995567983
 20
-101.44926605504583
 30
0.0
 11
-80.482214995568029
 21
-101.44926605504583
 31
0.0
  0
LINE
  5
129
100
AcDbEntity
  8
0
  6
CONTINUOUS
 62
               4
100
AcDbLine
 10
-77.282214995567983
 20
-100.8492660550458
 30
0.0
 11
-87.282214995567983
 21
-100.8492660550458
 31
0.0
  0
LINE
  5
12A
100
AcDbEntity
  8
0
  6
CONTINUOUS
 62
               4
100
AcDbLine
 10
-77.282214995567983
 20
-102.44926605504583
 30
0.0
 11
-80.482214995568029
 21
-102.44926605504583
 31
0.0
  0
LINE
  5
12B
100
AcDbEntity
  8
0
  6
CONTINUOUS
 62
               4
100
AcDbLine
 10
-77.782214995567983
 20
-104.8492660550458
 30
0.0
 11
-86.782214995567983
 21
-104.8492660550458
 31
0.0
  0
LINE
  5
12C
100
AcDbEntity
  8
0
  6
CONTINUOUS
 62
               4
100
AcDbLine
 10
-78.220214995567972
 20
-122.27126605931528
 30
0.0
 11
-86.344214995567995
 21
-122.27126605931528
 31
0.0
  0
LINE
  5
12D
100
AcDbEntity
  8
0
  6
CONTINUOUS
 62
               7
100
AcDbLine
 10
-86.082214995567995
 20
-139.74926605504584
 30
0.0
 11
-87.282214995567983
 21
-139.74926605504584
 31
0.0
  0
LINE
  5
12E
100
AcDbEntity
  8
0
  6
CONTINUOUS
 62
               7
100
AcDbLine
 10
-86.082214995567995
 20
-142.94926605504583
 30
0.0
 11
-87.282214995567983
 21
-142.94926605504583
 31
0.0
  0
CIRCLE
  5
12F
100
AcDbEntity
  8
0
  6
CONTINUOUS
 62
               7
100
AcDbCircle
 10
-86.082214995567995
 20
-141.3492660550458
 30
0.0
 40
1.5
  0
LINE
  5
130
100
AcDbEntity
  8
0
  6
CONTINUOUS
 62
               7
100
AcDbLine
 10
-85.375108214381441
 20
-140.64215927385928
 30
0.0
 11
-86.789321776754548
 21
-142.05637283623236
 31
0.0
  0
LINE
  5
131
100
AcDbEntity
  8
0
  6
CONTINUOUS
 62
               7
100
AcDbLine
 10
-86.789321776754548
 20
-140.64215927385928
 30
0.0
 11
-85.375108214381441
 21
-142.05637283623236
 31
0.0
  0
ARC
  5
132
100
AcDbEntity
  8
0
  6
CONTINUOUS
 62
               7
100
AcDbCircle
 10
-86.082214995567995
 20
-141.3492660550458
 30
0.0
 40
1.6000000000000003
100
AcDbArc
 50
269.99999999999937
 51
89.999999999999801
  0
LINE
  5
133
100
AcDbEntity
  8
0
  6
CONTINUOUS
 62
               7
100
AcDbLine
 10
-78.482214995567972
 20
-157.54926605504579
 30
0.0
 11
-77.282214995567955
 21
-157.54926605504579
 31
0.0
  0
LINE
  5
134
100
AcDbEntity
  8
0
  6
CONTINUOUS
 62
               7
100
AcDbLine
 10
-78.482214995567972
 20
-154.3492660550458
 30
0.0
 11
-77.282214995567955
 21
-154.3492660550458
 31
0.0
  0
ARC
  5
135
100
AcDbEntity
  8
0
  6
CONTINUOUS
 62
               7
100
AcDbCircle
 10
-78.482214995567972
 20
-155.94926605504583
 30
0.0
 40
1.6000000000000003
100
AcDbArc
 50
89.999999999999815
 51
269.99999999999937
  0
CIRCLE
  5
136
100
AcDbEntity
  8
0
  6
CONTINUOUS
 62
               7
100
AcDbCircle
 10
-78.482214995567972
 20
-155.94926605504583
 30
0.0
 40
1.5
  0
LINE
  5
137
100
AcDbEntity
  8
0
  6
CONTINUOUS
 62
               7
100
AcDbLine
 10
-79.189321776754525
 20
-155.24215927385927
 30
0.0
 11
-77.775108214381419
 21
-156.65637283623235
 31
0.0
  0
LINE
  5
138
100
AcDbEntity
  8
0
  6
CONTINUOUS
 62
               7
100
AcDbLine
 10
-77.775108214381419
 20
-155.24215927385927
 30
0.0
 11
-79.189321776754525
 21
-156.65637283623235
 31
0.0
  0
LINE
  5
139
100
AcDbEntity
  8
0
  6
CENTER
 62
               2
100
AcDbLine
 10
233.66530218230932
 20
32.150733944954169
 30
0.0
 11
238.66530218333028
 21
32.150733944954169
 31
0.0
  0
LINE
  5
13A
100
AcDbEntity
  8
0
  6
CENTER
 62
               2
100
AcDbLine
 10
233.66530218230932
 20
59.150733944954169
 30
0.0
 11
238.66530218333028
 21
59.150733944954169
 31
0.0
  0
LINE
  5
13B
100
AcDbEntity
  8
0
  6
CONTINUOUS
 62
               4
100
AcDbLine
 10
219.46530219013403
 20
70.950733944954152
 30
0.0
 11
202.46025450732748
 21
70.950733944954152
 31
0.0
  0
LINE
  5
13C
100
AcDbEntity
  8
0
  6
DASHED
 62
               2
100
AcDbLine
 10
219.46530219013403
 20
64.900733944954169
 30
0.0
 11
218.37023016082139
 21
64.900733944954169
 31
0.0
  0
LINE
  5
13D
100
AcDbEntity
  8
0
  6
DASHED
 62
               2
100
AcDbLine
 10
219.46530219013403
 20
66.400733944954169
 30
0.0
 11
218.37023016082139
 21
66.400733944954169
 31
0.0
  0
LINE
  5
13E
100
AcDbEntity
  8
0
  6
CENTER
 62
               2
100
AcDbLine
 10
217.90262221437251
 20
65.650733944954169
 30
0.0
 11
220.18328120921137
 21
65.650733944954169
 31
0.0
  0
LINE
  5
13F
100
AcDbEntity
  8
0
  6
CONTINUOUS
 62
               7
100
AcDbLine
 10
220.16530219013399
 20
62.150733944954169
 30
0.0
 11
236.16530219013399
 21
62.150733944954169
 31
0.0
  0
LINE
  5
140
100
AcDbEntity
  8
0
  6
CONTINUOUS
 62
               7
100
AcDbLine
 10
220.16530219013399
 20
29.150733944954169
 30
0.0
 11
236.16530218230932
 21
29.150733944954169
 31
0.0
  0
CIRCLE
  5
141
100
AcDbEntity
  8
0
  6
CONTINUOUS
 62
               7
100
AcDbCircle
 10
231.16530218230932
 20
37.25073394495417
 30
0.0
 40
2.1000000000000001
  0
CIRCLE
  5
142
100
AcDbEntity
  8
0
  6
CONTINUOUS
 62
               7
100
AcDbCircle
 10
225.16530218230932
 20
45.650733944954169
 30
0.0
 40
2.1000000000000001
  0
CIRCLE
  5
143
100
AcDbEntity
  8
0
  6
CONTINUOUS
 62
               2
100
AcDbCircle
 10
231.16530218230932
 20
37.25073394495417
 30
0.0
 40
2.5
  0
CIRCLE
  5
144
100
AcDbEntity
  8
0
  6
CONTINUOUS
 62
               2
100
AcDbCircle
 10
225.16530218230932
 20
45.650733944954169
 30
0.0
 40
2.5
  0
LINE
  5
145
100
AcDbEntity
  8
0
  6
CONTINUOUS
 62
               7
100
AcDbLine
 10
236.16530218230932
 20
29.150733944954169
 30
0.0
 11
236.16530218230932
 21
62.150733944954169
 31
0.0
  0
LINE
  5
146
100
AcDbEntity
  8
0
  6
CONTINUOUS
 62
               7
100
AcDbLine
 10
220.16530218230932
 20
29.150733944954169
 30
0.0
 11
220.16530218230932
 21
62.150733944954169
 31
0.0
  0
LINE
  5
147
100
AcDbEntity
  8
0
  6
CENTER
 62
               2
100
AcDbLine
 10
227.16530218230932
 20
37.25073394495417
 30
0.0
 11
235.16530218230932
 21
37.25073394495417
 31
0.0
  0
LINE
  5
148
100
AcDbEntity
  8
0
  6
CENTER
 62
               2
100
AcDbLine
 10
221.16530218230932
 20
45.650733944954169
 30
0.0
 11
229.16530218230932
 21
45.650733944954169
 31
0.0
  0
LINE
  5
149
100
AcDbEntity
  8
0
  6
CENTER
 62
               2
100
AcDbLine
 10
225.16530218230932
 20
49.650733944954169
 30
0.0
 11
225.16530218230932
 21
41.650733944954169
 31
0.0
  0
LINE
  5
14A
100
AcDbEntity
  8
0
  6
CENTER
 62
               2
100
AcDbLine
 10
231.16530218230932
 20
41.25073394495417
 30
0.0
 11
231.16530218230932
 21
33.25073394495417
 31
0.0
  0
LINE
  5
14B
100
AcDbEntity
  8
0
  6
CONTINUOUS
 62
               7
100
AcDbLine
 10
219.46530219013403
 20
33.649760678352607
 30
0.0
 11
220.16530219013399
 21
33.649760678352607
 31
0.0
  0
LINE
  5
14C
100
AcDbEntity
  8
0
  6
CONTINUOUS
 62
               7
100
AcDbLine
 10
219.46530219013403
 20
57.649760678352578
 30
0.0
 11
220.16530219013401
 21
57.649760678352578
 31
0.0
  0
ARC
  5
14D
100
AcDbEntity
  8
0
  6
CONTINUOUS
 62
               7
100
AcDbCircle
 10
206.464214184897
 20
37.449645940670841
 30
0.0
 40
0.5989129830170392
100
AcDbArc
 50
179.89591452477254
 51
270.10408547522644
  0
LINE
  5
14E
100
AcDbEntity
  8
0
  6
CONTINUOUS
 62
               7
100
AcDbLine
 10
216.02530219013403
 20
29.820733944954263
 30
0.0
 11
216.02530219013403
 21
30.350733944954236
 31
0.0
  0
ARC
  5
14F
100
AcDbEntity
  8
0
  6
CONTINUOUS
 62
               7
100
AcDbCircle
 10
216.63707418596795
 20
29.819896662925252
 30
0.0
 40
0.6117725687931934
100
AcDbArc
 50
179.9215840265656
 51
253.6933839081498
  0
ARC
  5
150
100
AcDbEntity
  8
0
  6
CONTINUOUS
 62
               7
100
AcDbCircle
 10
217.74530219013403
 20
33.638155181688198
 30
0.0
 40
4.5876068132596712
100
AcDbArc
 50
253.7987189241569
 51
286.20128107584202
  0
LINE
  5
151
100
AcDbEntity
  8
0
  6
CONTINUOUS
 62
               7
100
AcDbLine
 10
219.46530219013403
 20
30.350733944954236
 30
0.0
 11
215.94530219013399
 21
30.350733944954236
 31
0.0
  0
LINE
  5
152
100
AcDbEntity
  8
0
  6
CONTINUOUS
 62
               7
100
AcDbLine
 10
215.94530219013399
 20
28.050733944954167
 30
0.0
 11
215.94530219013399
 21
30.350733944954236
 31
0.0
  0
ARC
  5
153
100
AcDbEntity
  8
0
  6
CONTINUOUS
 62
               7
100
AcDbCircle
 10
218.85474822202497
 20
29.81898521360727
 30
0.0
 40
0.6105564724372723
100
AcDbArc
 50
286.22092756849014
 51
0.1641044967937703
  0
LINE
  5
154
100
AcDbEntity
  8
0
  6
CONTINUOUS
 62
               7
100
AcDbLine
 10
219.46530219013403
 20
28.450733944954145
 30
0.0
 11
219.46530219013403
 21
57.750733944954156
 31
0.0
  0
LINE
  5
155
100
AcDbEntity
  8
0
  6
CONTINUOUS
 62
               7
100
AcDbLine
 10
205.46530219013403
 20
28.450733944954145
 30
0.0
 11
205.46530219013403
 21
57.750733944954156
 31
0.0
  0
LINE
  5
156
100
AcDbEntity
  8
0
  6
CONTINUOUS
 62
               7
100
AcDbLine
 10
205.46530219013403
 20
57.750733944954156
 30
0.0
 11
205.46530219013403
 21
70.950733944954152
 31
0.0
  0
LINE
  5
157
100
AcDbEntity
  8
0
  6
CONTINUOUS
 62
               7
100
AcDbLine
 10
203.865302190134
 20
64.950733944954152
 30
0.0
 11
205.46530219013403
 21
63.35073394495415
 31
0.0
  0
ARC
  5
158
100
AcDbEntity
  8
0
  6
CONTINUOUS
 62
               7
100
AcDbCircle
 10
205.86432882310737
 20
28.449760577927513
 30
0.0
 40
0.3990278201647513
100
AcDbArc
 50
179.8602356150773
 51
270.1397643849217
  0
LINE
  5
159
100
AcDbEntity
  8
0
  6
CONTINUOUS
 62
               7
100
AcDbLine
 10
205.86530219013403
 20
28.050733944954167
 30
0.0
 11
219.06530219013399
 21
28.050733944954167
 31
0.0
  0
LINE
  5
15A
100
AcDbEntity
  8
0
  6
CONTINUOUS
 62
               7
100
AcDbLine
 10
219.46530219013403
 20
33.550733944954167
 30
0.0
 11
205.46530219013403
 21
33.550733944954167
 31
0.0
  0
LINE
  5
15B
100
AcDbEntity
  8
0
  6
CONTINUOUS
 62
               7
100
AcDbLine
 10
219.46530219013403
 20
57.750733944954156
 30
0.0
 11
205.46530219013403
 21
57.750733944954156
 31
0.0
  0
ARC
  5
15C
100
AcDbEntity
  8
0
  6
CONTINUOUS
 62
               7
100
AcDbCircle
 10
219.06627555716065
 20
28.449760577927513
 30
0.0
 40
0.3990278201647513
100
AcDbArc
 50
269.8602356150771
 51
0.1397643849223044
  0
LINE
  5
15D
100
AcDbEntity
  8
0
  6
CONTINUOUS
 62
               7
100
AcDbLine
 10
219.46530219013403
 20
57.750733944954156
 30
0.0
 11
219.46530219013403
 21
70.950733944954152
 31
0.0
  0
LINE
  5
15E
100
AcDbEntity
  8
0
  6
CONTINUOUS
 62
               7
100
AcDbLine
 10
203.865302190134
 20
64.950733944954152
 30
0.0
 11
203.865302190134
 21
70.950733944954152
 31
0.0
  0
LINE
  5
15F
100
AcDbEntity
  8
0
  6
CONTINUOUS
 62
               7
100
AcDbLine
 10
206.46530219108769
 20
36.750733944954156
 30
0.0
 11
205.46530219013403
 21
36.750733944954156
 31
0.0
  0
LINE
  5
160
100
AcDbEntity
  8
0
  6
CONTINUOUS
 62
               7
100
AcDbLine
 10
206.46530219108769
 20
39.950733944954145
 30
0.0
 11
205.46530219013403
 21
39.950733944954145
 31
0.0
  0
LINE
  5
161
100
AcDbEntity
  8
0
  6
CONTINUOUS
 62
               7
100
AcDbLine
 10
206.46530219013403
 20
36.750733944954156
 30
0.0
 11
206.46530219013403
 21
39.950733944954145
 31
0.0
  0
LINE
  5
162
100
AcDbEntity
  8
0
  6
CONTINUOUS
 62
               7
100
AcDbLine
 10
205.86530120187996
 20
37.449645940670841
 30
0.0
 11
205.86530120187996
 21
39.251821951144841
 31
0.0
  0
ARC
  5
163
100
AcDbEntity
  8
0
  6
CONTINUOUS
 62
               7
100
AcDbCircle
 10
206.464214184897
 20
39.251821951144841
 30
0.0
 40
0.5989129830170392
100
AcDbArc
 50
89.895914524772735
 51
180.10408547522667
  0
LINE
  5
164
100
AcDbEntity
  8
0
  6
CENTER
 62
               2
100
AcDbLine
 10
212.46530219013403
 20
26.859777843479257
 30
0.0
 11
212.46530219013403
 21
94.133665923844433
 31
0.0
  0
LINE
  5
165
100
AcDbEntity
  8
0
  6
CONTINUOUS
 62
               4
100
AcDbLine
 10
202.46025450732748
 20
70.950733944954152
 30
0.0
 11
202.46025450732748
 21
90.450733944954052
 31
0.0
  0
LINE
  5
166
100
AcDbEntity
  8
0
  6
CONTINUOUS
 62
               4
100
AcDbLine
 10
197.46126461119411
 20
89.955784450287368
 30
0.0
 11
197.46126461119411
 21
73.601239005087251
 31
0.0
  0
LINE
  5
167
100
AcDbEntity
  8
0
  6
CONTINUOUS
 62
               4
100
AcDbLine
 10
205.4653050066608
 20
70.950733944954152
 30
0.0
 11
205.4653050066608
 21
92.850733939886425
 31
0.0
  0
LINE
  5
168
100
AcDbEntity
  8
0
  6
CONTINUOUS
 62
               4
100
AcDbLine
 10
219.4653050066608
 20
92.850733944954158
 30
0.0
 11
219.4653050066608
 21
70.950733944954152
 31
0.0
  0
LINE
  5
169
100
AcDbEntity
  8
0
  6
CONTINUOUS
 62
               4
100
AcDbLine
 10
216.76530500666081
 20
93.450733944954194
 30
0.0
 11
216.76530500666081
 21
92.850733944954229
 31
0.0
  0
LINE
  5
16A
100
AcDbEntity
  8
0
  6
CONTINUOUS
 62
               4
100
AcDbLine
 10
216.76530500666081
 20
92.850733944954229
 30
0.0
 11
219.46530500266078
 21
92.850733944954229
 31
0.0
  0
LINE
  5
16B
100
AcDbEntity
  8
0
  6
CONTINUOUS
 62
               4
100
AcDbLine
 10
205.96530501066081
 20
93.350733944954229
 30
0.0
 11
207.46530500666074
 21
93.350733944954229
 31
0.0
  0
LINE
  5
16C
100
AcDbEntity
  8
0
  6
CONTINUOUS
 62
               4
100
AcDbLine
 10
206.26530509666077
 20
93.450733944954194
 30
0.0
 11
218.66530491666083
 21
93.450733944954194
 31
0.0
  0
ARC
  5
16D
100
AcDbEntity
  8
0
  6
CONTINUOUS
 62
               4
100
AcDbCircle
 10
206.26520995001215
 20
92.850829091602847
 30
0.0
 40
0.5999048008965869
100
AcDbArc
 50
89.99091272245343
 51
123.75258212960571
  0
ARC
  5
16E
100
AcDbEntity
  8
0
  6
CONTINUOUS
 62
               4
100
AcDbCircle
 10
218.666392921789
 20
92.851821950082396
 30
0.0
 40
0.5989129231257409
100
AcDbArc
 50
359.89591452477293
 51
90.104085475226867
  0
ARC
  5
16F
100
AcDbEntity
  8
0
  6
CONTINUOUS
 62
               4
100
AcDbCircle
 10
218.96530500266078
 20
92.850733944954229
 30
0.0
 40
0.5
100
AcDbArc
 50
0.0
 51
86.080414100348804
  0
ARC
  5
170
100
AcDbEntity
  8
0
  6
CONTINUOUS
 62
               4
100
AcDbCircle
 10
205.96530501066081
 20
92.850733944954229
 30
0.0
 40
0.5
100
AcDbArc
 50
89.999999999999815
 51
179.99999999999963
  0
LINE
  5
171
100
AcDbEntity
  8
0
  6
CONTINUOUS
 62
               4
100
AcDbLine
 10
207.46530500666074
 20
93.450733944954194
 30
0.0
 11
207.46530500666074
 21
91.850733944954229
 31
0.0
  0
LINE
  5
172
100
AcDbEntity
  8
0
  6
CONTINUOUS
 62
               4
100
AcDbLine
 10
207.46530500666074
 20
91.850733944954229
 30
0.0
 11
219.46530500266078
 21
91.850733944954229
 31
0.0
  0
LINE
  5
173
100
AcDbEntity
  8
0
  6
CONTINUOUS
 62
               4
100
AcDbLine
 10
200.21176966012752
 20
109.44568343362073
 30
0.0
 11
199.71682016546083
 21
109.44568343362073
 31
0.0
  0
LINE
  5
174
100
AcDbEntity
  8
0
  6
CONTINUOUS
 62
               4
100
AcDbLine
 10
202.46025450732748
 20
98.450733944954052
 30
0.0
 11
198.3663151157275
 21
98.450733944954052
 31
0.0
  0
LINE
  5
175
100
AcDbEntity
  8
0
  6
CONTINUOUS
 62
               4
100
AcDbLine
 10
200.86227471026086
 20
98.450733944954052
 30
0.0
 11
200.86227471026086
 21
90.450733944954052
 31
0.0
  0
LINE
  5
176
100
AcDbEntity
  8
0
  6
CONTINUOUS
 62
               4
100
AcDbLine
 10
199.06631511532748
 20
98.450733944954052
 30
0.0
 11
199.06631511532748
 21
90.450733944954052
 31
0.0
  0
LINE
  5
177
100
AcDbEntity
  8
0
  6
CONTINUOUS
 62
               4
100
AcDbLine
 10
195.46732521839419
 20
98.450733944954052
 30
0.0
 11
195.46732521839419
 21
96.955784446287353
 31
0.0
  0
LINE
  5
178
100
AcDbEntity
  8
0
  6
CONTINUOUS
 62
               4
100
AcDbLine
 10
196.36530501586083
 20
91.850733944154015
 30
0.0
 11
195.46732521839419
 21
96.955784446287353
 31
0.0
  0
LINE
  5
179
100
AcDbEntity
  8
0
  6
CONTINUOUS
 62
               4
100
AcDbLine
 10
196.4642949147941
 20
98.450733944954052
 30
0.0
 11
196.4642949147941
 21
97.045197564763555
 31
0.0
  0
LINE
  5
17A
100
AcDbEntity
  8
0
  6
CONTINUOUS
 62
               4
100
AcDbLine
 10
196.4642949147941
 20
98.450733944954052
 30
0.0
 11
195.46732521839419
 21
98.450733944954052
 31
0.0
  0
LINE
  5
17B
100
AcDbEntity
  8
0
  6
CONTINUOUS
 62
               4
100
AcDbLine
 10
197.56732521719414
 20
90.783057177087372
 30
0.0
 11
196.4642949147941
 21
97.045197564763555
 31
0.0
  0
LINE
  5
17C
100
AcDbEntity
  8
0
  6
CONTINUOUS
 62
               4
100
AcDbLine
 10
197.36227471226084
 20
89.453764248554037
 30
0.0
 11
197.36227471226084
 21
83.754774352820675
 31
0.0
  0
LINE
  5
17D
100
AcDbEntity
  8
0
  6
CONTINUOUS
 62
               4
100
AcDbLine
 10
198.3663151157275
 20
98.450733944954052
 30
0.0
 11
198.3663151157275
 21
90.853764247754057
 31
0.0
  0
LINE
  5
17E
100
AcDbEntity
  8
0
  6
CONTINUOUS
 62
               4
100
AcDbLine
 10
198.06227471186082
 20
98.146693541087373
 30
0.0
 11
198.06227471186082
 21
92.25376424695402
 31
0.0
  0
LINE
  5
17F
100
AcDbEntity
  8
0
  6
CONTINUOUS
 62
               4
100
AcDbLine
 10
198.3663151157275
 20
98.450733944954052
 30
0.0
 11
198.06227471186082
 21
98.146693541087373
 31
0.0
  0
LINE
  5
180
100
AcDbEntity
  8
0
  6
CONTINUOUS
 62
               4
100
AcDbLine
 10
202.46025450732748
 20
97.450733940954038
 30
0.0
 11
201.96530501266079
 21
97.450733940954038
 31
0.0
  0
LINE
  5
181
100
AcDbEntity
  8
0
  6
CONTINUOUS
 62
               4
100
AcDbLine
 10
202.46025450732748
 20
92.451744044820671
 30
0.0
 11
201.96530501266079
 21
92.451744044820671
 31
0.0
  0
LINE
  5
182
100
AcDbEntity
  8
0
  6
CONTINUOUS
 62
               4
100
AcDbLine
 10
198.3663151157275
 20
91.949723843087398
 30
0.0
 11
198.06227471186082
 21
92.25376424695402
 31
0.0
  0
LINE
  5
183
100
AcDbEntity
  8
0
  6
CONTINUOUS
 62
               4
100
AcDbLine
 10
196.36530501586083
 20
91.850733944154015
 30
0.0
 11
196.36530501586083
 21
82.750733949354014
 31
0.0
  0
LINE
  5
184
100
AcDbEntity
  8
0
  6
CONTINUOUS
 62
               4
100
AcDbLine
 10
197.36227471226084
 20
82.453764252553981
 30
0.0
 11
196.66227471266086
 21
82.453764252553981
 31
0.0
  0
LINE
  5
185
100
AcDbEntity
  8
0
  6
CONTINUOUS
 62
               4
100
AcDbLine
 10
197.46126461119411
 20
83.754774352820675
 30
0.0
 11
197.36227471226084
 21
83.754774352820675
 31
0.0
  0
LINE
  5
186
100
AcDbEntity
  8
0
  6
CONTINUOUS
 62
               4
100
AcDbLine
 10
197.46126461119411
 20
82.552754151487306
 30
0.0
 11
197.36227471226084
 21
82.453764252553981
 31
0.0
  0
LINE
  5
187
100
AcDbEntity
  8
0
  6
CONTINUOUS
 62
               4
100
AcDbLine
 10
200.61479996292746
 20
103.01841071002072
 30
0.0
 11
200.61479996292746
 21
98.450733944954052
 31
0.0
  0
LINE
  5
188
100
AcDbEntity
  8
0
  6
CONTINUOUS
 62
               4
100
AcDbLine
 10
199.31378986266077
 20
105.94568343562071
 30
0.0
 11
199.31378986266077
 21
102.61538040722071
 31
0.0
  0
LINE
  5
189
100
AcDbEntity
  8
0
  6
CONTINUOUS
 62
               4
100
AcDbLine
 10
200.61479996292746
 20
105.94568343562071
 30
0.0
 11
200.61479996292746
 21
103.36487535628738
 31
0.0
  0
LINE
  5
18A
100
AcDbEntity
  8
0
  6
CONTINUOUS
 62
               4
100
AcDbLine
 10
200.61479996292746
 20
105.94568343562071
 30
0.0
 11
199.31378986266077
 21
105.94568343562071
 31
0.0
  0
LINE
  5
18B
100
AcDbEntity
  8
0
  6
CONTINUOUS
 62
               4
100
AcDbLine
 10
200.21176966012752
 20
109.44568343362073
 30
0.0
 11
200.21176966012752
 21
105.94568343562071
 31
0.0
  0
LINE
  5
18C
100
AcDbEntity
  8
0
  6
CONTINUOUS
 62
               4
100
AcDbLine
 10
199.71682016546083
 20
109.44568343362073
 30
0.0
 11
199.71682016546083
 21
105.94568343562071
 31
0.0
  0
LINE
  5
18D
100
AcDbEntity
  8
0
  6
CONTINUOUS
 62
             200
100
AcDbLine
 10
198.46530501466077
 20
102.12043091255408
 30
0.0
 11
201.46328481092746
 21
103.85275414388737
 31
0.0
  0
LINE
  5
18E
100
AcDbEntity
  8
0
  6
CONTINUOUS
 62
             200
100
AcDbLine
 10
198.46530501466077
 20
101.77396626628742
 30
0.0
 11
201.46328481092746
 21
103.50628949762076
 31
0.0
  0
LINE
  5
18F
100
AcDbEntity
  8
0
  6
CONTINUOUS
 62
               4
100
AcDbLine
 10
199.31378986266077
 20
102.26891576095404
 30
0.0
 11
199.31378986266077
 21
98.450733944954052
 31
0.0
  0
LINE
  5
190
100
AcDbEntity
  8
0
  6
CONTINUOUS
 62
               4
100
AcDbLine
 10
202.46025450732748
 20
98.450733944954052
 30
0.0
 11
202.46025450732748
 21
97.450733940954038
 31
0.0
  0
LINE
  5
191
100
AcDbEntity
  8
0
  6
CONTINUOUS
 62
               4
100
AcDbLine
 10
202.46025450732748
 20
92.451744044820671
 30
0.0
 11
202.46025450732748
 21
90.450733944954052
 31
0.0
  0
LINE
  5
192
100
AcDbEntity
  8
0
  6
CONTINUOUS
 62
               4
100
AcDbLine
 10
201.96530501266079
 20
97.450733940954038
 30
0.0
 11
201.96530501266079
 21
92.451744044820671
 31
0.0
  0
ARC
  5
193
100
AcDbEntity
  8
0
  6
CONTINUOUS
 62
               4
100
AcDbCircle
 10
197.96147088738212
 20
89.950503076937665
 30
0.0
 40
0.5002341568128574
100
AcDbArc
 50
89.792236286845736
 51
179.39507124653611
  0
ARC
  5
194
100
AcDbEntity
  8
0
  6
CONTINUOUS
 62
               4
100
AcDbCircle
 10
196.66740888856896
 20
82.755868125262225
 30
0.0
 40
0.3021474965435785
100
AcDbArc
 50
180.97363298451145
 51
269.02636701548755
  0
ARC
  5
195
100
AcDbEntity
  8
0
  6
CONTINUOUS
 62
               4
100
AcDbCircle
 10
197.86531806579399
 20
89.451066295598551
 30
0.0
 40
0.5030505883944908
100
AcDbArc
 50
143.43739164534688
 51
179.69271070880976
  0
ARC
  5
196
100
AcDbEntity
  8
0
  6
CONTINUOUS
 62
               4
100
AcDbCircle
 10
197.96338388396282
 20
90.857240704647737
 30
0.0
 40
0.4029462287748787
100
AcDbArc
 50
190.60882798227402
 51
359.50566908284389
  0
LINE
  5
197
100
AcDbEntity
  8
0
  6
CONTINUOUS
 62
               4
100
AcDbLine
 10
205.46530501066081
 20
90.450733944954052
 30
0.0
 11
197.96328481292744
 21
90.450733944954052
 31
0.0
  0
LINE
  5
198
100
AcDbEntity
  8
0
  6
CONTINUOUS
 62
               4
100
AcDbLine
 10
202.46025450732748
 20
70.950733944954067
 30
0.0
 11
197.7511636009275
 21
73.142653135620776
 31
0.0
  0
ARC
  5
199
100
AcDbEntity
  8
0
  6
CONTINUOUS
 62
               4
100
AcDbCircle
 10
197.9672719490917
 20
73.600218442445794
 30
0.0
 40
0.5060324378497572
100
AcDbArc
 50
180.57067216988474
 51
244.71860809994666
  0
LINE
  5
19A
100
AcDbEntity
  8
0
  6
CENTER
 62
               2
100
AcDbLine
 10
223.42085922285679
 20
38.350733944954172
 30
0.0
 11
216.1258146251912
 21
38.350733944954172
 31
0.0
  0
LINE
  5
19B
100
AcDbEntity
  8
0
  6
CENTER
 62
               2
100
AcDbLine
 10
223.42085922285679
 20
52.950733944954166
 30
0.0
 11
216.1258146251912
 21
52.950733944954166
 31
0.0
  0
LINE
  5
19C
100
AcDbEntity
  8
0
  6
CENTER
 62
               2
100
AcDbLine
 10
39.478942956626639
 20
32.150733944954169
 30
0.0
 11
44.478942978919349
 21
32.150733944954169
 31
0.0
  0
LINE
  5
19D
100
AcDbEntity
  8
0
  6
CENTER
 62
               2
100
AcDbLine
 10
39.478942956626639
 20
59.150733944954169
 30
0.0
 11
44.478942978919349
 21
59.150733944954169
 31
0.0
  0
ARC
  5
19E
100
AcDbEntity
  8
0
  6
CONTINUOUS
 62
               7
100
AcDbCircle
 10
71.878942978919326
 20
51.850733944000467
 30
0.0
 40
0.4
100
AcDbArc
 50
270.00000000000023
 51
0.0
  0
ARC
  5
19F
100
AcDbEntity
  8
0
  6
CONTINUOUS
 62
               7
100
AcDbCircle
 10
71.878942978919326
 20
54.050733944000456
 30
0.0
 40
0.4
100
AcDbArc
 50
0.0
 51
89.999999999999815
  0
LINE
  5
1A0
100
AcDbEntity
  8
0
  6
CONTINUOUS
 62
               7
100
AcDbLine
 10
71.678942978919338
 20
51.450733944000461
 30
0.0
 11
71.878942978919326
 21
51.450733944000461
 31
0.0
  0
LINE
  5
1A1
100
AcDbEntity
  8
0
  6
CONTINUOUS
 62
               7
100
AcDbLine
 10
71.678942978919338
 20
54.450733944000461
 30
0.0
 11
71.878942978919326
 21
54.450733944000461
 31
0.0
  0
LINE
  5
1A2
100
AcDbEntity
  8
0
  6
CONTINUOUS
 62
               7
100
AcDbLine
 10
72.278942978919332
 20
54.050733944000456
 30
0.0
 11
72.278942978919332
 21
51.850733944000467
 31
0.0
  0
LINE
  5
1A3
100
AcDbEntity
  8
0
  6
CONTINUOUS
 62
               7
100
AcDbLine
 10
41.978942965109923
 20
29.150733944954169
 30
0.0
 11
57.978942978919349
 21
29.150733944954169
 31
0.0
  0
LINE
  5
1A4
100
AcDbEntity
  8
0
  6
CONTINUOUS
 62
               7
100
AcDbLine
 10
41.978942965109923
 20
62.150733944954169
 30
0.0
 11
57.978942965109923
 21
62.150733944954169
 31
0.0
  0
LINE
  5
1A5
100
AcDbEntity
  8
0
  6
CENTER
 62
               2
100
AcDbLine
 10
52.978942978919349
 20
37.45073394495418
 30
0.0
 11
52.978942978919349
 21
45.45073394495418
 31
0.0
  0
CIRCLE
  5
1A6
100
AcDbEntity
  8
0
  6
CONTINUOUS
 62
               7
100
AcDbCircle
 10
52.978942978919349
 20
41.45073394495418
 30
0.0
 40
2.1000000000000001
  0
CIRCLE
  5
1A7
100
AcDbEntity
  8
0
  6
CONTINUOUS
 62
               7
100
AcDbCircle
 10
46.978942978919349
 20
49.850733944954158
 30
0.0
 40
2.1000000000000001
  0
CIRCLE
  5
1A8
100
AcDbEntity
  8
0
  6
CONTINUOUS
 62
               2
100
AcDbCircle
 10
46.978942978919349
 20
49.850733944954158
 30
0.0
 40
2.5
  0
CIRCLE
  5
1A9
100
AcDbEntity
  8
0
  6
CONTINUOUS
 62
               2
100
AcDbCircle
 10
52.978942978919349
 20
41.45073394495418
 30
0.0
 40
2.5
  0
LINE
  5
1AA
100
AcDbEntity
  8
0
  6
CENTER
 62
               2
100
AcDbLine
 10
48.978942978919349
 20
41.45073394495418
 30
0.0
 11
56.978942978919349
 21
41.45073394495418
 31
0.0
  0
LINE
  5
1AB
100
AcDbEntity
  8
0
  6
CENTER
 62
               2
100
AcDbLine
 10
42.978942978919349
 20
49.850733944954158
 30
0.0
 11
50.978942978919349
 21
49.850733944954158
 31
0.0
  0
LINE
  5
1AC
100
AcDbEntity
  8
0
  6
CONTINUOUS
 62
               7
100
AcDbLine
 10
41.978942978919349
 20
29.150733944954169
 30
0.0
 11
41.978942978919349
 21
62.150733944954169
 31
0.0
  0
LINE
  5
1AD
100
AcDbEntity
  8
0
  6
CONTINUOUS
 62
               7
100
AcDbLine
 10
57.978942978919349
 20
29.150733944954169
 30
0.0
 11
57.978942978919349
 21
62.150733944954169
 31
0.0
  0
LINE
  5
1AE
100
AcDbEntity
  8
0
  6
CENTER
 62
               2
100
AcDbLine
 10
46.978942978919349
 20
45.850733944954158
 30
0.0
 11
46.978942978919349
 21
53.850733944954158
 31
0.0
  0
LINE
  5
1AF
100
AcDbEntity
  8
0
  6
CONTINUOUS
 62
               7
100
AcDbLine
 10
58.678942978919338
 20
57.649760678352578
 30
0.0
 11
57.978942978919349
 21
57.649760678352578
 31
0.0
  0
LINE
  5
1B0
100
AcDbEntity
  8
0
  6
CONTINUOUS
 62
               7
100
AcDbLine
 10
58.678942978919338
 20
33.649760678352607
 30
0.0
 11
57.978942978919349
 21
33.649760678352607
 31
0.0
  0
LINE
  5
1B1
100
AcDbEntity
  8
0
  6
CONTINUOUS
 62
               7
100
AcDbLine
 10
71.678942978919338
 20
54.550733944954146
 30
0.0
 11
71.678942978919338
 21
51.350733944954158
 31
0.0
  0
LINE
  5
1B2
100
AcDbEntity
  8
0
  6
CONTINUOUS
 62
               7
100
AcDbLine
 10
71.678942977965676
 20
51.350733944954158
 30
0.0
 11
72.678942978919338
 21
51.350733944954158
 31
0.0
  0
LINE
  5
1B3
100
AcDbEntity
  8
0
  6
CONTINUOUS
 62
               7
100
AcDbLine
 10
71.678942977965676
 20
54.550733944954146
 30
0.0
 11
72.678942978919338
 21
54.550733944954146
 31
0.0
  0
LINE
  5
1B4
100
AcDbEntity
  8
0
  6
CONTINUOUS
 62
               7
100
AcDbLine
 10
74.27894297891936
 20
64.950733944954123
 30
0.0
 11
74.27894297891936
 21
70.950733944954123
 31
0.0
  0
LINE
  5
1B5
100
AcDbEntity
  8
0
  6
CONTINUOUS
 62
               7
100
AcDbLine
 10
58.678942978919338
 20
57.750733944954135
 30
0.0
 11
58.678942978919338
 21
70.950733944954123
 31
0.0
  0
LINE
  5
1B6
100
AcDbEntity
  8
0
  6
CONTINUOUS
 62
               4
100
AcDbLine
 10
58.678940162392564
 20
70.950733944954123
 30
0.0
 11
75.68399347825266
 21
70.950733944954123
 31
0.0
  0
ARC
  5
1B7
100
AcDbEntity
  8
0
  6
CONTINUOUS
 62
               7
100
AcDbCircle
 10
72.279916345945963
 20
28.449760577927492
 30
0.0
 40
0.3990278201647513
100
AcDbArc
 50
269.8602356150771
 51
0.1397643849223044
  0
LINE
  5
1B8
100
AcDbEntity
  8
0
  6
CONTINUOUS
 62
               7
100
AcDbLine
 10
58.678942978919338
 20
57.750733944954135
 30
0.0
 11
72.678942978919338
 21
57.750733944954135
 31
0.0
  0
LINE
  5
1B9
100
AcDbEntity
  8
0
  6
CONTINUOUS
 62
               7
100
AcDbLine
 10
58.678942978919338
 20
33.550733944954146
 30
0.0
 11
72.678942978919338
 21
33.550733944954146
 31
0.0
  0
LINE
  5
1BA
100
AcDbEntity
  8
0
  6
CONTINUOUS
 62
               7
100
AcDbLine
 10
59.078942978919343
 20
28.050733944954146
 30
0.0
 11
72.278942978919304
 21
28.050733944954146
 31
0.0
  0
ARC
  5
1BB
100
AcDbEntity
  8
0
  6
CONTINUOUS
 62
               7
100
AcDbCircle
 10
59.077969611892684
 20
28.449760577927492
 30
0.0
 40
0.3990278201647513
100
AcDbArc
 50
179.8602356150773
 51
270.1397643849217
  0
LINE
  5
1BC
100
AcDbEntity
  8
0
  6
CONTINUOUS
 62
               7
100
AcDbLine
 10
74.27894297891936
 20
64.950733944954123
 30
0.0
 11
72.678942978919338
 21
63.350733944954129
 31
0.0
  0
LINE
  5
1BD
100
AcDbEntity
  8
0
  6
CONTINUOUS
 62
               7
100
AcDbLine
 10
72.678942978919338
 20
57.750733944954135
 30
0.0
 11
72.678942978919338
 21
70.950733944954123
 31
0.0
  0
LINE
  5
1BE
100
AcDbEntity
  8
0
  6
CONTINUOUS
 62
               7
100
AcDbLine
 10
72.678942978919338
 20
28.450733944954123
 30
0.0
 11
72.678942978919338
 21
57.750733944954135
 31
0.0
  0
LINE
  5
1BF
100
AcDbEntity
  8
0
  6
CONTINUOUS
 62
               7
100
AcDbLine
 10
58.678942978919338
 20
28.450733944954123
 30
0.0
 11
58.678942978919338
 21
57.750733944954135
 31
0.0
  0
ARC
  5
1C0
100
AcDbEntity
  8
0
  6
CONTINUOUS
 62
               7
100
AcDbCircle
 10
72.068389010810279
 20
29.818985213607249
 30
0.0
 40
0.6105564724372723
100
AcDbArc
 50
286.22092756849014
 51
0.1641044967937703
  0
LINE
  5
1C1
100
AcDbEntity
  8
0
  6
CONTINUOUS
 62
               7
100
AcDbLine
 10
69.158942978919299
 20
28.050733944954146
 30
0.0
 11
69.158942978919299
 21
30.350733944954214
 31
0.0
  0
LINE
  5
1C2
100
AcDbEntity
  8
0
  6
CONTINUOUS
 62
               7
100
AcDbLine
 10
72.678942978919338
 20
30.350733944954214
 30
0.0
 11
69.158942978919299
 21
30.350733944954214
 31
0.0
  0
ARC
  5
1C3
100
AcDbEntity
  8
0
  6
CONTINUOUS
 62
               7
100
AcDbCircle
 10
70.958942978919339
 20
33.638155181688177
 30
0.0
 40
4.5876068132596712
100
AcDbArc
 50
253.7987189241569
 51
286.20128107584202
  0
ARC
  5
1C4
100
AcDbEntity
  8
0
  6
CONTINUOUS
 62
               7
100
AcDbCircle
 10
69.850714974753259
 20
29.819896662925231
 30
0.0
 40
0.6117725687931934
100
AcDbArc
 50
179.9215840265656
 51
253.6933839081498
  0
LINE
  5
1C5
100
AcDbEntity
  8
0
  6
CONTINUOUS
 62
               7
100
AcDbLine
 10
69.23894297891934
 20
29.820733944954242
 30
0.0
 11
69.23894297891934
 21
30.350733944954214
 31
0.0
  0
LINE
  5
1C6
100
AcDbEntity
  8
0
  6
CONTINUOUS
 62
               4
100
AcDbLine
 10
72.678942974919323
 20
90.450733944954024
 30
0.0
 11
80.180963172652696
 21
90.450733944954024
 31
0.0
  0
ARC
  5
1C7
100
AcDbEntity
  8
0
  6
CONTINUOUS
 62
               4
100
AcDbCircle
 10
80.180864101617317
 20
90.857240704647708
 30
0.0
 40
0.4029462287748787
100
AcDbArc
 50
180.49433091715488
 51
349.39117201772478
  0
ARC
  5
1C8
100
AcDbEntity
  8
0
  6
CONTINUOUS
 62
               4
100
AcDbCircle
 10
80.278929919786151
 20
89.451066295598523
 30
0.0
 40
0.5030505883944908
100
AcDbArc
 50
0.3072892911898554
 51
36.562608354652731
  0
ARC
  5
1C9
100
AcDbEntity
  8
0
  6
CONTINUOUS
 62
               4
100
AcDbCircle
 10
81.47683909701118
 20
82.755868125262197
 30
0.0
 40
0.3021474965435785
100
AcDbArc
 50
270.97363298451126
 51
359.02636701548732
  0
ARC
  5
1CA
100
AcDbEntity
  8
0
  6
CONTINUOUS
 62
               4
100
AcDbCircle
 10
80.182777098198017
 20
89.950503076937636
 30
0.0
 40
0.5002341568128574
100
AcDbArc
 50
0.6049287534634878
 51
90.207763713153867
  0
ARC
  5
1CB
100
AcDbEntity
  8
0
  6
CONTINUOUS
 62
               4
100
AcDbCircle
 10
80.176976036488441
 20
73.600218442445765
 30
0.0
 40
0.5060324378497572
100
AcDbArc
 50
295.28139190005214
 51
359.42932783011406
  0
LINE
  5
1CC
100
AcDbEntity
  8
0
  6
CONTINUOUS
 62
               4
100
AcDbLine
 10
75.68399347825266
 20
70.950733944954123
 30
0.0
 11
75.68399347825266
 21
90.450733944954024
 31
0.0
  0
LINE
  5
1CD
100
AcDbEntity
  8
0
  6
CONTINUOUS
 62
               4
100
AcDbLine
 10
76.178942972919344
 20
97.450733940954009
 30
0.0
 11
76.178942972919344
 21
92.451744044820643
 31
0.0
  0
LINE
  5
1CE
100
AcDbEntity
  8
0
  6
CONTINUOUS
 62
               4
100
AcDbLine
 10
75.68399347825266
 20
92.451744044820643
 30
0.0
 11
75.68399347825266
 21
90.450733944954024
 31
0.0
  0
LINE
  5
1CF
100
AcDbEntity
  8
0
  6
CONTINUOUS
 62
               4
100
AcDbLine
 10
75.68399347825266
 20
98.450733944954024
 30
0.0
 11
75.68399347825266
 21
97.450733940954009
 31
0.0
  0
LINE
  5
1D0
100
AcDbEntity
  8
0
  6
CONTINUOUS
 62
               4
100
AcDbLine
 10
78.830458122919367
 20
102.26891576095402
 30
0.0
 11
78.830458122919367
 21
98.450733944954024
 31
0.0
  0
LINE
  5
1D1
100
AcDbEntity
  8
0
  6
CONTINUOUS
 62
             200
100
AcDbLine
 10
79.678942970919366
 20
101.77396626628739
 30
0.0
 11
76.680963174652675
 21
103.50628949762073
 31
0.0
  0
LINE
  5
1D2
100
AcDbEntity
  8
0
  6
CONTINUOUS
 62
             200
100
AcDbLine
 10
79.678942970919366
 20
102.12043091255406
 30
0.0
 11
76.680963174652675
 21
103.85275414388734
 31
0.0
  0
LINE
  5
1D3
100
AcDbEntity
  8
0
  6
CONTINUOUS
 62
               4
100
AcDbLine
 10
78.427427820119306
 20
109.4456834336207
 30
0.0
 11
78.427427820119306
 21
105.94568343562068
 31
0.0
  0
LINE
  5
1D4
100
AcDbEntity
  8
0
  6
CONTINUOUS
 62
               4
100
AcDbLine
 10
77.932478325452621
 20
109.4456834336207
 30
0.0
 11
77.932478325452621
 21
105.94568343562068
 31
0.0
  0
LINE
  5
1D5
100
AcDbEntity
  8
0
  6
CONTINUOUS
 62
               4
100
AcDbLine
 10
77.529448022652673
 20
105.94568343562068
 30
0.0
 11
78.830458122919367
 21
105.94568343562068
 31
0.0
  0
LINE
  5
1D6
100
AcDbEntity
  8
0
  6
CONTINUOUS
 62
               4
100
AcDbLine
 10
77.529448022652673
 20
105.94568343562068
 30
0.0
 11
77.529448022652673
 21
103.36487535628736
 31
0.0
  0
LINE
  5
1D7
100
AcDbEntity
  8
0
  6
CONTINUOUS
 62
               4
100
AcDbLine
 10
78.830458122919367
 20
105.94568343562068
 30
0.0
 11
78.830458122919367
 21
102.61538040722068
 31
0.0
  0
LINE
  5
1D8
100
AcDbEntity
  8
0
  6
CONTINUOUS
 62
               4
100
AcDbLine
 10
77.529448022652673
 20
103.01841071002069
 30
0.0
 11
77.529448022652673
 21
98.450733944954024
 31
0.0
  0
LINE
  5
1D9
100
AcDbEntity
  8
0
  6
CONTINUOUS
 62
               4
100
AcDbLine
 10
80.682983374386026
 20
82.552754151487278
 30
0.0
 11
80.781973273319295
 21
82.453764252553952
 31
0.0
  0
LINE
  5
1DA
100
AcDbEntity
  8
0
  6
CONTINUOUS
 62
               4
100
AcDbLine
 10
80.682983374386026
 20
83.754774352820647
 30
0.0
 11
80.781973273319295
 21
83.754774352820647
 31
0.0
  0
LINE
  5
1DB
100
AcDbEntity
  8
0
  6
CONTINUOUS
 62
               4
100
AcDbLine
 10
80.781973273319295
 20
82.453764252553952
 30
0.0
 11
81.481973272919276
 21
82.453764252553952
 31
0.0
  0
LINE
  5
1DC
100
AcDbEntity
  8
0
  6
CONTINUOUS
 62
               4
100
AcDbLine
 10
81.77894296971931
 20
91.850733944153987
 30
0.0
 11
81.77894296971931
 21
82.750733949353986
 31
0.0
  0
LINE
  5
1DD
100
AcDbEntity
  8
0
  6
CONTINUOUS
 62
               4
100
AcDbLine
 10
79.777932869852634
 20
91.949723843087369
 30
0.0
 11
80.081973273719314
 21
92.253764246953992
 31
0.0
  0
LINE
  5
1DE
100
AcDbEntity
  8
0
  6
CONTINUOUS
 62
               4
100
AcDbLine
 10
75.68399347825266
 20
92.451744044820643
 30
0.0
 11
76.178942972919344
 21
92.451744044820643
 31
0.0
  0
LINE
  5
1DF
100
AcDbEntity
  8
0
  6
CONTINUOUS
 62
               4
100
AcDbLine
 10
75.68399347825266
 20
97.450733940954009
 30
0.0
 11
76.178942972919344
 21
97.450733940954009
 31
0.0
  0
LINE
  5
1E0
100
AcDbEntity
  8
0
  6
CONTINUOUS
 62
               4
100
AcDbLine
 10
79.777932869852634
 20
98.450733944954024
 30
0.0
 11
80.081973273719314
 21
98.146693541087345
 31
0.0
  0
LINE
  5
1E1
100
AcDbEntity
  8
0
  6
CONTINUOUS
 62
               4
100
AcDbLine
 10
80.081973273719314
 20
98.146693541087345
 30
0.0
 11
80.081973273719314
 21
92.253764246953992
 31
0.0
  0
LINE
  5
1E2
100
AcDbEntity
  8
0
  6
CONTINUOUS
 62
               4
100
AcDbLine
 10
79.777932869852634
 20
98.450733944954024
 30
0.0
 11
79.777932869852634
 21
90.853764247754029
 31
0.0
  0
LINE
  5
1E3
100
AcDbEntity
  8
0
  6
CONTINUOUS
 62
               4
100
AcDbLine
 10
80.781973273319295
 20
89.453764248554009
 30
0.0
 11
80.781973273319295
 21
83.754774352820647
 31
0.0
  0
LINE
  5
1E4
100
AcDbEntity
  8
0
  6
CONTINUOUS
 62
               4
100
AcDbLine
 10
80.576922768385998
 20
90.783057177087343
 30
0.0
 11
81.679953070786041
 21
97.045197564763527
 31
0.0
  0
LINE
  5
1E5
100
AcDbEntity
  8
0
  6
CONTINUOUS
 62
               4
100
AcDbLine
 10
81.679953070786041
 20
98.450733944954024
 30
0.0
 11
82.676922767185943
 21
98.450733944954024
 31
0.0
  0
LINE
  5
1E6
100
AcDbEntity
  8
0
  6
CONTINUOUS
 62
               4
100
AcDbLine
 10
81.679953070786041
 20
98.450733944954024
 30
0.0
 11
81.679953070786041
 21
97.045197564763527
 31
0.0
  0
LINE
  5
1E7
100
AcDbEntity
  8
0
  6
CONTINUOUS
 62
               4
100
AcDbLine
 10
81.77894296971931
 20
91.850733944153987
 30
0.0
 11
82.676922767185943
 21
96.955784446287325
 31
0.0
  0
LINE
  5
1E8
100
AcDbEntity
  8
0
  6
CONTINUOUS
 62
               4
100
AcDbLine
 10
82.676922767185943
 20
98.450733944954024
 30
0.0
 11
82.676922767185943
 21
96.955784446287325
 31
0.0
  0
LINE
  5
1E9
100
AcDbEntity
  8
0
  6
CONTINUOUS
 62
               4
100
AcDbLine
 10
79.077932870252653
 20
98.450733944954024
 30
0.0
 11
79.077932870252653
 21
90.450733944954024
 31
0.0
  0
LINE
  5
1EA
100
AcDbEntity
  8
0
  6
CONTINUOUS
 62
               4
100
AcDbLine
 10
77.281973275319274
 20
98.450733944954024
 30
0.0
 11
77.281973275319274
 21
90.450733944954024
 31
0.0
  0
LINE
  5
1EB
100
AcDbEntity
  8
0
  6
CONTINUOUS
 62
               4
100
AcDbLine
 10
75.68399347825266
 20
98.450733944954024
 30
0.0
 11
79.777932869852634
 21
98.450733944954024
 31
0.0
  0
LINE
  5
1EC
100
AcDbEntity
  8
0
  6
CONTINUOUS
 62
               4
100
AcDbLine
 10
75.68399347825266
 20
70.950733944954038
 30
0.0
 11
80.393084384652639
 21
73.142653135620748
 31
0.0
  0
LINE
  5
1ED
100
AcDbEntity
  8
0
  6
CONTINUOUS
 62
               4
100
AcDbLine
 10
80.682983374386026
 20
89.955784450287339
 30
0.0
 11
80.682983374386026
 21
73.601239005087223
 31
0.0
  0
LINE
  5
1EE
100
AcDbEntity
  8
0
  6
CONTINUOUS
 62
               4
100
AcDbLine
 10
77.932478325452621
 20
109.4456834336207
 30
0.0
 11
78.427427820119306
 21
109.4456834336207
 31
0.0
  0
LINE
  5
1EF
100
AcDbEntity
  8
0
  6
CONTINUOUS
 62
               4
100
AcDbLine
 10
72.678942978919338
 20
70.950733944954123
 30
0.0
 11
72.678942978919338
 21
92.850733939886396
 31
0.0
  0
LINE
  5
1F0
100
AcDbEntity
  8
0
  6
CONTINUOUS
 62
               4
100
AcDbLine
 10
58.678942978919338
 20
92.850733944954129
 30
0.0
 11
58.678942978919338
 21
70.950733944954123
 31
0.0
  0
LINE
  5
1F1
100
AcDbEntity
  8
0
  6
CENTER
 62
               2
100
AcDbLine
 10
65.678942978919338
 20
94.699316691790543
 30
0.0
 11
65.678942978919338
 21
26.859777843479236
 31
0.0
  0
LINE
  5
1F2
100
AcDbEntity
  8
0
  6
CONTINUOUS
 62
               4
100
AcDbLine
 10
70.678942978919395
 20
91.8507339449542
 30
0.0
 11
58.678942982919352
 21
91.8507339449542
 31
0.0
  0
LINE
  5
1F3
100
AcDbEntity
  8
0
  6
CONTINUOUS
 62
               4
100
AcDbLine
 10
70.678942978919395
 20
93.450733944954166
 30
0.0
 11
70.678942978919395
 21
91.8507339449542
 31
0.0
  0
ARC
  5
1F4
100
AcDbEntity
  8
0
  6
CONTINUOUS
 62
               4
100
AcDbCircle
 10
72.178942974919323
 20
92.8507339449542
 30
0.0
 40
0.5
100
AcDbArc
 50
0.0
 51
89.999999999999815
  0
ARC
  5
1F5
100
AcDbEntity
  8
0
  6
CONTINUOUS
 62
               4
100
AcDbCircle
 10
59.178942982919352
 20
92.8507339449542
 30
0.0
 40
0.5
100
AcDbArc
 50
93.919585899650798
 51
179.99999999999963
  0
ARC
  5
1F6
100
AcDbEntity
  8
0
  6
CONTINUOUS
 62
               4
100
AcDbCircle
 10
59.477855063791139
 20
92.851821950082368
 30
0.0
 40
0.5989129231257409
100
AcDbArc
 50
89.895914524772735
 51
180.10408547522667
  0
ARC
  5
1F7
100
AcDbEntity
  8
0
  6
CONTINUOUS
 62
               4
100
AcDbCircle
 10
71.879038035567987
 20
92.850829091602819
 30
0.0
 40
0.5999048008965869
100
AcDbArc
 50
56.247417870393882
 51
90.009087277546172
  0
LINE
  5
1F8
100
AcDbEntity
  8
0
  6
CONTINUOUS
 62
               4
100
AcDbLine
 10
71.878942888919369
 20
93.450733944954166
 30
0.0
 11
59.478943068919307
 21
93.450733944954166
 31
0.0
  0
LINE
  5
1F9
100
AcDbEntity
  8
0
  6
CONTINUOUS
 62
               4
100
AcDbLine
 10
72.178942974919323
 20
93.3507339449542
 30
0.0
 11
70.678942978919395
 21
93.3507339449542
 31
0.0
  0
LINE
  5
1FA
100
AcDbEntity
  8
0
  6
CONTINUOUS
 62
               4
100
AcDbLine
 10
61.378942978919326
 20
92.8507339449542
 30
0.0
 11
58.678942982919352
 21
92.8507339449542
 31
0.0
  0
LINE
  5
1FB
100
AcDbEntity
  8
0
  6
CONTINUOUS
 62
               4
100
AcDbLine
 10
61.378942978919326
 20
93.450733944954166
 30
0.0
 11
61.378942978919326
 21
92.8507339449542
 31
0.0
  0
LINE
  5
1FC
100
AcDbEntity
  8
0
  6
CENTER
 62
               2
100
AcDbLine
 10
60.893416574899049
 20
52.950733944954166
 30
0.0
 11
55.514357846108823
 21
52.950733944954166
 31
0.0
  0
LINE
  5
1FD
100
AcDbEntity
  8
0
  6
CENTER
 62
               2
100
AcDbLine
 10
60.893416574899049
 20
38.350733944954172
 30
0.0
 11
55.514357846108823
 21
38.350733944954172
 31
0.0
  0
LINE
  5
1FE
100
AcDbEntity
  8
0
  6
CENTER
 62
               2
100
AcDbLine
 10
145.5721225845266
 20
56.650733944954169
 30
0.0
 11
145.5721225845266
 21
61.650733944954169
 31
0.0
  0
LINE
  5
1FF
100
AcDbEntity
  8
0
  6
CENTER
 62
               2
100
AcDbLine
 10
145.5721225845266
 20
29.650733948653425
 30
0.0
 11
145.5721225845266
 21
34.650733948653425
 31
0.0
  0
LINE
  5
200
100
AcDbEntity
  8
0
  6
CONTINUOUS
 62
               7
100
AcDbLine
 10
140.57212258452668
 20
39.251398116798697
 30
0.0
 11
140.57212258452668
 21
70.95073394495418
 31
0.0
  0
LINE
  5
201
100
AcDbEntity
  8
0
  6
CONTINUOUS
 62
               7
100
AcDbLine
 10
130.57212258452668
 20
53.854060973044398
 30
0.0
 11
130.57212258452668
 21
70.95073394495418
 31
0.0
  0
LINE
  5
202
100
AcDbEntity
  8
0
  6
CONTINUOUS
 62
               7
100
AcDbLine
 10
128.5721225845266
 20
29.150733944954169
 30
0.0
 11
128.5721225845266
 21
62.150733944954169
 31
0.0
  0
LINE
  5
203
100
AcDbEntity
  8
0
  6
CONTINUOUS
 62
               7
100
AcDbLine
 10
128.5721225845266
 20
29.150733944954169
 30
0.0
 11
130.57212258452668
 21
29.150733944954169
 31
0.0
  0
LINE
  5
204
100
AcDbEntity
  8
0
  6
CONTINUOUS
 62
               7
100
AcDbLine
 10
128.5721225845266
 20
62.150733944954169
 30
0.0
 11
130.57212258452668
 21
62.150733944954169
 31
0.0
  0
LINE
  5
205
100
AcDbEntity
  8
0
  6
CENTER
 62
               2
100
AcDbLine
 10
146.08832879016455
 20
37.25073394495417
 30
0.0
 11
163.70212258452659
 21
37.25073394495417
 31
0.0
  0
LINE
  5
206
100
AcDbEntity
  8
0
  6
PHANTOM
 62
             200
100
AcDbLine
 10
148.5721225845266
 20
41.25073394495417
 30
0.0
 11
162.0721225845266
 21
41.25073394495417
 31
0.0
  0
LINE
  5
207
100
AcDbEntity
  8
0
  6
PHANTOM
 62
             200
100
AcDbLine
 10
148.5721225845266
 20
33.25073394495417
 30
0.0
 11
162.0721225845266
 21
33.25073394495417
 31
0.0
  0
ARC
  5
208
100
AcDbEntity
  8
0
  6
PHANTOM
 62
             200
100
AcDbCircle
 10
162.0721225845266
 20
40.75073394495417
 30
0.0
 40
0.5
100
AcDbArc
 50
0.0
 51
89.999999999999815
  0
ARC
  5
209
100
AcDbEntity
  8
0
  6
PHANTOM
 62
             200
100
AcDbCircle
 10
162.0721225845266
 20
33.75073394495417
 30
0.0
 40
0.5
100
AcDbArc
 50
269.99999999999937
 51
0.0
  0
LINE
  5
20A
100
AcDbEntity
  8
0
  6
PHANTOM
 62
             200
100
AcDbLine
 10
162.5721225845266
 20
40.75073394495417
 30
0.0
 11
162.5721225845266
 21
33.75073394495417
 31
0.0
  0
LINE
  5
20B
100
AcDbEntity
  8
0
  6
PHANTOM
 62
             200
100
AcDbLine
 10
160.0721225845266
 20
41.25073394495417
 30
0.0
 11
160.0721225845266
 21
33.25073394495417
 31
0.0
  0
LINE
  5
20C
100
AcDbEntity
  8
0
  6
PHANTOM
 62
             200
100
AcDbLine
 10
162.0721225845266
 20
41.25073394495417
 30
0.0
 11
162.0721225845266
 21
33.25073394495417
 31
0.0
  0
CIRCLE
  5
20D
100
AcDbEntity
  8
0
  6
CONTINUOUS
 62
               7
100
AcDbCircle
 10
145.5721225845266
 20
59.150733944954169
 30
0.0
 40
1.6000000000000001
  0
CIRCLE
  5
20E
100
AcDbEntity
  8
0
  6
CONTINUOUS
 62
               7
100
AcDbCircle
 10
145.5721225845266
 20
32.150733944954169
 30
0.0
 40
1.6000000000000001
  0
LINE
  5
20F
100
AcDbEntity
  8
0
  6
CENTER
 62
               2
100
AcDbLine
 10
143.0721225845266
 20
32.150733944954169
 30
0.0
 11
148.0721225845266
 21
32.150733944954169
 31
0.0
  0
LINE
  5
210
100
AcDbEntity
  8
0
  6
CENTER
 62
               2
100
AcDbLine
 10
143.0721225845266
 20
59.150733944954169
 30
0.0
 11
148.0721225845266
 21
59.150733944954169
 31
0.0
  0
LINE
  5
211
100
AcDbEntity
  8
0
  6
CONTINUOUS
 62
               7
100
AcDbLine
 10
148.5721225845266
 20
29.150733944954169
 30
0.0
 11
148.5721225845266
 21
62.150733944954169
 31
0.0
  0
LINE
  5
212
100
AcDbEntity
  8
0
  6
CONTINUOUS
 62
               7
100
AcDbLine
 10
140.57212258452668
 20
62.150733944954169
 30
0.0
 11
148.5721225845266
 21
62.150733944954169
 31
0.0
  0
LINE
  5
213
100
AcDbEntity
  8
0
  6
CONTINUOUS
 62
               7
100
AcDbLine
 10
140.57212258452668
 20
29.150733944954169
 30
0.0
 11
148.5721225845266
 21
29.150733944954169
 31
0.0
  0
LINE
  5
214
100
AcDbEntity
  8
0
  6
CONTINUOUS
 62
               7
100
AcDbLine
 10
130.55212258452667
 20
29.820733944954156
 30
0.0
 11
130.55212258452667
 21
30.350733944954158
 31
0.0
  0
ARC
  5
215
100
AcDbEntity
  8
0
  6
CONTINUOUS
 62
               7
100
AcDbCircle
 10
131.16267655263573
 20
29.818985213607192
 30
0.0
 40
0.6105564724372721
100
AcDbArc
 50
179.83589550320582
 51
253.77907243150949
  0
LINE
  5
216
100
AcDbEntity
  8
0
  6
CONTINUOUS
 62
               7
100
AcDbLine
 10
133.99212258452667
 20
29.820733944954156
 30
0.0
 11
133.99212258452667
 21
30.350733944954158
 31
0.0
  0
ARC
  5
217
100
AcDbEntity
  8
0
  6
CONTINUOUS
 62
               7
100
AcDbCircle
 10
133.38035058869275
 20
29.819896662925117
 30
0.0
 40
0.6117725687931934
100
AcDbArc
 50
286.30661609184898
 51
0.0784159734340139
  0
ARC
  5
218
100
AcDbEntity
  8
0
  6
CONTINUOUS
 62
               7
100
AcDbCircle
 10
132.2721225845267
 20
33.63815518168812
 30
0.0
 40
4.5876068132596712
100
AcDbArc
 50
253.79871892415684
 51
286.20128107584191
  0
LINE
  5
219
100
AcDbEntity
  8
0
  6
CONTINUOUS
 62
               4
100
AcDbLine
 10
140.57212258452668
 20
70.95073394495418
 30
0.0
 11
130.57212258452668
 21
70.95073394495418
 31
0.0
  0
LINE
  5
21A
100
AcDbEntity
  8
0
  6
CONTINUOUS
 62
               7
100
AcDbLine
 10
133.57212258452665
 20
66.95073394495418
 30
0.0
 11
133.57212258452665
 21
70.95073394495418
 31
0.0
  0
LINE
  5
21B
100
AcDbEntity
  8
0
  6
CONTINUOUS
 62
               7
100
AcDbLine
 10
137.57212258452668
 20
66.95073394495418
 30
0.0
 11
137.57212258452668
 21
70.95073394495418
 31
0.0
  0
LINE
  5
21C
100
AcDbEntity
  8
0
  6
CONTINUOUS
 62
               7
100
AcDbLine
 10
131.97212258452669
 20
66.95073394495418
 30
0.0
 11
131.97212258452669
 21
70.95073394495418
 31
0.0
  0
LINE
  5
21D
100
AcDbEntity
  8
0
  6
CONTINUOUS
 62
               7
100
AcDbLine
 10
139.17212258452668
 20
66.95073394495418
 30
0.0
 11
139.17212258452668
 21
70.95073394495418
 31
0.0
  0
ARC
  5
21E
100
AcDbEntity
  8
0
  6
CONTINUOUS
 62
               7
100
AcDbCircle
 10
135.57212258452668
 20
66.95073394495418
 30
0.0
 40
2.0
100
AcDbArc
 50
179.99999999999963
 51
0.0
  0
ARC
  5
21F
100
AcDbEntity
  8
0
  6
CONTINUOUS
 62
               7
100
AcDbCircle
 10
135.57212258452668
 20
66.95073394495418
 30
0.0
 40
3.6000000000000005
100
AcDbArc
 50
179.99999999999963
 51
0.0
  0
LINE
  5
220
100
AcDbEntity
  8
0
  6
CENTER
 62
               2
100
AcDbLine
 10
137.2721225845267
 20
68.650733944954169
 30
0.0
 11
133.87212258452666
 21
68.650733944954169
 31
0.0
  0
CIRCLE
  5
221
100
AcDbEntity
  8
0
  6
CONTINUOUS
 62
               7
100
AcDbCircle
 10
135.57212258452668
 20
68.650733944954169
 30
0.0
 40
1.3000000000000012
  0
CIRCLE
  5
222
100
AcDbEntity
  8
0
  6
CONTINUOUS
 62
               7
100
AcDbCircle
 10
135.57212258452668
 20
68.650733944954169
 30
0.0
 40
1.1500000000000001
  0
LINE
  5
223
100
AcDbEntity
  8
0
  6
CONTINUOUS
 62
               7
100
AcDbLine
 10
140.37212258452666
 20
28.050733944954146
 30
0.0
 11
130.77212258452667
 21
28.050733944954146
 31
0.0
  0
LINE
  5
224
100
AcDbEntity
  8
0
  6
CONTINUOUS
 62
               7
100
AcDbLine
 10
130.57212258452668
 20
33.550733944954175
 30
0.0
 11
140.57212258452668
 21
33.550733944954175
 31
0.0
  0
LINE
  5
225
100
AcDbEntity
  8
0
  6
CONTINUOUS
 62
               7
100
AcDbLine
 10
130.57212258452668
 20
57.750733944954163
 30
0.0
 11
140.57212258452668
 21
57.750733944954163
 31
0.0
  0
LINE
  5
226
100
AcDbEntity
  8
0
  6
CONTINUOUS
 62
               7
100
AcDbLine
 10
130.55212258452667
 20
30.350733944954158
 30
0.0
 11
134.07212258452668
 21
30.350733944954158
 31
0.0
  0
LINE
  5
227
100
AcDbEntity
  8
0
  6
CONTINUOUS
 62
               7
100
AcDbLine
 10
134.07212258452668
 20
28.050733944954146
 30
0.0
 11
134.07212258452668
 21
30.350733944954158
 31
0.0
  0
LINE
  5
228
100
AcDbEntity
  8
0
  6
CONTINUOUS
 62
               7
100
AcDbLine
 10
130.57212258452668
 20
28.250733944954163
 30
0.0
 11
130.57212258452668
 21
29.663984514300097
 31
0.0
  0
ARC
  5
229
100
AcDbEntity
  8
0
  6
CONTINUOUS
 62
               7
100
AcDbCircle
 10
130.87122744766779
 20
30.649838808095268
 30
0.0
 40
0.2991062025847394
100
AcDbArc
 50
179.82853033398985
 51
270.17146966600922
  0
LINE
  5
22A
100
AcDbEntity
  8
0
  6
CENTER
 62
               2
100
AcDbLine
 10
135.57212258452668
 20
26.859777843479236
 30
0.0
 11
135.57212258452668
 21
100.21567617158445
 31
0.0
  0
CIRCLE
  5
22B
100
AcDbEntity
  8
0
  6
CONTINUOUS
 62
               7
100
AcDbCircle
 10
135.57212258452668
 20
68.650733944954169
 30
0.0
 40
1.1000000000000001
  0
CIRCLE
  5
22C
100
AcDbEntity
  8
0
  6
CONTINUOUS
 62
               7
100
AcDbCircle
 10
135.57212258452668
 20
68.650733944954169
 30
0.0
 40
0.7500000000000001
  0
ARC
  5
22D
100
AcDbEntity
  8
0
  6
CONTINUOUS
 62
               7
100
AcDbCircle
 10
130.77212258452667
 20
28.250733944954163
 30
0.0
 40
0.2
100
AcDbArc
 50
179.99999999999963
 51
269.99999999999937
  0
ARC
  5
22E
100
AcDbEntity
  8
0
  6
CONTINUOUS
 62
               7
100
AcDbCircle
 10
140.37212258452666
 20
28.250733944954163
 30
0.0
 40
0.2
100
AcDbArc
 50
269.99999999999937
 51
0.0
  0
LINE
  5
22F
100
AcDbEntity
  8
0
  6
CONTINUOUS
 62
               7
100
AcDbLine
 10
130.57212258452668
 20
30.350733944954158
 30
0.0
 11
130.57212258452668
 21
52.051401194403155
 31
0.0
  0
LINE
  5
230
100
AcDbEntity
  8
0
  6
CONTINUOUS
 62
               7
100
AcDbLine
 10
140.57212258452668
 20
28.250733944954163
 30
0.0
 11
140.57212258452668
 21
37.454064050648896
 31
0.0
  0
ARC
  5
231
100
AcDbEntity
  8
0
  6
CONTINUOUS
 62
               4
100
AcDbCircle
 10
140.07241943239089
 20
71.450437097089974
 30
0.0
 40
0.4997032403068001
100
AcDbArc
 50
269.96596353714654
 51
0.0340364628527164
  0
LINE
  5
232
100
AcDbEntity
  8
0
  6
CONTINUOUS
 62
               4
100
AcDbLine
 10
140.57212258452668
 20
93.45073394495418
 30
0.0
 11
140.57212258452668
 21
70.95073394495418
 31
0.0
  0
LINE
  5
233
100
AcDbEntity
  8
0
  6
CONTINUOUS
 62
               4
100
AcDbLine
 10
130.57212258452668
 20
93.450733949223533
 30
0.0
 11
130.57212258452668
 21
70.95073394495418
 31
0.0
  0
ARC
  5
234
100
AcDbEntity
  8
0
  6
CONTINUOUS
 62
               4
100
AcDbCircle
 10
131.07209969645717
 20
71.450729367431421
 30
0.0
 40
0.4999954224983215
100
AcDbArc
 50
179.99947544974256
 51
270.00052455025656
  0
ARC
  5
235
100
AcDbEntity
  8
0
  6
CONTINUOUS
 62
               4
100
AcDbCircle
 10
140.07209359280651
 20
71.450744626127346
 30
0.0
 40
0.5000106812873828
100
AcDbArc
 50
270.00122394615329
 51
359.9987760538454
  0
LINE
  5
236
100
AcDbEntity
  8
0
  6
PHANTOM
 62
             200
100
AcDbLine
 10
134.07210427397982
 20
78.450733944954067
 30
0.0
 11
137.07210427397982
 21
78.450733944954067
 31
0.0
  0
LINE
  5
237
100
AcDbEntity
  8
0
  6
PHANTOM
 62
             200
100
AcDbLine
 10
134.07210427397982
 20
76.450733944954067
 30
0.0
 11
137.07210427397982
 21
76.450733944954067
 31
0.0
  0
LINE
  5
238
100
AcDbEntity
  8
0
  6
PHANTOM
 62
             200
100
AcDbLine
 10
134.07210427397982
 20
78.450733944954067
 30
0.0
 11
134.07210427397982
 21
76.450733944954067
 31
0.0
  0
LINE
  5
239
100
AcDbEntity
  8
0
  6
PHANTOM
 62
             200
100
AcDbLine
 10
137.07210427397982
 20
78.450733944954067
 30
0.0
 11
137.07210427397982
 21
76.450733944954067
 31
0.0
  0
LINE
  5
23A
100
AcDbEntity
  8
0
  6
CONTINUOUS
 62
               4
100
AcDbLine
 10
136.17212258452665
 20
105.94366321788752
 30
0.0
 11
137.47212258452666
 21
105.94366321788752
 31
0.0
  0
LINE
  5
23B
100
AcDbEntity
  8
0
  6
CONTINUOUS
 62
             200
100
AcDbLine
 10
131.82212258452668
 20
103.97073394495405
 30
0.0
 11
139.32212258452668
 21
101.96073394495406
 31
0.0
  0
LINE
  5
23C
100
AcDbEntity
  8
0
  6
CONTINUOUS
 62
             200
100
AcDbLine
 10
131.82212258452668
 20
102.93073394495406
 30
0.0
 11
139.32212258452668
 21
100.92073394495404
 31
0.0
  0
LINE
  5
23D
100
AcDbEntity
  8
0
  6
CONTINUOUS
 62
               4
100
AcDbLine
 10
133.67212258452665
 20
105.94366321788752
 30
0.0
 11
134.97212258452666
 21
105.94366321788752
 31
0.0
  0
LINE
  5
23E
100
AcDbEntity
  8
0
  6
CONTINUOUS
 62
               4
100
AcDbLine
 10
134.97212258452666
 20
102.09073394495405
 30
0.0
 11
134.97212258452666
 21
98.450733944954038
 31
0.0
  0
LINE
  5
23F
100
AcDbEntity
  8
0
  6
CONTINUOUS
 62
               4
100
AcDbLine
 10
136.57212258452668
 20
109.44366321588754
 30
0.0
 11
136.57212258452668
 21
105.94366321788752
 31
0.0
  0
LINE
  5
240
100
AcDbEntity
  8
0
  6
CONTINUOUS
 62
               4
100
AcDbLine
 10
137.07212258452668
 20
109.44366321588754
 30
0.0
 11
137.07212258452668
 21
105.94366321788752
 31
0.0
  0
LINE
  5
241
100
AcDbEntity
  8
0
  6
CONTINUOUS
 62
               4
100
AcDbLine
 10
133.67212258452665
 20
105.94366321788752
 30
0.0
 11
133.67212258452665
 21
103.47073394495405
 31
0.0
  0
LINE
  5
242
100
AcDbEntity
  8
0
  6
CONTINUOUS
 62
               4
100
AcDbLine
 10
134.97212258452666
 20
105.94366321788752
 30
0.0
 11
134.97212258452666
 21
103.12073394495405
 31
0.0
  0
LINE
  5
243
100
AcDbEntity
  8
0
  6
CONTINUOUS
 62
               4
100
AcDbLine
 10
133.67212258452665
 20
102.44073394495405
 30
0.0
 11
133.67212258452665
 21
98.450733944954038
 31
0.0
  0
LINE
  5
244
100
AcDbEntity
  8
0
  6
CONTINUOUS
 62
               4
100
AcDbLine
 10
136.17212258452665
 20
101.77073394495406
 30
0.0
 11
136.17212258452665
 21
98.450733944954038
 31
0.0
  0
LINE
  5
245
100
AcDbEntity
  8
0
  6
CONTINUOUS
 62
               4
100
AcDbLine
 10
137.47212258452666
 20
101.42073394495404
 30
0.0
 11
137.47212258452666
 21
98.450733944954038
 31
0.0
  0
LINE
  5
246
100
AcDbEntity
  8
0
  6
CONTINUOUS
 62
               4
100
AcDbLine
 10
134.07212258452668
 20
109.44366321588754
 30
0.0
 11
134.07212258452668
 21
105.94366321788752
 31
0.0
  0
LINE
  5
247
100
AcDbEntity
  8
0
  6
CONTINUOUS
 62
               4
100
AcDbLine
 10
134.57212258452668
 20
109.44366321588754
 30
0.0
 11
134.57212258452668
 21
105.94366321788752
 31
0.0
  0
LINE
  5
248
100
AcDbEntity
  8
0
  6
CONTINUOUS
 62
               4
100
AcDbLine
 10
136.17212258452665
 20
105.94366321788752
 30
0.0
 11
136.17212258452665
 21
102.80073394495406
 31
0.0
  0
LINE
  5
249
100
AcDbEntity
  8
0
  6
CONTINUOUS
 62
               4
100
AcDbLine
 10
137.47212258452666
 20
105.94366321788752
 30
0.0
 11
137.47212258452666
 21
102.45073394495404
 31
0.0
  0
ARC
  5
24A
100
AcDbEntity
  8
0
  6
CONTINUOUS
 62
               4
100
AcDbCircle
 10
140.072099696229
 20
89.950729367203252
 30
0.0
 40
0.5000045777717621
100
AcDbArc
 50
0.0005245667992071
 51
89.9994754332008
  0
ARC
  5
24B
100
AcDbEntity
  8
0
  6
CONTINUOUS
 62
               4
100
AcDbCircle
 10
131.0720935928484
 20
89.950744626085424
 30
0.0
 40
0.4999893189827007
100
AcDbArc
 50
89.998776006354774
 51
180.00122399364432
  0
ARC
  5
24C
100
AcDbEntity
  8
0
  6
CONTINUOUS
 62
               4
100
AcDbCircle
 10
131.30209145664205
 20
89.950746762291772
 30
0.0
 40
0.4999871828265524
100
AcDbArc
 50
89.998531203634272
 51
180.00146879636483
  0
ARC
  5
24D
100
AcDbEntity
  8
0
  6
CONTINUOUS
 62
               4
100
AcDbCircle
 10
139.84210183250056
 20
89.950731503474771
 30
0.0
 40
0.500002441485227
100
AcDbArc
 50
0.0002797715494944
 51
89.999720228450514
  0
ARC
  5
24E
100
AcDbEntity
  8
0
  6
CONTINUOUS
 62
               4
100
AcDbCircle
 10
139.84090076786808
 20
73.643856641732526
 30
0.0
 40
0.5012049510586274
100
AcDbArc
 50
270.13758021931233
 51
359.86241978068648
  0
ARC
  5
24F
100
AcDbEntity
  8
0
  6
CONTINUOUS
 62
               4
100
AcDbCircle
 10
131.30329255788504
 20
73.643841419526041
 30
0.0
 40
0.5011896925741138
100
AcDbArc
 50
180.13584420715239
 51
269.86415579284636
  0
LINE
  5
250
100
AcDbEntity
  8
0
  6
CONTINUOUS
 62
               4
100
AcDbLine
 10
131.82212258452668
 20
98.450733944954038
 30
0.0
 11
139.32212258452668
 21
98.450733944954038
 31
0.0
  0
LINE
  5
251
100
AcDbEntity
  8
0
  6
CONTINUOUS
 62
               4
100
AcDbLine
 10
139.32212258452668
 20
98.450733944954038
 30
0.0
 11
139.32212258452668
 21
90.450733944954038
 31
0.0
  0
LINE
  5
252
100
AcDbEntity
  8
0
  6
CONTINUOUS
 62
               4
100
AcDbLine
 10
138.32212258452668
 20
98.450733944954038
 30
0.0
 11
138.32212258452668
 21
82.450733944954067
 31
0.0
  0
LINE
  5
253
100
AcDbEntity
  8
0
  6
CONTINUOUS
 62
               4
100
AcDbLine
 10
132.82212258452668
 20
96.950733944954038
 30
0.0
 11
138.32212258452668
 21
96.950733944954038
 31
0.0
  0
LINE
  5
254
100
AcDbEntity
  8
0
  6
CONTINUOUS
 62
               4
100
AcDbLine
 10
131.82212258452668
 20
98.450733944954038
 30
0.0
 11
131.82212258452668
 21
90.450733944954038
 31
0.0
  0
LINE
  5
255
100
AcDbEntity
  8
0
  6
CONTINUOUS
 62
               4
100
AcDbLine
 10
132.82212258452668
 20
98.450733944954038
 30
0.0
 11
132.82212258452668
 21
82.450733944954067
 31
0.0
  0
LINE
  5
256
100
AcDbEntity
  8
0
  6
CONTINUOUS
 62
               4
100
AcDbLine
 10
138.32212258452668
 20
90.450733944954038
 30
0.0
 11
140.07210427397982
 21
90.450733944954038
 31
0.0
  0
LINE
  5
257
100
AcDbEntity
  8
0
  6
CONTINUOUS
 62
               4
100
AcDbLine
 10
132.82212258452668
 20
82.450733944954067
 30
0.0
 11
138.32212258452668
 21
82.450733944954067
 31
0.0
  0
LINE
  5
258
100
AcDbEntity
  8
0
  6
CONTINUOUS
 62
               4
100
AcDbLine
 10
140.07210427397982
 20
90.450733944954038
 30
0.0
 11
140.57210427397982
 21
90.450733944954038
 31
0.0
  0
LINE
  5
259
100
AcDbEntity
  8
0
  6
CONTINUOUS
 62
               4
100
AcDbLine
 10
131.30210427397978
 20
73.142653135620776
 30
0.0
 11
139.8421042739798
 21
73.142653135620776
 31
0.0
  0
LINE
  5
25A
100
AcDbEntity
  8
0
  6
CONTINUOUS
 62
               4
100
AcDbLine
 10
130.80210427397978
 20
89.950733944954038
 30
0.0
 11
130.80210427397978
 21
73.642653135620805
 31
0.0
  0
LINE
  5
25B
100
AcDbEntity
  8
0
  6
CONTINUOUS
 62
               4
100
AcDbLine
 10
140.3421042739798
 20
89.950733944954038
 30
0.0
 11
140.3421042739798
 21
73.642653135605229
 31
0.0
  0
LINE
  5
25C
100
AcDbEntity
  8
0
  6
CONTINUOUS
 62
               4
100
AcDbLine
 10
131.07210427397982
 20
90.450733944954038
 30
0.0
 11
132.82212258452668
 21
90.450733944954038
 31
0.0
  0
LINE
  5
25D
100
AcDbEntity
  8
0
  6
CONTINUOUS
 62
               4
100
AcDbLine
 10
130.57210427397982
 20
90.450733944954038
 30
0.0
 11
131.07210427397982
 21
90.450733944954038
 31
0.0
  0
LINE
  5
25E
100
AcDbEntity
  8
0
  6
CONTINUOUS
 62
               4
100
AcDbLine
 10
140.57212258452668
 20
92.85073394922351
 30
0.0
 11
139.32210427397982
 21
92.85073394922351
 31
0.0
  0
LINE
  5
25F
100
AcDbEntity
  8
0
  6
CONTINUOUS
 62
               4
100
AcDbLine
 10
140.57212258452668
 20
93.450733949223533
 30
0.0
 11
139.32212258452668
 21
93.450733949223533
 31
0.0
  0
LINE
  5
260
100
AcDbEntity
  8
0
  6
CONTINUOUS
 62
               4
100
AcDbLine
 10
140.57212258452668
 20
91.85073394922351
 30
0.0
 11
139.32210427397982
 21
91.85073394922351
 31
0.0
  0
LINE
  5
261
100
AcDbEntity
  8
0
  6
CONTINUOUS
 62
               4
100
AcDbLine
 10
131.82212258452668
 20
93.35073394922351
 30
0.0
 11
131.07212258452668
 21
93.35073394922351
 31
0.0
  0
ARC
  5
262
100
AcDbEntity
  8
0
  6
CONTINUOUS
 62
               4
100
AcDbCircle
 10
131.07212258452668
 20
92.85073394922351
 30
0.0
 40
0.5
100
AcDbArc
 50
89.999999999999815
 51
179.99999999999963
  0
ARC
  5
263
100
AcDbEntity
  8
0
  6
CONTINUOUS
 62
               4
100
AcDbCircle
 10
139.77621773118486
 20
92.850829095881707
 30
0.0
 40
0.5999048608870732
100
AcDbArc
 50
359.99091272245295
 51
90.009087277546172
  0
LINE
  5
264
100
AcDbEntity
  8
0
  6
CONTINUOUS
 62
               4
100
AcDbLine
 10
130.57212261361585
 20
93.450733949223533
 30
0.0
 11
131.82212258452668
 21
93.450733949223533
 31
0.0
  0
LINE
  5
265
100
AcDbEntity
  8
0
  6
CONTINUOUS
 62
               4
100
AcDbLine
 10
134.07212258452668
 20
109.44366321588754
 30
0.0
 11
134.57212258452668
 21
109.44366321588754
 31
0.0
  0
LINE
  5
266
100
AcDbEntity
  8
0
  6
CONTINUOUS
 62
               4
100
AcDbLine
 10
136.57212258452668
 20
109.44366321588754
 30
0.0
 11
137.07212258452668
 21
109.44366321588754
 31
0.0
  0
LINE
  5
267
100
AcDbEntity
  8
0
  6
CONTINUOUS
 62
               7
100
AcDbLine
 10
131.77212258452667
 20
54.550733944954132
 30
0.0
 11
130.57212258452668
 21
54.550733944954132
 31
0.0
  0
LINE
  5
268
100
AcDbEntity
  8
0
  6
CONTINUOUS
 62
               7
100
AcDbLine
 10
131.77212258452667
 20
51.350733944954143
 30
0.0
 11
130.57212258452668
 21
51.350733944954143
 31
0.0
  0
CIRCLE
  5
269
100
AcDbEntity
  8
0
  6
CONTINUOUS
 62
               7
100
AcDbCircle
 10
131.77212258452667
 20
52.950733944954166
 30
0.0
 40
1.5
  0
LINE
  5
26A
100
AcDbEntity
  8
0
  6
CONTINUOUS
 62
               7
100
AcDbLine
 10
132.47922936571322
 20
53.657840726140712
 30
0.0
 11
131.06501580334012
 21
52.24362716376762
 31
0.0
  0
LINE
  5
26B
100
AcDbEntity
  8
0
  6
CONTINUOUS
 62
               7
100
AcDbLine
 10
131.06501580334012
 20
53.657840726140712
 30
0.0
 11
132.47922936571322
 21
52.24362716376762
 31
0.0
  0
ARC
  5
26C
100
AcDbEntity
  8
0
  6
CONTINUOUS
 62
               7
100
AcDbCircle
 10
131.77212258452667
 20
52.950733944954166
 30
0.0
 40
1.6000000000000003
100
AcDbArc
 50
269.99999999999937
 51
89.999999999999801
  0
LINE
  5
26D
100
AcDbEntity
  8
0
  6
CONTINUOUS
 62
               7
100
AcDbLine
 10
139.37212258452669
 20
36.750733944954177
 30
0.0
 11
140.57212258452671
 21
36.750733944954177
 31
0.0
  0
LINE
  5
26E
100
AcDbEntity
  8
0
  6
CONTINUOUS
 62
               7
100
AcDbLine
 10
139.37212258452669
 20
39.950733944954194
 30
0.0
 11
140.57212258452671
 21
39.950733944954194
 31
0.0
  0
ARC
  5
26F
100
AcDbEntity
  8
0
  6
CONTINUOUS
 62
               7
100
AcDbCircle
 10
139.37212258452669
 20
38.350733944954172
 30
0.0
 40
1.6000000000000003
100
AcDbArc
 50
89.999999999999815
 51
269.99999999999937
  0
CIRCLE
  5
270
100
AcDbEntity
  8
0
  6
CONTINUOUS
 62
               7
100
AcDbCircle
 10
139.37212258452669
 20
38.350733944954172
 30
0.0
 40
1.5
  0
LINE
  5
271
100
AcDbEntity
  8
0
  6
CONTINUOUS
 62
               7
100
AcDbLine
 10
138.66501580334014
 20
39.057840726140718
 30
0.0
 11
140.07922936571325
 21
37.643627163767626
 31
0.0
  0
LINE
  5
272
100
AcDbEntity
  8
0
  6
CONTINUOUS
 62
               7
100
AcDbLine
 10
140.07922936571325
 20
39.057840726140718
 30
0.0
 11
138.66501580334014
 21
37.643627163767626
 31
0.0
  0
LINE
  5
273
100
AcDbEntity
  8
0
  6
CENTER
 62
               2
100
AcDbLine
 10
-69.209624567678475
 20
26.859777843479257
 30
0.0
 11
-69.209624567678475
 21
94.133665923844433
 31
0.0
  0
ARC
  5
274
100
AcDbEntity
  8
0
  6
CONTINUOUS
 62
               7
100
AcDbCircle
 10
-75.210712572915497
 20
39.25182195114489
 30
0.0
 40
0.5989129830170392
100
AcDbArc
 50
89.895914524772735
 51
180.10408547522667
  0
LINE
  5
275
100
AcDbEntity
  8
0
  6
CONTINUOUS
 62
               7
100
AcDbLine
 10
-75.809625555932541
 20
37.449645940670891
 30
0.0
 11
-75.809625555932541
 21
39.25182195114489
 31
0.0
  0
LINE
  5
276
100
AcDbEntity
  8
0
  6
CONTINUOUS
 62
               7
100
AcDbLine
 10
-75.209624567678475
 20
36.750733944954206
 30
0.0
 11
-75.209624567678475
 21
39.950733944954194
 31
0.0
  0
LINE
  5
277
100
AcDbEntity
  8
0
  6
CONTINUOUS
 62
               7
100
AcDbLine
 10
-75.209624566724813
 20
39.950733944954194
 30
0.0
 11
-76.209624567678475
 21
39.950733944954194
 31
0.0
  0
LINE
  5
278
100
AcDbEntity
  8
0
  6
CONTINUOUS
 62
               7
100
AcDbLine
 10
-75.209624566724813
 20
36.750733944954206
 30
0.0
 11
-76.209624567678475
 21
36.750733944954206
 31
0.0
  0
LINE
  5
279
100
AcDbEntity
  8
0
  6
CONTINUOUS
 62
               7
100
AcDbLine
 10
-77.809624567678497
 20
64.950733944954152
 30
0.0
 11
-77.809624567678497
 21
70.950733944954152
 31
0.0
  0
LINE
  5
27A
100
AcDbEntity
  8
0
  6
CONTINUOUS
 62
               7
100
AcDbLine
 10
-62.209624567678475
 20
57.750733944954156
 30
0.0
 11
-62.209624567678475
 21
70.950733944954152
 31
0.0
  0
ARC
  5
27B
100
AcDbEntity
  8
0
  6
CONTINUOUS
 62
               7
100
AcDbCircle
 10
-62.608651200651849
 20
28.449760577927513
 30
0.0
 40
0.3990278201647513
100
AcDbArc
 50
269.8602356150771
 51
0.1397643849223044
  0
LINE
  5
27C
100
AcDbEntity
  8
0
  6
CONTINUOUS
 62
               7
100
AcDbLine
 10
-62.209624567678475
 20
57.750733944954156
 30
0.0
 11
-76.209624567678475
 21
57.750733944954156
 31
0.0
  0
LINE
  5
27D
100
AcDbEntity
  8
0
  6
CONTINUOUS
 62
               7
100
AcDbLine
 10
-62.209624567678475
 20
33.550733944954167
 30
0.0
 11
-76.209624567678475
 21
33.550733944954167
 31
0.0
  0
LINE
  5
27E
100
AcDbEntity
  8
0
  6
CONTINUOUS
 62
               7
100
AcDbLine
 10
-75.809624567678469
 20
28.050733944954167
 30
0.0
 11
-62.609624567678509
 21
28.050733944954167
 31
0.0
  0
ARC
  5
27F
100
AcDbEntity
  8
0
  6
CONTINUOUS
 62
               7
100
AcDbCircle
 10
-75.810597934705129
 20
28.449760577927513
 30
0.0
 40
0.3990278201647513
100
AcDbArc
 50
179.8602356150773
 51
270.1397643849217
  0
LINE
  5
280
100
AcDbEntity
  8
0
  6
CONTINUOUS
 62
               7
100
AcDbLine
 10
-77.809624567678497
 20
64.950733944954152
 30
0.0
 11
-76.209624567678475
 21
63.35073394495415
 31
0.0
  0
LINE
  5
281
100
AcDbEntity
  8
0
  6
CONTINUOUS
 62
               7
100
AcDbLine
 10
-76.209624567678475
 20
57.750733944954156
 30
0.0
 11
-76.209624567678475
 21
70.950733944954152
 31
0.0
  0
LINE
  5
282
100
AcDbEntity
  8
0
  6
CONTINUOUS
 62
               7
100
AcDbLine
 10
-76.209624567678475
 20
28.450733944954145
 30
0.0
 11
-76.209624567678475
 21
57.750733944954156
 31
0.0
  0
LINE
  5
283
100
AcDbEntity
  8
0
  6
CONTINUOUS
 62
               7
100
AcDbLine
 10
-62.209624567678475
 20
28.450733944954145
 30
0.0
 11
-62.209624567678475
 21
57.750733944954156
 31
0.0
  0
ARC
  5
284
100
AcDbEntity
  8
0
  6
CONTINUOUS
 62
               7
100
AcDbCircle
 10
-62.820178535787534
 20
29.81898521360727
 30
0.0
 40
0.6105564724372723
100
AcDbArc
 50
286.22092756849014
 51
0.1641044967937703
  0
LINE
  5
285
100
AcDbEntity
  8
0
  6
CONTINUOUS
 62
               7
100
AcDbLine
 10
-65.729624567678513
 20
28.050733944954167
 30
0.0
 11
-65.729624567678513
 21
30.350733944954236
 31
0.0
  0
LINE
  5
286
100
AcDbEntity
  8
0
  6
CONTINUOUS
 62
               7
100
AcDbLine
 10
-62.209624567678475
 20
30.350733944954236
 30
0.0
 11
-65.729624567678513
 21
30.350733944954236
 31
0.0
  0
ARC
  5
287
100
AcDbEntity
  8
0
  6
CONTINUOUS
 62
               7
100
AcDbCircle
 10
-63.929624567678474
 20
33.638155181688198
 30
0.0
 40
4.5876068132596712
100
AcDbArc
 50
253.7987189241569
 51
286.20128107584202
  0
ARC
  5
288
100
AcDbEntity
  8
0
  6
CONTINUOUS
 62
               7
100
AcDbCircle
 10
-65.037852571844553
 20
29.819896662925252
 30
0.0
 40
0.6117725687931934
100
AcDbArc
 50
179.9215840265656
 51
253.6933839081498
  0
LINE
  5
289
100
AcDbEntity
  8
0
  6
CONTINUOUS
 62
               7
100
AcDbLine
 10
-65.649624567678472
 20
29.820733944954263
 30
0.0
 11
-65.649624567678472
 21
30.350733944954236
 31
0.0
  0
ARC
  5
28A
100
AcDbEntity
  8
0
  6
CONTINUOUS
 62
               7
100
AcDbCircle
 10
-75.210712572915497
 20
37.449645940670891
 30
0.0
 40
0.5989129830170392
100
AcDbArc
 50
179.89591452477254
 51
270.10408547522644
  0
LINE
  5
28B
100
AcDbEntity
  8
0
  6
CONTINUOUS
 62
               7
100
AcDbLine
 10
-62.209624567678475
 20
57.649760678352578
 30
0.0
 11
-61.509624567678486
 21
57.649760678352578
 31
0.0
  0
LINE
  5
28C
100
AcDbEntity
  8
0
  6
CONTINUOUS
 62
               7
100
AcDbLine
 10
-62.209624567678475
 20
33.649760678352607
 30
0.0
 11
-61.509624567678514
 21
33.649760678352607
 31
0.0
  0
LINE
  5
28D
100
AcDbEntity
  8
0
  6
CENTER
 62
               2
100
AcDbLine
 10
-50.509624575503182
 20
41.25073394495417
 30
0.0
 11
-50.509624575503182
 21
33.25073394495417
 31
0.0
  0
LINE
  5
28E
100
AcDbEntity
  8
0
  6
CENTER
 62
               2
100
AcDbLine
 10
-56.509624575503182
 20
49.650733944954169
 30
0.0
 11
-56.509624575503182
 21
41.650733944954169
 31
0.0
  0
LINE
  5
28F
100
AcDbEntity
  8
0
  6
CENTER
 62
               2
100
AcDbLine
 10
-60.509624575503182
 20
45.650733944954169
 30
0.0
 11
-52.509624575503182
 21
45.650733944954169
 31
0.0
  0
LINE
  5
290
100
AcDbEntity
  8
0
  6
CENTER
 62
               2
100
AcDbLine
 10
-54.509624575503182
 20
37.25073394495417
 30
0.0
 11
-46.509624575503182
 21
37.25073394495417
 31
0.0
  0
LINE
  5
291
100
AcDbEntity
  8
0
  6
CONTINUOUS
 62
               7
100
AcDbLine
 10
-61.509624575503182
 20
29.150733944954169
 30
0.0
 11
-61.509624575503182
 21
62.150733944954169
 31
0.0
  0
LINE
  5
292
100
AcDbEntity
  8
0
  6
CONTINUOUS
 62
               7
100
AcDbLine
 10
-45.509624575503182
 20
29.150733944954169
 30
0.0
 11
-45.509624575503182
 21
62.150733944954169
 31
0.0
  0
CIRCLE
  5
293
100
AcDbEntity
  8
0
  6
CONTINUOUS
 62
               2
100
AcDbCircle
 10
-56.509624575503182
 20
45.650733944954169
 30
0.0
 40
2.5
  0
CIRCLE
  5
294
100
AcDbEntity
  8
0
  6
CONTINUOUS
 62
               2
100
AcDbCircle
 10
-50.509624575503182
 20
37.25073394495417
 30
0.0
 40
2.5
  0
CIRCLE
  5
295
100
AcDbEntity
  8
0
  6
CONTINUOUS
 62
               7
100
AcDbCircle
 10
-56.509624575503182
 20
45.650733944954169
 30
0.0
 40
2.1000000000000001
  0
CIRCLE
  5
296
100
AcDbEntity
  8
0
  6
CONTINUOUS
 62
               7
100
AcDbCircle
 10
-50.509624575503182
 20
37.25073394495417
 30
0.0
 40
2.1000000000000001
  0
LINE
  5
297
100
AcDbEntity
  8
0
  6
CONTINUOUS
 62
               7
100
AcDbLine
 10
-61.509624567678514
 20
29.150733944954169
 30
0.0
 11
-45.509624575503182
 21
29.150733944954169
 31
0.0
  0
LINE
  5
298
100
AcDbEntity
  8
0
  6
CONTINUOUS
 62
               7
100
AcDbLine
 10
-61.509624567678514
 20
62.150733944954169
 30
0.0
 11
-45.509624567678514
 21
62.150733944954169
 31
0.0
  0
LINE
  5
299
100
AcDbEntity
  8
0
  6
CENTER
 62
               2
100
AcDbLine
 10
-63.772304543439986
 20
65.650733944954169
 30
0.0
 11
-61.491645548601127
 21
65.650733944954169
 31
0.0
  0
LINE
  5
29A
100
AcDbEntity
  8
0
  6
DASHED
 62
               2
100
AcDbLine
 10
-62.209624567678475
 20
66.400733944954169
 30
0.0
 11
-63.304696596991107
 21
66.400733944954169
 31
0.0
  0
LINE
  5
29B
100
AcDbEntity
  8
0
  6
DASHED
 62
               2
100
AcDbLine
 10
-62.209624567678475
 20
64.900733944954169
 30
0.0
 11
-63.304696596991107
 21
64.900733944954169
 31
0.0
  0
LINE
  5
29C
100
AcDbEntity
  8
0
  6
CONTINUOUS
 62
               4
100
AcDbLine
 10
-79.094473042878406
 20
70.950733944953967
 30
0.0
 11
-79.094473042878747
 21
90.451744034820663
 31
0.0
  0
LINE
  5
29D
100
AcDbEntity
  8
0
  6
CONTINUOUS
 62
               4
100
AcDbLine
 10
-62.209624567678475
 20
70.950733944954266
 30
0.0
 11
-62.209624567678873
 21
92.850733944954243
 31
0.0
  0
LINE
  5
29E
100
AcDbEntity
  8
0
  6
CONTINUOUS
 62
               4
100
AcDbLine
 10
-76.209624559678844
 20
92.850733944953987
 30
0.0
 11
-76.209624559678446
 21
70.95073394495401
 31
0.0
  0
LINE
  5
29F
100
AcDbEntity
  8
0
  6
CONTINUOUS
 62
               4
100
AcDbLine
 10
-83.918234178006571
 20
73.150438950865677
 30
0.0
 11
-79.305946534435094
 21
70.997656730376988
 31
0.0
  0
ARC
  5
2A0
100
AcDbEntity
  8
0
  6
CONTINUOUS
 62
               4
100
AcDbCircle
 10
-83.706881929235294
 20
73.60325640549307
 30
0.0
 40
0.4997133381008656
100
AcDbArc
 50
180.11549557964355
 51
245.17378469019093
  0
LINE
  5
2A1
100
AcDbEntity
  8
0
  6
CONTINUOUS
 62
               4
100
AcDbLine
 10
-99.705584142212132
 20
88.606289490420238
 30
0.0
 11
-96.368210406745533
 21
88.606289490420295
 31
0.0
  0
LINE
  5
2A2
100
AcDbEntity
  8
0
  6
CONTINUOUS
 62
               4
100
AcDbLine
 10
-99.705584142212018
 20
87.305279390153544
 30
0.0
 11
-97.117705355812035
 21
87.305279390153572
 31
0.0
  0
ARC
  5
2A3
100
AcDbEntity
  8
0
  6
CONTINUOUS
 62
               4
100
AcDbCircle
 10
-63.009529507030152
 20
92.850829091602918
 30
0.0
 40
0.599904800896587
100
AcDbArc
 50
56.247417870394948
 51
90.009087277547238
  0
ARC
  5
2A4
100
AcDbEntity
  8
0
  6
CONTINUOUS
 62
               4
100
AcDbCircle
 10
-75.410712478807113
 20
92.851821950082268
 30
0.0
 40
0.598912923125741
100
AcDbArc
 50
89.895914524773801
 51
180.10408547522775
  0
LINE
  5
2A5
100
AcDbEntity
  8
0
  6
CONTINUOUS
 62
               4
100
AcDbLine
 10
-72.509624378643309
 20
92.850733944954044
 30
0.0
 11
-76.209624559678844
 21
92.850733944953987
 31
0.0
  0
ARC
  5
2A6
100
AcDbEntity
  8
0
  6
CONTINUOUS
 62
               4
100
AcDbCircle
 10
-75.7096245596789
 20
92.850733944954015
 30
0.0
 40
0.5
100
AcDbArc
 50
93.919585899651864
 51
180.00000000000065
  0
LINE
  5
2A7
100
AcDbEntity
  8
0
  6
CONTINUOUS
 62
               4
100
AcDbLine
 10
-63.009624653678827
 20
93.450733944954266
 30
0.0
 11
-75.409624473678832
 21
93.450733944954038
 31
0.0
  0
ARC
  5
2A8
100
AcDbEntity
  8
0
  6
CONTINUOUS
 62
               4
100
AcDbCircle
 10
-62.709624567678873
 20
92.850733944954214
 30
0.0
 40
0.5
100
AcDbArc
 50
0.0000000000010687
 51
90.000000000000867
  0
LINE
  5
2A9
100
AcDbEntity
  8
0
  6
CONTINUOUS
 62
               4
100
AcDbLine
 10
-62.709624567678873
 20
93.350733944954271
 30
0.0
 11
-64.209624563678801
 21
93.350733944954229
 31
0.0
  0
LINE
  5
2AA
100
AcDbEntity
  8
0
  6
CONTINUOUS
 62
               4
100
AcDbLine
 10
-64.209624563678801
 20
93.450733944954209
 30
0.0
 11
-64.209624563678801
 21
91.850733944954172
 31
0.0
  0
LINE
  5
2AB
100
AcDbEntity
  8
0
  6
CONTINUOUS
 62
               4
100
AcDbLine
 10
-64.209624563678801
 20
91.850733944954172
 30
0.0
 11
-76.209624559678844
 21
91.850733944953959
 31
0.0
  0
LINE
  5
2AC
100
AcDbEntity
  8
0
  6
CONTINUOUS
 62
             200
100
AcDbLine
 10
-95.880331619145494
 20
89.454774338420322
 30
0.0
 11
-97.612654850478833
 21
86.456794542153602
 31
0.0
  0
ARC
  5
2AD
100
AcDbEntity
  8
0
  6
CONTINUOUS
 62
               4
100
AcDbCircle
 10
-84.610458599033166
 20
89.957628584308196
 30
0.0
 40
0.403865208170398
100
AcDbArc
 50
270.11832473551408
 51
359.88167526448518
  0
ARC
  5
2AE
100
AcDbEntity
  8
0
  6
CONTINUOUS
 62
               4
100
AcDbCircle
 10
-84.609520486057875
 20
89.956061176558364
 30
0.0
 40
0.4029269013737999
100
AcDbArc
 50
0.1042835857501941
 51
79.908228442604724
  0
ARC
  5
2AF
100
AcDbEntity
  8
0
  6
CONTINUOUS
 62
               4
100
AcDbCircle
 10
-83.209537073815966
 20
90.055768270046514
 30
0.0
 40
0.4950149226876426
100
AcDbArc
 50
89.191695875422141
 51
126.87687525883594
  0
ARC
  5
2B0
100
AcDbEntity
  8
0
  6
CONTINUOUS
 62
               4
100
AcDbCircle
 10
-76.509055851396226
 20
91.255318074372695
 30
0.0
 40
0.2994663800970315
100
AcDbArc
 50
359.12289923249404
 51
89.529026971536297
  0
ARC
  5
2B1
100
AcDbEntity
  8
0
  6
CONTINUOUS
 62
               4
100
AcDbCircle
 10
-83.709957400600103
 20
89.955107183341894
 30
0.0
 40
0.4966660273328702
100
AcDbArc
 50
89.378960363566961
 51
180.62103963643685
  0
LINE
  5
2B2
100
AcDbEntity
  8
0
  6
CONTINUOUS
 62
               4
100
AcDbLine
 10
-91.206594248078744
 20
85.452754138687027
 30
0.0
 11
-92.203563944478759
 21
85.452754138686984
 31
0.0
  0
LINE
  5
2B3
100
AcDbEntity
  8
0
  6
CONTINUOUS
 62
               4
100
AcDbLine
 10
-84.20659425207873
 20
85.452754138687169
 30
0.0
 11
-86.207604351945349
 21
85.452754138687098
 31
0.0
  0
LINE
  5
2B4
100
AcDbEntity
  8
0
  6
CONTINUOUS
 62
               4
100
AcDbLine
 10
-92.203563944478759
 20
87.050733935753755
 30
0.0
 11
-84.206594252078787
 21
87.050733935753897
 31
0.0
  0
LINE
  5
2B5
100
AcDbEntity
  8
0
  6
CONTINUOUS
 62
               4
100
AcDbLine
 10
-92.203563944478759
 20
88.853764237753751
 30
0.0
 11
-84.206594252078787
 21
88.853764237753921
 31
0.0
  0
LINE
  5
2B6
100
AcDbEntity
  8
0
  6
CONTINUOUS
 62
               4
100
AcDbLine
 10
-92.203563944478759
 20
89.553764237353732
 30
0.0
 11
-84.609624554878849
 21
89.553764237353846
 31
0.0
  0
LINE
  5
2B7
100
AcDbEntity
  8
0
  6
CONTINUOUS
 62
               4
100
AcDbLine
 10
-91.906594247678839
 20
89.850733934153709
 30
0.0
 11
-86.002553847012109
 21
89.850733934153808
 31
0.0
  0
LINE
  5
2B8
100
AcDbEntity
  8
0
  6
CONTINUOUS
 62
               4
100
AcDbLine
 10
-92.203563944478873
 20
91.455784438287026
 30
0.0
 11
-90.79649323821215
 21
91.455784438287068
 31
0.0
  0
LINE
  5
2B9
100
AcDbEntity
  8
0
  6
CONTINUOUS
 62
               4
100
AcDbLine
 10
-92.203563944478873
 20
92.452754134687098
 30
0.0
 11
-90.704574046345527
 21
92.45275413468714
 31
0.0
  0
LINE
  5
2BA
100
AcDbEntity
  8
0
  6
CONTINUOUS
 62
               4
100
AcDbLine
 10
-96.021745760478751
 20
88.606289490420295
 30
0.0
 11
-92.203563944478759
 21
88.60628949042038
 31
0.0
  0
LINE
  5
2BB
100
AcDbEntity
  8
0
  6
CONTINUOUS
 62
             200
100
AcDbLine
 10
-95.533866972878826
 20
89.454774338420279
 30
0.0
 11
-97.266190204212052
 21
86.449723835086985
 31
0.0
  0
LINE
  5
2BC
100
AcDbEntity
  8
0
  6
CONTINUOUS
 62
               4
100
AcDbLine
 10
-96.771240709545367
 20
87.305279390153601
 30
0.0
 11
-92.203563944478759
 21
87.305279390153657
 31
0.0
  0
LINE
  5
2BD
100
AcDbEntity
  8
0
  6
CONTINUOUS
 62
               4
100
AcDbLine
 10
-77.503563952878778
 20
90.45174403482072
 30
0.0
 11
-77.503563952878778
 21
90.550733933753989
 31
0.0
  0
LINE
  5
2BE
100
AcDbEntity
  8
0
  6
CONTINUOUS
 62
               4
100
AcDbLine
 10
-85.599523544212218
 20
91.554774337220579
 30
0.0
 11
-76.506594256478763
 21
91.554774337220749
 31
0.0
  0
LINE
  5
2BF
100
AcDbEntity
  8
0
  6
CONTINUOUS
 62
               4
100
AcDbLine
 10
-85.705584150212132
 20
89.553764237353846
 30
0.0
 11
-86.002553847012109
 21
89.850733934153808
 31
0.0
  0
LINE
  5
2C0
100
AcDbEntity
  8
0
  6
CONTINUOUS
 62
               4
100
AcDbLine
 10
-86.207604351945349
 20
85.452754138687098
 30
0.0
 11
-86.207604351945349
 21
86.053764239353868
 31
0.0
  0
LINE
  5
2C1
100
AcDbEntity
  8
0
  6
CONTINUOUS
 62
               4
100
AcDbLine
 10
-91.206594248078744
 20
86.05376423935374
 30
0.0
 11
-86.207604351945349
 21
86.053764239353868
 31
0.0
  0
LINE
  5
2C2
100
AcDbEntity
  8
0
  6
CONTINUOUS
 62
               4
100
AcDbLine
 10
-91.206594248078744
 20
85.452754138687027
 30
0.0
 11
-91.206594248078744
 21
86.05376423935374
 31
0.0
  0
LINE
  5
2C3
100
AcDbEntity
  8
0
  6
CONTINUOUS
 62
               4
100
AcDbLine
 10
-92.203563944478759
 20
89.553764237353732
 30
0.0
 11
-91.906594247678839
 21
89.850733934153709
 31
0.0
  0
LINE
  5
2C4
100
AcDbEntity
  8
0
  6
CONTINUOUS
 62
               4
100
AcDbLine
 10
-83.202553848612183
 20
90.550733933753889
 30
0.0
 11
-77.503563952878778
 21
90.550733933753989
 31
0.0
  0
LINE
  5
2C5
100
AcDbEntity
  8
0
  6
CONTINUOUS
 62
               4
100
AcDbLine
 10
-84.538917484212163
 20
90.352754135887139
 30
0.0
 11
-90.881341723012127
 21
91.469925852420403
 31
0.0
  0
LINE
  5
2C6
100
AcDbEntity
  8
0
  6
CONTINUOUS
 62
               4
100
AcDbLine
 10
-92.203563944478873
 20
91.455784438287026
 30
0.0
 11
-92.203563944478873
 21
92.452754134687098
 31
0.0
  0
LINE
  5
2C7
100
AcDbEntity
  8
0
  6
CONTINUOUS
 62
               4
100
AcDbLine
 10
-85.599523544212218
 20
91.554774337220579
 30
0.0
 11
-90.704574046345527
 21
92.45275413468714
 31
0.0
  0
LINE
  5
2C8
100
AcDbEntity
  8
0
  6
CONTINUOUS
 62
               4
100
AcDbLine
 10
-92.203563944478759
 20
85.452754138686984
 30
0.0
 11
-92.203563944478759
 21
89.553764237353732
 31
0.0
  0
LINE
  5
2C9
100
AcDbEntity
  8
0
  6
CONTINUOUS
 62
               4
100
AcDbLine
 10
-76.209624559678787
 20
90.451744034820706
 30
0.0
 11
-83.704574050345457
 21
90.451744034820607
 31
0.0
  0
LINE
  5
2CA
100
AcDbEntity
  8
0
  6
CONTINUOUS
 62
               4
100
AcDbLine
 10
-99.705584142212018
 20
87.305279390153544
 30
0.0
 11
-99.705584142212132
 21
88.606289490420238
 31
0.0
  0
LINE
  5
2CB
100
AcDbEntity
  8
0
  6
CONTINUOUS
 62
               4
100
AcDbLine
 10
-72.509624378643309
 20
92.850733944954015
 30
0.0
 11
-72.509624378643309
 21
93.450733944954038
 31
0.0
  0
ARC
  5
2CC
100
AcDbEntity
  8
0
  6
CONTINUOUS
 62
               4
100
AcDbCircle
 10
-73.608536373406196
 20
92.851821950191024
 30
0.0
 40
0.5989129830170392
100
AcDbArc
 50
359.89591452477299
 51
90.104085475226924
  0
LINE
  5
2CD
100
AcDbEntity
  8
0
  6
CONTINUOUS
 62
               4
100
AcDbLine
 10
-103.20558414221213
 20
88.204967057474363
 30
0.0
 11
-103.20558414221213
 21
87.704967057474363
 31
0.0
  0
LINE
  5
2CE
100
AcDbEntity
  8
0
  6
CONTINUOUS
 62
               4
100
AcDbLine
 10
-99.705584142212075
 20
88.204967057474363
 30
0.0
 11
-103.20558414221213
 21
88.204967057474363
 31
0.0
  0
LINE
  5
2CF
100
AcDbEntity
  8
0
  6
CONTINUOUS
 62
               4
100
AcDbLine
 10
-99.705584142212075
 20
87.704967057474363
 30
0.0
 11
-103.20558414221213
 21
87.704967057474363
 31
0.0
  0
LINE
  5
2D0
100
AcDbEntity
  8
0
  6
CONTINUOUS
 62
               4
100
AcDbLine
 10
-84.206594252078787
 20
89.949723833087205
 30
0.0
 11
-84.20659425207856
 21
73.602249094953947
 31
0.0
  0
LINE
  5
2D1
100
AcDbEntity
  8
0
  6
CONTINUOUS
 62
               4
100
AcDbLine
 10
-62.209624567678475
 20
70.950733944954152
 30
0.0
 11
-79.094473042878406
 21
70.950733944954152
 31
0.0
  0
ARC
  5
2D2
100
AcDbEntity
  8
0
  6
CONTINUOUS
 62
               4
100
AcDbCircle
 10
-79.094473042878406
 20
71.450733944953967
 30
0.0
 40
0.5
100
AcDbArc
 50
244.9792168389325
 51
269.99999999999937
  0
LINE
  5
2D3
100
AcDbEntity
  8
0
  6
CENTER
 62
               2
100
AcDbLine
 10
-48.009624575503182
 20
59.150733944954169
 30
0.0
 11
-43.009624574482217
 21
59.150733944954169
 31
0.0
  0
LINE
  5
2D4
100
AcDbEntity
  8
0
  6
CENTER
 62
               2
100
AcDbLine
 10
-48.009624575503182
 20
32.150733944954169
 30
0.0
 11
-43.009624574482217
 21
32.150733944954169
 31
0.0
  0
LINE
  5
2D5
100
AcDbEntity
  8
0
  6
CENTER
 62
               2
100
AcDbLine
 10
-58.254067534955709
 20
38.350733944954172
 30
0.0
 11
-65.549112132621303
 21
38.350733944954172
 31
0.0
  0
LINE
  5
2D6
100
AcDbEntity
  8
0
  6
CENTER
 62
               2
100
AcDbLine
 10
-58.254067534955709
 20
52.950733944954166
 30
0.0
 11
-65.549112132621303
 21
52.950733944954166
 31
0.0
  0
LINE
  5
2D7
100
AcDbEntity
  8
0
  6
CONTINUOUS
 62
               7
100
AcDbLine
 10
-212.43598377889316
 20
29.820733944954242
 30
0.0
 11
-212.43598377889316
 21
30.350733944954214
 31
0.0
  0
ARC
  5
2D8
100
AcDbEntity
  8
0
  6
CONTINUOUS
 62
               7
100
AcDbCircle
 10
-211.82421178305924
 20
29.819896662925231
 30
0.0
 40
0.6117725687931934
100
AcDbArc
 50
179.9215840265656
 51
253.6933839081498
  0
ARC
  5
2D9
100
AcDbEntity
  8
0
  6
CONTINUOUS
 62
               7
100
AcDbCircle
 10
-210.71598377889316
 20
33.638155181688177
 30
0.0
 40
4.5876068132596712
100
AcDbArc
 50
253.7987189241569
 51
286.20128107584202
  0
LINE
  5
2DA
100
AcDbEntity
  8
0
  6
CONTINUOUS
 62
               7
100
AcDbLine
 10
-208.99598377889316
 20
30.350733944954214
 30
0.0
 11
-212.5159837788932
 21
30.350733944954214
 31
0.0
  0
LINE
  5
2DB
100
AcDbEntity
  8
0
  6
CONTINUOUS
 62
               7
100
AcDbLine
 10
-212.5159837788932
 20
28.050733944954146
 30
0.0
 11
-212.5159837788932
 21
30.350733944954214
 31
0.0
  0
ARC
  5
2DC
100
AcDbEntity
  8
0
  6
CONTINUOUS
 62
               7
100
AcDbCircle
 10
-209.60653774700222
 20
29.818985213607249
 30
0.0
 40
0.6105564724372723
100
AcDbArc
 50
286.22092756849014
 51
0.1641044967937703
  0
LINE
  5
2DD
100
AcDbEntity
  8
0
  6
CONTINUOUS
 62
               7
100
AcDbLine
 10
-222.99598377889316
 20
28.450733944954123
 30
0.0
 11
-222.99598377889316
 21
57.750733944954135
 31
0.0
  0
LINE
  5
2DE
100
AcDbEntity
  8
0
  6
CONTINUOUS
 62
               7
100
AcDbLine
 10
-208.99598377889316
 20
28.450733944954123
 30
0.0
 11
-208.99598377889316
 21
57.750733944954135
 31
0.0
  0
LINE
  5
2DF
100
AcDbEntity
  8
0
  6
CONTINUOUS
 62
               7
100
AcDbLine
 10
-208.99598377889316
 20
57.750733944954135
 30
0.0
 11
-208.99598377889316
 21
70.950733944954123
 31
0.0
  0
LINE
  5
2E0
100
AcDbEntity
  8
0
  6
CONTINUOUS
 62
               7
100
AcDbLine
 10
-207.39598377889314
 20
64.950733944954123
 30
0.0
 11
-208.99598377889316
 21
63.350733944954129
 31
0.0
  0
ARC
  5
2E1
100
AcDbEntity
  8
0
  6
CONTINUOUS
 62
               7
100
AcDbCircle
 10
-222.59695714591982
 20
28.449760577927492
 30
0.0
 40
0.3990278201647513
100
AcDbArc
 50
179.8602356150773
 51
270.1397643849217
  0
LINE
  5
2E2
100
AcDbEntity
  8
0
  6
CONTINUOUS
 62
               7
100
AcDbLine
 10
-222.59598377889316
 20
28.050733944954146
 30
0.0
 11
-209.3959837788932
 21
28.050733944954146
 31
0.0
  0
LINE
  5
2E3
100
AcDbEntity
  8
0
  6
CONTINUOUS
 62
               7
100
AcDbLine
 10
-222.99598377889316
 20
33.550733944954146
 30
0.0
 11
-208.99598377889316
 21
33.550733944954146
 31
0.0
  0
LINE
  5
2E4
100
AcDbEntity
  8
0
  6
CONTINUOUS
 62
               7
100
AcDbLine
 10
-222.99598377889316
 20
57.750733944954135
 30
0.0
 11
-208.99598377889316
 21
57.750733944954135
 31
0.0
  0
ARC
  5
2E5
100
AcDbEntity
  8
0
  6
CONTINUOUS
 62
               7
100
AcDbCircle
 10
-209.39501041186654
 20
28.449760577927492
 30
0.0
 40
0.3990278201647513
100
AcDbArc
 50
269.8602356150771
 51
0.1397643849223044
  0
LINE
  5
2E6
100
AcDbEntity
  8
0
  6
CONTINUOUS
 62
               4
100
AcDbLine
 10
-222.99598659541994
 20
70.950733944954123
 30
0.0
 11
-206.11113530369323
 21
70.950733944954123
 31
0.0
  0
LINE
  5
2E7
100
AcDbEntity
  8
0
  6
CONTINUOUS
 62
               7
100
AcDbLine
 10
-222.99598377889316
 20
57.750733944954135
 30
0.0
 11
-222.99598377889316
 21
70.950733944954123
 31
0.0
  0
LINE
  5
2E8
100
AcDbEntity
  8
0
  6
CONTINUOUS
 62
               7
100
AcDbLine
 10
-207.39598377889314
 20
64.950733944954123
 30
0.0
 11
-207.39598377889314
 21
70.950733944954123
 31
0.0
  0
LINE
  5
2E9
100
AcDbEntity
  8
0
  6
CONTINUOUS
 62
               7
100
AcDbLine
 10
-209.99598377984682
 20
54.550733944954132
 30
0.0
 11
-208.99598377889316
 21
54.550733944954132
 31
0.0
  0
LINE
  5
2EA
100
AcDbEntity
  8
0
  6
CONTINUOUS
 62
               7
100
AcDbLine
 10
-209.99598377984682
 20
51.350733944954143
 30
0.0
 11
-208.99598377889316
 21
51.350733944954143
 31
0.0
  0
LINE
  5
2EB
100
AcDbEntity
  8
0
  6
CONTINUOUS
 62
               7
100
AcDbLine
 10
-209.99598377889316
 20
54.550733944954132
 30
0.0
 11
-209.99598377889316
 21
51.350733944954143
 31
0.0
  0
LINE
  5
2EC
100
AcDbEntity
  8
0
  6
CENTER
 62
               2
100
AcDbLine
 10
-215.99598377889316
 20
26.859777843479236
 30
0.0
 11
-215.99598377889316
 21
94.133665923844404
 31
0.0
  0
LINE
  5
2ED
100
AcDbEntity
  8
0
  6
CONTINUOUS
 62
               7
100
AcDbLine
 10
-222.99598377889316
 20
33.649760678352607
 30
0.0
 11
-223.69598377889315
 21
33.649760678352607
 31
0.0
  0
LINE
  5
2EE
100
AcDbEntity
  8
0
  6
CONTINUOUS
 62
               7
100
AcDbLine
 10
-222.99598377889316
 20
57.649760678352578
 30
0.0
 11
-223.69598377889315
 21
57.649760678352578
 31
0.0
  0
LINE
  5
2EF
100
AcDbEntity
  8
0
  6
CENTER
 62
               2
100
AcDbLine
 10
-234.69598377889315
 20
45.850733944954158
 30
0.0
 11
-234.69598377889315
 21
53.850733944954158
 31
0.0
  0
LINE
  5
2F0
100
AcDbEntity
  8
0
  6
CONTINUOUS
 62
               7
100
AcDbLine
 10
-223.69598377889315
 20
29.150733944954169
 30
0.0
 11
-223.69598377889315
 21
62.150733944954169
 31
0.0
  0
LINE
  5
2F1
100
AcDbEntity
  8
0
  6
CONTINUOUS
 62
               7
100
AcDbLine
 10
-239.69598377889315
 20
29.150733944954169
 30
0.0
 11
-239.69598377889315
 21
62.150733944954169
 31
0.0
  0
LINE
  5
2F2
100
AcDbEntity
  8
0
  6
CENTER
 62
               2
100
AcDbLine
 10
-238.69598377889315
 20
49.850733944954158
 30
0.0
 11
-230.69598377889315
 21
49.850733944954158
 31
0.0
  0
LINE
  5
2F3
100
AcDbEntity
  8
0
  6
CENTER
 62
               2
100
AcDbLine
 10
-232.69598377889315
 20
41.45073394495418
 30
0.0
 11
-224.69598377889315
 21
41.45073394495418
 31
0.0
  0
CIRCLE
  5
2F4
100
AcDbEntity
  8
0
  6
CONTINUOUS
 62
               2
100
AcDbCircle
 10
-228.69598377889315
 20
41.45073394495418
 30
0.0
 40
2.5
  0
CIRCLE
  5
2F5
100
AcDbEntity
  8
0
  6
CONTINUOUS
 62
               2
100
AcDbCircle
 10
-234.69598377889315
 20
49.850733944954158
 30
0.0
 40
2.5
  0
CIRCLE
  5
2F6
100
AcDbEntity
  8
0
  6
CONTINUOUS
 62
               7
100
AcDbCircle
 10
-234.69598377889315
 20
49.850733944954158
 30
0.0
 40
2.1000000000000001
  0
CIRCLE
  5
2F7
100
AcDbEntity
  8
0
  6
CONTINUOUS
 62
               7
100
AcDbCircle
 10
-228.69598377889315
 20
41.45073394495418
 30
0.0
 40
2.1000000000000001
  0
LINE
  5
2F8
100
AcDbEntity
  8
0
  6
CENTER
 62
               2
100
AcDbLine
 10
-228.69598377889315
 20
37.45073394495418
 30
0.0
 11
-228.69598377889315
 21
45.45073394495418
 31
0.0
  0
LINE
  5
2F9
100
AcDbEntity
  8
0
  6
CONTINUOUS
 62
               7
100
AcDbLine
 10
-239.69598379270258
 20
62.150733944954169
 30
0.0
 11
-223.69598379270258
 21
62.150733944954169
 31
0.0
  0
LINE
  5
2FA
100
AcDbEntity
  8
0
  6
CONTINUOUS
 62
               7
100
AcDbLine
 10
-239.69598379270258
 20
29.150733944954169
 30
0.0
 11
-223.69598377889315
 21
29.150733944954169
 31
0.0
  0
LINE
  5
2FB
100
AcDbEntity
  8
0
  6
CONTINUOUS
 62
               7
100
AcDbLine
 10
-209.39598377889317
 20
54.050733944000442
 30
0.0
 11
-209.39598377889317
 21
51.850733944000453
 31
0.0
  0
LINE
  5
2FC
100
AcDbEntity
  8
0
  6
CONTINUOUS
 62
               7
100
AcDbLine
 10
-209.99598377889316
 20
54.450733944000447
 30
0.0
 11
-209.79598377889317
 21
54.450733944000447
 31
0.0
  0
LINE
  5
2FD
100
AcDbEntity
  8
0
  6
CONTINUOUS
 62
               7
100
AcDbLine
 10
-209.99598377889316
 20
51.450733944000447
 30
0.0
 11
-209.79598377889317
 21
51.450733944000447
 31
0.0
  0
ARC
  5
2FE
100
AcDbEntity
  8
0
  6
CONTINUOUS
 62
               7
100
AcDbCircle
 10
-209.79598377889317
 20
54.050733944000442
 30
0.0
 40
0.4
100
AcDbArc
 50
0.0
 51
89.999999999999815
  0
ARC
  5
2FF
100
AcDbEntity
  8
0
  6
CONTINUOUS
 62
               7
100
AcDbCircle
 10
-209.79598377889317
 20
51.850733944000453
 30
0.0
 40
0.4
100
AcDbArc
 50
270.00000000000023
 51
0.0
  0
LINE
  5
300
100
AcDbEntity
  8
0
  6
CONTINUOUS
 62
               4
100
AcDbLine
 10
-200.99901409449285
 20
89.949723833087177
 30
0.0
 11
-200.99901409449308
 21
73.602249094953919
 31
0.0
  0
LINE
  5
301
100
AcDbEntity
  8
0
  6
CONTINUOUS
 62
               4
100
AcDbLine
 10
-206.11113530369323
 20
70.950733944953939
 30
0.0
 11
-206.11113530369289
 21
90.451744034820635
 31
0.0
  0
LINE
  5
302
100
AcDbEntity
  8
0
  6
CONTINUOUS
 62
               4
100
AcDbLine
 10
-222.99598377889316
 20
70.950733944954237
 30
0.0
 11
-222.99598377889276
 21
92.850733944954214
 31
0.0
  0
LINE
  5
303
100
AcDbEntity
  8
0
  6
CONTINUOUS
 62
               4
100
AcDbLine
 10
-208.99598378689279
 20
92.850733944953959
 30
0.0
 11
-208.99598378689319
 21
70.950733944953981
 31
0.0
  0
LINE
  5
304
100
AcDbEntity
  8
0
  6
CONTINUOUS
 62
               4
100
AcDbLine
 10
-185.50002420435956
 20
87.704967057474335
 30
0.0
 11
-182.00002420435951
 21
87.704967057474335
 31
0.0
  0
LINE
  5
305
100
AcDbEntity
  8
0
  6
CONTINUOUS
 62
               4
100
AcDbLine
 10
-185.50002420435956
 20
88.204967057474335
 30
0.0
 11
-182.00002420435951
 21
88.204967057474335
 31
0.0
  0
LINE
  5
306
100
AcDbEntity
  8
0
  6
CONTINUOUS
 62
               4
100
AcDbLine
 10
-182.00002420435951
 20
88.204967057474335
 30
0.0
 11
-182.00002420435951
 21
87.704967057474335
 31
0.0
  0
ARC
  5
307
100
AcDbEntity
  8
0
  6
CONTINUOUS
 62
               4
100
AcDbCircle
 10
-220.39489558462088
 20
92.851821950190995
 30
0.0
 40
0.5989129830170392
100
AcDbArc
 50
359.89591452477299
 51
90.104085475226924
  0
LINE
  5
308
100
AcDbEntity
  8
0
  6
CONTINUOUS
 62
               4
100
AcDbLine
 10
-219.295983589858
 20
92.850733944953987
 30
0.0
 11
-219.295983589858
 21
93.45073394495401
 31
0.0
  0
LINE
  5
309
100
AcDbEntity
  8
0
  6
CONTINUOUS
 62
               4
100
AcDbLine
 10
-185.50002420435962
 20
87.305279390153515
 30
0.0
 11
-185.50002420435951
 21
88.60628949042021
 31
0.0
  0
LINE
  5
30A
100
AcDbEntity
  8
0
  6
CONTINUOUS
 62
               4
100
AcDbLine
 10
-208.99598378689285
 20
90.451744034820678
 30
0.0
 11
-201.50103429622618
 21
90.451744034820578
 31
0.0
  0
LINE
  5
30B
100
AcDbEntity
  8
0
  6
CONTINUOUS
 62
               4
100
AcDbLine
 10
-193.00204440209288
 20
85.452754138686956
 30
0.0
 11
-193.00204440209288
 21
89.553764237353704
 31
0.0
  0
LINE
  5
30C
100
AcDbEntity
  8
0
  6
CONTINUOUS
 62
               4
100
AcDbLine
 10
-199.60608480235942
 20
91.55477433722055
 30
0.0
 11
-194.50103430022611
 21
92.452754134687112
 31
0.0
  0
LINE
  5
30D
100
AcDbEntity
  8
0
  6
CONTINUOUS
 62
               4
100
AcDbLine
 10
-193.00204440209276
 20
91.455784438286997
 30
0.0
 11
-193.00204440209276
 21
92.452754134687069
 31
0.0
  0
LINE
  5
30E
100
AcDbEntity
  8
0
  6
CONTINUOUS
 62
               4
100
AcDbLine
 10
-200.66669086235947
 20
90.35275413588711
 30
0.0
 11
-194.32426662355951
 21
91.469925852420374
 31
0.0
  0
LINE
  5
30F
100
AcDbEntity
  8
0
  6
CONTINUOUS
 62
               4
100
AcDbLine
 10
-202.00305449795945
 20
90.550733933753861
 30
0.0
 11
-207.70204439369286
 21
90.550733933753961
 31
0.0
  0
LINE
  5
310
100
AcDbEntity
  8
0
  6
CONTINUOUS
 62
               4
100
AcDbLine
 10
-193.00204440209288
 20
89.553764237353704
 30
0.0
 11
-193.2990140988928
 21
89.850733934153681
 31
0.0
  0
LINE
  5
311
100
AcDbEntity
  8
0
  6
CONTINUOUS
 62
               4
100
AcDbLine
 10
-193.99901409849289
 20
85.452754138686998
 30
0.0
 11
-193.99901409849289
 21
86.053764239353711
 31
0.0
  0
LINE
  5
312
100
AcDbEntity
  8
0
  6
CONTINUOUS
 62
               4
100
AcDbLine
 10
-193.99901409849289
 20
86.053764239353711
 30
0.0
 11
-198.99800399462629
 21
86.053764239353839
 31
0.0
  0
LINE
  5
313
100
AcDbEntity
  8
0
  6
CONTINUOUS
 62
               4
100
AcDbLine
 10
-198.99800399462629
 20
85.452754138687069
 30
0.0
 11
-198.99800399462629
 21
86.053764239353839
 31
0.0
  0
LINE
  5
314
100
AcDbEntity
  8
0
  6
CONTINUOUS
 62
               4
100
AcDbLine
 10
-199.5000241963595
 20
89.553764237353818
 30
0.0
 11
-199.20305449955953
 21
89.85073393415378
 31
0.0
  0
LINE
  5
315
100
AcDbEntity
  8
0
  6
CONTINUOUS
 62
               4
100
AcDbLine
 10
-199.60608480235942
 20
91.55477433722055
 30
0.0
 11
-208.69901409009287
 21
91.554774337220721
 31
0.0
  0
LINE
  5
316
100
AcDbEntity
  8
0
  6
CONTINUOUS
 62
               4
100
AcDbLine
 10
-207.70204439369286
 20
90.451744034820692
 30
0.0
 11
-207.70204439369286
 21
90.550733933753961
 31
0.0
  0
LINE
  5
317
100
AcDbEntity
  8
0
  6
CONTINUOUS
 62
               4
100
AcDbLine
 10
-188.43436763702627
 20
87.305279390153572
 30
0.0
 11
-193.00204440209288
 21
87.305279390153629
 31
0.0
  0
LINE
  5
318
100
AcDbEntity
  8
0
  6
CONTINUOUS
 62
             200
100
AcDbLine
 10
-189.67174137369281
 20
89.454774338420251
 30
0.0
 11
-187.93941814235959
 21
86.449723835086957
 31
0.0
  0
LINE
  5
319
100
AcDbEntity
  8
0
  6
CONTINUOUS
 62
               4
100
AcDbLine
 10
-189.18386258609289
 20
88.606289490420266
 30
0.0
 11
-193.00204440209288
 21
88.606289490420352
 31
0.0
  0
LINE
  5
31A
100
AcDbEntity
  8
0
  6
CONTINUOUS
 62
               4
100
AcDbLine
 10
-193.00204440209276
 20
92.452754134687069
 30
0.0
 11
-194.50103430022611
 21
92.452754134687112
 31
0.0
  0
LINE
  5
31B
100
AcDbEntity
  8
0
  6
CONTINUOUS
 62
               4
100
AcDbLine
 10
-193.00204440209276
 20
91.455784438286997
 30
0.0
 11
-194.40911510835949
 21
91.45578443828704
 31
0.0
  0
LINE
  5
31C
100
AcDbEntity
  8
0
  6
CONTINUOUS
 62
               4
100
AcDbLine
 10
-193.2990140988928
 20
89.850733934153681
 30
0.0
 11
-199.20305449955953
 21
89.85073393415378
 31
0.0
  0
LINE
  5
31D
100
AcDbEntity
  8
0
  6
CONTINUOUS
 62
               4
100
AcDbLine
 10
-193.00204440209288
 20
89.553764237353704
 30
0.0
 11
-200.59598379169279
 21
89.553764237353818
 31
0.0
  0
LINE
  5
31E
100
AcDbEntity
  8
0
  6
CONTINUOUS
 62
               4
100
AcDbLine
 10
-193.00204440209288
 20
88.853764237753722
 30
0.0
 11
-200.99901409449285
 21
88.853764237753893
 31
0.0
  0
LINE
  5
31F
100
AcDbEntity
  8
0
  6
CONTINUOUS
 62
               4
100
AcDbLine
 10
-193.00204440209288
 20
87.050733935753726
 30
0.0
 11
-200.99901409449285
 21
87.050733935753868
 31
0.0
  0
LINE
  5
320
100
AcDbEntity
  8
0
  6
CONTINUOUS
 62
               4
100
AcDbLine
 10
-200.99901409449291
 20
85.452754138687141
 30
0.0
 11
-198.99800399462629
 21
85.452754138687069
 31
0.0
  0
LINE
  5
321
100
AcDbEntity
  8
0
  6
CONTINUOUS
 62
               4
100
AcDbLine
 10
-193.99901409849289
 20
85.452754138686998
 30
0.0
 11
-193.00204440209288
 21
85.452754138686956
 31
0.0
  0
ARC
  5
322
100
AcDbEntity
  8
0
  6
CONTINUOUS
 62
               4
100
AcDbCircle
 10
-201.49565094597153
 20
89.955107183341866
 30
0.0
 40
0.4966660273328702
100
AcDbArc
 50
359.37896036356273
 51
90.621039636432627
  0
ARC
  5
323
100
AcDbEntity
  8
0
  6
CONTINUOUS
 62
               4
100
AcDbCircle
 10
-208.69655249517541
 20
91.255318074372667
 30
0.0
 40
0.2994663800970315
100
AcDbArc
 50
90.470973028463291
 51
180.87710076750477
  0
ARC
  5
324
100
AcDbEntity
  8
0
  6
CONTINUOUS
 62
               4
100
AcDbCircle
 10
-201.99607127275567
 20
90.055768270046485
 30
0.0
 40
0.4950149226876426
100
AcDbArc
 50
53.123124741163664
 51
90.808304124577461
  0
ARC
  5
325
100
AcDbEntity
  8
0
  6
CONTINUOUS
 62
               4
100
AcDbCircle
 10
-200.59608786051376
 20
89.956061176558336
 30
0.0
 40
0.4029269013737999
100
AcDbArc
 50
100.09177155739488
 51
179.89571641424939
  0
ARC
  5
326
100
AcDbEntity
  8
0
  6
CONTINUOUS
 62
               4
100
AcDbCircle
 10
-200.59514974753847
 20
89.957628584308168
 30
0.0
 40
0.403865208170398
100
AcDbArc
 50
180.1183247355136
 51
269.88167526448467
  0
LINE
  5
327
100
AcDbEntity
  8
0
  6
CONTINUOUS
 62
             200
100
AcDbLine
 10
-189.32527672742614
 20
89.454774338420293
 30
0.0
 11
-187.5929534960928
 21
86.456794542153574
 31
0.0
  0
LINE
  5
328
100
AcDbEntity
  8
0
  6
CONTINUOUS
 62
               4
100
AcDbLine
 10
-210.99598377489349
 20
91.850733944954143
 30
0.0
 11
-222.99598377089353
 21
91.85073394495393
 31
0.0
  0
LINE
  5
329
100
AcDbEntity
  8
0
  6
CONTINUOUS
 62
               4
100
AcDbLine
 10
-210.99598377489349
 20
93.450733944954194
 30
0.0
 11
-210.99598377489349
 21
91.850733944954143
 31
0.0
  0
LINE
  5
32A
100
AcDbEntity
  8
0
  6
CONTINUOUS
 62
               4
100
AcDbLine
 10
-209.49598377889356
 20
93.350733944954243
 30
0.0
 11
-210.99598377489349
 21
93.3507339449542
 31
0.0
  0
ARC
  5
32B
100
AcDbEntity
  8
0
  6
CONTINUOUS
 62
               4
100
AcDbCircle
 10
-209.49598377889356
 20
92.850733944954186
 30
0.0
 40
0.5
100
AcDbArc
 50
0.0000000000010687
 51
90.000000000000867
  0
LINE
  5
32C
100
AcDbEntity
  8
0
  6
CONTINUOUS
 62
               4
100
AcDbLine
 10
-209.79598386489351
 20
93.450733944954237
 30
0.0
 11
-222.19598368489352
 21
93.45073394495401
 31
0.0
  0
ARC
  5
32D
100
AcDbEntity
  8
0
  6
CONTINUOUS
 62
               4
100
AcDbCircle
 10
-222.49598377089359
 20
92.850733944953987
 30
0.0
 40
0.5
100
AcDbArc
 50
93.919585899651864
 51
180.00000000000065
  0
LINE
  5
32E
100
AcDbEntity
  8
0
  6
CONTINUOUS
 62
               4
100
AcDbLine
 10
-219.295983589858
 20
92.850733944954015
 30
0.0
 11
-222.99598377089353
 21
92.850733944953959
 31
0.0
  0
ARC
  5
32F
100
AcDbEntity
  8
0
  6
CONTINUOUS
 62
               4
100
AcDbCircle
 10
-222.1970716900218
 20
92.85182195008224
 30
0.0
 40
0.598912923125741
100
AcDbArc
 50
89.895914524773801
 51
180.10408547522775
  0
ARC
  5
330
100
AcDbEntity
  8
0
  6
CONTINUOUS
 62
               4
100
AcDbCircle
 10
-209.79588871824484
 20
92.85082909160289
 30
0.0
 40
0.599904800896587
100
AcDbArc
 50
56.247417870394948
 51
90.009087277547238
  0
LINE
  5
331
100
AcDbEntity
  8
0
  6
CONTINUOUS
 62
               4
100
AcDbLine
 10
-185.50002420435962
 20
87.305279390153515
 30
0.0
 11
-188.0879029907596
 21
87.305279390153544
 31
0.0
  0
LINE
  5
332
100
AcDbEntity
  8
0
  6
CONTINUOUS
 62
               4
100
AcDbLine
 10
-185.50002420435951
 20
88.60628949042021
 30
0.0
 11
-188.8373979398261
 21
88.606289490420266
 31
0.0
  0
LINE
  5
333
100
AcDbEntity
  8
0
  6
CONTINUOUS
 62
               4
100
AcDbLine
 10
-201.28737416856507
 20
73.150438950865649
 30
0.0
 11
-205.89966181213654
 21
70.99765673037696
 31
0.0
  0
ARC
  5
334
100
AcDbEntity
  8
0
  6
CONTINUOUS
 62
               4
100
AcDbCircle
 10
-201.49872641733634
 20
73.603256405493042
 30
0.0
 40
0.4997133381008656
100
AcDbArc
 50
294.82621530980788
 51
359.88450442035526
  0
ARC
  5
335
100
AcDbEntity
  8
0
  6
CONTINUOUS
 62
               4
100
AcDbCircle
 10
-206.11113530369323
 20
71.450733944953939
 30
0.0
 40
0.5
100
AcDbArc
 50
269.99999999999937
 51
295.02078316106633
  0
LINE
  5
336
100
AcDbEntity
  8
0
  6
CENTER
 62
               2
100
AcDbLine
 10
-242.19598380118586
 20
59.150733944954169
 30
0.0
 11
-237.19598377889315
 21
59.150733944954169
 31
0.0
  0
LINE
  5
337
100
AcDbEntity
  8
0
  6
CENTER
 62
               2
100
AcDbLine
 10
-242.19598380118586
 20
32.150733944954169
 30
0.0
 11
-237.19598377889315
 21
32.150733944954169
 31
0.0
  0
LINE
  5
338
100
AcDbEntity
  8
0
  6
CENTER
 62
               2
100
AcDbLine
 10
-220.78151018291345
 20
52.950733944954166
 30
0.0
 11
-226.16056891170368
 21
52.950733944954166
 31
0.0
  0
LINE
  5
339
100
AcDbEntity
  8
0
  6
CENTER
 62
               2
100
AcDbLine
 10
-220.78151018291345
 20
38.350733944954172
 30
0.0
 11
-226.16056891170368
 21
38.350733944954172
 31
0.0
  0
LINE
  5
33A
100
AcDbEntity
  8
0
  6
CONTINUOUS
 62
               7
100
AcDbLine
 10
-141.10280417328582
 20
28.250733944954163
 30
0.0
 11
-141.10280417328582
 21
37.454064050648896
 31
0.0
  0
LINE
  5
33B
100
AcDbEntity
  8
0
  6
CONTINUOUS
 62
               7
100
AcDbLine
 10
-151.10280417328582
 20
30.350733944954158
 30
0.0
 11
-151.10280417328582
 21
52.051401194403155
 31
0.0
  0
ARC
  5
33C
100
AcDbEntity
  8
0
  6
CONTINUOUS
 62
               7
100
AcDbCircle
 10
-141.30280417328584
 20
28.250733944954163
 30
0.0
 40
0.2
100
AcDbArc
 50
269.99999999999937
 51
0.0
  0
ARC
  5
33D
100
AcDbEntity
  8
0
  6
CONTINUOUS
 62
               7
100
AcDbCircle
 10
-150.90280417328583
 20
28.250733944954163
 30
0.0
 40
0.2
100
AcDbArc
 50
179.99999999999963
 51
269.99999999999937
  0
CIRCLE
  5
33E
100
AcDbEntity
  8
0
  6
CONTINUOUS
 62
               7
100
AcDbCircle
 10
-146.10280417328582
 20
68.650733944954169
 30
0.0
 40
0.7500000000000001
  0
CIRCLE
  5
33F
100
AcDbEntity
  8
0
  6
CONTINUOUS
 62
               7
100
AcDbCircle
 10
-146.10280417328582
 20
68.650733944954169
 30
0.0
 40
1.1000000000000001
  0
LINE
  5
340
100
AcDbEntity
  8
0
  6
CENTER
 62
               2
100
AcDbLine
 10
-146.10280417328582
 20
26.859777843479236
 30
0.0
 11
-146.10280417328582
 21
94.148733944954159
 31
0.0
  0
ARC
  5
341
100
AcDbEntity
  8
0
  6
CONTINUOUS
 62
               7
100
AcDbCircle
 10
-150.80369931014471
 20
30.649838808095268
 30
0.0
 40
0.2991062025847394
100
AcDbArc
 50
179.82853033398985
 51
270.17146966600922
  0
LINE
  5
342
100
AcDbEntity
  8
0
  6
CONTINUOUS
 62
               7
100
AcDbLine
 10
-151.10280417328582
 20
28.250733944954163
 30
0.0
 11
-151.10280417328582
 21
29.663984514300097
 31
0.0
  0
LINE
  5
343
100
AcDbEntity
  8
0
  6
CONTINUOUS
 62
               7
100
AcDbLine
 10
-147.60280417328582
 20
28.050733944954146
 30
0.0
 11
-147.60280417328582
 21
30.350733944954158
 31
0.0
  0
LINE
  5
344
100
AcDbEntity
  8
0
  6
CONTINUOUS
 62
               7
100
AcDbLine
 10
-151.12280417328583
 20
30.350733944954158
 30
0.0
 11
-147.60280417328582
 21
30.350733944954158
 31
0.0
  0
LINE
  5
345
100
AcDbEntity
  8
0
  6
CONTINUOUS
 62
               7
100
AcDbLine
 10
-151.10280417328582
 20
57.750733944954163
 30
0.0
 11
-141.10280417328582
 21
57.750733944954163
 31
0.0
  0
LINE
  5
346
100
AcDbEntity
  8
0
  6
CONTINUOUS
 62
               7
100
AcDbLine
 10
-151.10280417328582
 20
33.550733944954175
 30
0.0
 11
-141.10280417328582
 21
33.550733944954175
 31
0.0
  0
LINE
  5
347
100
AcDbEntity
  8
0
  6
CONTINUOUS
 62
               7
100
AcDbLine
 10
-141.30280417328584
 20
28.050733944954146
 30
0.0
 11
-150.90280417328583
 21
28.050733944954146
 31
0.0
  0
CIRCLE
  5
348
100
AcDbEntity
  8
0
  6
CONTINUOUS
 62
               7
100
AcDbCircle
 10
-146.10280417328582
 20
68.650733944954169
 30
0.0
 40
1.1500000000000001
  0
CIRCLE
  5
349
100
AcDbEntity
  8
0
  6
CONTINUOUS
 62
               7
100
AcDbCircle
 10
-146.10280417328582
 20
68.650733944954169
 30
0.0
 40
1.3000000000000012
  0
LINE
  5
34A
100
AcDbEntity
  8
0
  6
CENTER
 62
               2
100
AcDbLine
 10
-144.4028041732858
 20
68.650733944954169
 30
0.0
 11
-147.80280417328584
 21
68.650733944954169
 31
0.0
  0
ARC
  5
34B
100
AcDbEntity
  8
0
  6
CONTINUOUS
 62
               7
100
AcDbCircle
 10
-146.10280417328582
 20
66.95073394495418
 30
0.0
 40
3.6000000000000005
100
AcDbArc
 50
179.99999999999963
 51
0.0
  0
ARC
  5
34C
100
AcDbEntity
  8
0
  6
CONTINUOUS
 62
               7
100
AcDbCircle
 10
-146.10280417328582
 20
66.95073394495418
 30
0.0
 40
2.0
100
AcDbArc
 50
179.99999999999963
 51
0.0
  0
LINE
  5
34D
100
AcDbEntity
  8
0
  6
CONTINUOUS
 62
               7
100
AcDbLine
 10
-142.50280417328582
 20
66.95073394495418
 30
0.0
 11
-142.50280417328582
 21
70.95073394495418
 31
0.0
  0
LINE
  5
34E
100
AcDbEntity
  8
0
  6
CONTINUOUS
 62
               7
100
AcDbLine
 10
-149.70280417328581
 20
66.95073394495418
 30
0.0
 11
-149.70280417328581
 21
70.95073394495418
 31
0.0
  0
LINE
  5
34F
100
AcDbEntity
  8
0
  6
CONTINUOUS
 62
               7
100
AcDbLine
 10
-144.10280417328582
 20
66.95073394495418
 30
0.0
 11
-144.10280417328582
 21
70.95073394495418
 31
0.0
  0
LINE
  5
350
100
AcDbEntity
  8
0
  6
CONTINUOUS
 62
               7
100
AcDbLine
 10
-148.10280417328585
 20
66.95073394495418
 30
0.0
 11
-148.10280417328585
 21
70.95073394495418
 31
0.0
  0
LINE
  5
351
100
AcDbEntity
  8
0
  6
CONTINUOUS
 62
               4
100
AcDbLine
 10
-141.10280417328582
 20
70.95073394495418
 30
0.0
 11
-151.10280417328582
 21
70.95073394495418
 31
0.0
  0
ARC
  5
352
100
AcDbEntity
  8
0
  6
CONTINUOUS
 62
               7
100
AcDbCircle
 10
-149.4028041732858
 20
33.63815518168812
 30
0.0
 40
4.5876068132596712
100
AcDbArc
 50
253.79871892415684
 51
286.20128107584191
  0
ARC
  5
353
100
AcDbEntity
  8
0
  6
CONTINUOUS
 62
               7
100
AcDbCircle
 10
-148.29457616911975
 20
29.819896662925117
 30
0.0
 40
0.6117725687931934
100
AcDbArc
 50
286.30661609184898
 51
0.0784159734340139
  0
LINE
  5
354
100
AcDbEntity
  8
0
  6
CONTINUOUS
 62
               7
100
AcDbLine
 10
-147.68280417328583
 20
29.820733944954156
 30
0.0
 11
-147.68280417328583
 21
30.350733944954158
 31
0.0
  0
ARC
  5
355
100
AcDbEntity
  8
0
  6
CONTINUOUS
 62
               7
100
AcDbCircle
 10
-150.51225020517677
 20
29.818985213607192
 30
0.0
 40
0.6105564724372721
100
AcDbArc
 50
179.83589550320582
 51
253.77907243150949
  0
LINE
  5
356
100
AcDbEntity
  8
0
  6
CONTINUOUS
 62
               7
100
AcDbLine
 10
-151.12280417328583
 20
29.820733944954156
 30
0.0
 11
-151.12280417328583
 21
30.350733944954158
 31
0.0
  0
LINE
  5
357
100
AcDbEntity
  8
0
  6
CONTINUOUS
 62
               7
100
AcDbLine
 10
-142.30280417328581
 20
36.750733944954177
 30
0.0
 11
-141.10280417328579
 21
36.750733944954177
 31
0.0
  0
LINE
  5
358
100
AcDbEntity
  8
0
  6
CONTINUOUS
 62
               7
100
AcDbLine
 10
-142.30280417328581
 20
39.950733944954194
 30
0.0
 11
-141.10280417328579
 21
39.950733944954194
 31
0.0
  0
ARC
  5
359
100
AcDbEntity
  8
0
  6
CONTINUOUS
 62
               7
100
AcDbCircle
 10
-142.30280417328581
 20
38.350733944954172
 30
0.0
 40
1.6000000000000003
100
AcDbArc
 50
89.999999999999815
 51
269.99999999999937
  0
LINE
  5
35A
100
AcDbEntity
  8
0
  6
CONTINUOUS
 62
               7
100
AcDbLine
 10
-149.90280417328583
 20
54.550733944954132
 30
0.0
 11
-151.10280417328582
 21
54.550733944954132
 31
0.0
  0
LINE
  5
35B
100
AcDbEntity
  8
0
  6
CONTINUOUS
 62
               7
100
AcDbLine
 10
-149.90280417328583
 20
51.350733944954143
 30
0.0
 11
-151.10280417328582
 21
51.350733944954143
 31
0.0
  0
ARC
  5
35C
100
AcDbEntity
  8
0
  6
CONTINUOUS
 62
               7
100
AcDbCircle
 10
-149.90280417328583
 20
52.950733944954166
 30
0.0
 40
1.6000000000000003
100
AcDbArc
 50
269.99999999999937
 51
89.999999999999801
  0
LINE
  5
35D
100
AcDbEntity
  8
0
  6
CONTINUOUS
 62
               7
100
AcDbLine
 10
-141.10280417328582
 20
29.150733944954169
 30
0.0
 11
-133.1028041732859
 21
29.150733944954169
 31
0.0
  0
LINE
  5
35E
100
AcDbEntity
  8
0
  6
CONTINUOUS
 62
               7
100
AcDbLine
 10
-141.10280417328582
 20
62.150733944954169
 30
0.0
 11
-133.1028041732859
 21
62.150733944954169
 31
0.0
  0
LINE
  5
35F
100
AcDbEntity
  8
0
  6
CONTINUOUS
 62
               7
100
AcDbLine
 10
-133.1028041732859
 20
29.150733944954169
 30
0.0
 11
-133.1028041732859
 21
62.150733944954169
 31
0.0
  0
LINE
  5
360
100
AcDbEntity
  8
0
  6
CENTER
 62
               2
100
AcDbLine
 10
-138.6028041732859
 20
59.150733944954169
 30
0.0
 11
-133.6028041732859
 21
59.150733944954169
 31
0.0
  0
LINE
  5
361
100
AcDbEntity
  8
0
  6
CENTER
 62
               2
100
AcDbLine
 10
-138.6028041732859
 20
32.150733944954169
 30
0.0
 11
-133.6028041732859
 21
32.150733944954169
 31
0.0
  0
CIRCLE
  5
362
100
AcDbEntity
  8
0
  6
CONTINUOUS
 62
               7
100
AcDbCircle
 10
-136.1028041732859
 20
32.150733944954169
 30
0.0
 40
1.6000000000000001
  0
CIRCLE
  5
363
100
AcDbEntity
  8
0
  6
CONTINUOUS
 62
               7
100
AcDbCircle
 10
-136.1028041732859
 20
59.150733944954169
 30
0.0
 40
1.6000000000000001
  0
LINE
  5
364
100
AcDbEntity
  8
0
  6
PHANTOM
 62
             200
100
AcDbLine
 10
-119.6028041732859
 20
41.25073394495417
 30
0.0
 11
-119.6028041732859
 21
33.25073394495417
 31
0.0
  0
LINE
  5
365
100
AcDbEntity
  8
0
  6
PHANTOM
 62
             200
100
AcDbLine
 10
-121.6028041732859
 20
41.25073394495417
 30
0.0
 11
-121.6028041732859
 21
33.25073394495417
 31
0.0
  0
LINE
  5
366
100
AcDbEntity
  8
0
  6
PHANTOM
 62
             200
100
AcDbLine
 10
-119.1028041732859
 20
40.75073394495417
 30
0.0
 11
-119.1028041732859
 21
33.75073394495417
 31
0.0
  0
ARC
  5
367
100
AcDbEntity
  8
0
  6
PHANTOM
 62
             200
100
AcDbCircle
 10
-119.6028041732859
 20
33.75073394495417
 30
0.0
 40
0.5
100
AcDbArc
 50
269.99999999999937
 51
0.0
  0
ARC
  5
368
100
AcDbEntity
  8
0
  6
PHANTOM
 62
             200
100
AcDbCircle
 10
-119.6028041732859
 20
40.75073394495417
 30
0.0
 40
0.5
100
AcDbArc
 50
0.0
 51
89.999999999999815
  0
LINE
  5
369
100
AcDbEntity
  8
0
  6
PHANTOM
 62
             200
100
AcDbLine
 10
-133.1028041732859
 20
33.25073394495417
 30
0.0
 11
-119.6028041732859
 21
33.25073394495417
 31
0.0
  0
LINE
  5
36A
100
AcDbEntity
  8
0
  6
PHANTOM
 62
             200
100
AcDbLine
 10
-133.1028041732859
 20
41.25073394495417
 30
0.0
 11
-119.6028041732859
 21
41.25073394495417
 31
0.0
  0
LINE
  5
36B
100
AcDbEntity
  8
0
  6
CENTER
 62
               2
100
AcDbLine
 10
-135.58659796764795
 20
37.25073394495417
 30
0.0
 11
-117.97280417328591
 21
37.25073394495417
 31
0.0
  0
LINE
  5
36C
100
AcDbEntity
  8
0
  6
CONTINUOUS
 62
               7
100
AcDbLine
 10
-153.1028041732859
 20
62.150733944954169
 30
0.0
 11
-151.10280417328582
 21
62.150733944954169
 31
0.0
  0
LINE
  5
36D
100
AcDbEntity
  8
0
  6
CONTINUOUS
 62
               7
100
AcDbLine
 10
-153.1028041732859
 20
29.150733944954169
 30
0.0
 11
-151.10280417328582
 21
29.150733944954169
 31
0.0
  0
LINE
  5
36E
100
AcDbEntity
  8
0
  6
CONTINUOUS
 62
               7
100
AcDbLine
 10
-153.1028041732859
 20
29.150733944954169
 30
0.0
 11
-153.1028041732859
 21
62.150733944954169
 31
0.0
  0
CIRCLE
  5
36F
100
AcDbEntity
  8
0
  6
CONTINUOUS
 62
               7
100
AcDbCircle
 10
-142.30280417328581
 20
38.350733944954172
 30
0.0
 40
1.5
  0
CIRCLE
  5
370
100
AcDbEntity
  8
0
  6
CONTINUOUS
 62
               7
100
AcDbCircle
 10
-149.90280417328583
 20
52.950733944954166
 30
0.0
 40
1.5
  0
LINE
  5
371
100
AcDbEntity
  8
0
  6
CONTINUOUS
 62
               7
100
AcDbLine
 10
-151.10280417328582
 20
53.854060973044398
 30
0.0
 11
-151.10280417328582
 21
70.95073394495418
 31
0.0
  0
LINE
  5
372
100
AcDbEntity
  8
0
  6
CONTINUOUS
 62
               7
100
AcDbLine
 10
-141.10280417328582
 20
39.251398116798697
 30
0.0
 11
-141.10280417328582
 21
70.95073394495418
 31
0.0
  0
LINE
  5
373
100
AcDbEntity
  8
0
  6
CENTER
 62
               2
100
AcDbLine
 10
-136.1028041732859
 20
29.650733948653425
 30
0.0
 11
-136.1028041732859
 21
34.650733948653425
 31
0.0
  0
LINE
  5
374
100
AcDbEntity
  8
0
  6
CENTER
 62
               2
100
AcDbLine
 10
-136.1028041732859
 20
56.650733944954169
 30
0.0
 11
-136.1028041732859
 21
61.650733944954169
 31
0.0
  0
ARC
  5
375
100
AcDbEntity
  8
0
  6
CONTINUOUS
 62
               4
100
AcDbCircle
 10
-150.60250714907971
 20
71.451030969160286
 30
0.0
 40
0.5002971123771115
100
AcDbArc
 50
180.03401625554557
 51
269.96598374445358
  0
ARC
  5
376
100
AcDbEntity
  8
0
  6
CONTINUOUS
 62
               4
100
AcDbCircle
 10
-141.60250732542161
 20
71.450437097089974
 30
0.0
 40
0.4997032403068002
100
AcDbArc
 50
269.96596353714654
 51
0.0340364628527164
  0
LINE
  5
377
100
AcDbEntity
  8
0
  6
CONTINUOUS
 62
               4
100
AcDbLine
 10
-151.10280417328582
 20
93.450733944954223
 30
0.0
 11
-151.10280417328582
 21
70.95073394495418
 31
0.0
  0
LINE
  5
378
100
AcDbEntity
  8
0
  6
CONTINUOUS
 62
               4
100
AcDbLine
 10
-141.10280417328582
 20
93.450733944954223
 30
0.0
 11
-141.10280417328582
 21
70.95073394495418
 31
0.0
  0
LINE
  5
379
100
AcDbEntity
  8
0
  6
CONTINUOUS
 62
               4
100
AcDbLine
 10
-143.35280417328582
 20
90.452733944954247
 30
0.0
 11
-141.60280417328582
 21
90.452733944954247
 31
0.0
  0
ARC
  5
37A
100
AcDbEntity
  8
0
  6
CONTINUOUS
 62
               4
100
AcDbCircle
 10
-141.83280508884008
 20
89.95273302939998
 30
0.0
 40
0.5000009155550945
100
AcDbArc
 50
0.0001049145970977
 51
89.999895085402713
  0
ARC
  5
37B
100
AcDbEntity
  8
0
  6
CONTINUOUS
 62
               4
100
AcDbCircle
 10
-141.6027995957632
 20
89.952738522476864
 30
0.0
 40
0.4999954224983215
100
AcDbArc
 50
359.99947544974214
 51
90.000524550256856
  0
LINE
  5
37C
100
AcDbEntity
  8
0
  6
CONTINUOUS
 62
               4
100
AcDbLine
 10
-146.4028041732858
 20
89.202733944954247
 30
0.0
 11
-146.4028041732858
 21
87.102733944954224
 31
0.0
  0
LINE
  5
37D
100
AcDbEntity
  8
0
  6
CONTINUOUS
 62
               4
100
AcDbLine
 10
-142.25280417328582
 20
88.952733944954247
 30
0.0
 11
-142.25280417328582
 21
86.952733944954247
 31
0.0
  0
LINE
  5
37E
100
AcDbEntity
  8
0
  6
CONTINUOUS
 62
               4
100
AcDbLine
 10
-143.25280417328582
 20
88.952733944954247
 30
0.0
 11
-142.25280417328582
 21
88.952733944954247
 31
0.0
  0
CIRCLE
  5
37F
100
AcDbEntity
  8
0
  6
CONTINUOUS
 62
               4
100
AcDbCircle
 10
-144.85280417328582
 20
88.052718686165178
 30
0.0
 40
0.8499675393104553
  0
LINE
  5
380
100
AcDbEntity
  8
0
  6
CONTINUOUS
 62
               4
100
AcDbLine
 10
-143.9028041732858
 20
89.202733944954247
 30
0.0
 11
-143.9028041732858
 21
87.102733944954224
 31
0.0
  0
LINE
  5
381
100
AcDbEntity
  8
0
  6
CONTINUOUS
 62
               4
100
AcDbLine
 10
-143.35280417328582
 20
87.052733944954241
 30
0.0
 11
-142.35280417328582
 21
87.052733944954241
 31
0.0
  0
LINE
  5
382
100
AcDbEntity
  8
0
  6
CONTINUOUS
 62
               4
100
AcDbLine
 10
-143.25280417328582
 20
86.952733944954247
 30
0.0
 11
-142.25280417328582
 21
86.952733944954247
 31
0.0
  0
LINE
  5
383
100
AcDbEntity
  8
0
  6
CONTINUOUS
 62
               4
100
AcDbLine
 10
-145.80280417328584
 20
89.202733944954247
 30
0.0
 11
-145.80280417328584
 21
87.102733944954224
 31
0.0
  0
LINE
  5
384
100
AcDbEntity
  8
0
  6
CONTINUOUS
 62
               4
100
AcDbLine
 10
-145.35280417328582
 20
87.102733944954224
 30
0.0
 11
-145.35280417328582
 21
86.802733944954241
 31
0.0
  0
LINE
  5
385
100
AcDbEntity
  8
0
  6
CONTINUOUS
 62
               4
100
AcDbLine
 10
-144.35280417328582
 20
87.102733944954224
 30
0.0
 11
-144.35280417328582
 21
86.802733944954241
 31
0.0
  0
LINE
  5
386
100
AcDbEntity
  8
0
  6
CONTINUOUS
 62
               4
100
AcDbLine
 10
-145.35280417328582
 20
86.802733944954241
 30
0.0
 11
-144.35280417328582
 21
86.802733944954241
 31
0.0
  0
LINE
  5
387
100
AcDbEntity
  8
0
  6
CONTINUOUS
 62
               4
100
AcDbLine
 10
-145.80280417328584
 20
87.102733944954224
 30
0.0
 11
-143.9028041732858
 21
87.102733944954224
 31
0.0
  0
LINE
  5
388
100
AcDbEntity
  8
0
  6
CONTINUOUS
 62
               4
100
AcDbLine
 10
-143.35280417328582
 20
88.852733944954224
 30
0.0
 11
-142.35280417328582
 21
88.852733944954224
 31
0.0
  0
LINE
  5
389
100
AcDbEntity
  8
0
  6
CONTINUOUS
 62
               4
100
AcDbLine
 10
-142.35280417328582
 20
87.052733944954241
 30
0.0
 11
-142.35280417328582
 21
88.852733944954224
 31
0.0
  0
LINE
  5
38A
100
AcDbEntity
  8
0
  6
CONTINUOUS
 62
               4
100
AcDbLine
 10
-145.80280417328584
 20
89.00273394495423
 30
0.0
 11
-143.9028041732858
 21
89.00273394495423
 31
0.0
  0
LINE
  5
38B
100
AcDbEntity
  8
0
  6
CONTINUOUS
 62
               4
100
AcDbLine
 10
-145.80280417328584
 20
89.202733944954247
 30
0.0
 11
-143.9028041732858
 21
89.202733944954247
 31
0.0
  0
LINE
  5
38C
100
AcDbEntity
  8
0
  6
CONTINUOUS
 62
               4
100
AcDbLine
 10
-143.25280417328582
 20
86.952733944954247
 30
0.0
 11
-143.25280417328582
 21
85.452733944954247
 31
0.0
  0
LINE
  5
38D
100
AcDbEntity
  8
0
  6
CONTINUOUS
 62
               4
100
AcDbLine
 10
-143.35280417328582
 20
87.052733944954241
 30
0.0
 11
-143.35280417328582
 21
85.552733944954241
 31
0.0
  0
LINE
  5
38E
100
AcDbEntity
  8
0
  6
CONTINUOUS
 62
               4
100
AcDbLine
 10
-143.25280417328582
 20
90.452733944954247
 30
0.0
 11
-143.25280417328582
 21
88.952733944954247
 31
0.0
  0
LINE
  5
38F
100
AcDbEntity
  8
0
  6
CONTINUOUS
 62
               4
100
AcDbLine
 10
-143.39280417328581
 20
89.552733944954241
 30
0.0
 11
-143.69280417328582
 21
89.852733944954224
 31
0.0
  0
LINE
  5
390
100
AcDbEntity
  8
0
  6
CONTINUOUS
 62
               4
100
AcDbLine
 10
-143.35280417328582
 20
92.452754134687098
 30
0.0
 11
-143.35280417328582
 21
88.852733944954224
 31
0.0
  0
LINE
  5
391
100
AcDbEntity
  8
0
  6
CONTINUOUS
 62
               4
100
AcDbLine
 10
-147.85280417328582
 20
86.802733944954241
 30
0.0
 11
-146.85280417328582
 21
86.802733944954241
 31
0.0
  0
LINE
  5
392
100
AcDbEntity
  8
0
  6
CONTINUOUS
 62
               4
100
AcDbLine
 10
-146.85280417328582
 20
87.102733944954224
 30
0.0
 11
-146.85280417328582
 21
86.802733944954241
 31
0.0
  0
LINE
  5
393
100
AcDbEntity
  8
0
  6
CONTINUOUS
 62
               4
100
AcDbLine
 10
-148.85280417328582
 20
92.452754134687098
 30
0.0
 11
-148.85280417328582
 21
88.852733944954224
 31
0.0
  0
LINE
  5
394
100
AcDbEntity
  8
0
  6
CONTINUOUS
 62
               4
100
AcDbLine
 10
-148.30280417328584
 20
89.202733944954247
 30
0.0
 11
-148.30280417328584
 21
87.102733944954224
 31
0.0
  0
LINE
  5
395
100
AcDbEntity
  8
0
  6
CONTINUOUS
 62
               4
100
AcDbLine
 10
-148.95280417328581
 20
90.452733944954247
 30
0.0
 11
-148.95280417328581
 21
88.952733944954247
 31
0.0
  0
LINE
  5
396
100
AcDbEntity
  8
0
  6
CONTINUOUS
 62
               4
100
AcDbLine
 10
-150.60280417328582
 20
90.452733944954247
 30
0.0
 11
-148.85280417328582
 21
90.452733944954247
 31
0.0
  0
ARC
  5
397
100
AcDbEntity
  8
0
  6
CONTINUOUS
 62
               4
100
AcDbCircle
 10
-150.37280325773156
 20
89.95273302939998
 30
0.0
 40
0.5000009155550945
100
AcDbArc
 50
90.000104914596918
 51
179.99989508540253
  0
LINE
  5
398
100
AcDbEntity
  8
0
  6
CONTINUOUS
 62
               4
100
AcDbLine
 10
-148.85280417328582
 20
89.512733944954249
 30
0.0
 11
-148.52280417328581
 21
89.852733944954224
 31
0.0
  0
LINE
  5
399
100
AcDbEntity
  8
0
  6
CONTINUOUS
 62
               4
100
AcDbLine
 10
-149.85280417328582
 20
87.052733944954241
 30
0.0
 11
-149.85280417328582
 21
88.852733944954224
 31
0.0
  0
LINE
  5
39A
100
AcDbEntity
  8
0
  6
CONTINUOUS
 62
               4
100
AcDbLine
 10
-149.95280417328581
 20
88.952733944954247
 30
0.0
 11
-149.95280417328581
 21
86.952733944954247
 31
0.0
  0
LINE
  5
39B
100
AcDbEntity
  8
0
  6
CONTINUOUS
 62
               4
100
AcDbLine
 10
-149.95280417328581
 20
88.952733944954247
 30
0.0
 11
-148.95280417328581
 21
88.952733944954247
 31
0.0
  0
LINE
  5
39C
100
AcDbEntity
  8
0
  6
CONTINUOUS
 62
               4
100
AcDbLine
 10
-149.85280417328582
 20
88.852733944954224
 30
0.0
 11
-148.85280417328582
 21
88.852733944954224
 31
0.0
  0
LINE
  5
39D
100
AcDbEntity
  8
0
  6
CONTINUOUS
 62
               4
100
AcDbLine
 10
-149.85280417328582
 20
87.052733944954241
 30
0.0
 11
-148.85280417328582
 21
87.052733944954241
 31
0.0
  0
LINE
  5
39E
100
AcDbEntity
  8
0
  6
CONTINUOUS
 62
               4
100
AcDbLine
 10
-149.95280417328581
 20
86.952733944954247
 30
0.0
 11
-148.95280417328581
 21
86.952733944954247
 31
0.0
  0
LINE
  5
39F
100
AcDbEntity
  8
0
  6
CONTINUOUS
 62
               4
100
AcDbLine
 10
-148.95280417328581
 20
86.952733944954247
 30
0.0
 11
-148.95280417328581
 21
85.452733944954247
 31
0.0
  0
LINE
  5
3A0
100
AcDbEntity
  8
0
  6
CONTINUOUS
 62
               4
100
AcDbLine
 10
-148.85280417328582
 20
87.052733944954241
 30
0.0
 11
-148.85280417328582
 21
85.552733944954241
 31
0.0
  0
ARC
  5
3A1
100
AcDbEntity
  8
0
  6
CONTINUOUS
 62
               4
100
AcDbCircle
 10
-150.60279349211254
 20
89.952723263780939
 30
0.0
 40
0.5000106812873828
100
AcDbArc
 50
90.001223946153175
 51
179.9987760538454
  0
LINE
  5
3A2
100
AcDbEntity
  8
0
  6
CONTINUOUS
 62
               4
100
AcDbLine
 10
-148.30280417328584
 20
89.202733944954247
 30
0.0
 11
-146.4028041732858
 21
89.202733944954247
 31
0.0
  0
LINE
  5
3A3
100
AcDbEntity
  8
0
  6
CONTINUOUS
 62
               4
100
AcDbLine
 10
-148.30280417328584
 20
89.00273394495423
 30
0.0
 11
-146.4028041732858
 21
89.00273394495423
 31
0.0
  0
CIRCLE
  5
3A4
100
AcDbEntity
  8
0
  6
CONTINUOUS
 62
               4
100
AcDbCircle
 10
-147.35280417328582
 20
88.052718686165178
 30
0.0
 40
0.8499675393104553
  0
LINE
  5
3A5
100
AcDbEntity
  8
0
  6
CONTINUOUS
 62
               4
100
AcDbLine
 10
-148.30280417328584
 20
87.102733944954224
 30
0.0
 11
-146.4028041732858
 21
87.102733944954224
 31
0.0
  0
LINE
  5
3A6
100
AcDbEntity
  8
0
  6
CONTINUOUS
 62
               4
100
AcDbLine
 10
-148.85280417328582
 20
85.552733944954241
 30
0.0
 11
-143.35280417328582
 21
85.552733944954241
 31
0.0
  0
LINE
  5
3A7
100
AcDbEntity
  8
0
  6
CONTINUOUS
 62
               4
100
AcDbLine
 10
-148.95280417328581
 20
85.452733944954247
 30
0.0
 11
-143.25280417328582
 21
85.452733944954247
 31
0.0
  0
LINE
  5
3A8
100
AcDbEntity
  8
0
  6
CONTINUOUS
 62
               4
100
AcDbLine
 10
-148.85280417328582
 20
90.552733944954241
 30
0.0
 11
-143.35280417328582
 21
90.552733944954241
 31
0.0
  0
LINE
  5
3A9
100
AcDbEntity
  8
0
  6
CONTINUOUS
 62
               4
100
AcDbLine
 10
-148.82280417328582
 20
89.552733944954241
 30
0.0
 11
-143.39280417328581
 21
89.552733944954241
 31
0.0
  0
LINE
  5
3AA
100
AcDbEntity
  8
0
  6
CONTINUOUS
 62
               4
100
AcDbLine
 10
-148.52280417328581
 20
89.852733944954224
 30
0.0
 11
-143.69280417328582
 21
89.852733944954224
 31
0.0
  0
ARC
  5
3AB
100
AcDbEntity
  8
0
  6
CONTINUOUS
 62
               4
100
AcDbCircle
 10
-150.37160674879613
 20
73.644947780920717
 30
0.0
 40
0.5011988548874781
100
AcDbArc
 50
180.13688665515463
 51
269.86311334484435
  0
LINE
  5
3AC
100
AcDbEntity
  8
0
  6
CONTINUOUS
 62
               4
100
AcDbLine
 10
-150.87280417328583
 20
89.952733944954247
 30
0.0
 11
-150.87280417328583
 21
73.64375035643144
 31
0.0
  0
ARC
  5
3AD
100
AcDbEntity
  8
0
  6
CONTINUOUS
 62
               4
100
AcDbCircle
 10
-141.83400159777551
 20
73.644947780920717
 30
0.0
 40
0.5011988548874781
100
AcDbArc
 50
270.1368866551544
 51
359.86311334484418
  0
LINE
  5
3AE
100
AcDbEntity
  8
0
  6
CONTINUOUS
 62
               4
100
AcDbLine
 10
-141.33280417328581
 20
89.952733944954247
 30
0.0
 11
-141.33280417328581
 21
73.64375035643144
 31
0.0
  0
LINE
  5
3AF
100
AcDbEntity
  8
0
  6
CONTINUOUS
 62
               4
100
AcDbLine
 10
-150.37280417328583
 20
73.143750356431013
 30
0.0
 11
-141.83280417328581
 21
73.143750356431013
 31
0.0
  0
LINE
  5
3B0
100
AcDbEntity
  8
0
  6
PHANTOM
 62
             200
100
AcDbLine
 10
-147.60280417328582
 20
78.45073394495418
 30
0.0
 11
-147.60280417328582
 21
76.45073394495418
 31
0.0
  0
LINE
  5
3B1
100
AcDbEntity
  8
0
  6
PHANTOM
 62
             200
100
AcDbLine
 10
-144.60280417328582
 20
78.45073394495418
 30
0.0
 11
-144.60280417328582
 21
76.45073394495418
 31
0.0
  0
LINE
  5
3B2
100
AcDbEntity
  8
0
  6
PHANTOM
 62
             200
100
AcDbLine
 10
-147.60280417328582
 20
76.45073394495418
 30
0.0
 11
-144.60280417328582
 21
76.45073394495418
 31
0.0
  0
LINE
  5
3B3
100
AcDbEntity
  8
0
  6
PHANTOM
 62
             200
100
AcDbLine
 10
-147.60280417328582
 20
78.45073394495418
 30
0.0
 11
-144.60280417328582
 21
78.45073394495418
 31
0.0
  0
LINE
  5
3B4
100
AcDbEntity
  8
0
  6
CONTINUOUS
 62
               4
100
AcDbLine
 10
-141.10280417328582
 20
93.450733944954223
 30
0.0
 11
-151.10280417328582
 21
93.450733944954223
 31
0.0
  0
LINE
  5
3B5
100
AcDbEntity
  8
0
  6
CONTINUOUS
 62
               4
100
AcDbLine
 10
-141.10280417328582
 20
91.850733944954229
 30
0.0
 11
-143.35280417328582
 21
91.850733944954229
 31
0.0
  0
LINE
  5
3B6
100
AcDbEntity
  8
0
  6
CONTINUOUS
 62
               4
100
AcDbLine
 10
-144.30280417328584
 20
93.350733944954229
 30
0.0
 11
-150.60280417328582
 21
93.350733944954229
 31
0.0
  0
LINE
  5
3B7
100
AcDbEntity
  8
0
  6
CONTINUOUS
 62
               4
100
AcDbLine
 10
-144.30280417328584
 20
93.350733944954229
 30
0.0
 11
-144.30280417328584
 21
92.452754134687098
 31
0.0
  0
ARC
  5
3B8
100
AcDbEntity
  8
0
  6
CONTINUOUS
 62
               4
100
AcDbCircle
 10
-150.60280417328582
 20
92.850733944954214
 30
0.0
 40
0.5
100
AcDbArc
 50
89.999999999999815
 51
179.99999999999963
  0
LINE
  5
3B9
100
AcDbEntity
  8
0
  6
CONTINUOUS
 62
               4
100
AcDbLine
 10
-141.10280417328582
 20
92.850733944954214
 30
0.0
 11
-144.30280417328581
 21
92.850733944954214
 31
0.0
  0
ARC
  5
3BA
100
AcDbEntity
  8
0
  6
CONTINUOUS
 62
               4
100
AcDbCircle
 10
-141.89870902662761
 20
92.850829091612383
 30
0.0
 40
0.5999048608870732
100
AcDbArc
 50
359.99091272245295
 51
90.009087277546172
  0
ARC
  5
3BB
100
AcDbEntity
  8
0
  6
CONTINUOUS
 62
               4
100
AcDbCircle
 10
-143.69989217852284
 20
92.851821950191237
 30
0.0
 40
0.5989129830170392
100
AcDbArc
 50
89.895914524772735
 51
180.10408547522667
  0
LINE
  5
3BC
100
AcDbEntity
  8
0
  6
CONTINUOUS
 62
               4
100
AcDbLine
 10
-147.85280417328582
 20
86.802733944954241
 30
0.0
 11
-147.85280417328582
 21
87.102733944954224
 31
0.0
  0
LINE
  5
3BD
100
AcDbEntity
  8
0
  6
CONTINUOUS
 62
               4
100
AcDbLine
 10
-148.85280417328582
 20
92.452754134687098
 30
0.0
 11
-143.35280417328582
 21
92.452754134687098
 31
0.0
  0
LINE
  5
3BE
100
AcDbEntity
  8
0
  6
CONTINUOUS
 62
               4
100
AcDbLine
 10
-148.85280417328582
 20
91.455784438287026
 30
0.0
 11
-143.35280417328582
 21
91.455784438287026
 31
0.0
  0
LINE
  5
3BF
100
AcDbEntity
  8
0
  6
CONTINUOUS
 62
               7
100
AcDbLine
 10
-149.19569739209928
 20
53.657840726140712
 30
0.0
 11
-150.60991095447238
 21
52.24362716376762
 31
0.0
  0
LINE
  5
3C0
100
AcDbEntity
  8
0
  6
CONTINUOUS
 62
               7
100
AcDbLine
 10
-150.60991095447238
 20
53.657840726140712
 30
0.0
 11
-149.19569739209928
 21
52.24362716376762
 31
0.0
  0
LINE
  5
3C1
100
AcDbEntity
  8
0
  6
CONTINUOUS
 62
               7
100
AcDbLine
 10
-141.59569739209925
 20
39.057840726140718
 30
0.0
 11
-143.00991095447236
 21
37.643627163767626
 31
0.0
  0
LINE
  5
3C2
100
AcDbEntity
  8
0
  6
CONTINUOUS
 62
               7
100
AcDbLine
 10
-143.00991095447236
 20
39.057840726140718
 30
0.0
 11
-141.59569739209925
 21
37.643627163767626
 31
0.0
  0
ENDSEC
  0
SECTION
  2
OBJECTS
  0
DICTIONARY
  5
19
100
AcDbDictionary
  3
ACAD_GROUP
350
1A
  3
ACAD_MLINESTYLE
350
1B
  0
DICTIONARY
  5
1A
102
{ACAD_REACTORS
330
19
102
}
100
AcDbDictionary
  0
DICTIONARY
  5
1B
102
{ACAD_REACTORS
330
19
102
}
100
AcDbDictionary
  3
STANDARD
350
1C
  0
MLINESTYLE
  5
1C
102
{ACAD_REACTORS
330
1B
102
}
100
AcDbMlineStyle
  2
Standard
 70
               0
  3

 62
               0
 51
90.0
 52
90.0
 71
               2
 49
0.5
 62
             256
  6
ByLayer
 49
-0.5
 62
             256
  6
ByLayer
  0
ENDSEC
  0
EOF
