  0
SECTION
  2
HEADER
  9
$ACADVER
  1
AC1012
  9
$DWGCODEPAGE
  3
dos932
  9
$INSBASE
 10
0.0
 20
0.0
 30
0.0
  9
$EXTMIN
 10
-281.25
 20
-195.0
 30
0.0
  9
$EXTMAX
 10
285.6319057062413
 20
195.5
 30
0.0
  9
$LIMMIN
 10
-281.25
 20
-195.0
  9
$LIMMAX
 10
285.6319057062413
 20
195.5
  9
$ORTHOMODE
 70
               0
  9
$REGENMODE
 70
               1
  9
$FILLMODE
 70
               1
  9
$QTEXTMODE
 70
               0
  9
$MIRRTEXT
 70
               1
  9
$DRAGMODE
 70
               2
  9
$LTSCALE
 40
1.0
  9
$OSMODE
 70
               0
  9
$ATTMODE
 70
               1
  9
$TEXTSIZE
 40
3.2000000476837158
  9
$TRACEWID
 40
0.05
  9
$TEXTSTYLE
  7
MX_NOTE_STANDARD
  9
$CLAYER
  8
0
  9
$CELTYPE
  6
CONTINUOUS
  9
$CECOLOR
 62
             256
  9
$CELTSCALE
 40
1.0
  9
$DELOBJ
 70
               1
  9
$DISPSILH
 70
               0
  9
$DIMSCALE
 40
1.0
  9
$DIMASZ
 40
2.5
  9
$DIMEXO
 40
1.5
  9
$DIMDLI
 40
3.75
  9
$DIMRND
 40
0.0
  9
$DIMDLE
 40
0.0
  9
$DIMEXE
 40
1.5
  9
$DIMTP
 40
0.0
  9
$DIMTM
 40
0.0
  9
$DIMTXT
 40
3.2000000476837158
  9
$DIMCEN
 40
2.5
  9
$DIMTSZ
 40
0.0
  9
$DIMTOL
 70
               0
  9
$DIMLIM
 70
               0
  9
$DIMTIH
 70
               0
  9
$DIMTOH
 70
               0
  9
$DIMSE1
 70
               0
  9
$DIMSE2
 70
               0
  9
$DIMTAD
 70
               1
  9
$DIMZIN
 70
               8
  9
$DIMBLK
  1

  9
$DIMASO
 70
               1
  9
$DIMSHO
 70
               1
  9
$DIMPOST
  1

  9
$DIMAPOST
  1

  9
$DIMALT
 70
               0
  9
$DIMALTD
 70
               4
  9
$DIMALTF
 40
0.03937007874016
  9
$DIMLFAC
 40
1.0
  9
$DIMTOFL
 70
               1
  9
$DIMTVP
 40
0.0
  9
$DIMTIX
 70
               0
  9
$DIMSOXD
 70
               0
  9
$DIMSAH
 70
               0
  9
$DIMBLK1
  1

  9
$DIMBLK2
  1

  9
$DIMSTYLE
  2
MXDIMSTYLE
  9
$DIMCLRD
 70
               0
  9
$DIMCLRE
 70
               0
  9
$DIMCLRT
 70
               0
  9
$DIMTFAC
 40
1.0
  9
$DIMGAP
 40
1.0
  9
$DIMJUST
 70
               0
  9
$DIMSD1
 70
               0
  9
$DIMSD2
 70
               0
  9
$DIMTOLJ
 70
               1
  9
$DIMTZIN
 70
               0
  9
$DIMALTZ
 70
               0
  9
$DIMALTTZ
 70
               0
  9
$DIMFIT
 70
               3
  9
$DIMUPT
 70
               1
  9
$DIMUNIT
 70
               2
  9
$DIMDEC
 70
               4
  9
$DIMTDEC
 70
               4
  9
$DIMALTU
 70
               2
  9
$DIMALTTD
 70
               4
  9
$DIMTXSTY
  7
MX_NOTE_STANDARD
  9
$DIMAUNIT
 70
               0
  9
$LUNITS
 70
               2
  9
$LUPREC
 70
               4
  9
$SKETCHINC
 40
0.1
  9
$FILLETRAD
 40
0.0
  9
$AUNITS
 70
               0
  9
$AUPREC
 70
               0
  9
$MENU
  1
acad
  9
$ELEVATION
 40
0.0
  9
$PELEVATION
 40
0.0
  9
$THICKNESS
 40
0.0
  9
$LIMCHECK
 70
               0
  9
$BLIPMODE
 70
               1
  9
$CHAMFERA
 40
0.0
  9
$CHAMFERB
 40
0.0
  9
$CHAMFERC
 40
0.0
  9
$CHAMFERD
 40
0.0
  9
$SKPOLY
 70
               0
  9
$TDCREATE
 40
2453378.356585648
  9
$TDUPDATE
 40
2453378.356585648
  9
$TDINDWG
 40
0.0000000000
  9
$TDUSRTIMER
 40
0.0000000000
  9
$USRTIMER
 70
               1
  9
$ANGBASE
 50
0.0
  9
$ANGDIR
 70
               0
  9
$PDMODE
 70
               0
  9
$PDSIZE
 40
0.0
  9
$PLINEWID
 40
0.0
  9
$COORDS
 70
               1
  9
$SPLFRAME
 70
               0
  9
$SPLINETYPE
 70
               6
  9
$SPLINESEGS
 70
               8
  9
$ATTDIA
 70
               0
  9
$ATTREQ
 70
               1
  9
$HANDLING
 70
               1
  9
$HANDSEED
  5
568
  9
$SURFTAB1
 70
               6
  9
$SURFTAB2
 70
               6
  9
$SURFTYPE
 70
               6
  9
$SURFU
 70
               6
  9
$SURFV
 70
               6
  9
$UCSNAME
  2

  9
$UCSORG
 10
0.0
 20
0.0
 30
0.0
  9
$UCSXDIR
 10
1.0
 20
0.0
 30
0.0
  9
$UCSYDIR
 10
0.0
 20
1.0
 30
0.0
  9
$PUCSNAME
  2

  9
$PUCSORG
 10
0.0
 20
0.0
 30
0.0
  9
$PUCSXDIR
 10
1.0
 20
0.0
 30
0.0
  9
$PUCSYDIR
 10
0.0
 20
1.0
 30
0.0
  9
$USERI1
 70
               0
  9
$USERI2
 70
               0
  9
$USERI3
 70
               0
  9
$USERI4
 70
               0
  9
$USERI5
 70
               0
  9
$USERR1
 40
0.0
  9
$USERR2
 40
0.0
  9
$USERR3
 40
0.0
  9
$USERR4
 40
0.0
  9
$USERR5
 40
0.0
  9
$WORLDVIEW
 70
               1
  9
$SHADEDGE
 70
               3
  9
$SHADEDIF
 70
              70
  9
$TILEMODE
 70
               1
  9
$MAXACTVP
 70
              16
  9
$PINSBASE
 10
0.0
 20
0.0
 30
0.0
  9
$PLIMCHECK
 70
               0
  9
$PEXTMIN
 10
1.0000000000000000E+20
 20
1.0000000000000000E+20
 30
1.0000000000000000E+20
  9
$PEXTMAX
 10
-1.0000000000000000E+20
 20
-1.0000000000000000E+20
 30
-1.0000000000000000E+20
  9
$PLIMMIN
 10
0.0
 20
0.0
  9
$PLIMMAX
 10
12.0
 20
9.0
  9
$UNITMODE
 70
               0
  9
$VISRETAIN
 70
               0
  9
$PLINEGEN
 70
               1
  9
$PSLTSCALE
 70
               0
  9
$TREEDEPTH
 70
            3020
  9
$PICKSTYLE
 70
               1
  9
$CMLSTYLE
  2
Standard
  9
$CMLJUST
 70
               0
  9
$CMLSCALE
 40
1.0
  9
$SAVEIMAGES
 70
               0
  0
ENDSEC
  0
SECTION
  2
CLASSES
  0
CLASS
  1
LWPOLYLINE
  2
AcDbPolyline
  3
"AutoCAD"
 90
        0
280
               0
281
               1
  0
CLASS
  1
IMAGE
  2
AcDbRasterImage
  3
ISM
 90
      127
280
               0
281
               1
  0
CLASS
  1
OLE2FRAME
  2
AcDbOle2Frame
  3
""
 90
        0
280
               0
281
               1
  0
CLASS
  1
HATCH
  2
AcDbHatch
  3
"ACAD_SEDONA"
 90
        0
280
               0
281
               1
  0
CLASS
  1
DICTIONARYVAR
  2
AcDbDictionaryVar
  3
"AutoCAD"
 90
        0
280
               0
281
               0
  0
CLASS
  1
RASTERVARIABLES
  2
AcDbRasterVariables
  3
ISM
 90
        0
280
               0
281
               0
  0
CLASS
  1
IMAGEDEF
  2
AcDbRasterImageDef
  3
ISM
 90
        0
280
               0
281
               0
  0
CLASS
  1
IMAGEDEF_REACTOR
  2
AcDbRasterImageDefReactor
  3
ISM
 90
        1
280
               0
281
               0
  0
CLASS
  1
IDBUFFER
  2
AcDbIdBuffer
  3
"Acad"
 90
        0
280
               0
281
               0
  0
CLASS
  1
SPATIAL_FILTER
  2
AcDbSpatialFilter
  3
"Acad"
 90
        0
280
               0
281
               0
  0
CLASS
  1
XRECORD
  2
AcDbXrecord
  3
"<Built In>"
 90
        0
280
               0
281
               0
  0
CLASS
  1
SORTENTSTABLE
  2
AcDbSortentsTable
  3
"AutoCAD"
 90
        0
280
               0
281
               0
  0
CLASS
  1
LAYER_INDEX
  2
AcDbLayerIndex
  3
"Acad"
 90
        0
280
               0
281
               0
  0
CLASS
  1
SPATIAL_INDEX
  2
AcDbSpatialIndex
  3
"Acad"
 90
        0
280
               0
281
               0
  0
CLASS
  1
OBJECT_PTR
  2
CAseDLPNTableRecord
  3
"ASE-LPNTableRecord"
 90
        1
280
               0
281
               0
  0
CLASS
  1
LAYOUT
  2
AcDbLayout
  3
"AutoCAD 2000"
 90
        1
280
               0
281
               0
  0
CLASS
  1
PLOTSETTINGS
  2
AcDbPlotSettings
  3
"AutoCAD 2000"
 90
        1
280
               0
281
               0
  0
CLASS
  1
ACDBDICTIONARYWDFLT
  2
AcDbDictionaryWithDefault
  3
"AutoCAD 2000"
 90
        1
280
               0
281
               0
  0
CLASS
  1
ACDBPLACEHOLDER
  2
AcDbPlaceHolder
  3
"AutoCAD 2000"
 90
        1
280
               0
281
               0
  0
ENDSEC
  0
SECTION
  2
TABLES
  0
TABLE
  2
VPORT
  5
7
100
AcDbSymbolTable
 70
               1
  0
VPORT
  5
15
100
AcDbSymbolTableRecord
100
AcDbViewportTableRecord
  2
*ACTIVE
 70
               0
 10
0.0
 20
0.0
 11
1.0
 21
1.0
 12
2.1909528531206206
 22
0.25
 13
0.0
 23
0.0
 14
1.0
 24
1.0
 15
0.0
 25
0.0
 16
0.0
 26
0.0
 36
1.0
 17
0.0
 27
0.0
 37
0.0
 40
394.40500000000003
 41
1.7320508075688772
 42
50.0
 43
0.0
 44
0.0
 50
0.0
 51
0.0
 71
               0
 72
             100
 73
               1
 74
               1
 75
               0
 76
               0
 77
               0
 78
               0
  0
ENDTAB
  0
TABLE
  2
LTYPE
  5
4
100
AcDbSymbolTable
 70
               6
  0
LTYPE
  5
11
100
AcDbSymbolTableRecord
100
AcDbLinetypeTableRecord
  2
BYBLOCK
 70
              64
  3

 72
              65
 73
               0
 40
0.0
  0
LTYPE
  5
12
100
AcDbSymbolTableRecord
100
AcDbLinetypeTableRecord
  2
BYLAYER
 70
              64
  3

 72
              65
 73
               0
 40
0.0
  0
LTYPE
  5
13
100
AcDbSymbolTableRecord
100
AcDbLinetypeTableRecord
  2
CONTINUOUS
 70
              64
  3
Solid line
 72
              65
 73
               0
 40
0.0
  0
LTYPE
  5
7C
100
AcDbSymbolTableRecord
100
AcDbLinetypeTableRecord
  2
DASHED
 70
              64
  3
Dashed __ __ __ __ __ __ __ __ __ __ __ __ __ _
 72
              65
 73
               2
 40
4.0
 49
2.0
 74
               0
 49
-2.0
 74
               0
  0
LTYPE
  5
7F
100
AcDbSymbolTableRecord
100
AcDbLinetypeTableRecord
  2
CENTER
 70
              64
  3
Center ____ _ ____ _ ____ _ ____ _ ____ _ ____
 72
              65
 73
               4
 40
26.0
 49
20.0
 74
               0
 49
-2.0
 74
               0
 49
2.0
 74
               0
 49
-2.0
 74
               0
  0
LTYPE
  5
118
100
AcDbSymbolTableRecord
100
AcDbLinetypeTableRecord
  2
PHANTOM
 70
              64
  3
Phantom ______  __  __  ______  __  __  ______
 72
              65
 73
               6
 40
30.0
 49
20.0
 74
               0
 49
-2.0
 74
               0
 49
2.0
 74
               0
 49
-2.0
 74
               0
 49
2.0
 74
               0
 49
-2.0
 74
               0
  0
ENDTAB
  0
TABLE
  2
LAYER
  5
2
100
AcDbSymbolTable
 70
               2
  0
LAYER
  5
14
100
AcDbSymbolTableRecord
100
AcDbLayerTableRecord
  2
0
 70
               0
 62
               7
  6
CONTINUOUS
  0
LAYER
  5
1D
100
AcDbSymbolTableRecord
100
AcDbLayerTableRecord
  2
DEFPOINTS
 70
               0
 62
               7
  6
CONTINUOUS
  0
ENDTAB
  0
TABLE
  2
STYLE
  5
3
100
AcDbSymbolTable
 70
               1
  0
STYLE
  5
17
100
AcDbSymbolTableRecord
100
AcDbTextStyleTableRecord
  2
MX_NOTE_STANDARD
 70
               0
 40
0.0
 41
1.0
 50
0.0
 71
               0
 42
3.2000000476837158
  3
txt.shx
  4
extfont.shx
  0
ENDTAB
  0
TABLE
  2
VIEW
  5
5
100
AcDbSymbolTable
 70
               0
  0
ENDTAB
  0
TABLE
  2
UCS
  5
6
100
AcDbSymbolTable
 70
               0
  0
ENDTAB
  0
TABLE
  2
APPID
  5
8
100
AcDbSymbolTable
 70
               1
  0
APPID
  5
16
100
AcDbSymbolTableRecord
100
AcDbRegAppTableRecord
  2
ACAD
 70
               0
  0
ENDTAB
  0
TABLE
  2
DIMSTYLE
  5
9
100
AcDbSymbolTable
 70
               1
  0
DIMSTYLE
105
18
100
AcDbSymbolTableRecord
100
AcDbDimStyleTableRecord
  2
MXDIMSTYLE
 70
               0
  3

  4

  5

  6

  7

 40
1.0
 41
2.5
 42
1.5
 43
3.75
 44
1.5
 45
0.0
 46
0.0
 47
0.0
 48
0.0
 71
               0
 72
               0
 73
               0
 74
               0
 75
               0
 76
               0
 77
               1
 78
               8
140
3.2000000476837158
141
2.5
142
0.0
143
0.03937007874016
144
1.0
145
0.0
146
1.0
147
1.0
170
               0
171
               4
172
               1
173
               0
174
               0
175
               0
176
               0
177
               0
178
               0
270
               2
271
               4
272
               4
273
               2
274
               4
275
               0
280
               0
281
               0
282
               0
283
               1
284
               0
285
               0
286
               0
287
               3
288
               1
340
17
  0
ENDTAB
  0
TABLE
  2
BLOCK_RECORD
  5
1
100
AcDbSymbolTable
 70
               0
  0
BLOCK_RECORD
  5
A
100
AcDbSymbolTableRecord
100
AcDbBlockTableRecord
  2
*MODEL_SPACE
  0
BLOCK_RECORD
  5
B
100
AcDbSymbolTableRecord
100
AcDbBlockTableRecord
  2
*PAPER_SPACE
  0
ENDTAB
  0
ENDSEC
  0
SECTION
  2
BLOCKS
  0
BLOCK
  5
D
100
AcDbEntity
  8
0
100
AcDbBlockBegin
  2
*MODEL_SPACE
 70
               0
 10
0.0
 20
0.0
 30
0.0
  3
*MODEL_SPACE
  1

  0
ENDBLK
  5
E
100
AcDbEntity
  8
0
100
AcDbBlockEnd
  0
BLOCK
  5
F
100
AcDbEntity
 67
               1
  8
0
100
AcDbBlockBegin
  2
*PAPER_SPACE
 70
               0
 10
0.0
 20
0.0
 30
0.0
  3
*PAPER_SPACE
  1

  0
ENDBLK
  5
10
100
AcDbEntity
 67
               1
  8
0
100
AcDbBlockEnd
  0
ENDSEC
  0
SECTION
  2
ENTITIES
  0
MTEXT
  5
1E
100
AcDbEntity
  8
0
  6
CONTINUOUS
 62
               7
100
AcDbMText
 10
-268.27722776173874
 20
160.5
 30
0.0
 40
6.3000001907348633
 41
0.0
 71
               4
 72
               1
  1
\W1.069;\A1;MODEL:JC10A7-25-PL
  0
LINE
  5
1F
100
AcDbEntity
  8
0
  6
CONTINUOUS
 62
               7
100
AcDbLine
 10
-281.25
 20
-195.0
 30
0.0
 11
282.099853515625
 21
-195.0
 31
0.0
  0
LINE
  5
20
100
AcDbEntity
  8
0
  6
CONTINUOUS
 62
               7
100
AcDbLine
 10
-281.25
 20
195.5
 30
0.0
 11
-281.25
 21
-195.0
 31
0.0
  0
LINE
  5
21
100
AcDbEntity
  8
0
  6
CONTINUOUS
 62
               7
100
AcDbLine
 10
-281.25
 20
195.5
 30
0.0
 11
282.099853515625
 21
195.5
 31
0.0
  0
LINE
  5
22
100
AcDbEntity
  8
0
  6
CONTINUOUS
 62
               7
100
AcDbLine
 10
282.099853515625
 20
195.5
 30
0.0
 11
282.099853515625
 21
-195.0
 31
0.0
  0
LINE
  5
23
100
AcDbEntity
  8
0
  6
CONTINUOUS
 62
               7
100
AcDbLine
 10
162.0999755859375
 20
195.5
 30
0.0
 11
162.0999755859375
 21
175.5
 31
0.0
  0
LINE
  5
24
100
AcDbEntity
  8
0
  6
CONTINUOUS
 62
               7
100
AcDbLine
 10
162.0999755859375
 20
175.5
 30
0.0
 11
282.099853515625
 21
175.5
 31
0.0
  0
MTEXT
  5
25
100
AcDbEntity
  8
0
  6
CONTINUOUS
 62
               7
100
AcDbMText
 10
198.27702406779611
 20
185.5
 30
0.0
 40
6.3000001907348633
 41
0.0
 71
               4
 72
               1
  1
\W1.311;\A1;Ver. 1.0
  0
MTEXT
  5
26
100
AcDbEntity
  8
0
  6
CONTINUOUS
 62
               7
100
AcDbMText
 10
170.28099805280428
 20
-185.0
 30
0.0
 40
9.0
 41
0.0
 71
               4
 72
               1
  1
\W1.121;\A1;KOGANEI CORP.
  0
LINE
  5
27
100
AcDbEntity
  8
0
  6
CONTINUOUS
 62
               7
100
AcDbLine
 10
162.0999755859375
 20
-175.0
 30
0.0
 11
282.099853515625
 21
-175.0
 31
0.0
  0
LINE
  5
28
100
AcDbEntity
  8
0
  6
CONTINUOUS
 62
               7
100
AcDbLine
 10
162.0999755859375
 20
-175.0
 30
0.0
 11
162.0999755859375
 21
-195.0
 31
0.0
  0
LINE
  5
29
100
AcDbEntity
  8
0
  6
CONTINUOUS
 62
               7
100
AcDbLine
 10
-161.25
 20
195.5
 30
0.0
 11
-161.25
 21
175.5
 31
0.0
  0
LINE
  5
2A
100
AcDbEntity
  8
0
  6
CONTINUOUS
 62
               7
100
AcDbLine
 10
-281.25
 20
175.5
 30
0.0
 11
-161.25
 21
175.5
 31
0.0
  0
MTEXT
  5
2B
100
AcDbEntity
  8
0
  6
CONTINUOUS
 62
               7
100
AcDbMText
 10
-257.88333446177035
 20
185.5
 30
0.0
 40
6.3000001907348633
 41
0.0
 71
               4
 72
               1
  1
\W1.111;\A1;JC･JE SERIES
  0
LINE
  5
2C
100
AcDbEntity
  8
0
  6
CONTINUOUS
 62
               7
100
AcDbLine
 10
-281.25
 20
-38.799999999999983
 30
0.0
 11
282.099853515625
 21
-38.799999999999983
 31
0.0
  0
LINE
  5
2D
100
AcDbEntity
  8
0
  6
CONTINUOUS
 62
               7
100
AcDbLine
 10
0.4249267578125
 20
-38.799999999999983
 30
0.0
 11
0.4249267578125
 21
195.5
 31
0.0
  0
MTEXT
  5
2E
100
AcDbEntity
  8
0
  6
CONTINUOUS
 62
               7
100
AcDbMText
 10
13.397698996073721
 20
160.5
 30
0.0
 40
6.3000001907348633
 41
0.0
 71
               4
 72
               1
  1
\W1.069;\A1;MODEL:JC10A7-25-PS
  0
MTEXT
  5
2F
100
AcDbEntity
  8
0
  6
CONTINUOUS
 62
               7
100
AcDbMText
 10
-268.27722776173874
 20
-53.799999999999983
 30
0.0
 40
6.3000001907348633
 41
0.0
 71
               4
 72
               1
  1
\W1.069;\A1;MODEL:JC10A7-25-GL
  0
MTEXT
  5
30
100
AcDbEntity
  8
0
  6
CONTINUOUS
 62
               7
100
AcDbMText
 10
51.166927879969272
 20
150.5
 30
0.0
 40
6.3000001907348633
 41
0.0
 71
               4
 72
               1
  1
\W1.040;\A1;JC10LA7-25-PS
  0
MTEXT
  5
31
100
AcDbEntity
  8
0
  6
CONTINUOUS
 62
               7
100
AcDbMText
 10
51.166927879969272
 20
140.5
 30
0.0
 40
6.3000001907348633
 41
0.0
 71
               4
 72
               1
  1
\W1.040;\A1;JC10SA7-25-PS
  0
MTEXT
  5
32
100
AcDbEntity
  8
0
  6
CONTINUOUS
 62
               7
100
AcDbMText
 10
-230.50799887784322
 20
150.5
 30
0.0
 40
6.3000001907348633
 41
0.0
 71
               4
 72
               1
  1
\W1.040;\A1;JC10LA7-25-PL
  0
MTEXT
  5
33
100
AcDbEntity
  8
0
  6
CONTINUOUS
 62
               7
100
AcDbMText
 10
-230.50799887784322
 20
140.5
 30
0.0
 40
6.3000001907348633
 41
0.0
 71
               4
 72
               1
  1
\W1.040;\A1;JC10SA7-25-PL
  0
LINE
  5
34
100
AcDbEntity
  8
0
  6
CONTINUOUS
 62
               4
100
AcDbLine
 10
20.829053879773397
 20
-154.69705502477581
 30
0.0
 11
3.8290510632466237
 21
-154.69705502477603
 31
0.0
  0
LINE
  5
35
100
AcDbEntity
  8
0
  6
CONTINUOUS
 62
               4
100
AcDbLine
 10
20.829053879772943
 20
-94.097055024775713
 30
0.0
 11
3.829051063246169
 21
-94.097055024775855
 31
0.0
  0
ARC
  5
36
100
AcDbEntity
  8
0
  6
CONTINUOUS
 62
               4
100
AcDbCircle
 10
0.5290510632467829
 20
-171.69505502477602
 30
0.0
 40
0.5
100
AcDbArc
 50
180.0000000000004
 51
270.00000000000023
  0
ARC
  5
37
100
AcDbEntity
  8
0
  6
CONTINUOUS
 62
               4
100
AcDbCircle
 10
0.5290510632467544
 20
-167.69505502477602
 30
0.0
 40
0.5
100
AcDbArc
 50
90.000000000000611
 51
180.0000000000004
  0
LINE
  5
38
100
AcDbEntity
  8
0
  6
CONTINUOUS
 62
               4
100
AcDbLine
 10
1.2290510632469704
 20
-172.19505502477602
 30
0.0
 11
0.5290510632470387
 21
-172.19505502477602
 31
0.0
  0
LINE
  5
39
100
AcDbEntity
  8
0
  6
CONTINUOUS
 62
               4
100
AcDbLine
 10
0.0290510632467544
 20
-167.69505502477602
 30
0.0
 11
0.0290510632467829
 21
-171.69505502477602
 31
0.0
  0
LINE
  5
3A
100
AcDbEntity
  8
0
  6
CONTINUOUS
 62
               4
100
AcDbLine
 10
1.2290510632466862
 20
-167.19505502477602
 30
0.0
 11
0.5290510632467544
 21
-167.19505502477602
 31
0.0
  0
LINE
  5
3B
100
AcDbEntity
  8
0
  6
CONTINUOUS
 62
               4
100
AcDbLine
 10
-5.4678500594308446
 20
-170.34423764196362
 30
0.0
 11
-5.4678500594308446
 21
-169.0442376419636
 31
0.0
  0
LINE
  5
3C
100
AcDbEntity
  8
0
  6
CONTINUOUS
 62
             200
100
AcDbLine
 10
-1.6018500594308591
 20
-170.94505502477602
 30
0.0
 11
-3.0458500594308191
 21
-168.44505502477602
 31
0.0
  0
LINE
  5
3D
100
AcDbEntity
  8
0
  6
CONTINUOUS
 62
               4
100
AcDbLine
 10
-1.9478500594308628
 20
-170.345055024776
 30
0.0
 11
-5.4678500594308446
 21
-170.34505502477617
 31
0.0
  0
LINE
  5
3E
100
AcDbEntity
  8
0
  6
CONTINUOUS
 62
               4
100
AcDbLine
 10
-2.6978500594308628
 20
-169.04505502477605
 30
0.0
 11
-5.4678500594308446
 21
-169.04505502477616
 31
0.0
  0
LINE
  5
3F
100
AcDbEntity
  8
0
  6
CONTINUOUS
 62
             200
100
AcDbLine
 10
-1.1018500594308591
 20
-170.94505502477602
 30
0.0
 11
-2.5458500594308191
 21
-168.44505502477602
 31
0.0
  0
LINE
  5
40
100
AcDbEntity
  8
0
  6
CONTINUOUS
 62
               4
100
AcDbLine
 10
1.2290510632469704
 20
-172.69505502477602
 30
0.0
 11
1.2290510632469704
 21
-172.19505502477602
 31
0.0
  0
ARC
  5
41
100
AcDbEntity
  8
0
  6
CONTINUOUS
 62
               4
100
AcDbCircle
 10
1.7295155077646029
 20
-156.22818224949231
 30
0.0
 40
0.5004652055472239
100
AcDbArc
 50
115.12116424320446
 51
180.09991976467873
  0
ARC
  5
42
100
AcDbEntity
  8
0
  6
CONTINUOUS
 62
               4
100
AcDbCircle
 10
1.7290135392415777
 20
-172.69509254878142
 30
0.0
 40
0.4999624774027422
100
AcDbArc
 50
179.99569974300135
 51
270.00430025699922
  0
LINE
  5
43
100
AcDbEntity
  8
0
  6
CONTINUOUS
 62
               4
100
AcDbLine
 10
6.8290510632469932
 20
-173.19505502477597
 30
0.0
 11
1.7290510632469704
 21
-173.19505502477602
 31
0.0
  0
LINE
  5
44
100
AcDbEntity
  8
0
  6
CONTINUOUS
 62
               4
100
AcDbLine
 10
0.0290510632467829
 20
-169.04505502477605
 30
0.0
 11
-2.1978500594308628
 21
-169.04505502477605
 31
0.0
  0
LINE
  5
45
100
AcDbEntity
  8
0
  6
CONTINUOUS
 62
               4
100
AcDbLine
 10
0.0290510632467829
 20
-170.345055024776
 30
0.0
 11
-1.4478500594308628
 21
-170.345055024776
 31
0.0
  0
LINE
  5
46
100
AcDbEntity
  8
0
  6
CONTINUOUS
 62
               4
100
AcDbLine
 10
1.2290510632469704
 20
-172.19505502477602
 30
0.0
 11
1.229051063246601
 21
-156.22905502477602
 31
0.0
  0
LINE
  5
47
100
AcDbEntity
  8
0
  6
CONTINUOUS
 62
               4
100
AcDbLine
 10
17.129053879773693
 20
-176.59705502477595
 30
0.0
 11
17.129053879773693
 21
-177.19705502477586
 31
0.0
  0
LINE
  5
48
100
AcDbEntity
  8
0
  6
CONTINUOUS
 62
               4
100
AcDbLine
 10
20.146149026431914
 20
-177.19705502477581
 30
0.0
 11
8.8290510632469079
 21
-177.19705502477603
 31
0.0
  0
ARC
  5
49
100
AcDbEntity
  8
0
  6
CONTINUOUS
 62
               4
100
AcDbCircle
 10
18.344965874536655
 20
-176.59814303001275
 30
0.0
 40
0.5989129830170392
100
AcDbArc
 50
179.89591452477339
 51
270.10408547522735
  0
ARC
  5
4A
100
AcDbEntity
  8
0
  6
CONTINUOUS
 62
               4
100
AcDbCircle
 10
20.146149026431857
 20
-176.59715017143395
 30
0.0
 40
0.5999048608870732
100
AcDbArc
 50
303.5600506667422
 51
0.0090872775470865
  0
LINE
  5
4B
100
AcDbEntity
  8
0
  6
CONTINUOUS
 62
               4
100
AcDbLine
 10
20.829053879773625
 20
-176.5970550247759
 30
0.0
 11
17.129053879773693
 21
-176.59705502477595
 31
0.0
  0
LINE
  5
4C
100
AcDbEntity
  8
0
  6
CONTINUOUS
 62
               4
100
AcDbLine
 10
8.8290510632469079
 20
-177.19705502477603
 30
0.0
 11
8.8290510632468795
 21
-175.59705502477613
 31
0.0
  0
LINE
  5
4D
100
AcDbEntity
  8
0
  6
CONTINUOUS
 62
               4
100
AcDbLine
 10
20.829053879773653
 20
-175.5970550247759
 30
0.0
 11
8.8290510632468795
 21
-175.59705502477613
 31
0.0
  0
LINE
  5
4E
100
AcDbEntity
  8
0
  6
CONTINUOUS
 62
               4
100
AcDbLine
 10
7.3290538797737383
 20
-177.09705502477601
 30
0.0
 11
8.8290538797736247
 21
-177.09705502477601
 31
0.0
  0
ARC
  5
4F
100
AcDbEntity
  8
0
  6
CONTINUOUS
 62
               4
100
AcDbCircle
 10
7.3290538797737383
 20
-176.59705502477601
 30
0.0
 40
0.5
100
AcDbArc
 50
180.0000000000004
 51
270.00000000000023
  0
ARC
  5
50
100
AcDbEntity
  8
0
  6
CONTINUOUS
 62
               4
100
AcDbCircle
 10
20.329053879773625
 20
-176.59705502477578
 30
0.0
 40
0.5
100
AcDbArc
 50
294.73039869686141
 51
0.0000000000008651
  0
ARC
  5
51
100
AcDbEntity
  8
0
  6
CONTINUOUS
 62
               4
100
AcDbCircle
 10
20.146149026431857
 20
-176.59715017143395
 30
0.0
 40
0.5999048608870732
100
AcDbArc
 50
269.99091272245386
 51
303.5600506667414
  0
LINE
  5
52
100
AcDbEntity
  8
0
  6
CONTINUOUS
 62
               4
100
AcDbLine
 10
-5.4678500594307309
 20
-169.9450550247762
 30
0.0
 11
-8.9678500594308446
 21
-169.94505502477642
 31
0.0
  0
LINE
  5
53
100
AcDbEntity
  8
0
  6
CONTINUOUS
 62
               4
100
AcDbLine
 10
-5.4678500594308446
 20
-169.44505502477614
 30
0.0
 11
-8.9678500594308446
 21
-169.44505502477642
 31
0.0
  0
LINE
  5
54
100
AcDbEntity
  8
0
  6
CONTINUOUS
 62
               4
100
AcDbLine
 10
-8.9678500594308446
 20
-169.94505502477642
 30
0.0
 11
-8.9678500594308446
 21
-169.44505502477642
 31
0.0
  0
LINE
  5
55
100
AcDbEntity
  8
0
  6
CONTINUOUS
 62
               4
100
AcDbLine
 10
6.8290538797734541
 20
-154.69705502477603
 30
0.0
 11
6.829053879773852
 21
-176.59705501970831
 31
0.0
  0
LINE
  5
56
100
AcDbEntity
  8
0
  6
CONTINUOUS
 62
               4
100
AcDbLine
 10
20.829053879773682
 20
-176.59705502477578
 30
0.0
 11
20.829053879773397
 21
-154.69705502477581
 31
0.0
  0
LINE
  5
57
100
AcDbEntity
  8
0
  6
CONTINUOUS
 62
               4
100
AcDbLine
 10
3.8290510632466237
 20
-154.69705502477603
 30
0.0
 11
3.8290510632469932
 21
-173.19505502477597
 31
0.0
  0
LINE
  5
58
100
AcDbEntity
  8
0
  6
CONTINUOUS
 62
               4
100
AcDbLine
 10
3.8290510632466237
 20
-154.69705502477603
 30
0.0
 11
1.5170510632466119
 21
-155.77505502477607
 31
0.0
  0
ARC
  5
59
100
AcDbEntity
  8
0
  6
CONTINUOUS
 62
               4
100
AcDbCircle
 10
0.5290510632461007
 20
-77.099055024775922
 30
0.0
 40
0.5
100
AcDbArc
 50
90.000000000000227
 51
180.00000000000003
  0
ARC
  5
5A
100
AcDbEntity
  8
0
  6
CONTINUOUS
 62
               4
100
AcDbCircle
 10
0.5290510632461292
 20
-81.099055024775922
 30
0.0
 40
0.5
100
AcDbArc
 50
180.00000000000003
 51
269.99999999999983
  0
LINE
  5
5B
100
AcDbEntity
  8
0
  6
CONTINUOUS
 62
               4
100
AcDbLine
 10
1.2290510632460041
 20
-76.599055024775922
 30
0.0
 11
0.5290510632460723
 21
-76.599055024775922
 31
0.0
  0
LINE
  5
5C
100
AcDbEntity
  8
0
  6
CONTINUOUS
 62
               4
100
AcDbLine
 10
0.0290510632461292
 20
-81.09905502477595
 30
0.0
 11
0.0290510632461007
 21
-77.09905502477595
 31
0.0
  0
LINE
  5
5D
100
AcDbEntity
  8
0
  6
CONTINUOUS
 62
               4
100
AcDbLine
 10
1.2290510632460609
 20
-81.599055024775922
 30
0.0
 11
0.5290510632461292
 21
-81.599055024775922
 31
0.0
  0
LINE
  5
5E
100
AcDbEntity
  8
0
  6
CONTINUOUS
 62
               4
100
AcDbLine
 10
-5.4678500594315267
 20
-78.449872407588558
 30
0.0
 11
-5.4678500594315267
 21
-79.749872407588512
 31
0.0
  0
LINE
  5
5F
100
AcDbEntity
  8
0
  6
CONTINUOUS
 62
             200
100
AcDbLine
 10
-1.6018500594315412
 20
-77.84905502477595
 30
0.0
 11
-3.0458500594315012
 21
-80.34905502477595
 31
0.0
  0
LINE
  5
60
100
AcDbEntity
  8
0
  6
CONTINUOUS
 62
               4
100
AcDbLine
 10
-1.9478500594315449
 20
-78.449055024775973
 30
0.0
 11
-5.4678500594315267
 21
-78.449055024776001
 31
0.0
  0
LINE
  5
61
100
AcDbEntity
  8
0
  6
CONTINUOUS
 62
               4
100
AcDbLine
 10
-2.6978500594315449
 20
-79.749055024775927
 30
0.0
 11
-5.4678500594315267
 21
-79.749055024775956
 31
0.0
  0
LINE
  5
62
100
AcDbEntity
  8
0
  6
CONTINUOUS
 62
             200
100
AcDbLine
 10
-1.1018500594315412
 20
-77.84905502477595
 30
0.0
 11
-2.5458500594315012
 21
-80.34905502477595
 31
0.0
  0
LINE
  5
63
100
AcDbEntity
  8
0
  6
CONTINUOUS
 62
               4
100
AcDbLine
 10
1.2290510632460041
 20
-76.099055024775922
 30
0.0
 11
1.2290510632460041
 21
-76.599055024775922
 31
0.0
  0
ARC
  5
64
100
AcDbEntity
  8
0
  6
CONTINUOUS
 62
               4
100
AcDbCircle
 10
1.7295155077641482
 20
-92.56592780005964
 30
0.0
 40
0.5004652055472239
100
AcDbArc
 50
179.90008023532172
 51
244.87883575679604
  0
ARC
  5
65
100
AcDbEntity
  8
0
  6
CONTINUOUS
 62
               4
100
AcDbCircle
 10
1.7290135392406114
 20
-76.099017500770529
 30
0.0
 40
0.4999624774027422
100
AcDbArc
 50
89.995699743001225
 51
180.00430025699907
  0
LINE
  5
66
100
AcDbEntity
  8
0
  6
CONTINUOUS
 62
               4
100
AcDbLine
 10
6.8290510632460268
 20
-75.599055024775893
 30
0.0
 11
1.7290510632460041
 21
-75.599055024775922
 31
0.0
  0
LINE
  5
67
100
AcDbEntity
  8
0
  6
CONTINUOUS
 62
               4
100
AcDbLine
 10
0.0290510632461007
 20
-79.749055024775927
 30
0.0
 11
-2.1978500594315449
 21
-79.749055024775927
 31
0.0
  0
LINE
  5
68
100
AcDbEntity
  8
0
  6
CONTINUOUS
 62
               4
100
AcDbLine
 10
0.0290510632461007
 20
-78.449055024775973
 30
0.0
 11
-1.4478500594315449
 21
-78.449055024775973
 31
0.0
  0
LINE
  5
69
100
AcDbEntity
  8
0
  6
CONTINUOUS
 62
               4
100
AcDbLine
 10
1.2290510632460041
 20
-76.599055024775922
 30
0.0
 11
1.2290510632461462
 21
-92.56505502477593
 31
0.0
  0
LINE
  5
6A
100
AcDbEntity
  8
0
  6
CONTINUOUS
 62
               4
100
AcDbLine
 10
10.529053879773045
 20
-72.197055024775679
 30
0.0
 11
10.529053879773045
 21
-71.59705502477577
 31
0.0
  0
LINE
  5
6B
100
AcDbEntity
  8
0
  6
CONTINUOUS
 62
               4
100
AcDbLine
 10
7.5119587331148239
 20
-71.59705502477577
 30
0.0
 11
18.82905669629983
 21
-71.59705502477577
 31
0.0
  0
ARC
  5
6C
100
AcDbEntity
  8
0
  6
CONTINUOUS
 62
               4
100
AcDbCircle
 10
9.3131418850100829
 20
-72.195967019538827
 30
0.0
 40
0.5989129830170392
100
AcDbArc
 50
359.89591452477293
 51
90.104085475226867
  0
ARC
  5
6D
100
AcDbEntity
  8
0
  6
CONTINUOUS
 62
               4
100
AcDbCircle
 10
7.5119587331148807
 20
-72.196959878117624
 30
0.0
 40
0.5999048608870732
100
AcDbArc
 50
123.56005066674096
 51
180.00908727754583
  0
LINE
  5
6E
100
AcDbEntity
  8
0
  6
CONTINUOUS
 62
               4
100
AcDbLine
 10
6.8290538797731131
 20
-72.197055024775679
 30
0.0
 11
10.529053879773045
 21
-72.197055024775679
 31
0.0
  0
LINE
  5
6F
100
AcDbEntity
  8
0
  6
CONTINUOUS
 62
               4
100
AcDbLine
 10
18.82905669629983
 20
-71.59705502477577
 30
0.0
 11
18.82905669629983
 21
-73.197055024775679
 31
0.0
  0
LINE
  5
70
100
AcDbEntity
  8
0
  6
CONTINUOUS
 62
               4
100
AcDbLine
 10
6.8290538797730562
 20
-73.197055024775679
 30
0.0
 11
18.82905669629983
 21
-73.197055024775679
 31
0.0
  0
LINE
  5
71
100
AcDbEntity
  8
0
  6
CONTINUOUS
 62
               4
100
AcDbLine
 10
20.329053879773113
 20
-71.697055024775793
 30
0.0
 11
18.829053879773113
 21
-71.697055024775793
 31
0.0
  0
ARC
  5
72
100
AcDbEntity
  8
0
  6
CONTINUOUS
 62
               4
100
AcDbCircle
 10
20.329053879773113
 20
-72.197055024775793
 30
0.0
 40
0.5
100
AcDbArc
 50
0.0
 51
89.999999999999815
  0
ARC
  5
73
100
AcDbEntity
  8
0
  6
CONTINUOUS
 62
               4
100
AcDbCircle
 10
7.3290538797731131
 20
-72.197055024775793
 30
0.0
 40
0.5
100
AcDbArc
 50
114.73039869686018
 51
179.99999999999963
  0
ARC
  5
74
100
AcDbEntity
  8
0
  6
CONTINUOUS
 62
               4
100
AcDbCircle
 10
7.5119587331148807
 20
-72.196959878117624
 30
0.0
 40
0.5999048608870732
100
AcDbArc
 50
89.99091272245343
 51
123.56005066674096
  0
LINE
  5
75
100
AcDbEntity
  8
0
  6
CONTINUOUS
 62
               4
100
AcDbLine
 10
-5.467850059431413
 20
-78.849055024775978
 30
0.0
 11
-8.9678500594315267
 21
-78.84905502477578
 31
0.0
  0
LINE
  5
76
100
AcDbEntity
  8
0
  6
CONTINUOUS
 62
               4
100
AcDbLine
 10
-5.4678500594315267
 20
-79.349055024775978
 30
0.0
 11
-8.9678500594315267
 21
-79.34905502477578
 31
0.0
  0
LINE
  5
77
100
AcDbEntity
  8
0
  6
CONTINUOUS
 62
               4
100
AcDbLine
 10
-8.9678528759583571
 20
-78.84905502477578
 30
0.0
 11
-8.9678528759583571
 21
-79.34905502477578
 31
0.0
  0
LINE
  5
78
100
AcDbEntity
  8
0
  6
CONTINUOUS
 62
               4
100
AcDbLine
 10
6.8290538797729994
 20
-94.097055024775827
 30
0.0
 11
6.8290538797728289
 21
-72.197055029843554
 31
0.0
  0
LINE
  5
79
100
AcDbEntity
  8
0
  6
CONTINUOUS
 62
               4
100
AcDbLine
 10
20.829053879772772
 20
-72.197055024775736
 30
0.0
 11
20.829053879772943
 21
-94.097055024775713
 31
0.0
  0
LINE
  5
7A
100
AcDbEntity
  8
0
  6
CONTINUOUS
 62
               4
100
AcDbLine
 10
3.829051063246169
 20
-94.097055024775855
 30
0.0
 11
3.8290510632460268
 21
-75.599055024775922
 31
0.0
  0
LINE
  5
7B
100
AcDbEntity
  8
0
  6
CONTINUOUS
 62
               4
100
AcDbLine
 10
3.829051063246169
 20
-94.097055024775855
 30
0.0
 11
1.5170510632461571
 21
-93.019055024775881
 31
0.0
  0
LINE
  5
7D
100
AcDbEntity
  8
0
  6
DASHED
 62
               2
100
AcDbLine
 10
20.829051063246283
 20
-150.1480282913773
 30
0.0
 11
19.73397903393365
 21
-150.1480282913773
 31
0.0
  0
LINE
  5
7E
100
AcDbEntity
  8
0
  6
DASHED
 62
               2
100
AcDbLine
 10
20.829051063246283
 20
-148.6480282913773
 30
0.0
 11
19.73397903393365
 21
-148.6480282913773
 31
0.0
  0
LINE
  5
80
100
AcDbEntity
  8
0
  6
CENTER
 62
               2
100
AcDbLine
 10
19.266371087484771
 20
-149.3980282913773
 30
0.0
 11
21.54703008232363
 21
-149.3980282913773
 31
0.0
  0
LINE
  5
81
100
AcDbEntity
  8
0
  6
DASHED
 62
               2
100
AcDbLine
 10
20.829051063246339
 20
-98.64705502477571
 30
0.0
 11
19.733979033933707
 21
-98.64705502477571
 31
0.0
  0
LINE
  5
82
100
AcDbEntity
  8
0
  6
DASHED
 62
               2
100
AcDbLine
 10
20.829051063246339
 20
-100.14705502477571
 30
0.0
 11
19.733979033933707
 21
-100.14705502477571
 31
0.0
  0
LINE
  5
83
100
AcDbEntity
  8
0
  6
CONTINUOUS
 62
               7
100
AcDbLine
 10
21.529053879773073
 20
-103.8970550247758
 30
0.0
 11
37.529053879773073
 21
-103.8970550247758
 31
0.0
  0
LINE
  5
84
100
AcDbEntity
  8
0
  6
CONTINUOUS
 62
               7
100
AcDbLine
 10
21.529053879773073
 20
-136.8970550247758
 30
0.0
 11
37.529053871948406
 21
-136.8970550247758
 31
0.0
  0
CIRCLE
  5
85
100
AcDbEntity
  8
0
  6
CONTINUOUS
 62
               7
100
AcDbCircle
 10
32.529053871948406
 20
-128.7970550247758
 30
0.0
 40
2.1000000000000001
  0
CIRCLE
  5
86
100
AcDbEntity
  8
0
  6
CONTINUOUS
 62
               7
100
AcDbCircle
 10
26.529053871948406
 20
-120.3970550247758
 30
0.0
 40
2.1000000000000001
  0
CIRCLE
  5
87
100
AcDbEntity
  8
0
  6
CONTINUOUS
 62
               2
100
AcDbCircle
 10
32.529053871948406
 20
-128.7970550247758
 30
0.0
 40
2.5
  0
CIRCLE
  5
88
100
AcDbEntity
  8
0
  6
CONTINUOUS
 62
               2
100
AcDbCircle
 10
26.529053871948406
 20
-120.3970550247758
 30
0.0
 40
2.5
  0
LINE
  5
89
100
AcDbEntity
  8
0
  6
CONTINUOUS
 62
               7
100
AcDbLine
 10
37.529053871948406
 20
-136.8970550247758
 30
0.0
 11
37.529053871948406
 21
-103.8970550247758
 31
0.0
  0
LINE
  5
8A
100
AcDbEntity
  8
0
  6
CONTINUOUS
 62
               7
100
AcDbLine
 10
21.529053871948406
 20
-136.8970550247758
 30
0.0
 11
21.529053871948406
 21
-103.8970550247758
 31
0.0
  0
LINE
  5
8B
100
AcDbEntity
  8
0
  6
CENTER
 62
               2
100
AcDbLine
 10
28.529053871948406
 20
-128.7970550247758
 30
0.0
 11
36.529053871948406
 21
-128.7970550247758
 31
0.0
  0
LINE
  5
8C
100
AcDbEntity
  8
0
  6
CENTER
 62
               2
100
AcDbLine
 10
22.529053871948406
 20
-120.3970550247758
 30
0.0
 11
30.529053871948406
 21
-120.3970550247758
 31
0.0
  0
LINE
  5
8D
100
AcDbEntity
  8
0
  6
CENTER
 62
               2
100
AcDbLine
 10
26.529053871948406
 20
-116.3970550247758
 30
0.0
 11
26.529053871948406
 21
-124.3970550247758
 31
0.0
  0
LINE
  5
8E
100
AcDbEntity
  8
0
  6
CENTER
 62
               2
100
AcDbLine
 10
32.529053871948406
 20
-124.7970550247758
 30
0.0
 11
32.529053871948406
 21
-132.7970550247758
 31
0.0
  0
LINE
  5
8F
100
AcDbEntity
  8
0
  6
CONTINUOUS
 62
               7
100
AcDbLine
 10
20.829056696299887
 20
-108.39608175817423
 30
0.0
 11
21.529053879773102
 21
-108.39608175817423
 31
0.0
  0
LINE
  5
90
100
AcDbEntity
  8
0
  6
CONTINUOUS
 62
               7
100
AcDbLine
 10
20.829056696299887
 20
-132.3960817581742
 30
0.0
 11
21.529053879773073
 21
-132.3960817581742
 31
0.0
  0
LINE
  5
91
100
AcDbEntity
  8
0
  6
CENTER
 62
               2
100
AcDbLine
 10
19.266371087484828
 20
-99.39705502477571
 30
0.0
 11
21.547030082323687
 21
-99.39705502477571
 31
0.0
  0
LINE
  5
92
100
AcDbEntity
  8
0
  6
CONTINUOUS
 62
               7
100
AcDbLine
 10
5.2290510632462599
 20
-148.69705502477572
 30
0.0
 11
5.2290510632462599
 21
-154.69705502477569
 31
0.0
  0
ARC
  5
93
100
AcDbEntity
  8
0
  6
CONTINUOUS
 62
               7
100
AcDbCircle
 10
7.8279630580093169
 20
-128.59814302905906
 30
0.0
 40
0.5989129830170392
100
AcDbArc
 50
179.89591452477254
 51
270.10408547522644
  0
LINE
  5
94
100
AcDbEntity
  8
0
  6
CONTINUOUS
 62
               7
100
AcDbLine
 10
20.829051063246339
 20
-133.4970550247757
 30
0.0
 11
6.8290510632463395
 21
-133.4970550247757
 31
0.0
  0
LINE
  5
95
100
AcDbEntity
  8
0
  6
CONTINUOUS
 62
               7
100
AcDbLine
 10
20.829051063246339
 20
-107.29705502477573
 30
0.0
 11
6.8290510632463395
 21
-107.29705502477573
 31
0.0
  0
LINE
  5
96
100
AcDbEntity
  8
0
  6
CONTINUOUS
 62
               7
100
AcDbLine
 10
6.8290538797730562
 20
-154.69705502477569
 30
0.0
 11
6.8290538797731131
 21
-94.097055024775756
 31
0.0
  0
LINE
  5
97
100
AcDbEntity
  8
0
  6
CONTINUOUS
 62
               7
100
AcDbLine
 10
20.829053879773056
 20
-154.69705502477572
 30
0.0
 11
20.829053879773113
 21
-94.097055024775727
 31
0.0
  0
LINE
  5
98
100
AcDbEntity
  8
0
  6
CONTINUOUS
 62
               7
100
AcDbLine
 10
5.2290510632463167
 20
-100.09705220824895
 30
0.0
 11
5.2290510632463167
 21
-94.097055024775727
 31
0.0
  0
LINE
  5
99
100
AcDbEntity
  8
0
  6
CONTINUOUS
 62
               7
100
AcDbLine
 10
7.8290510642000015
 20
-129.29705502477572
 30
0.0
 11
6.8290510632463395
 21
-129.29705502477572
 31
0.0
  0
LINE
  5
9A
100
AcDbEntity
  8
0
  6
CONTINUOUS
 62
               7
100
AcDbLine
 10
7.8290510642000015
 20
-126.09705502477573
 30
0.0
 11
6.8290510632463395
 21
-126.09705502477573
 31
0.0
  0
LINE
  5
9B
100
AcDbEntity
  8
0
  6
CONTINUOUS
 62
               7
100
AcDbLine
 10
7.8290510632463395
 20
-129.29705502477572
 30
0.0
 11
7.8290510632463395
 21
-126.09705502477573
 31
0.0
  0
LINE
  5
9C
100
AcDbEntity
  8
0
  6
CONTINUOUS
 62
               7
100
AcDbLine
 10
7.2290500749922728
 20
-128.59814302905906
 30
0.0
 11
7.2290500749922728
 21
-126.79596701858503
 31
0.0
  0
ARC
  5
9D
100
AcDbEntity
  8
0
  6
CONTINUOUS
 62
               7
100
AcDbCircle
 10
7.8279630580093169
 20
-126.79596701858503
 30
0.0
 40
0.5989129830170392
100
AcDbArc
 50
89.895914524772735
 51
180.10408547522667
  0
LINE
  5
9E
100
AcDbEntity
  8
0
  6
CONTINUOUS
 62
               7
100
AcDbLine
 10
20.829051063246339
 20
-141.4970550247757
 30
0.0
 11
6.8290510632463395
 21
-141.4970550247757
 31
0.0
  0
LINE
  5
9F
100
AcDbEntity
  8
0
  6
CONTINUOUS
 62
               7
100
AcDbLine
 10
6.8290538797730562
 20
-147.09705502477573
 30
0.0
 11
5.2290510632462599
 21
-148.69705502477572
 31
0.0
  0
LINE
  5
A0
100
AcDbEntity
  8
0
  6
CONTINUOUS
 62
               7
100
AcDbLine
 10
5.2290510632463167
 20
-100.09705220824895
 30
0.0
 11
6.8290538797731131
 21
-101.69705502477572
 31
0.0
  0
LINE
  5
A1
100
AcDbEntity
  8
0
  6
CENTER
 62
               2
100
AcDbLine
 10
13.829053879773312
 20
-177.88096027026759
 30
0.0
 11
13.829053879772914
 21
-70.915096312487066
 31
0.0
  0
LINE
  5
A2
100
AcDbEntity
  8
0
  6
CENTER
 62
               2
100
AcDbLine
 10
35.029053871948406
 20
-106.89705502477578
 30
0.0
 11
40.029053866863251
 21
-106.89705502477578
 31
0.0
  0
LINE
  5
A3
100
AcDbEntity
  8
0
  6
CENTER
 62
               2
100
AcDbLine
 10
35.029053871948406
 20
-133.8970550247758
 30
0.0
 11
40.029053866863251
 21
-133.8970550247758
 31
0.0
  0
LINE
  5
A4
100
AcDbEntity
  8
0
  6
CENTER
 62
               2
100
AcDbLine
 10
19.029053871948406
 20
-113.09705502477576
 30
0.0
 11
24.029053871948406
 21
-113.09705502477576
 31
0.0
  0
LINE
  5
A5
100
AcDbEntity
  8
0
  6
CENTER
 62
               2
100
AcDbLine
 10
19.029053871948406
 20
-127.69705502477575
 30
0.0
 11
24.029053871948406
 21
-127.69705502477575
 31
0.0
  0
LINE
  5
A6
100
AcDbEntity
  8
0
  6
CONTINUOUS
 62
               4
100
AcDbLine
 10
-146.95730533144152
 20
-154.69705502477586
 30
0.0
 11
-129.95730251491474
 21
-154.69705502477598
 31
0.0
  0
LINE
  5
A7
100
AcDbEntity
  8
0
  6
CONTINUOUS
 62
               4
100
AcDbLine
 10
-117.16040139223716
 20
-169.94505502477625
 30
0.0
 11
-117.16040139223716
 21
-169.44505502477625
 31
0.0
  0
LINE
  5
A8
100
AcDbEntity
  8
0
  6
CONTINUOUS
 62
               4
100
AcDbLine
 10
-120.66040139223716
 20
-169.44505502477602
 30
0.0
 11
-117.16040139223716
 21
-169.44505502477625
 31
0.0
  0
LINE
  5
A9
100
AcDbEntity
  8
0
  6
CONTINUOUS
 62
               4
100
AcDbLine
 10
-120.66040139223728
 20
-169.94505502477602
 30
0.0
 11
-117.16040139223716
 21
-169.94505502477625
 31
0.0
  0
ARC
  5
AA
100
AcDbEntity
  8
0
  6
CONTINUOUS
 62
               4
100
AcDbCircle
 10
-146.27440047809981
 20
-176.59715017143401
 30
0.0
 40
0.5999048608870732
100
AcDbArc
 50
236.43994933325783
 51
270.00908727754535
  0
ARC
  5
AB
100
AcDbEntity
  8
0
  6
CONTINUOUS
 62
               4
100
AcDbCircle
 10
-146.45730533144157
 20
-176.59705502477584
 30
0.0
 40
0.5
100
AcDbArc
 50
179.9999999999992
 51
245.26960130313861
  0
ARC
  5
AC
100
AcDbEntity
  8
0
  6
CONTINUOUS
 62
               4
100
AcDbCircle
 10
-133.45730533144169
 20
-176.59705502477595
 30
0.0
 40
0.5
100
AcDbArc
 50
269.99999999999898
 51
359.99999999999881
  0
LINE
  5
AD
100
AcDbEntity
  8
0
  6
CONTINUOUS
 62
               4
100
AcDbLine
 10
-133.45730533144169
 20
-177.09705502477595
 30
0.0
 11
-134.95730533144157
 21
-177.09705502477595
 31
0.0
  0
LINE
  5
AE
100
AcDbEntity
  8
0
  6
CONTINUOUS
 62
               4
100
AcDbLine
 10
-146.95730533144163
 20
-175.59705502477595
 30
0.0
 11
-134.95730251491486
 21
-175.59705502477607
 31
0.0
  0
LINE
  5
AF
100
AcDbEntity
  8
0
  6
CONTINUOUS
 62
               4
100
AcDbLine
 10
-134.95730251491486
 20
-177.19705502477598
 30
0.0
 11
-134.95730251491486
 21
-175.59705502477607
 31
0.0
  0
LINE
  5
B0
100
AcDbEntity
  8
0
  6
CONTINUOUS
 62
               4
100
AcDbLine
 10
-146.95730533144157
 20
-176.59705502477595
 30
0.0
 11
-143.25730533144164
 21
-176.59705502477595
 31
0.0
  0
ARC
  5
B1
100
AcDbEntity
  8
0
  6
CONTINUOUS
 62
               4
100
AcDbCircle
 10
-146.27440047809981
 20
-176.59715017143401
 30
0.0
 40
0.5999048608870732
100
AcDbArc
 50
179.99091272245298
 51
236.43994933325783
  0
ARC
  5
B2
100
AcDbEntity
  8
0
  6
CONTINUOUS
 62
               4
100
AcDbCircle
 10
-144.4732173262046
 20
-176.59814303001281
 30
0.0
 40
0.5989129830170392
100
AcDbArc
 50
269.89591452477185
 51
0.1040854752266121
  0
LINE
  5
B3
100
AcDbEntity
  8
0
  6
CONTINUOUS
 62
               4
100
AcDbLine
 10
-146.27440047809986
 20
-177.19705502477586
 30
0.0
 11
-134.95730251491486
 21
-177.19705502477598
 31
0.0
  0
LINE
  5
B4
100
AcDbEntity
  8
0
  6
CONTINUOUS
 62
               4
100
AcDbLine
 10
-143.25730533144164
 20
-176.59705502477595
 30
0.0
 11
-143.25730533144164
 21
-177.19705502477586
 31
0.0
  0
LINE
  5
B5
100
AcDbEntity
  8
0
  6
CONTINUOUS
 62
               4
100
AcDbLine
 10
-127.35730251491495
 20
-172.19505502477591
 30
0.0
 11
-127.35730251491472
 21
-156.2290550247759
 31
0.0
  0
LINE
  5
B6
100
AcDbEntity
  8
0
  6
CONTINUOUS
 62
               4
100
AcDbLine
 10
-126.15730251491479
 20
-170.34505502477589
 30
0.0
 11
-124.68040139223714
 21
-170.34505502477589
 31
0.0
  0
LINE
  5
B7
100
AcDbEntity
  8
0
  6
CONTINUOUS
 62
               4
100
AcDbLine
 10
-126.15730251491479
 20
-169.04505502477593
 30
0.0
 11
-123.93040139223714
 21
-169.04505502477593
 31
0.0
  0
LINE
  5
B8
100
AcDbEntity
  8
0
  6
CONTINUOUS
 62
               4
100
AcDbLine
 10
-132.95730251491497
 20
-173.19505502477591
 30
0.0
 11
-127.85730251491495
 21
-173.19505502477591
 31
0.0
  0
ARC
  5
B9
100
AcDbEntity
  8
0
  6
CONTINUOUS
 62
               4
100
AcDbCircle
 10
-127.85726499090956
 20
-172.6950925487813
 30
0.0
 40
0.4999624774027422
100
AcDbArc
 50
269.99569974299999
 51
0.0043002569986451
  0
ARC
  5
BA
100
AcDbEntity
  8
0
  6
CONTINUOUS
 62
               4
100
AcDbCircle
 10
-127.85776695943272
 20
-156.22818224949219
 30
0.0
 40
0.5004652055472239
100
AcDbArc
 50
359.90008023532044
 51
64.87883575679551
  0
LINE
  5
BB
100
AcDbEntity
  8
0
  6
CONTINUOUS
 62
               4
100
AcDbLine
 10
-127.35730251491495
 20
-172.69505502477591
 30
0.0
 11
-127.35730251491495
 21
-172.19505502477591
 31
0.0
  0
LINE
  5
BC
100
AcDbEntity
  8
0
  6
CONTINUOUS
 62
             200
100
AcDbLine
 10
-125.02640139223715
 20
-170.94505502477591
 30
0.0
 11
-123.58240139223719
 21
-168.44505502477591
 31
0.0
  0
LINE
  5
BD
100
AcDbEntity
  8
0
  6
CONTINUOUS
 62
               4
100
AcDbLine
 10
-123.43040139223714
 20
-169.04505502477593
 30
0.0
 11
-120.66040139223716
 21
-169.04505502477605
 31
0.0
  0
LINE
  5
BE
100
AcDbEntity
  8
0
  6
CONTINUOUS
 62
               4
100
AcDbLine
 10
-124.18040139223714
 20
-170.34505502477589
 30
0.0
 11
-120.66040139223716
 21
-170.345055024776
 31
0.0
  0
LINE
  5
BF
100
AcDbEntity
  8
0
  6
CONTINUOUS
 62
             200
100
AcDbLine
 10
-124.52640139223715
 20
-170.94505502477591
 30
0.0
 11
-123.08240139223719
 21
-168.44505502477591
 31
0.0
  0
LINE
  5
C0
100
AcDbEntity
  8
0
  6
CONTINUOUS
 62
               4
100
AcDbLine
 10
-120.66040139223716
 20
-170.34423764196345
 30
0.0
 11
-120.66040139223716
 21
-169.04423764196349
 31
0.0
  0
LINE
  5
C1
100
AcDbEntity
  8
0
  6
CONTINUOUS
 62
               4
100
AcDbLine
 10
-127.35730251491472
 20
-167.19505502477591
 30
0.0
 11
-126.65730251491479
 21
-167.19505502477591
 31
0.0
  0
LINE
  5
C2
100
AcDbEntity
  8
0
  6
CONTINUOUS
 62
               4
100
AcDbLine
 10
-126.15730251491479
 20
-167.69505502477591
 30
0.0
 11
-126.15730251491479
 21
-171.69505502477591
 31
0.0
  0
LINE
  5
C3
100
AcDbEntity
  8
0
  6
CONTINUOUS
 62
               4
100
AcDbLine
 10
-127.35730251491495
 20
-172.19505502477591
 30
0.0
 11
-126.65730251491502
 21
-172.19505502477591
 31
0.0
  0
ARC
  5
C4
100
AcDbEntity
  8
0
  6
CONTINUOUS
 62
               4
100
AcDbCircle
 10
-126.65730251491479
 20
-167.69505502477591
 30
0.0
 40
0.5
100
AcDbArc
 50
359.99999999999881
 51
89.999999999999389
  0
ARC
  5
C5
100
AcDbEntity
  8
0
  6
CONTINUOUS
 62
               4
100
AcDbCircle
 10
-126.65730251491479
 20
-171.69505502477591
 30
0.0
 40
0.5
100
AcDbArc
 50
269.99999999999898
 51
359.99999999999881
  0
LINE
  5
C6
100
AcDbEntity
  8
0
  6
CONTINUOUS
 62
               4
100
AcDbLine
 10
-132.95730533144157
 20
-154.69705502477598
 30
0.0
 11
-132.9573053314418
 21
-176.59705501970825
 31
0.0
  0
LINE
  5
C7
100
AcDbEntity
  8
0
  6
CONTINUOUS
 62
               4
100
AcDbLine
 10
-146.95730533144163
 20
-176.59705502477584
 30
0.0
 11
-146.95730533144152
 21
-154.69705502477586
 31
0.0
  0
LINE
  5
C8
100
AcDbEntity
  8
0
  6
CONTINUOUS
 62
               4
100
AcDbLine
 10
-129.95730251491474
 20
-154.69705502477598
 30
0.0
 11
-129.95730251491497
 21
-173.19505502477591
 31
0.0
  0
LINE
  5
C9
100
AcDbEntity
  8
0
  6
CONTINUOUS
 62
               4
100
AcDbLine
 10
-129.95730251491474
 20
-154.69705502477598
 30
0.0
 11
-127.64530251491473
 21
-155.77505502477595
 31
0.0
  0
LINE
  5
CA
100
AcDbEntity
  8
0
  6
CONTINUOUS
 62
               4
100
AcDbLine
 10
-146.95730533144152
 20
-94.097055024775784
 30
0.0
 11
-129.95730251491474
 21
-94.097055024775784
 31
0.0
  0
LINE
  5
CB
100
AcDbEntity
  8
0
  6
CONTINUOUS
 62
               4
100
AcDbLine
 10
-117.16039857571033
 20
-78.849055024775623
 30
0.0
 11
-117.16039857571033
 21
-79.349055024775623
 31
0.0
  0
LINE
  5
CC
100
AcDbEntity
  8
0
  6
CONTINUOUS
 62
               4
100
AcDbLine
 10
-120.66040139223716
 20
-79.349055024775851
 30
0.0
 11
-117.16040139223716
 21
-79.349055024775623
 31
0.0
  0
LINE
  5
CD
100
AcDbEntity
  8
0
  6
CONTINUOUS
 62
               4
100
AcDbLine
 10
-120.66040139223728
 20
-78.849055024775851
 30
0.0
 11
-117.16040139223716
 21
-78.849055024775623
 31
0.0
  0
ARC
  5
CE
100
AcDbEntity
  8
0
  6
CONTINUOUS
 62
               4
100
AcDbCircle
 10
-146.27440047809969
 20
-72.196959878117639
 30
0.0
 40
0.5999048608870732
100
AcDbArc
 50
89.99091272245343
 51
123.56005066674096
  0
ARC
  5
CF
100
AcDbEntity
  8
0
  6
CONTINUOUS
 62
               4
100
AcDbCircle
 10
-146.45730533144146
 20
-72.197055024775807
 30
0.0
 40
0.5
100
AcDbArc
 50
114.73039869686018
 51
179.99999999999963
  0
ARC
  5
D0
100
AcDbEntity
  8
0
  6
CONTINUOUS
 62
               4
100
AcDbCircle
 10
-133.45730533144146
 20
-72.197055024775807
 30
0.0
 40
0.5
100
AcDbArc
 50
0.0
 51
89.999999999999815
  0
LINE
  5
D1
100
AcDbEntity
  8
0
  6
CONTINUOUS
 62
               4
100
AcDbLine
 10
-133.45730533144146
 20
-71.697055024775807
 30
0.0
 11
-134.95730533144146
 21
-71.697055024775807
 31
0.0
  0
LINE
  5
D2
100
AcDbEntity
  8
0
  6
CONTINUOUS
 62
               4
100
AcDbLine
 10
-146.95730533144152
 20
-73.197055024775693
 30
0.0
 11
-134.95730251491474
 21
-73.197055024775693
 31
0.0
  0
LINE
  5
D3
100
AcDbEntity
  8
0
  6
CONTINUOUS
 62
               4
100
AcDbLine
 10
-134.95730251491474
 20
-71.597055024775784
 30
0.0
 11
-134.95730251491474
 21
-73.197055024775693
 31
0.0
  0
LINE
  5
D4
100
AcDbEntity
  8
0
  6
CONTINUOUS
 62
               4
100
AcDbLine
 10
-146.95730533144146
 20
-72.197055024775693
 30
0.0
 11
-143.25730533144153
 21
-72.197055024775693
 31
0.0
  0
ARC
  5
D5
100
AcDbEntity
  8
0
  6
CONTINUOUS
 62
               4
100
AcDbCircle
 10
-146.27440047809969
 20
-72.196959878117639
 30
0.0
 40
0.5999048608870732
100
AcDbArc
 50
123.56005066674096
 51
180.00908727754583
  0
ARC
  5
D6
100
AcDbEntity
  8
0
  6
CONTINUOUS
 62
               4
100
AcDbCircle
 10
-144.47321732620449
 20
-72.195967019538841
 30
0.0
 40
0.5989129830170392
100
AcDbArc
 50
359.89591452477293
 51
90.104085475226867
  0
LINE
  5
D7
100
AcDbEntity
  8
0
  6
CONTINUOUS
 62
               4
100
AcDbLine
 10
-146.27440047809975
 20
-71.597055024775784
 30
0.0
 11
-134.95730251491474
 21
-71.597055024775784
 31
0.0
  0
LINE
  5
D8
100
AcDbEntity
  8
0
  6
CONTINUOUS
 62
               4
100
AcDbLine
 10
-143.25730533144153
 20
-72.197055024775693
 30
0.0
 11
-143.25730533144153
 21
-71.597055024775784
 31
0.0
  0
LINE
  5
D9
100
AcDbEntity
  8
0
  6
CONTINUOUS
 62
               4
100
AcDbLine
 10
-127.35730251491472
 20
-76.599055024775851
 30
0.0
 11
-127.35730251491472
 21
-92.565055024775859
 31
0.0
  0
LINE
  5
DA
100
AcDbEntity
  8
0
  6
CONTINUOUS
 62
               4
100
AcDbLine
 10
-126.15730251491479
 20
-78.449055024775873
 30
0.0
 11
-124.68040139223714
 21
-78.449055024775873
 31
0.0
  0
LINE
  5
DB
100
AcDbEntity
  8
0
  6
CONTINUOUS
 62
               4
100
AcDbLine
 10
-126.15730251491479
 20
-79.749055024775828
 30
0.0
 11
-123.93040139223714
 21
-79.749055024775828
 31
0.0
  0
LINE
  5
DC
100
AcDbEntity
  8
0
  6
CONTINUOUS
 62
               4
100
AcDbLine
 10
-132.95730251491474
 20
-75.599055024775851
 30
0.0
 11
-127.85730251491472
 21
-75.599055024775851
 31
0.0
  0
ARC
  5
DD
100
AcDbEntity
  8
0
  6
CONTINUOUS
 62
               4
100
AcDbCircle
 10
-127.85726499090933
 20
-76.099017500770458
 30
0.0
 40
0.4999624774027422
100
AcDbArc
 50
359.99569974300096
 51
90.004300256998803
  0
ARC
  5
DE
100
AcDbEntity
  8
0
  6
CONTINUOUS
 62
               4
100
AcDbCircle
 10
-127.85776695943272
 20
-92.565927800059569
 30
0.0
 40
0.5004652055472239
100
AcDbArc
 50
295.12116424320402
 51
0.0999197646782735
  0
LINE
  5
DF
100
AcDbEntity
  8
0
  6
CONTINUOUS
 62
               4
100
AcDbLine
 10
-127.35730251491472
 20
-76.099055024775851
 30
0.0
 11
-127.35730251491472
 21
-76.599055024775851
 31
0.0
  0
LINE
  5
E0
100
AcDbEntity
  8
0
  6
CONTINUOUS
 62
             200
100
AcDbLine
 10
-125.02640139223715
 20
-77.849055024775851
 30
0.0
 11
-123.58240139223719
 21
-80.349055024775851
 31
0.0
  0
LINE
  5
E1
100
AcDbEntity
  8
0
  6
CONTINUOUS
 62
               4
100
AcDbLine
 10
-123.43040139223714
 20
-79.749055024775828
 30
0.0
 11
-120.66040139223716
 21
-79.749055024775828
 31
0.0
  0
LINE
  5
E2
100
AcDbEntity
  8
0
  6
CONTINUOUS
 62
               4
100
AcDbLine
 10
-124.18040139223714
 20
-78.449055024775873
 30
0.0
 11
-120.66040139223716
 21
-78.449055024775873
 31
0.0
  0
LINE
  5
E3
100
AcDbEntity
  8
0
  6
CONTINUOUS
 62
             200
100
AcDbLine
 10
-124.52640139223715
 20
-77.849055024775851
 30
0.0
 11
-123.08240139223719
 21
-80.349055024775851
 31
0.0
  0
LINE
  5
E4
100
AcDbEntity
  8
0
  6
CONTINUOUS
 62
               4
100
AcDbLine
 10
-120.66040139223716
 20
-78.44987240758843
 30
0.0
 11
-120.66040139223716
 21
-79.749872407588384
 31
0.0
  0
LINE
  5
E5
100
AcDbEntity
  8
0
  6
CONTINUOUS
 62
               4
100
AcDbLine
 10
-127.35730251491472
 20
-81.599055024775851
 30
0.0
 11
-126.65730251491479
 21
-81.599055024775851
 31
0.0
  0
LINE
  5
E6
100
AcDbEntity
  8
0
  6
CONTINUOUS
 62
               4
100
AcDbLine
 10
-126.15730251491479
 20
-81.099055024775851
 30
0.0
 11
-126.15730251491479
 21
-77.099055024775851
 31
0.0
  0
LINE
  5
E7
100
AcDbEntity
  8
0
  6
CONTINUOUS
 62
               4
100
AcDbLine
 10
-127.35730251491472
 20
-76.599055024775851
 30
0.0
 11
-126.65730251491479
 21
-76.599055024775851
 31
0.0
  0
ARC
  5
E8
100
AcDbEntity
  8
0
  6
CONTINUOUS
 62
               4
100
AcDbCircle
 10
-126.65730251491479
 20
-81.099055024775851
 30
0.0
 40
0.5
100
AcDbArc
 50
270.00000000000023
 51
0.0
  0
ARC
  5
E9
100
AcDbEntity
  8
0
  6
CONTINUOUS
 62
               4
100
AcDbCircle
 10
-126.65730251491479
 20
-77.099055024775851
 30
0.0
 40
0.5
100
AcDbArc
 50
0.0
 51
89.999999999999815
  0
LINE
  5
EA
100
AcDbEntity
  8
0
  6
CONTINUOUS
 62
               4
100
AcDbLine
 10
-132.95730533144157
 20
-94.097055024775784
 30
0.0
 11
-132.95730533144157
 21
-72.197055029843511
 31
0.0
  0
LINE
  5
EB
100
AcDbEntity
  8
0
  6
CONTINUOUS
 62
               4
100
AcDbLine
 10
-146.95730533144152
 20
-72.197055024775807
 30
0.0
 11
-146.95730533144152
 21
-94.097055024775784
 31
0.0
  0
LINE
  5
EC
100
AcDbEntity
  8
0
  6
CONTINUOUS
 62
               4
100
AcDbLine
 10
-129.95730251491474
 20
-94.097055024775784
 30
0.0
 11
-129.95730251491474
 21
-75.599055024775851
 31
0.0
  0
LINE
  5
ED
100
AcDbEntity
  8
0
  6
CONTINUOUS
 62
               4
100
AcDbLine
 10
-129.95730251491474
 20
-94.097055024775784
 30
0.0
 11
-127.64530251491473
 21
-93.01905502477581
 31
0.0
  0
LINE
  5
EE
100
AcDbEntity
  8
0
  6
CONTINUOUS
 62
               7
100
AcDbLine
 10
-163.65730534525102
 20
-136.8970550247758
 30
0.0
 11
-147.65730533144159
 21
-136.8970550247758
 31
0.0
  0
LINE
  5
EF
100
AcDbEntity
  8
0
  6
CONTINUOUS
 62
               7
100
AcDbLine
 10
-163.65730534525102
 20
-103.89705502477578
 30
0.0
 11
-147.65730534525102
 21
-103.89705502477578
 31
0.0
  0
LINE
  5
F0
100
AcDbEntity
  8
0
  6
CENTER
 62
               2
100
AcDbLine
 10
-152.65730533144159
 20
-128.59705502477578
 30
0.0
 11
-152.65730533144159
 21
-120.59705502477578
 31
0.0
  0
CIRCLE
  5
F1
100
AcDbEntity
  8
0
  6
CONTINUOUS
 62
               7
100
AcDbCircle
 10
-152.65730533144159
 20
-124.59705502477578
 30
0.0
 40
2.1000000000000001
  0
CIRCLE
  5
F2
100
AcDbEntity
  8
0
  6
CONTINUOUS
 62
               7
100
AcDbCircle
 10
-158.65730533144159
 20
-116.19705502477581
 30
0.0
 40
2.1000000000000001
  0
CIRCLE
  5
F3
100
AcDbEntity
  8
0
  6
CONTINUOUS
 62
               2
100
AcDbCircle
 10
-158.65730533144159
 20
-116.19705502477581
 30
0.0
 40
2.5
  0
CIRCLE
  5
F4
100
AcDbEntity
  8
0
  6
CONTINUOUS
 62
               2
100
AcDbCircle
 10
-152.65730533144159
 20
-124.59705502477578
 30
0.0
 40
2.5
  0
LINE
  5
F5
100
AcDbEntity
  8
0
  6
CENTER
 62
               2
100
AcDbLine
 10
-156.65730533144159
 20
-124.59705502477578
 30
0.0
 11
-148.65730533144159
 21
-124.59705502477578
 31
0.0
  0
LINE
  5
F6
100
AcDbEntity
  8
0
  6
CENTER
 62
               2
100
AcDbLine
 10
-162.65730533144159
 20
-116.19705502477581
 30
0.0
 11
-154.65730533144159
 21
-116.19705502477581
 31
0.0
  0
LINE
  5
F7
100
AcDbEntity
  8
0
  6
CONTINUOUS
 62
               7
100
AcDbLine
 10
-163.65730533144159
 20
-136.8970550247758
 30
0.0
 11
-163.65730533144159
 21
-103.89705502477578
 31
0.0
  0
LINE
  5
F8
100
AcDbEntity
  8
0
  6
CONTINUOUS
 62
               7
100
AcDbLine
 10
-147.65730533144159
 20
-136.8970550247758
 30
0.0
 11
-147.65730533144159
 21
-103.89705502477578
 31
0.0
  0
LINE
  5
F9
100
AcDbEntity
  8
0
  6
CENTER
 62
               2
100
AcDbLine
 10
-158.65730533144159
 20
-120.19705502477581
 30
0.0
 11
-158.65730533144159
 21
-112.19705502477579
 31
0.0
  0
LINE
  5
FA
100
AcDbEntity
  8
0
  6
CONTINUOUS
 62
               7
100
AcDbLine
 10
-146.95730251491483
 20
-132.39802829137733
 30
0.0
 11
-147.65730533144153
 21
-132.39802829137733
 31
0.0
  0
LINE
  5
FB
100
AcDbEntity
  8
0
  6
CONTINUOUS
 62
               7
100
AcDbLine
 10
-146.95730251491483
 20
-108.39802829137737
 30
0.0
 11
-147.65730533144159
 21
-108.39802829137737
 31
0.0
  0
ARC
  5
FC
100
AcDbEntity
  8
0
  6
CONTINUOUS
 62
               7
100
AcDbCircle
 10
-133.75730814796833
 20
-114.19705502572944
 30
0.0
 40
0.4
100
AcDbArc
 50
270.00000000000023
 51
0.0
  0
ARC
  5
FD
100
AcDbEntity
  8
0
  6
CONTINUOUS
 62
               7
100
AcDbCircle
 10
-133.75730814796833
 20
-111.99705502572945
 30
0.0
 40
0.4
100
AcDbArc
 50
0.0
 51
89.999999999999815
  0
LINE
  5
FE
100
AcDbEntity
  8
0
  6
CONTINUOUS
 62
               7
100
AcDbLine
 10
-133.35730814796833
 20
-111.99705502572945
 30
0.0
 11
-133.35730814796833
 21
-114.19705502572944
 31
0.0
  0
LINE
  5
FF
100
AcDbEntity
  8
0
  6
CONTINUOUS
 62
               7
100
AcDbLine
 10
-133.95730814796832
 20
-114.59705502572945
 30
0.0
 11
-133.75730814796833
 21
-114.59705502572945
 31
0.0
  0
LINE
  5
100
100
AcDbEntity
  8
0
  6
CONTINUOUS
 62
               7
100
AcDbLine
 10
-133.95730814796832
 20
-111.59705502572945
 30
0.0
 11
-133.75730814796833
 21
-111.59705502572945
 31
0.0
  0
LINE
  5
101
100
AcDbEntity
  8
0
  6
CONTINUOUS
 62
               7
100
AcDbLine
 10
-131.35730814796833
 20
-148.69705502477575
 30
0.0
 11
-132.95730814796832
 21
-147.09705502477576
 31
0.0
  0
LINE
  5
102
100
AcDbEntity
  8
0
  6
CONTINUOUS
 62
               7
100
AcDbLine
 10
-131.35730814796833
 20
-148.69705502477575
 30
0.0
 11
-131.35730814796833
 21
-154.69705502477575
 31
0.0
  0
LINE
  5
103
100
AcDbEntity
  8
0
  6
CONTINUOUS
 62
               7
100
AcDbLine
 10
-146.95730533144157
 20
-154.69705502477575
 30
0.0
 11
-146.95730533144157
 21
-94.097055024775784
 31
0.0
  0
LINE
  5
104
100
AcDbEntity
  8
0
  6
CONTINUOUS
 62
               7
100
AcDbLine
 10
-133.95730814796832
 20
-111.49705502477576
 30
0.0
 11
-133.95730814796832
 21
-114.69705502477575
 31
0.0
  0
LINE
  5
105
100
AcDbEntity
  8
0
  6
CONTINUOUS
 62
               7
100
AcDbLine
 10
-133.95730814892198
 20
-114.69705502477575
 30
0.0
 11
-132.95730814796832
 21
-114.69705502477575
 31
0.0
  0
LINE
  5
106
100
AcDbEntity
  8
0
  6
CONTINUOUS
 62
               7
100
AcDbLine
 10
-133.95730814892198
 20
-111.49705502477576
 30
0.0
 11
-132.95730814796832
 21
-111.49705502477576
 31
0.0
  0
LINE
  5
107
100
AcDbEntity
  8
0
  6
CONTINUOUS
 62
               7
100
AcDbLine
 10
-131.35730814796833
 20
-100.09705502477577
 30
0.0
 11
-131.35730814796833
 21
-94.09705502477577
 31
0.0
  0
LINE
  5
108
100
AcDbEntity
  8
0
  6
CONTINUOUS
 62
               7
100
AcDbLine
 10
-132.95730533144155
 20
-154.69705502477575
 30
0.0
 11
-132.95730533144155
 21
-94.097055024775798
 31
0.0
  0
LINE
  5
109
100
AcDbEntity
  8
0
  6
CONTINUOUS
 62
               7
100
AcDbLine
 10
-146.95730814796832
 20
-107.29705502477577
 30
0.0
 11
-132.95730814796832
 21
-107.29705502477577
 31
0.0
  0
LINE
  5
10A
100
AcDbEntity
  8
0
  6
CONTINUOUS
 62
               7
100
AcDbLine
 10
-146.95730814796832
 20
-141.49705502477576
 30
0.0
 11
-132.95730814796832
 21
-141.49705502477576
 31
0.0
  0
LINE
  5
10B
100
AcDbEntity
  8
0
  6
CONTINUOUS
 62
               7
100
AcDbLine
 10
-132.95730814796832
 20
-133.49705502477576
 30
0.0
 11
-146.95730533144157
 21
-133.49705502477576
 31
0.0
  0
LINE
  5
10C
100
AcDbEntity
  8
0
  6
CENTER
 62
               2
100
AcDbLine
 10
-139.95730533144157
 20
-70.91412304588556
 30
0.0
 11
-139.95730533144157
 21
-177.87998700366609
 31
0.0
  0
LINE
  5
10D
100
AcDbEntity
  8
0
  6
CONTINUOUS
 62
               7
100
AcDbLine
 10
-131.35730814796833
 20
-100.09705502477577
 30
0.0
 11
-132.95730533144155
 21
-101.69705502477576
 31
0.0
  0
LINE
  5
10E
100
AcDbEntity
  8
0
  6
CENTER
 62
               2
100
AcDbLine
 10
-166.15730535984039
 20
-133.8970550247758
 30
0.0
 11
-161.15730535984039
 21
-133.8970550247758
 31
0.0
  0
LINE
  5
10F
100
AcDbEntity
  8
0
  6
CENTER
 62
               2
100
AcDbLine
 10
-166.15730535984039
 20
-106.89705502477578
 30
0.0
 11
-161.15730533144159
 21
-106.89705502477578
 31
0.0
  0
LINE
  5
110
100
AcDbEntity
  8
0
  6
CENTER
 62
               2
100
AcDbLine
 10
-149.4573053369694
 20
-113.09705502477576
 30
0.0
 11
-144.4573053369694
 21
-113.09705502477576
 31
0.0
  0
LINE
  5
111
100
AcDbEntity
  8
0
  6
CENTER
 62
               2
100
AcDbLine
 10
-149.4573053369694
 20
-127.69705502477575
 30
0.0
 11
-144.4573053369694
 21
-127.69705502477575
 31
0.0
  0
LINE
  5
112
100
AcDbEntity
  8
0
  6
CONTINUOUS
 62
               4
100
AcDbLine
 10
-68.126125725834243
 20
-155.77505502050627
 30
0.0
 11
-60.002125725834219
 21
-155.77505502050627
 31
0.0
  0
LINE
  5
113
100
AcDbEntity
  8
0
  6
CONTINUOUS
 62
               4
100
AcDbLine
 10
-68.564125725834231
 20
-173.19705502477581
 30
0.0
 11
-59.564125725834231
 21
-173.19705502477581
 31
0.0
  0
LINE
  5
114
100
AcDbEntity
  8
0
  6
CONTINUOUS
 62
               4
100
AcDbLine
 10
-69.064125725834231
 20
-175.59705502477578
 30
0.0
 11
-65.864125725834185
 21
-175.59705502477578
 31
0.0
  0
LINE
  5
115
100
AcDbEntity
  8
0
  6
CONTINUOUS
 62
               4
100
AcDbLine
 10
-69.064125725834231
 20
-177.19705502477581
 30
0.0
 11
-59.064125725834231
 21
-177.19705502477581
 31
0.0
  0
LINE
  5
116
100
AcDbEntity
  8
0
  6
CONTINUOUS
 62
               4
100
AcDbLine
 10
-69.064125725834231
 20
-176.59705502477578
 30
0.0
 11
-65.864125725834185
 21
-176.59705502477578
 31
0.0
  0
ARC
  5
117
100
AcDbEntity
  8
0
  6
CONTINUOUS
 62
               4
100
AcDbCircle
 10
-59.564422750040364
 20
-155.19735204898194
 30
0.0
 40
0.5002971123771115
100
AcDbArc
 50
0.034016255545966
 51
89.965983744453979
  0
LINE
  5
119
100
AcDbEntity
  8
0
  6
PHANTOM
 62
             200
100
AcDbLine
 10
-62.56410741528731
 20
-162.1970550205063
 30
0.0
 11
-62.56410741528731
 21
-160.1970550205063
 31
0.0
  0
LINE
  5
11A
100
AcDbEntity
  8
0
  6
PHANTOM
 62
             200
100
AcDbLine
 10
-65.56410741528731
 20
-162.1970550205063
 30
0.0
 11
-65.56410741528731
 21
-160.1970550205063
 31
0.0
  0
LINE
  5
11B
100
AcDbEntity
  8
0
  6
PHANTOM
 62
             200
100
AcDbLine
 10
-62.56410741528731
 20
-160.1970550205063
 30
0.0
 11
-65.56410741528731
 21
-160.1970550205063
 31
0.0
  0
LINE
  5
11C
100
AcDbEntity
  8
0
  6
PHANTOM
 62
             200
100
AcDbLine
 10
-62.56410741528731
 20
-162.1970550205063
 30
0.0
 11
-65.56410741528731
 21
-162.1970550205063
 31
0.0
  0
LINE
  5
11D
100
AcDbEntity
  8
0
  6
CONTINUOUS
 62
               4
100
AcDbLine
 10
-65.864125725834185
 20
-177.09705502477578
 30
0.0
 11
-59.564125725834231
 21
-177.09705502477578
 31
0.0
  0
LINE
  5
11E
100
AcDbEntity
  8
0
  6
CONTINUOUS
 62
               4
100
AcDbLine
 10
-65.864125725834185
 20
-177.09705502477578
 30
0.0
 11
-65.864125725834185
 21
-175.59705502477578
 31
0.0
  0
ARC
  5
11F
100
AcDbEntity
  8
0
  6
CONTINUOUS
 62
               4
100
AcDbCircle
 10
-59.564125725834231
 20
-176.59705502477578
 30
0.0
 40
0.5
100
AcDbArc
 50
269.99999999999937
 51
0.0
  0
CIRCLE
  5
120
100
AcDbEntity
  8
0
  6
CONTINUOUS
 62
               4
100
AcDbCircle
 10
-65.31471959790457
 20
-169.69705502477581
 30
0.0
 40
0.25
  0
CIRCLE
  5
121
100
AcDbEntity
  8
0
  6
CONTINUOUS
 62
               4
100
AcDbCircle
 10
-62.81471959790457
 20
-169.69705502477581
 30
0.0
 40
0.25
  0
LINE
  5
122
100
AcDbEntity
  8
0
  6
CONTINUOUS
 62
               4
100
AcDbLine
 10
-59.502125725834219
 20
-172.69705502477581
 30
0.0
 11
-59.502125725834219
 21
-156.27505502050627
 31
0.0
  0
ARC
  5
123
100
AcDbEntity
  8
0
  6
CONTINUOUS
 62
               4
100
AcDbCircle
 10
-60.002143670492103
 20
-172.69703708011781
 30
0.0
 40
0.5000179449799356
100
AcDbArc
 50
270.00205623253072
 51
359.99794376746769
  0
ARC
  5
124
100
AcDbEntity
  8
0
  6
CONTINUOUS
 62
               4
100
AcDbCircle
 10
-59.564422750040364
 20
-172.69675800056967
 30
0.0
 40
0.5002971123771114
100
AcDbArc
 50
270.03401625554523
 51
359.96598374445318
  0
ARC
  5
125
100
AcDbEntity
  8
0
  6
CONTINUOUS
 62
               4
100
AcDbCircle
 10
-60.001912165043393
 20
-156.2748414597155
 30
0.0
 40
0.4997864848369056
100
AcDbArc
 50
359.97551728042708
 51
90.024482719571907
  0
ARC
  5
126
100
AcDbEntity
  8
0
  6
CONTINUOUS
 62
               4
100
AcDbCircle
 10
-65.314125725834231
 20
-169.69705502477581
 30
0.0
 40
2.0000000881710065
100
AcDbArc
 50
89.999999999999815
 51
269.99999999999937
  0
ARC
  5
127
100
AcDbEntity
  8
0
  6
CONTINUOUS
 62
               4
100
AcDbCircle
 10
-62.814125725834231
 20
-169.69705502477581
 30
0.0
 40
2.0000000881710065
100
AcDbArc
 50
269.99999999999937
 51
89.999999999999801
  0
LINE
  5
128
100
AcDbEntity
  8
0
  6
CONTINUOUS
 62
               4
100
AcDbLine
 10
-65.314125725834231
 20
-171.69705502477581
 30
0.0
 11
-62.814125725834231
 21
-171.69705502477581
 31
0.0
  0
LINE
  5
129
100
AcDbEntity
  8
0
  6
CONTINUOUS
 62
               4
100
AcDbLine
 10
-65.314125725834231
 20
-167.69705502477581
 30
0.0
 11
-62.814125725834231
 21
-167.69705502477581
 31
0.0
  0
CIRCLE
  5
12A
100
AcDbEntity
  8
0
  6
CONTINUOUS
 62
               4
100
AcDbCircle
 10
-65.31471959790457
 20
-169.69705502477581
 30
0.0
 40
0.7250000000000001
  0
CIRCLE
  5
12B
100
AcDbEntity
  8
0
  6
CONTINUOUS
 62
               4
100
AcDbCircle
 10
-62.81471959790457
 20
-169.69705502477581
 30
0.0
 40
0.7250000000000001
  0
ARC
  5
12C
100
AcDbEntity
  8
0
  6
CONTINUOUS
 62
               4
100
AcDbCircle
 10
-66.467037720597148
 20
-176.59814303001275
 30
0.0
 40
0.5989129830170392
100
AcDbArc
 50
269.89591452477231
 51
0.1040854752270701
  0
LINE
  5
12D
100
AcDbEntity
  8
0
  6
CONTINUOUS
 62
               4
100
AcDbLine
 10
-59.064125725834231
 20
-177.19705502477581
 30
0.0
 11
-59.064125725834231
 21
-154.69705502477581
 31
0.0
  0
ARC
  5
12E
100
AcDbEntity
  8
0
  6
CONTINUOUS
 62
               4
100
AcDbCircle
 10
-68.564422573698437
 20
-155.1967581769116
 30
0.0
 40
0.4997032403068001
100
AcDbArc
 50
89.965963537146934
 51
180.03403646285233
  0
LINE
  5
12F
100
AcDbEntity
  8
0
  6
CONTINUOUS
 62
               4
100
AcDbLine
 10
-68.626125725834243
 20
-172.69705502477581
 30
0.0
 11
-68.626125725834243
 21
-156.27505502050627
 31
0.0
  0
ARC
  5
130
100
AcDbEntity
  8
0
  6
CONTINUOUS
 62
               4
100
AcDbCircle
 10
-68.564422573698437
 20
-172.69735187264001
 30
0.0
 40
0.4997032403068001
100
AcDbArc
 50
179.96596353714693
 51
270.03403646285233
  0
ARC
  5
131
100
AcDbEntity
  8
0
  6
CONTINUOUS
 62
               4
100
AcDbCircle
 10
-68.12670132187651
 20
-172.69763062081807
 30
0.0
 40
0.499424735650256
100
AcDbArc
 50
179.93396556302844
 51
270.06603443697037
  0
ARC
  5
132
100
AcDbEntity
  8
0
  6
CONTINUOUS
 62
               4
100
AcDbCircle
 10
-68.1269331023679
 20
-156.27424764397261
 30
0.0
 40
0.4991932763770037
100
AcDbArc
 50
89.907331908866567
 51
180.09266809113299
  0
ARC
  5
133
100
AcDbEntity
  8
0
  6
CONTINUOUS
 62
               4
100
AcDbCircle
 10
-68.26822087249235
 20
-176.59715017143395
 30
0.0
 40
0.5999048608870732
100
AcDbArc
 50
179.99091272245337
 51
270.00908727754575
  0
LINE
  5
134
100
AcDbEntity
  8
0
  6
CONTINUOUS
 62
               4
100
AcDbLine
 10
-69.064125725834231
 20
-177.19705502477581
 30
0.0
 11
-69.064125725834231
 21
-154.69705502477581
 31
0.0
  0
LINE
  5
135
100
AcDbEntity
  8
0
  6
CONTINUOUS
 62
               4
100
AcDbLine
 10
-60.002125725834219
 20
-93.019055029045319
 30
0.0
 11
-68.126125725834243
 21
-93.019055029045319
 31
0.0
  0
LINE
  5
136
100
AcDbEntity
  8
0
  6
CONTINUOUS
 62
               4
100
AcDbLine
 10
-59.564125725834231
 20
-75.597055024775784
 30
0.0
 11
-68.564125725834231
 21
-75.597055024775784
 31
0.0
  0
LINE
  5
137
100
AcDbEntity
  8
0
  6
CONTINUOUS
 62
               4
100
AcDbLine
 10
-59.064125725834231
 20
-73.197055024775807
 30
0.0
 11
-62.264125725834276
 21
-73.197055024775807
 31
0.0
  0
LINE
  5
138
100
AcDbEntity
  8
0
  6
CONTINUOUS
 62
               4
100
AcDbLine
 10
-59.064125725834231
 20
-71.597055024775784
 30
0.0
 11
-69.064125725834231
 21
-71.597055024775784
 31
0.0
  0
LINE
  5
139
100
AcDbEntity
  8
0
  6
CONTINUOUS
 62
               4
100
AcDbLine
 10
-59.064125725834231
 20
-72.197055024775807
 30
0.0
 11
-62.264125725834276
 21
-72.197055024775807
 31
0.0
  0
ARC
  5
13A
100
AcDbEntity
  8
0
  6
CONTINUOUS
 62
               4
100
AcDbCircle
 10
-68.563828701628097
 20
-93.59675800056965
 30
0.0
 40
0.5002971123771115
100
AcDbArc
 50
180.03401625554557
 51
269.96598374445358
  0
LINE
  5
13B
100
AcDbEntity
  8
0
  6
PHANTOM
 62
             200
100
AcDbLine
 10
-65.564144036381151
 20
-86.597055029045293
 30
0.0
 11
-65.564144036381151
 21
-88.597055029045293
 31
0.0
  0
LINE
  5
13C
100
AcDbEntity
  8
0
  6
PHANTOM
 62
             200
100
AcDbLine
 10
-62.564144036381151
 20
-86.597055029045293
 30
0.0
 11
-62.564144036381151
 21
-88.597055029045293
 31
0.0
  0
LINE
  5
13D
100
AcDbEntity
  8
0
  6
PHANTOM
 62
             200
100
AcDbLine
 10
-65.564144036381151
 20
-88.597055029045293
 30
0.0
 11
-62.564144036381151
 21
-88.597055029045293
 31
0.0
  0
LINE
  5
13E
100
AcDbEntity
  8
0
  6
PHANTOM
 62
             200
100
AcDbLine
 10
-65.564144036381151
 20
-86.597055029045293
 30
0.0
 11
-62.564144036381151
 21
-86.597055029045293
 31
0.0
  0
LINE
  5
13F
100
AcDbEntity
  8
0
  6
CONTINUOUS
 62
               4
100
AcDbLine
 10
-62.264125725834276
 20
-71.697055024775807
 30
0.0
 11
-68.564125725834231
 21
-71.697055024775807
 31
0.0
  0
LINE
  5
140
100
AcDbEntity
  8
0
  6
CONTINUOUS
 62
               4
100
AcDbLine
 10
-62.264125725834276
 20
-71.697055024775807
 30
0.0
 11
-62.264125725834276
 21
-73.197055024775807
 31
0.0
  0
ARC
  5
141
100
AcDbEntity
  8
0
  6
CONTINUOUS
 62
               4
100
AcDbCircle
 10
-68.564125725834231
 20
-72.197055024775807
 30
0.0
 40
0.5
100
AcDbArc
 50
89.999999999999815
 51
179.99999999999963
  0
CIRCLE
  5
142
100
AcDbEntity
  8
0
  6
CONTINUOUS
 62
               4
100
AcDbCircle
 10
-62.813531853763891
 20
-79.097055024775784
 30
0.0
 40
0.25
  0
CIRCLE
  5
143
100
AcDbEntity
  8
0
  6
CONTINUOUS
 62
               4
100
AcDbCircle
 10
-65.313531853763891
 20
-79.097055024775784
 30
0.0
 40
0.25
  0
LINE
  5
144
100
AcDbEntity
  8
0
  6
CONTINUOUS
 62
               4
100
AcDbLine
 10
-68.626125725834243
 20
-76.097055024775784
 30
0.0
 11
-68.626125725834243
 21
-92.519055029045319
 31
0.0
  0
ARC
  5
145
100
AcDbEntity
  8
0
  6
CONTINUOUS
 62
               4
100
AcDbCircle
 10
-68.126107781176358
 20
-76.097072969433782
 30
0.0
 40
0.5000179449799356
100
AcDbArc
 50
90.002056232531103
 51
179.99794376746806
  0
ARC
  5
146
100
AcDbEntity
  8
0
  6
CONTINUOUS
 62
               4
100
AcDbCircle
 10
-68.563828701628097
 20
-76.097352048981918
 30
0.0
 40
0.5002971123771114
100
AcDbArc
 50
90.034016255545609
 51
179.96598374445358
  0
ARC
  5
147
100
AcDbEntity
  8
0
  6
CONTINUOUS
 62
               4
100
AcDbCircle
 10
-68.126339286625068
 20
-92.519268589836088
 30
0.0
 40
0.4997864848369056
100
AcDbArc
 50
179.97551728042748
 51
270.02448271957149
  0
ARC
  5
148
100
AcDbEntity
  8
0
  6
CONTINUOUS
 62
               4
100
AcDbCircle
 10
-62.814125725834231
 20
-79.097055024775784
 30
0.0
 40
2.0000000881710065
100
AcDbArc
 50
269.99999999999937
 51
89.999999999999801
  0
ARC
  5
149
100
AcDbEntity
  8
0
  6
CONTINUOUS
 62
               4
100
AcDbCircle
 10
-65.314125725834231
 20
-79.097055024775784
 30
0.0
 40
2.0000000881710065
100
AcDbArc
 50
89.999999999999815
 51
269.99999999999937
  0
LINE
  5
14A
100
AcDbEntity
  8
0
  6
CONTINUOUS
 62
               4
100
AcDbLine
 10
-62.814125725834231
 20
-77.097055024775784
 30
0.0
 11
-65.314125725834231
 21
-77.097055024775784
 31
0.0
  0
LINE
  5
14B
100
AcDbEntity
  8
0
  6
CONTINUOUS
 62
               4
100
AcDbLine
 10
-62.814125725834231
 20
-81.097055024775784
 30
0.0
 11
-65.314125725834231
 21
-81.097055024775784
 31
0.0
  0
CIRCLE
  5
14C
100
AcDbEntity
  8
0
  6
CONTINUOUS
 62
               4
100
AcDbCircle
 10
-62.813531853763891
 20
-79.097055024775784
 30
0.0
 40
0.7250000000000001
  0
CIRCLE
  5
14D
100
AcDbEntity
  8
0
  6
CONTINUOUS
 62
               4
100
AcDbCircle
 10
-65.313531853763891
 20
-79.097055024775784
 30
0.0
 40
0.7250000000000001
  0
ARC
  5
14E
100
AcDbEntity
  8
0
  6
CONTINUOUS
 62
               4
100
AcDbCircle
 10
-61.661213731071314
 20
-72.195967019538841
 30
0.0
 40
0.5989129830170392
100
AcDbArc
 50
89.895914524772735
 51
180.10408547522667
  0
LINE
  5
14F
100
AcDbEntity
  8
0
  6
CONTINUOUS
 62
               4
100
AcDbLine
 10
-69.064125725834231
 20
-71.597055024775784
 30
0.0
 11
-69.064125725834231
 21
-94.097055024775784
 31
0.0
  0
ARC
  5
150
100
AcDbEntity
  8
0
  6
CONTINUOUS
 62
               4
100
AcDbCircle
 10
-59.563828877970025
 20
-93.59735187263999
 30
0.0
 40
0.4997032403068001
100
AcDbArc
 50
269.96596353714654
 51
0.0340364628527164
  0
LINE
  5
151
100
AcDbEntity
  8
0
  6
CONTINUOUS
 62
               4
100
AcDbLine
 10
-59.502125725834219
 20
-76.097055024775784
 30
0.0
 11
-59.502125725834219
 21
-92.519055029045319
 31
0.0
  0
ARC
  5
152
100
AcDbEntity
  8
0
  6
CONTINUOUS
 62
               4
100
AcDbCircle
 10
-59.563828877970025
 20
-76.096758176911578
 30
0.0
 40
0.4997032403068001
100
AcDbArc
 50
359.96596353714654
 51
90.034036462852711
  0
ARC
  5
153
100
AcDbEntity
  8
0
  6
CONTINUOUS
 62
               4
100
AcDbCircle
 10
-60.001550129791951
 20
-76.096479428733517
 30
0.0
 40
0.499424735650256
100
AcDbArc
 50
359.93396556302804
 51
90.066034436970796
  0
ARC
  5
154
100
AcDbEntity
  8
0
  6
CONTINUOUS
 62
               4
100
AcDbCircle
 10
-60.001318349300561
 20
-92.519862405578976
 30
0.0
 40
0.4991932763770037
100
AcDbArc
 50
269.90733190886618
 51
0.0926680911333844
  0
ARC
  5
155
100
AcDbEntity
  8
0
  6
CONTINUOUS
 62
               4
100
AcDbCircle
 10
-59.860030579176112
 20
-72.196959878117639
 30
0.0
 40
0.5999048608870732
100
AcDbArc
 50
359.99091272245295
 51
90.009087277546172
  0
LINE
  5
156
100
AcDbEntity
  8
0
  6
CONTINUOUS
 62
               4
100
AcDbLine
 10
-59.064125725834231
 20
-71.597055024775784
 30
0.0
 11
-59.064125725834231
 21
-94.097055024775784
 31
0.0
  0
LINE
  5
157
100
AcDbEntity
  8
0
  6
CONTINUOUS
 62
               7
100
AcDbLine
 10
-71.064125725834316
 20
-136.8970550247758
 30
0.0
 11
-69.064125725834231
 21
-136.8970550247758
 31
0.0
  0
LINE
  5
158
100
AcDbEntity
  8
0
  6
CONTINUOUS
 62
               7
100
AcDbLine
 10
-71.064125725834316
 20
-103.89705502477578
 30
0.0
 11
-69.064125725834231
 21
-103.89705502477578
 31
0.0
  0
LINE
  5
159
100
AcDbEntity
  8
0
  6
CONTINUOUS
 62
               7
100
AcDbLine
 10
-71.064125725834316
 20
-136.8970550247758
 30
0.0
 11
-71.064125725834316
 21
-103.89705502477578
 31
0.0
  0
LINE
  5
15A
100
AcDbEntity
  8
0
  6
CENTER
 62
               2
100
AcDbLine
 10
-54.064125725834316
 20
-109.39705502477578
 30
0.0
 11
-54.064125725834316
 21
-104.39705502477578
 31
0.0
  0
LINE
  5
15B
100
AcDbEntity
  8
0
  6
CENTER
 62
               2
100
AcDbLine
 10
-54.064125725834316
 20
-136.39705502107654
 30
0.0
 11
-54.064125725834316
 21
-131.39705502107654
 31
0.0
  0
LINE
  5
15C
100
AcDbEntity
  8
0
  6
CENTER
 62
               2
100
AcDbLine
 10
-53.547919520196359
 20
-128.79602829137735
 30
0.0
 11
-35.934125725834321
 21
-128.79602829137735
 31
0.0
  0
LINE
  5
15D
100
AcDbEntity
  8
0
  6
PHANTOM
 62
             200
100
AcDbLine
 10
-51.064125725834316
 20
-124.79602829137735
 30
0.0
 11
-37.564125725834316
 21
-124.79602829137735
 31
0.0
  0
LINE
  5
15E
100
AcDbEntity
  8
0
  6
PHANTOM
 62
             200
100
AcDbLine
 10
-51.064125725834316
 20
-132.79602829137735
 30
0.0
 11
-37.564125725834316
 21
-132.79602829137735
 31
0.0
  0
ARC
  5
15F
100
AcDbEntity
  8
0
  6
PHANTOM
 62
             200
100
AcDbCircle
 10
-37.564125725834316
 20
-125.29602829137735
 30
0.0
 40
0.5
100
AcDbArc
 50
0.0
 51
89.999999999999815
  0
ARC
  5
160
100
AcDbEntity
  8
0
  6
PHANTOM
 62
             200
100
AcDbCircle
 10
-37.564125725834316
 20
-132.29602829137735
 30
0.0
 40
0.5
100
AcDbArc
 50
269.99999999999937
 51
0.0
  0
LINE
  5
161
100
AcDbEntity
  8
0
  6
PHANTOM
 62
             200
100
AcDbLine
 10
-37.064125725834316
 20
-125.29602829137735
 30
0.0
 11
-37.064125725834316
 21
-132.29602829137735
 31
0.0
  0
LINE
  5
162
100
AcDbEntity
  8
0
  6
PHANTOM
 62
             200
100
AcDbLine
 10
-39.564125725834316
 20
-124.79602829137735
 30
0.0
 11
-39.564125725834316
 21
-132.79602829137735
 31
0.0
  0
LINE
  5
163
100
AcDbEntity
  8
0
  6
PHANTOM
 62
             200
100
AcDbLine
 10
-37.564125725834316
 20
-124.79602829137735
 30
0.0
 11
-37.564125725834316
 21
-132.79602829137735
 31
0.0
  0
CIRCLE
  5
164
100
AcDbEntity
  8
0
  6
CONTINUOUS
 62
               7
100
AcDbCircle
 10
-54.064125725834316
 20
-106.89705502477578
 30
0.0
 40
1.6000000000000001
  0
CIRCLE
  5
165
100
AcDbEntity
  8
0
  6
CONTINUOUS
 62
               7
100
AcDbCircle
 10
-54.064125725834316
 20
-133.8970550247758
 30
0.0
 40
1.6000000000000001
  0
LINE
  5
166
100
AcDbEntity
  8
0
  6
CONTINUOUS
 62
               7
100
AcDbLine
 10
-51.064125725834316
 20
-136.8970550247758
 30
0.0
 11
-51.064125725834316
 21
-103.89705502477578
 31
0.0
  0
LINE
  5
167
100
AcDbEntity
  8
0
  6
CONTINUOUS
 62
               7
100
AcDbLine
 10
-59.064125725834231
 20
-136.8970550247758
 30
0.0
 11
-51.064125725834316
 21
-136.8970550247758
 31
0.0
  0
LINE
  5
168
100
AcDbEntity
  8
0
  6
CONTINUOUS
 62
               7
100
AcDbLine
 10
-59.064125725834231
 20
-103.89705502477578
 30
0.0
 11
-51.064125725834316
 21
-103.89705502477578
 31
0.0
  0
LINE
  5
169
100
AcDbEntity
  8
0
  6
CENTER
 62
               2
100
AcDbLine
 10
-56.564125725834316
 20
-106.89705502477578
 30
0.0
 11
-51.564125725834316
 21
-106.89705502477578
 31
0.0
  0
LINE
  5
16A
100
AcDbEntity
  8
0
  6
CENTER
 62
               2
100
AcDbLine
 10
-56.564125725834316
 20
-133.8970550247758
 30
0.0
 11
-51.564125725834316
 21
-133.8970550247758
 31
0.0
  0
LINE
  5
16B
100
AcDbEntity
  8
0
  6
CENTER
 62
               2
100
AcDbLine
 10
-64.064125725834231
 20
-70.897108491572638
 30
0.0
 11
-64.064125725834231
 21
-177.89505502477576
 31
0.0
  0
CIRCLE
  5
16C
100
AcDbEntity
  8
0
  6
CONTINUOUS
 62
               7
100
AcDbCircle
 10
-64.064125725834231
 20
-152.39705502477574
 30
0.0
 40
0.7500000000000001
  0
CIRCLE
  5
16D
100
AcDbEntity
  8
0
  6
CONTINUOUS
 62
               7
100
AcDbCircle
 10
-64.064125725834231
 20
-152.39705502477574
 30
0.0
 40
1.1000000000000001
  0
CIRCLE
  5
16E
100
AcDbEntity
  8
0
  6
CONTINUOUS
 62
               7
100
AcDbCircle
 10
-64.064125725834231
 20
-152.39705502477574
 30
0.0
 40
1.1500000000000001
  0
CIRCLE
  5
16F
100
AcDbEntity
  8
0
  6
CONTINUOUS
 62
               7
100
AcDbCircle
 10
-64.064125725834231
 20
-152.39705502477574
 30
0.0
 40
1.3000000000000012
  0
LINE
  5
170
100
AcDbEntity
  8
0
  6
CENTER
 62
               2
100
AcDbLine
 10
-65.764125725834234
 20
-152.39705502477574
 30
0.0
 11
-62.364125725834228
 21
-152.39705502477574
 31
0.0
  0
ARC
  5
171
100
AcDbEntity
  8
0
  6
CONTINUOUS
 62
               7
100
AcDbCircle
 10
-64.064125725834231
 20
-150.69705502477575
 30
0.0
 40
3.6000000000000005
100
AcDbArc
 50
0.0
 51
179.99999999999963
  0
ARC
  5
172
100
AcDbEntity
  8
0
  6
CONTINUOUS
 62
               7
100
AcDbCircle
 10
-64.064125725834231
 20
-150.69705502477575
 30
0.0
 40
2.0
100
AcDbArc
 50
0.0
 51
179.99999999999963
  0
LINE
  5
173
100
AcDbEntity
  8
0
  6
CONTINUOUS
 62
               7
100
AcDbLine
 10
-67.664125725834225
 20
-150.69705502477575
 30
0.0
 11
-67.664125725834225
 21
-154.69705502477575
 31
0.0
  0
LINE
  5
174
100
AcDbEntity
  8
0
  6
CONTINUOUS
 62
               7
100
AcDbLine
 10
-60.464125725834236
 20
-150.69705502477575
 30
0.0
 11
-60.464125725834236
 21
-154.69705502477575
 31
0.0
  0
LINE
  5
175
100
AcDbEntity
  8
0
  6
CONTINUOUS
 62
               7
100
AcDbLine
 10
-66.064125725834231
 20
-150.69705502477575
 30
0.0
 11
-66.064125725834231
 21
-154.69705502477575
 31
0.0
  0
LINE
  5
176
100
AcDbEntity
  8
0
  6
CONTINUOUS
 62
               7
100
AcDbLine
 10
-62.064125725834216
 20
-150.69705502477575
 30
0.0
 11
-62.064125725834216
 21
-154.69705502477575
 31
0.0
  0
LINE
  5
177
100
AcDbEntity
  8
0
  6
CONTINUOUS
 62
               7
100
AcDbLine
 10
-59.064125725834231
 20
-154.69705502477575
 30
0.0
 11
-59.064125725834231
 21
-128.59705502477576
 31
0.0
  0
LINE
  5
178
100
AcDbEntity
  8
0
  6
CONTINUOUS
 62
               7
100
AcDbLine
 10
-66.064125725834245
 20
-98.09705502477577
 30
0.0
 11
-66.064125725834245
 21
-94.09705502477577
 31
0.0
  0
LINE
  5
179
100
AcDbEntity
  8
0
  6
CONTINUOUS
 62
               7
100
AcDbLine
 10
-62.064125725834231
 20
-98.09705502477577
 30
0.0
 11
-62.064125725834231
 21
-94.09705502477577
 31
0.0
  0
LINE
  5
17A
100
AcDbEntity
  8
0
  6
CONTINUOUS
 62
               7
100
AcDbLine
 10
-67.664125725834225
 20
-98.09705502477577
 30
0.0
 11
-67.664125725834225
 21
-94.09705502477577
 31
0.0
  0
LINE
  5
17B
100
AcDbEntity
  8
0
  6
CONTINUOUS
 62
               7
100
AcDbLine
 10
-60.464125725834236
 20
-98.09705502477577
 30
0.0
 11
-60.464125725834236
 21
-94.09705502477577
 31
0.0
  0
ARC
  5
17C
100
AcDbEntity
  8
0
  6
CONTINUOUS
 62
               7
100
AcDbCircle
 10
-64.064125725834231
 20
-98.09705502477577
 30
0.0
 40
2.0
100
AcDbArc
 50
179.99999999999963
 51
0.0
  0
ARC
  5
17D
100
AcDbEntity
  8
0
  6
CONTINUOUS
 62
               7
100
AcDbCircle
 10
-64.064125725834231
 20
-98.09705502477577
 30
0.0
 40
3.6000000000000005
100
AcDbArc
 50
179.99999999999963
 51
0.0
  0
LINE
  5
17E
100
AcDbEntity
  8
0
  6
CENTER
 62
               2
100
AcDbLine
 10
-62.364125725834228
 20
-96.397055024775767
 30
0.0
 11
-65.764125725834234
 21
-96.397055024775767
 31
0.0
  0
CIRCLE
  5
17F
100
AcDbEntity
  8
0
  6
CONTINUOUS
 62
               7
100
AcDbCircle
 10
-64.064125725834231
 20
-96.397055024775767
 30
0.0
 40
1.3000000000000012
  0
CIRCLE
  5
180
100
AcDbEntity
  8
0
  6
CONTINUOUS
 62
               7
100
AcDbCircle
 10
-64.064125725834231
 20
-96.397055024775767
 30
0.0
 40
1.1500000000000001
  0
LINE
  5
181
100
AcDbEntity
  8
0
  6
CONTINUOUS
 62
               7
100
AcDbLine
 10
-69.064125725834231
 20
-107.29705502477577
 30
0.0
 11
-59.064125725834231
 21
-107.29705502477577
 31
0.0
  0
CIRCLE
  5
182
100
AcDbEntity
  8
0
  6
CONTINUOUS
 62
               7
100
AcDbCircle
 10
-64.064125725834231
 20
-96.397055024775767
 30
0.0
 40
1.1000000000000001
  0
CIRCLE
  5
183
100
AcDbEntity
  8
0
  6
CONTINUOUS
 62
               7
100
AcDbCircle
 10
-64.064125725834231
 20
-96.397055024775767
 30
0.0
 40
0.7500000000000001
  0
LINE
  5
184
100
AcDbEntity
  8
0
  6
CONTINUOUS
 62
               7
100
AcDbLine
 10
-69.064125725834231
 20
-154.69705502477575
 30
0.0
 11
-69.064125725834231
 21
-113.99705502477576
 31
0.0
  0
LINE
  5
185
100
AcDbEntity
  8
0
  6
CONTINUOUS
 62
               7
100
AcDbLine
 10
-69.064125725834231
 20
-141.49705502477576
 30
0.0
 11
-59.064125725834231
 21
-141.49705502477576
 31
0.0
  0
LINE
  5
186
100
AcDbEntity
  8
0
  6
CONTINUOUS
 62
               7
100
AcDbLine
 10
-59.064125725834231
 20
-126.79705502477573
 30
0.0
 11
-59.064125725834231
 21
-94.09705502477577
 31
0.0
  0
LINE
  5
187
100
AcDbEntity
  8
0
  6
CONTINUOUS
 62
               7
100
AcDbLine
 10
-69.064125725834231
 20
-112.19705502477574
 30
0.0
 11
-69.064125725834231
 21
-94.09705502477577
 31
0.0
  0
LINE
  5
188
100
AcDbEntity
  8
0
  6
CONTINUOUS
 62
               4
100
AcDbLine
 10
-69.064125725834259
 20
-154.69705502477575
 30
0.0
 11
-59.064125725834259
 21
-154.69705502477575
 31
0.0
  0
LINE
  5
189
100
AcDbEntity
  8
0
  6
CONTINUOUS
 62
               4
100
AcDbLine
 10
-59.064125725834259
 20
-94.097055024775784
 30
0.0
 11
-69.064125725834259
 21
-94.097055024775784
 31
0.0
  0
LINE
  5
18A
100
AcDbEntity
  8
0
  6
CONTINUOUS
 62
               7
100
AcDbLine
 10
-69.064125725834231
 20
-133.49705502477576
 30
0.0
 11
-59.064125725834231
 21
-133.49705502477576
 31
0.0
  0
CIRCLE
  5
18B
100
AcDbEntity
  8
0
  6
CONTINUOUS
 62
               7
100
AcDbCircle
 10
-67.864125725834242
 20
-113.09705502477576
 30
0.0
 40
1.5
  0
LINE
  5
18C
100
AcDbEntity
  8
0
  6
CONTINUOUS
 62
               7
100
AcDbLine
 10
-67.864125725834242
 20
-111.49705502477576
 30
0.0
 11
-69.064125725834231
 21
-111.49705502477576
 31
0.0
  0
LINE
  5
18D
100
AcDbEntity
  8
0
  6
CONTINUOUS
 62
               7
100
AcDbLine
 10
-67.864125725834242
 20
-114.69705502477575
 30
0.0
 11
-69.064125725834231
 21
-114.69705502477575
 31
0.0
  0
LINE
  5
18E
100
AcDbEntity
  8
0
  6
CONTINUOUS
 62
               7
100
AcDbLine
 10
-67.157018944647689
 20
-112.3899482435892
 30
0.0
 11
-68.571232507020795
 21
-113.80416180596231
 31
0.0
  0
LINE
  5
18F
100
AcDbEntity
  8
0
  6
CONTINUOUS
 62
               7
100
AcDbLine
 10
-68.571232507020795
 20
-112.3899482435892
 30
0.0
 11
-67.157018944647689
 21
-113.80416180596231
 31
0.0
  0
ARC
  5
190
100
AcDbEntity
  8
0
  6
CONTINUOUS
 62
               7
100
AcDbCircle
 10
-67.864125725834242
 20
-113.09705502477576
 30
0.0
 40
1.6000000000000001
100
AcDbArc
 50
269.99999999999937
 51
89.999999999999801
  0
ARC
  5
191
100
AcDbEntity
  8
0
  6
CONTINUOUS
 62
               7
100
AcDbCircle
 10
-60.264125725834219
 20
-127.69705502477575
 30
0.0
 40
1.6000000000000001
100
AcDbArc
 50
89.999999999999815
 51
269.99999999999937
  0
CIRCLE
  5
192
100
AcDbEntity
  8
0
  6
CONTINUOUS
 62
               7
100
AcDbCircle
 10
-60.264125725834219
 20
-127.69705502477575
 30
0.0
 40
1.5
  0
LINE
  5
193
100
AcDbEntity
  8
0
  6
CONTINUOUS
 62
               7
100
AcDbLine
 10
-60.264125725834219
 20
-126.09705502477576
 30
0.0
 11
-59.064125725834231
 21
-126.09705502477576
 31
0.0
  0
LINE
  5
194
100
AcDbEntity
  8
0
  6
CONTINUOUS
 62
               7
100
AcDbLine
 10
-60.971232507020773
 20
-126.98994824358921
 30
0.0
 11
-59.557018944647666
 21
-128.4041618059623
 31
0.0
  0
LINE
  5
195
100
AcDbEntity
  8
0
  6
CONTINUOUS
 62
               7
100
AcDbLine
 10
-59.557018944647666
 20
-126.98994824358921
 30
0.0
 11
-60.971232507020773
 21
-128.4041618059623
 31
0.0
  0
LINE
  5
196
100
AcDbEntity
  8
0
  6
CONTINUOUS
 62
               7
100
AcDbLine
 10
-60.264125725834219
 20
-129.29705502477577
 30
0.0
 11
-59.064125725834231
 21
-129.29705502477577
 31
0.0
  0
ARC
  5
197
100
AcDbEntity
  8
0
  6
CONTINUOUS
 62
               4
100
AcDbCircle
 10
203.19963947401527
 20
87.334878688384535
 30
0.0
 40
0.4999999999999147
100
AcDbArc
 50
244.50251020993821
 51
269.99999999999903
  0
ARC
  5
198
100
AcDbEntity
  8
0
  6
CONTINUOUS
 62
               4
100
AcDbCircle
 10
203.19963947401516
 20
25.734878688384825
 30
0.0
 40
0.4999999999999147
100
AcDbArc
 50
89.999999999999389
 51
115.49748979006007
  0
LINE
  5
199
100
AcDbEntity
  8
0
  6
CONTINUOUS
 62
               4
100
AcDbLine
 10
220.20468997334854
 20
86.834878688384649
 30
0.0
 11
203.19963947401527
 21
86.834878688384762
 31
0.0
  0
LINE
  5
19A
100
AcDbEntity
  8
0
  6
CONTINUOUS
 62
               4
100
AcDbLine
 10
220.20468997334842
 20
26.234878688384597
 30
0.0
 11
203.19963947401516
 21
26.234878688384711
 31
0.0
  0
LINE
  5
19B
100
AcDbEntity
  8
0
  6
CONTINUOUS
 62
               4
100
AcDbLine
 10
200.95115462681554
 20
125.32982817705134
 30
0.0
 11
200.45620513214885
 21
125.32982817705135
 31
0.0
  0
LINE
  5
19C
100
AcDbEntity
  8
0
  6
CONTINUOUS
 62
               4
100
AcDbLine
 10
217.50468997334872
 20
109.33487868838466
 30
0.0
 11
217.50468997334872
 21
108.73487868838475
 31
0.0
  0
LINE
  5
19D
100
AcDbEntity
  8
0
  6
CONTINUOUS
 62
               4
100
AcDbLine
 10
217.50468997334872
 20
108.73487868838475
 30
0.0
 11
220.20468996934869
 21
108.73487868838474
 31
0.0
  0
LINE
  5
19E
100
AcDbEntity
  8
0
  6
CONTINUOUS
 62
               4
100
AcDbLine
 10
206.70468997734872
 20
109.23487868838482
 30
0.0
 11
208.20468997334865
 21
109.23487868838481
 31
0.0
  0
LINE
  5
19F
100
AcDbEntity
  8
0
  6
CONTINUOUS
 62
               4
100
AcDbLine
 10
207.00469006334868
 20
109.33487868838473
 30
0.0
 11
219.40468988334874
 21
109.33487868838465
 31
0.0
  0
ARC
  5
1A0
100
AcDbEntity
  8
0
  6
CONTINUOUS
 62
               4
100
AcDbCircle
 10
207.00459491670006
 20
108.73497383503344
 30
0.0
 40
0.5999048008965869
100
AcDbArc
 50
89.990912722453018
 51
123.7525821296053
  0
ARC
  5
1A1
100
AcDbEntity
  8
0
  6
CONTINUOUS
 62
               4
100
AcDbCircle
 10
219.4057778884769
 20
108.73596669351291
 30
0.0
 40
0.5989129231257409
100
AcDbArc
 50
359.89591452477254
 51
90.104085475226455
  0
ARC
  5
1A2
100
AcDbEntity
  8
0
  6
CONTINUOUS
 62
               4
100
AcDbCircle
 10
219.70468996934869
 20
108.73487868838474
 30
0.0
 40
0.5
100
AcDbArc
 50
359.9999999999996
 51
86.080414100348378
  0
ARC
  5
1A3
100
AcDbEntity
  8
0
  6
CONTINUOUS
 62
               4
100
AcDbCircle
 10
206.70468997734872
 20
108.73487868838482
 30
0.0
 40
0.5
100
AcDbArc
 50
89.999999999999389
 51
179.9999999999992
  0
LINE
  5
1A4
100
AcDbEntity
  8
0
  6
CONTINUOUS
 62
               4
100
AcDbLine
 10
208.20468997334865
 20
109.33487868838472
 30
0.0
 11
208.20468997334865
 21
107.73487868838481
 31
0.0
  0
LINE
  5
1A5
100
AcDbEntity
  8
0
  6
CONTINUOUS
 62
               4
100
AcDbLine
 10
208.20468997334865
 20
107.73487868838481
 30
0.0
 11
220.20468996934869
 21
107.73487868838474
 31
0.0
  0
LINE
  5
1A6
100
AcDbEntity
  8
0
  6
CONTINUOUS
 62
               4
100
AcDbLine
 10
206.20468997734872
 20
106.33487868838462
 30
0.0
 11
198.70266977961535
 21
106.33487868838468
 31
0.0
  0
LINE
  5
1A7
100
AcDbEntity
  8
0
  6
CONTINUOUS
 62
               4
100
AcDbLine
 10
198.20064957788202
 20
105.83992919371799
 30
0.0
 11
198.2006495778819
 21
89.485383748517918
 31
0.0
  0
LINE
  5
1A8
100
AcDbEntity
  8
0
  6
CONTINUOUS
 62
               4
100
AcDbLine
 10
203.19963947401538
 20
114.33487868838465
 30
0.0
 11
199.10570008241541
 21
114.33487868838468
 31
0.0
  0
LINE
  5
1A9
100
AcDbEntity
  8
0
  6
CONTINUOUS
 62
               4
100
AcDbLine
 10
201.60165967694877
 20
114.33487868838465
 30
0.0
 11
201.60165967694877
 21
106.33487868838465
 31
0.0
  0
LINE
  5
1AA
100
AcDbEntity
  8
0
  6
CONTINUOUS
 62
               4
100
AcDbLine
 10
199.80570008201539
 20
114.33487868838466
 30
0.0
 11
199.80570008201539
 21
106.33487868838466
 31
0.0
  0
LINE
  5
1AB
100
AcDbEntity
  8
0
  6
CONTINUOUS
 62
               4
100
AcDbLine
 10
196.2067101850821
 20
114.33487868838468
 30
0.0
 11
196.2067101850821
 21
112.83992918971803
 31
0.0
  0
LINE
  5
1AC
100
AcDbEntity
  8
0
  6
CONTINUOUS
 62
               4
100
AcDbLine
 10
197.10468998254873
 20
107.73487868758464
 30
0.0
 11
196.2067101850821
 21
112.83992918971803
 31
0.0
  0
LINE
  5
1AD
100
AcDbEntity
  8
0
  6
CONTINUOUS
 62
               4
100
AcDbLine
 10
197.203679881482
 20
114.33487868838468
 30
0.0
 11
197.203679881482
 21
112.92934230819419
 31
0.0
  0
LINE
  5
1AE
100
AcDbEntity
  8
0
  6
CONTINUOUS
 62
               4
100
AcDbLine
 10
197.203679881482
 20
114.33487868838468
 30
0.0
 11
196.2067101850821
 21
114.33487868838468
 31
0.0
  0
LINE
  5
1AF
100
AcDbEntity
  8
0
  6
CONTINUOUS
 62
               4
100
AcDbLine
 10
198.30671018388205
 20
106.66720192051805
 30
0.0
 11
197.203679881482
 21
112.92934230819419
 31
0.0
  0
LINE
  5
1B0
100
AcDbEntity
  8
0
  6
CONTINUOUS
 62
               4
100
AcDbLine
 10
198.10165967894875
 20
105.33790899198466
 30
0.0
 11
198.10165967894864
 21
99.638919096251314
 31
0.0
  0
LINE
  5
1B1
100
AcDbEntity
  8
0
  6
CONTINUOUS
 62
               4
100
AcDbLine
 10
199.10570008241541
 20
114.33487868838468
 30
0.0
 11
199.10570008241541
 21
106.73790899118472
 31
0.0
  0
LINE
  5
1B2
100
AcDbEntity
  8
0
  6
CONTINUOUS
 62
               4
100
AcDbLine
 10
198.80165967854873
 20
114.030838284518
 30
0.0
 11
198.80165967854873
 21
108.1379089903847
 31
0.0
  0
LINE
  5
1B3
100
AcDbEntity
  8
0
  6
CONTINUOUS
 62
               4
100
AcDbLine
 10
199.10570008241541
 20
114.33487868838468
 30
0.0
 11
198.80165967854873
 21
114.030838284518
 31
0.0
  0
LINE
  5
1B4
100
AcDbEntity
  8
0
  6
CONTINUOUS
 62
               4
100
AcDbLine
 10
203.19963947401538
 20
113.33487868438469
 30
0.0
 11
202.7046899793487
 21
113.33487868438469
 31
0.0
  0
LINE
  5
1B5
100
AcDbEntity
  8
0
  6
CONTINUOUS
 62
               4
100
AcDbLine
 10
203.19963947401538
 20
108.33588878825132
 30
0.0
 11
202.7046899793487
 21
108.33588878825132
 31
0.0
  0
LINE
  5
1B6
100
AcDbEntity
  8
0
  6
CONTINUOUS
 62
               4
100
AcDbLine
 10
199.10570008241541
 20
107.83386858651801
 30
0.0
 11
198.80165967854873
 21
108.1379089903847
 31
0.0
  0
LINE
  5
1B7
100
AcDbEntity
  8
0
  6
CONTINUOUS
 62
               4
100
AcDbLine
 10
197.10468998254873
 20
107.73487868758464
 30
0.0
 11
197.10468998254862
 21
98.634878692784653
 31
0.0
  0
LINE
  5
1B8
100
AcDbEntity
  8
0
  6
CONTINUOUS
 62
               4
100
AcDbLine
 10
198.10165967894864
 20
98.33790899598462
 30
0.0
 11
197.40165967934865
 21
98.33790899598462
 31
0.0
  0
LINE
  5
1B9
100
AcDbEntity
  8
0
  6
CONTINUOUS
 62
               4
100
AcDbLine
 10
198.2006495778819
 20
99.638919096251314
 30
0.0
 11
198.10165967894864
 21
99.638919096251314
 31
0.0
  0
LINE
  5
1BA
100
AcDbEntity
  8
0
  6
CONTINUOUS
 62
               4
100
AcDbLine
 10
198.2006495778819
 20
98.436898894917945
 30
0.0
 11
198.10165967894864
 21
98.33790899598462
 31
0.0
  0
LINE
  5
1BB
100
AcDbEntity
  8
0
  6
CONTINUOUS
 62
               4
100
AcDbLine
 10
201.35418492961537
 20
118.90255545345137
 30
0.0
 11
201.35418492961537
 21
114.33487868838465
 31
0.0
  0
LINE
  5
1BC
100
AcDbEntity
  8
0
  6
CONTINUOUS
 62
               4
100
AcDbLine
 10
200.05317482934879
 20
121.82982817905133
 30
0.0
 11
200.05317482934868
 21
118.49952515065132
 31
0.0
  0
LINE
  5
1BD
100
AcDbEntity
  8
0
  6
CONTINUOUS
 62
               4
100
AcDbLine
 10
201.35418492961549
 20
121.82982817905132
 30
0.0
 11
201.35418492961549
 21
119.24902009971804
 31
0.0
  0
LINE
  5
1BE
100
AcDbEntity
  8
0
  6
CONTINUOUS
 62
               4
100
AcDbLine
 10
201.35418492961549
 20
121.82982817905132
 30
0.0
 11
200.05317482934879
 21
121.82982817905133
 31
0.0
  0
LINE
  5
1BF
100
AcDbEntity
  8
0
  6
CONTINUOUS
 62
               4
100
AcDbLine
 10
200.95115462681554
 20
125.32982817705134
 30
0.0
 11
200.95115462681554
 21
121.82982817905132
 31
0.0
  0
LINE
  5
1C0
100
AcDbEntity
  8
0
  6
CONTINUOUS
 62
               4
100
AcDbLine
 10
200.45620513214885
 20
125.32982817705135
 30
0.0
 11
200.45620513214885
 21
121.82982817905133
 31
0.0
  0
LINE
  5
1C1
100
AcDbEntity
  8
0
  6
CONTINUOUS
 62
             200
100
AcDbLine
 10
199.20468998134868
 20
118.00457565598475
 30
0.0
 11
202.20266977761548
 21
119.73689888731796
 31
0.0
  0
LINE
  5
1C2
100
AcDbEntity
  8
0
  6
CONTINUOUS
 62
             200
100
AcDbLine
 10
199.20468998134868
 20
117.65811100971808
 30
0.0
 11
202.20266977761548
 21
119.39043424105141
 31
0.0
  0
LINE
  5
1C3
100
AcDbEntity
  8
0
  6
CONTINUOUS
 62
               4
100
AcDbLine
 10
200.05317482934868
 20
118.15306050438465
 30
0.0
 11
200.05317482934868
 21
114.33487868838466
 31
0.0
  0
LINE
  5
1C4
100
AcDbEntity
  8
0
  6
CONTINUOUS
 62
               4
100
AcDbLine
 10
203.19963947401538
 20
114.33487868838465
 30
0.0
 11
203.19963947401538
 21
113.33487868438469
 31
0.0
  0
LINE
  5
1C5
100
AcDbEntity
  8
0
  6
CONTINUOUS
 62
               4
100
AcDbLine
 10
203.19963947401538
 20
108.33588878825132
 30
0.0
 11
203.19963947401538
 21
106.33487868838465
 31
0.0
  0
LINE
  5
1C6
100
AcDbEntity
  8
0
  6
CONTINUOUS
 62
               4
100
AcDbLine
 10
202.7046899793487
 20
113.33487868438469
 30
0.0
 11
202.7046899793487
 21
108.33588878825132
 31
0.0
  0
ARC
  5
1C7
100
AcDbEntity
  8
0
  6
CONTINUOUS
 62
               4
100
AcDbCircle
 10
198.70665691577949
 20
89.484363185876433
 30
0.0
 40
0.5060324378497572
100
AcDbArc
 50
180.57067216988438
 51
244.50251020993869
  0
ARC
  5
1C8
100
AcDbEntity
  8
0
  6
CONTINUOUS
 62
               4
100
AcDbCircle
 10
198.70085585407003
 20
105.83464782036829
 30
0.0
 40
0.5002341568128574
100
AcDbArc
 50
89.792236286845323
 51
179.39507124653571
  0
ARC
  5
1C9
100
AcDbEntity
  8
0
  6
CONTINUOUS
 62
               4
100
AcDbCircle
 10
197.40679385525675
 20
98.640012868692864
 30
0.0
 40
0.3021474965435785
100
AcDbArc
 50
180.97363298451106
 51
269.02636701548721
  0
ARC
  5
1CA
100
AcDbEntity
  8
0
  6
CONTINUOUS
 62
               4
100
AcDbCircle
 10
198.60470303248189
 20
105.33521103902918
 30
0.0
 40
0.5030505883944908
100
AcDbArc
 50
143.43739164534645
 51
179.69271070880933
  0
ARC
  5
1CB
100
AcDbEntity
  8
0
  6
CONTINUOUS
 62
               4
100
AcDbCircle
 10
198.70276885065073
 20
106.74138544807836
 30
0.0
 40
0.4029462287748787
100
AcDbArc
 50
190.60882798227362
 51
359.50566908284355
  0
LINE
  5
1CC
100
AcDbEntity
  8
0
  6
CONTINUOUS
 62
               4
100
AcDbLine
 10
203.19963947401527
 20
86.834878688384649
 30
0.0
 11
203.19963947401538
 21
106.33487868838465
 31
0.0
  0
LINE
  5
1CD
100
AcDbEntity
  8
0
  6
CONTINUOUS
 62
               4
100
AcDbLine
 10
220.20468997334865
 20
108.73487868838463
 30
0.0
 11
220.20468997334854
 21
86.834878688384649
 31
0.0
  0
LINE
  5
1CE
100
AcDbEntity
  8
0
  6
CONTINUOUS
 62
               4
100
AcDbLine
 10
206.20468997334854
 20
86.834878688384734
 30
0.0
 11
206.20468997334865
 21
108.73487868331701
 31
0.0
  0
LINE
  5
1CF
100
AcDbEntity
  8
0
  6
CONTINUOUS
 62
               4
100
AcDbLine
 10
198.48882434646862
 20
89.02761621007518
 30
0.0
 11
202.98440369759305
 21
86.883576615989782
 31
0.0
  0
LINE
  5
1D0
100
AcDbEntity
  8
0
  6
CONTINUOUS
 62
               4
100
AcDbLine
 10
200.05317482934834
 20
-5.0833031276151388
 30
0.0
 11
200.05317482934834
 21
-1.2651213116151467
 31
0.0
  0
LINE
  5
1D1
100
AcDbEntity
  8
0
  6
CONTINUOUS
 62
               4
100
AcDbLine
 10
201.35418492961503
 20
-5.8327980766818683
 30
0.0
 11
201.35418492961503
 21
-1.2651213116151467
 31
0.0
  0
LINE
  5
1D2
100
AcDbEntity
  8
0
  6
CONTINUOUS
 62
               4
100
AcDbLine
 10
217.50468997334838
 20
3.7348786883846259
 30
0.0
 11
217.50468997334838
 21
4.3348786883845349
 31
0.0
  0
LINE
  5
1D3
100
AcDbEntity
  8
0
  6
CONTINUOUS
 62
               4
100
AcDbLine
 10
217.50468997334838
 20
4.3348786883845349
 30
0.0
 11
220.20468996934835
 21
4.3348786883845065
 31
0.0
  0
LINE
  5
1D4
100
AcDbEntity
  8
0
  6
CONTINUOUS
 62
               4
100
AcDbLine
 10
206.70468997734838
 20
3.8348786883845918
 30
0.0
 11
208.20468997334831
 21
3.8348786883845918
 31
0.0
  0
LINE
  5
1D5
100
AcDbEntity
  8
0
  6
CONTINUOUS
 62
               4
100
AcDbLine
 10
207.00469006334833
 20
3.7348786883846827
 30
0.0
 11
219.4046898833484
 21
3.7348786883846259
 31
0.0
  0
ARC
  5
1D6
100
AcDbEntity
  8
0
  6
CONTINUOUS
 62
               4
100
AcDbCircle
 10
207.00459491669972
 20
4.3347835417359732
 30
0.0
 40
0.5999048008965869
100
AcDbArc
 50
236.24741787039309
 51
270.00908727754535
  0
ARC
  5
1D7
100
AcDbEntity
  8
0
  6
CONTINUOUS
 62
               4
100
AcDbCircle
 10
219.40577788847656
 20
4.3337906832563675
 30
0.0
 40
0.5989129231257409
100
AcDbArc
 50
269.89591452477197
 51
0.1040854752267138
  0
ARC
  5
1D8
100
AcDbEntity
  8
0
  6
CONTINUOUS
 62
               4
100
AcDbCircle
 10
219.70468996934835
 20
4.3348786883845349
 30
0.0
 40
0.5
100
AcDbArc
 50
273.91958589964997
 51
359.99999999999881
  0
ARC
  5
1D9
100
AcDbEntity
  8
0
  6
CONTINUOUS
 62
               4
100
AcDbCircle
 10
206.70468997734838
 20
4.3348786883845918
 30
0.0
 40
0.5
100
AcDbArc
 50
179.9999999999992
 51
269.99999999999898
  0
LINE
  5
1DA
100
AcDbEntity
  8
0
  6
CONTINUOUS
 62
               4
100
AcDbLine
 10
208.20468997334831
 20
3.7348786883846827
 30
0.0
 11
208.20468997334831
 21
5.3348786883845918
 31
0.0
  0
LINE
  5
1DB
100
AcDbEntity
  8
0
  6
CONTINUOUS
 62
               4
100
AcDbLine
 10
208.20468997334831
 20
5.3348786883845918
 30
0.0
 11
220.20468996934835
 21
5.3348786883845065
 31
0.0
  0
LINE
  5
1DC
100
AcDbEntity
  8
0
  6
CONTINUOUS
 62
               4
100
AcDbLine
 10
206.20468997734838
 20
6.7348786883848248
 30
0.0
 11
198.70266977961501
 21
6.7348786883848533
 31
0.0
  0
LINE
  5
1DD
100
AcDbEntity
  8
0
  6
CONTINUOUS
 62
               4
100
AcDbLine
 10
198.20064957788168
 20
7.2298281830515378
 30
0.0
 11
198.20064957788179
 21
23.584373628251612
 31
0.0
  0
LINE
  5
1DE
100
AcDbEntity
  8
0
  6
CONTINUOUS
 62
               4
100
AcDbLine
 10
203.19963947401504
 20
-1.2651213116151752
 30
0.0
 11
199.10570008241507
 21
-1.2651213116151467
 31
0.0
  0
LINE
  5
1DF
100
AcDbEntity
  8
0
  6
CONTINUOUS
 62
               4
100
AcDbLine
 10
201.60165967694843
 20
-1.2651213116151467
 30
0.0
 11
201.60165967694843
 21
6.7348786883848533
 31
0.0
  0
LINE
  5
1E0
100
AcDbEntity
  8
0
  6
CONTINUOUS
 62
               4
100
AcDbLine
 10
199.80570008201505
 20
-1.2651213116151467
 30
0.0
 11
199.80570008201505
 21
6.7348786883848533
 31
0.0
  0
LINE
  5
1E1
100
AcDbEntity
  8
0
  6
CONTINUOUS
 62
               4
100
AcDbLine
 10
196.20671018508176
 20
-1.2651213116151183
 30
0.0
 11
196.20671018508176
 21
0.229828187051524
 31
0.0
  0
LINE
  5
1E2
100
AcDbEntity
  8
0
  6
CONTINUOUS
 62
               4
100
AcDbLine
 10
197.10468998254839
 20
5.3348786891849187
 30
0.0
 11
196.20671018508176
 21
0.229828187051524
 31
0.0
  0
LINE
  5
1E3
100
AcDbEntity
  8
0
  6
CONTINUOUS
 62
               4
100
AcDbLine
 10
197.20367988148166
 20
-1.2651213116151183
 30
0.0
 11
197.20367988148166
 21
0.1404150685753649
 31
0.0
  0
LINE
  5
1E4
100
AcDbEntity
  8
0
  6
CONTINUOUS
 62
               4
100
AcDbLine
 10
197.20367988148166
 20
-1.2651213116151183
 30
0.0
 11
196.20671018508176
 21
-1.2651213116151183
 31
0.0
  0
LINE
  5
1E5
100
AcDbEntity
  8
0
  6
CONTINUOUS
 62
               4
100
AcDbLine
 10
198.30671018388171
 20
6.402555456251477
 30
0.0
 11
197.20367988148166
 21
0.1404150685753649
 31
0.0
  0
LINE
  5
1E6
100
AcDbEntity
  8
0
  6
CONTINUOUS
 62
               4
100
AcDbLine
 10
198.10165967894841
 20
7.7318483847848682
 30
0.0
 11
198.10165967894852
 21
13.430838280518216
 31
0.0
  0
LINE
  5
1E7
100
AcDbEntity
  8
0
  6
CONTINUOUS
 62
               4
100
AcDbLine
 10
199.10570008241507
 20
-1.2651213116151467
 30
0.0
 11
199.10570008241507
 21
6.3318483855847916
 31
0.0
  0
LINE
  5
1E8
100
AcDbEntity
  8
0
  6
CONTINUOUS
 62
               4
100
AcDbLine
 10
198.80165967854839
 20
-0.9610809077484674
 30
0.0
 11
198.80165967854839
 21
4.9318483863848286
 31
0.0
  0
LINE
  5
1E9
100
AcDbEntity
  8
0
  6
CONTINUOUS
 62
               4
100
AcDbLine
 10
199.10570008241507
 20
-1.2651213116151467
 30
0.0
 11
198.80165967854839
 21
-0.9610809077484674
 31
0.0
  0
LINE
  5
1EA
100
AcDbEntity
  8
0
  6
CONTINUOUS
 62
               4
100
AcDbLine
 10
203.19963947401504
 20
-0.2651213076152175
 30
0.0
 11
202.70468997934836
 21
-0.2651213076152175
 31
0.0
  0
LINE
  5
1EB
100
AcDbEntity
  8
0
  6
CONTINUOUS
 62
               4
100
AcDbLine
 10
203.19963947401504
 20
4.7338685885181491
 30
0.0
 11
202.70468997934836
 21
4.7338685885181491
 31
0.0
  0
LINE
  5
1EC
100
AcDbEntity
  8
0
  6
CONTINUOUS
 62
               4
100
AcDbLine
 10
199.10570008241507
 20
5.2358887902515079
 30
0.0
 11
198.80165967854839
 21
4.9318483863848286
 31
0.0
  0
LINE
  5
1ED
100
AcDbEntity
  8
0
  6
CONTINUOUS
 62
               4
100
AcDbLine
 10
197.10468998254839
 20
5.3348786891849187
 30
0.0
 11
197.10468998254851
 21
14.434878683984905
 31
0.0
  0
LINE
  5
1EE
100
AcDbEntity
  8
0
  6
CONTINUOUS
 62
               4
100
AcDbLine
 10
198.10165967894852
 20
14.731848380784911
 30
0.0
 11
197.40165967934854
 21
14.731848380784939
 31
0.0
  0
LINE
  5
1EF
100
AcDbEntity
  8
0
  6
CONTINUOUS
 62
               4
100
AcDbLine
 10
198.20064957788179
 20
13.430838280518216
 30
0.0
 11
198.10165967894852
 21
13.430838280518216
 31
0.0
  0
LINE
  5
1F0
100
AcDbEntity
  8
0
  6
CONTINUOUS
 62
               4
100
AcDbLine
 10
198.20064957788179
 20
14.632858481851585
 30
0.0
 11
198.10165967894852
 21
14.731848380784911
 31
0.0
  0
LINE
  5
1F1
100
AcDbEntity
  8
0
  6
CONTINUOUS
 62
               4
100
AcDbLine
 10
203.19963947401504
 20
-1.2651213116151752
 30
0.0
 11
203.19963947401504
 21
-0.2651213076152175
 31
0.0
  0
LINE
  5
1F2
100
AcDbEntity
  8
0
  6
CONTINUOUS
 62
               4
100
AcDbLine
 10
203.19963947401504
 20
4.7338685885181491
 30
0.0
 11
203.19963947401504
 21
6.7348786883848248
 31
0.0
  0
LINE
  5
1F3
100
AcDbEntity
  8
0
  6
CONTINUOUS
 62
               4
100
AcDbLine
 10
202.70468997934836
 20
-0.2651213076152175
 30
0.0
 11
202.70468997934836
 21
4.7338685885181491
 31
0.0
  0
ARC
  5
1F4
100
AcDbEntity
  8
0
  6
CONTINUOUS
 62
               4
100
AcDbCircle
 10
198.70665691577938
 20
23.585394190893098
 30
0.0
 40
0.5060324378497572
100
AcDbArc
 50
115.49748979005916
 51
179.42932783011398
  0
ARC
  5
1F5
100
AcDbEntity
  8
0
  6
CONTINUOUS
 62
               4
100
AcDbCircle
 10
198.70085585406969
 20
7.2351095564012411
 30
0.0
 40
0.5002341568128574
100
AcDbArc
 50
180.60492875346273
 51
270.2077637131531
  0
ARC
  5
1F6
100
AcDbEntity
  8
0
  6
CONTINUOUS
 62
               4
100
AcDbCircle
 10
197.40679385525664
 20
14.429744508076695
 30
0.0
 40
0.3021474965435785
100
AcDbArc
 50
90.973632984511212
 51
179.02636701548735
  0
ARC
  5
1F7
100
AcDbEntity
  8
0
  6
CONTINUOUS
 62
               4
100
AcDbCircle
 10
198.60470303248155
 20
7.7345463377403547
 30
0.0
 40
0.5030505883944908
100
AcDbArc
 50
180.30728929118908
 51
216.56260835465196
  0
ARC
  5
1F8
100
AcDbEntity
  8
0
  6
CONTINUOUS
 62
               4
100
AcDbCircle
 10
198.70276885065039
 20
6.328371928691169
 30
0.0
 40
0.4029462287748787
100
AcDbArc
 50
0.4943309171548654
 51
169.39117201772481
  0
LINE
  5
1F9
100
AcDbEntity
  8
0
  6
CONTINUOUS
 62
               4
100
AcDbLine
 10
200.95115462681497
 20
-12.260070800281781
 30
0.0
 11
200.45620513214828
 21
-12.260070800281781
 31
0.0
  0
LINE
  5
1FA
100
AcDbEntity
  8
0
  6
CONTINUOUS
 62
               4
100
AcDbLine
 10
200.05317482934822
 20
-8.7600708022818168
 30
0.0
 11
200.05317482934834
 21
-5.4297677738818066
 31
0.0
  0
LINE
  5
1FB
100
AcDbEntity
  8
0
  6
CONTINUOUS
 62
               4
100
AcDbLine
 10
201.35418492961492
 20
-8.7600708022818168
 30
0.0
 11
201.35418492961492
 21
-6.1792627229485362
 31
0.0
  0
LINE
  5
1FC
100
AcDbEntity
  8
0
  6
CONTINUOUS
 62
               4
100
AcDbLine
 10
201.35418492961492
 20
-8.7600708022818168
 30
0.0
 11
200.05317482934822
 21
-8.7600708022818168
 31
0.0
  0
LINE
  5
1FD
100
AcDbEntity
  8
0
  6
CONTINUOUS
 62
               4
100
AcDbLine
 10
200.95115462681497
 20
-12.260070800281781
 30
0.0
 11
200.95115462681497
 21
-8.7600708022818168
 31
0.0
  0
LINE
  5
1FE
100
AcDbEntity
  8
0
  6
CONTINUOUS
 62
               4
100
AcDbLine
 10
200.45620513214828
 20
-12.260070800281781
 30
0.0
 11
200.45620513214828
 21
-8.7600708022818168
 31
0.0
  0
LINE
  5
1FF
100
AcDbEntity
  8
0
  6
CONTINUOUS
 62
             200
100
AcDbLine
 10
199.20468998134834
 20
-4.9348182792152357
 30
0.0
 11
202.20266977761491
 21
-6.6671415105484897
 31
0.0
  0
LINE
  5
200
100
AcDbEntity
  8
0
  6
CONTINUOUS
 62
             200
100
AcDbLine
 10
199.20468998134834
 20
-4.5883536329485679
 30
0.0
 11
202.20266977761491
 21
-6.3206768642819355
 31
0.0
  0
LINE
  5
201
100
AcDbEntity
  8
0
  6
CONTINUOUS
 62
               4
100
AcDbLine
 10
203.19963947401516
 20
26.234878688384711
 30
0.0
 11
203.19963947401504
 21
6.7348786883848248
 31
0.0
  0
LINE
  5
202
100
AcDbEntity
  8
0
  6
CONTINUOUS
 62
               4
100
AcDbLine
 10
220.20468997334831
 20
4.3348786883846202
 30
0.0
 11
220.20468997334842
 21
26.234878688384597
 31
0.0
  0
LINE
  5
203
100
AcDbEntity
  8
0
  6
CONTINUOUS
 62
               4
100
AcDbLine
 10
206.20468997334842
 20
26.234878688384711
 30
0.0
 11
206.20468997334831
 21
4.3348786934524384
 31
0.0
  0
LINE
  5
204
100
AcDbEntity
  8
0
  6
CONTINUOUS
 62
               4
100
AcDbLine
 10
198.4888243464685
 20
24.04214116669435
 30
0.0
 11
202.98440369759294
 21
26.186180760779578
 31
0.0
  0
LINE
  5
205
100
AcDbEntity
  8
0
  6
DASHED
 62
               2
100
AcDbLine
 10
220.20468715682171
 20
30.783905421783118
 30
0.0
 11
219.10961512750907
 21
30.783905421783118
 31
0.0
  0
LINE
  5
206
100
AcDbEntity
  8
0
  6
DASHED
 62
               2
100
AcDbLine
 10
220.20468715682171
 20
32.283905421783118
 30
0.0
 11
219.10961512750907
 21
32.283905421783118
 31
0.0
  0
LINE
  5
207
100
AcDbEntity
  8
0
  6
CENTER
 62
               2
100
AcDbLine
 10
218.64200718106019
 20
31.533905421783118
 30
0.0
 11
220.92266617589905
 21
31.533905421783118
 31
0.0
  0
LINE
  5
208
100
AcDbEntity
  8
0
  6
DASHED
 62
               2
100
AcDbLine
 10
220.20468715682182
 20
82.284878688384708
 30
0.0
 11
219.10961512750919
 21
82.284878688384708
 31
0.0
  0
LINE
  5
209
100
AcDbEntity
  8
0
  6
DASHED
 62
               2
100
AcDbLine
 10
220.20468715682182
 20
80.784878688384708
 30
0.0
 11
219.10961512750919
 21
80.784878688384708
 31
0.0
  0
LINE
  5
20A
100
AcDbEntity
  8
0
  6
CONTINUOUS
 62
               7
100
AcDbLine
 10
220.90468997334858
 20
77.034878688384623
 30
0.0
 11
236.90468997334858
 21
77.034878688384623
 31
0.0
  0
LINE
  5
20B
100
AcDbEntity
  8
0
  6
CONTINUOUS
 62
               7
100
AcDbLine
 10
220.90468997334858
 20
44.034878688384623
 30
0.0
 11
236.90468996552386
 21
44.034878688384623
 31
0.0
  0
CIRCLE
  5
20C
100
AcDbEntity
  8
0
  6
CONTINUOUS
 62
               7
100
AcDbCircle
 10
231.90468996552386
 20
52.134878688384624
 30
0.0
 40
2.1000000000000001
  0
CIRCLE
  5
20D
100
AcDbEntity
  8
0
  6
CONTINUOUS
 62
               7
100
AcDbCircle
 10
225.90468996552386
 20
60.534878688384623
 30
0.0
 40
2.1000000000000001
  0
CIRCLE
  5
20E
100
AcDbEntity
  8
0
  6
CONTINUOUS
 62
               2
100
AcDbCircle
 10
231.90468996552386
 20
52.134878688384624
 30
0.0
 40
2.5
  0
CIRCLE
  5
20F
100
AcDbEntity
  8
0
  6
CONTINUOUS
 62
               2
100
AcDbCircle
 10
225.90468996552386
 20
60.534878688384623
 30
0.0
 40
2.5
  0
LINE
  5
210
100
AcDbEntity
  8
0
  6
CONTINUOUS
 62
               7
100
AcDbLine
 10
236.90468996552386
 20
44.034878688384623
 30
0.0
 11
236.90468996552386
 21
77.034878688384623
 31
0.0
  0
LINE
  5
211
100
AcDbEntity
  8
0
  6
CONTINUOUS
 62
               7
100
AcDbLine
 10
220.90468996552386
 20
44.034878688384623
 30
0.0
 11
220.90468996552386
 21
77.034878688384623
 31
0.0
  0
LINE
  5
212
100
AcDbEntity
  8
0
  6
CENTER
 62
               2
100
AcDbLine
 10
227.90468996552386
 20
52.134878688384624
 30
0.0
 11
235.90468996552386
 21
52.134878688384624
 31
0.0
  0
LINE
  5
213
100
AcDbEntity
  8
0
  6
CENTER
 62
               2
100
AcDbLine
 10
221.90468996552386
 20
60.534878688384623
 30
0.0
 11
229.90468996552386
 21
60.534878688384623
 31
0.0
  0
LINE
  5
214
100
AcDbEntity
  8
0
  6
CENTER
 62
               2
100
AcDbLine
 10
225.90468996552386
 20
64.534878688384623
 30
0.0
 11
225.90468996552386
 21
56.534878688384623
 31
0.0
  0
LINE
  5
215
100
AcDbEntity
  8
0
  6
CENTER
 62
               2
100
AcDbLine
 10
231.90468996552386
 20
56.134878688384624
 30
0.0
 11
231.90468996552386
 21
48.134878688384624
 31
0.0
  0
LINE
  5
216
100
AcDbEntity
  8
0
  6
CONTINUOUS
 62
               7
100
AcDbLine
 10
220.20469278987537
 20
72.535851954986185
 30
0.0
 11
220.90468997334858
 21
72.535851954986185
 31
0.0
  0
LINE
  5
217
100
AcDbEntity
  8
0
  6
CONTINUOUS
 62
               7
100
AcDbLine
 10
220.20469278987537
 20
48.535851954986207
 30
0.0
 11
220.90468997334858
 21
48.535851954986207
 31
0.0
  0
LINE
  5
218
100
AcDbEntity
  8
0
  6
CENTER
 62
               2
100
AcDbLine
 10
218.64200718106031
 20
81.534878688384708
 30
0.0
 11
220.92266617589917
 21
81.534878688384708
 31
0.0
  0
LINE
  5
219
100
AcDbEntity
  8
0
  6
CONTINUOUS
 62
               7
100
AcDbLine
 10
204.60468715682168
 20
32.234878688384697
 30
0.0
 11
204.60468715682168
 21
26.234878688384725
 31
0.0
  0
ARC
  5
21A
100
AcDbEntity
  8
0
  6
CONTINUOUS
 62
               7
100
AcDbCircle
 10
207.20359915158474
 20
52.333790684101359
 30
0.0
 40
0.5989129830170392
100
AcDbArc
 50
179.89591452477254
 51
270.10408547522644
  0
LINE
  5
21B
100
AcDbEntity
  8
0
  6
CONTINUOUS
 62
               7
100
AcDbLine
 10
220.20468715682182
 20
47.434878688384714
 30
0.0
 11
206.20468715682182
 21
47.434878688384714
 31
0.0
  0
LINE
  5
21C
100
AcDbEntity
  8
0
  6
CONTINUOUS
 62
               7
100
AcDbLine
 10
220.20468715682182
 20
73.634878688384688
 30
0.0
 11
206.20468715682182
 21
73.634878688384688
 31
0.0
  0
LINE
  5
21D
100
AcDbEntity
  8
0
  6
CONTINUOUS
 62
               7
100
AcDbLine
 10
206.20468997334854
 20
26.234878688384725
 30
0.0
 11
206.20468997334854
 21
86.834878688384663
 31
0.0
  0
LINE
  5
21E
100
AcDbEntity
  8
0
  6
CONTINUOUS
 62
               7
100
AcDbLine
 10
220.20468997334854
 20
26.234878688384697
 30
0.0
 11
220.20468997334854
 21
86.834878688384691
 31
0.0
  0
LINE
  5
21F
100
AcDbEntity
  8
0
  6
CONTINUOUS
 62
               7
100
AcDbLine
 10
204.6046871568218
 20
80.834881504911465
 30
0.0
 11
204.6046871568218
 21
86.834878688384691
 31
0.0
  0
LINE
  5
220
100
AcDbEntity
  8
0
  6
CONTINUOUS
 62
               7
100
AcDbLine
 10
207.20468715777542
 20
51.634878688384688
 30
0.0
 11
206.20468715682182
 21
51.634878688384688
 31
0.0
  0
LINE
  5
221
100
AcDbEntity
  8
0
  6
CONTINUOUS
 62
               7
100
AcDbLine
 10
207.20468715777542
 20
54.834878688384677
 30
0.0
 11
206.20468715682182
 21
54.834878688384677
 31
0.0
  0
LINE
  5
222
100
AcDbEntity
  8
0
  6
CONTINUOUS
 62
               7
100
AcDbLine
 10
207.20468715682182
 20
51.634878688384688
 30
0.0
 11
207.20468715682182
 21
54.834878688384677
 31
0.0
  0
LINE
  5
223
100
AcDbEntity
  8
0
  6
CONTINUOUS
 62
               7
100
AcDbLine
 10
206.6046861685677
 20
52.333790684101359
 30
0.0
 11
206.6046861685677
 21
54.135966694575387
 31
0.0
  0
ARC
  5
224
100
AcDbEntity
  8
0
  6
CONTINUOUS
 62
               7
100
AcDbCircle
 10
207.20359915158474
 20
54.135966694575387
 30
0.0
 40
0.5989129830170392
100
AcDbArc
 50
89.895914524772735
 51
180.10408547522667
  0
LINE
  5
225
100
AcDbEntity
  8
0
  6
CONTINUOUS
 62
               7
100
AcDbLine
 10
220.20468715682182
 20
39.434878688384714
 30
0.0
 11
206.20468715682182
 21
39.434878688384714
 31
0.0
  0
LINE
  5
226
100
AcDbEntity
  8
0
  6
CONTINUOUS
 62
               7
100
AcDbLine
 10
206.20468997334854
 20
33.834878688384691
 30
0.0
 11
204.60468715682168
 21
32.234878688384697
 31
0.0
  0
LINE
  5
227
100
AcDbEntity
  8
0
  6
CONTINUOUS
 62
               7
100
AcDbLine
 10
204.6046871568218
 20
80.834881504911465
 30
0.0
 11
206.20468997334854
 21
79.234878688384697
 31
0.0
  0
LINE
  5
228
100
AcDbEntity
  8
0
  6
CENTER
 62
               2
100
AcDbLine
 10
213.20468997334876
 20
3.0509734428928255
 30
0.0
 11
213.20468997334842
 21
110.01683740067335
 31
0.0
  0
LINE
  5
229
100
AcDbEntity
  8
0
  6
CENTER
 62
               2
100
AcDbLine
 10
234.40468996552386
 20
74.034878688384637
 30
0.0
 11
239.40468996552386
 21
74.034878688384637
 31
0.0
  0
LINE
  5
22A
100
AcDbEntity
  8
0
  6
CENTER
 62
               2
100
AcDbLine
 10
234.40468996552386
 20
47.034878688384637
 30
0.0
 11
239.40468996552386
 21
47.034878688384637
 31
0.0
  0
LINE
  5
22B
100
AcDbEntity
  8
0
  6
CENTER
 62
               2
100
AcDbLine
 10
218.4046899655238
 20
67.834878688384663
 30
0.0
 11
223.4046899655238
 21
67.834878688384663
 31
0.0
  0
LINE
  5
22C
100
AcDbEntity
  8
0
  6
CENTER
 62
               2
100
AcDbLine
 10
218.4046899655238
 20
53.234878688384661
 30
0.0
 11
223.4046899655238
 21
53.234878688384661
 31
0.0
  0
ARC
  5
22D
100
AcDbEntity
  8
0
  6
CONTINUOUS
 62
               4
100
AcDbCircle
 10
69.423381261467142
 20
87.334878688384521
 30
0.0
 40
0.4999999999999147
100
AcDbArc
 50
269.99999999999937
 51
295.49748979006006
  0
ARC
  5
22E
100
AcDbEntity
  8
0
  6
CONTINUOUS
 62
               4
100
AcDbCircle
 10
69.423381261467142
 20
25.734878688384882
 30
0.0
 40
0.4999999999999147
100
AcDbArc
 50
64.502510209938976
 51
89.999999999999815
  0
LINE
  5
22F
100
AcDbEntity
  8
0
  6
CONTINUOUS
 62
               4
100
AcDbLine
 10
52.418330762133877
 20
26.234878688384654
 30
0.0
 11
69.423381261467142
 21
26.234878688384654
 31
0.0
  0
ARC
  5
230
100
AcDbEntity
  8
0
  6
CONTINUOUS
 62
               4
100
AcDbCircle
 10
73.920251884831799
 20
6.3283719286910838
 30
0.0
 40
0.4029462287748787
100
AcDbArc
 50
10.608827982274413
 51
179.50566908284432
  0
ARC
  5
231
100
AcDbEntity
  8
0
  6
CONTINUOUS
 62
               4
100
AcDbCircle
 10
74.018317703000633
 20
7.7345463377402695
 30
0.0
 40
0.5030505883944908
100
AcDbArc
 50
323.43739164534645
 51
359.69271070880933
  0
ARC
  5
232
100
AcDbEntity
  8
0
  6
CONTINUOUS
 62
               4
100
AcDbCircle
 10
75.216226880225662
 20
14.429744508076581
 30
0.0
 40
0.3021474965435785
100
AcDbArc
 50
0.9736329845118463
 51
89.026367015487978
  0
ARC
  5
233
100
AcDbEntity
  8
0
  6
CONTINUOUS
 62
               4
100
AcDbCircle
 10
73.922164881412499
 20
7.2351095564011558
 30
0.0
 40
0.5002341568128574
100
AcDbArc
 50
269.79223628684531
 51
359.39507124653568
  0
ARC
  5
234
100
AcDbEntity
  8
0
  6
CONTINUOUS
 62
               4
100
AcDbCircle
 10
73.916363819702923
 20
23.585394190893012
 30
0.0
 40
0.5060324378497572
100
AcDbArc
 50
0.570672169885155
 51
64.502510209939487
  0
LINE
  5
235
100
AcDbEntity
  8
0
  6
CONTINUOUS
 62
               4
100
AcDbLine
 10
69.918330756133827
 20
-0.2651213076152743
 30
0.0
 11
69.918330756133827
 21
4.7338685885180922
 31
0.0
  0
LINE
  5
236
100
AcDbEntity
  8
0
  6
CONTINUOUS
 62
               4
100
AcDbLine
 10
69.423381261467142
 20
4.7338685885180922
 30
0.0
 11
69.423381261467142
 21
6.734878688384768
 31
0.0
  0
LINE
  5
237
100
AcDbEntity
  8
0
  6
CONTINUOUS
 62
               4
100
AcDbLine
 10
69.423381261467142
 20
-1.265121311615232
 30
0.0
 11
69.423381261467142
 21
-0.2651213076152743
 31
0.0
  0
LINE
  5
238
100
AcDbEntity
  8
0
  6
CONTINUOUS
 62
               4
100
AcDbLine
 10
72.56984590613385
 20
-5.0833031276152241
 30
0.0
 11
72.56984590613385
 21
-1.265121311615232
 31
0.0
  0
LINE
  5
239
100
AcDbEntity
  8
0
  6
CONTINUOUS
 62
             200
100
AcDbLine
 10
73.418330754133848
 20
-4.5883536329486532
 30
0.0
 11
70.420350957867157
 21
-6.3206768642819924
 31
0.0
  0
LINE
  5
23A
100
AcDbEntity
  8
0
  6
CONTINUOUS
 62
             200
100
AcDbLine
 10
73.418330754133848
 20
-4.934818279215321
 30
0.0
 11
70.420350957867157
 21
-6.6671415105485465
 31
0.0
  0
LINE
  5
23B
100
AcDbEntity
  8
0
  6
CONTINUOUS
 62
               4
100
AcDbLine
 10
72.166815603333788
 20
-12.260070800281923
 30
0.0
 11
72.166815603333788
 21
-8.760070802281902
 31
0.0
  0
LINE
  5
23C
100
AcDbEntity
  8
0
  6
CONTINUOUS
 62
               4
100
AcDbLine
 10
71.671866108667103
 20
-12.260070800281923
 30
0.0
 11
71.671866108667103
 21
-8.760070802281902
 31
0.0
  0
LINE
  5
23D
100
AcDbEntity
  8
0
  6
CONTINUOUS
 62
               4
100
AcDbLine
 10
71.268835805867155
 20
-8.760070802281902
 30
0.0
 11
72.56984590613385
 21
-8.760070802281902
 31
0.0
  0
LINE
  5
23E
100
AcDbEntity
  8
0
  6
CONTINUOUS
 62
               4
100
AcDbLine
 10
71.268835805867155
 20
-8.760070802281902
 30
0.0
 11
71.268835805867155
 21
-6.1792627229486214
 31
0.0
  0
LINE
  5
23F
100
AcDbEntity
  8
0
  6
CONTINUOUS
 62
               4
100
AcDbLine
 10
72.56984590613385
 20
-8.760070802281902
 30
0.0
 11
72.56984590613385
 21
-5.4297677738818919
 31
0.0
  0
LINE
  5
240
100
AcDbEntity
  8
0
  6
CONTINUOUS
 62
               4
100
AcDbLine
 10
71.268835805867155
 20
-5.8327980766819536
 30
0.0
 11
71.268835805867155
 21
-1.265121311615232
 31
0.0
  0
LINE
  5
241
100
AcDbEntity
  8
0
  6
CONTINUOUS
 62
               4
100
AcDbLine
 10
74.422371157600509
 20
14.6328584818515
 30
0.0
 11
74.521361056533777
 21
14.731848380784825
 31
0.0
  0
LINE
  5
242
100
AcDbEntity
  8
0
  6
CONTINUOUS
 62
               4
100
AcDbLine
 10
74.422371157600509
 20
13.430838280518131
 30
0.0
 11
74.521361056533777
 21
13.430838280518131
 31
0.0
  0
LINE
  5
243
100
AcDbEntity
  8
0
  6
CONTINUOUS
 62
               4
100
AcDbLine
 10
74.521361056533777
 20
14.731848380784825
 30
0.0
 11
75.221361056133759
 21
14.731848380784825
 31
0.0
  0
LINE
  5
244
100
AcDbEntity
  8
0
  6
CONTINUOUS
 62
               4
100
AcDbLine
 10
75.518330752933792
 20
5.334878689184805
 30
0.0
 11
75.518330752933792
 21
14.434878683984792
 31
0.0
  0
LINE
  5
245
100
AcDbEntity
  8
0
  6
CONTINUOUS
 62
               4
100
AcDbLine
 10
73.517320653067117
 20
5.2358887902514226
 30
0.0
 11
73.821361056933796
 21
4.9318483863847433
 31
0.0
  0
LINE
  5
246
100
AcDbEntity
  8
0
  6
CONTINUOUS
 62
               4
100
AcDbLine
 10
69.423381261467142
 20
4.7338685885180922
 30
0.0
 11
69.918330756133827
 21
4.7338685885180922
 31
0.0
  0
LINE
  5
247
100
AcDbEntity
  8
0
  6
CONTINUOUS
 62
               4
100
AcDbLine
 10
69.423381261467142
 20
-0.2651213076152743
 30
0.0
 11
69.918330756133827
 21
-0.2651213076152743
 31
0.0
  0
LINE
  5
248
100
AcDbEntity
  8
0
  6
CONTINUOUS
 62
               4
100
AcDbLine
 10
73.517320653067117
 20
-1.265121311615232
 30
0.0
 11
73.821361056933796
 21
-0.9610809077485527
 31
0.0
  0
LINE
  5
249
100
AcDbEntity
  8
0
  6
CONTINUOUS
 62
               4
100
AcDbLine
 10
73.821361056933796
 20
-0.9610809077485527
 30
0.0
 11
73.821361056933796
 21
4.9318483863847433
 31
0.0
  0
LINE
  5
24A
100
AcDbEntity
  8
0
  6
CONTINUOUS
 62
               4
100
AcDbLine
 10
73.517320653067117
 20
-1.265121311615232
 30
0.0
 11
73.517320653067117
 21
6.3318483855847063
 31
0.0
  0
LINE
  5
24B
100
AcDbEntity
  8
0
  6
CONTINUOUS
 62
               4
100
AcDbLine
 10
74.521361056533777
 20
7.731848384784783
 30
0.0
 11
74.521361056533777
 21
13.430838280518131
 31
0.0
  0
LINE
  5
24C
100
AcDbEntity
  8
0
  6
CONTINUOUS
 62
               4
100
AcDbLine
 10
74.31631055160048
 20
6.4025554562513918
 30
0.0
 11
75.419340854000524
 21
0.1404150685752512
 31
0.0
  0
LINE
  5
24D
100
AcDbEntity
  8
0
  6
CONTINUOUS
 62
               4
100
AcDbLine
 10
75.419340854000524
 20
-1.265121311615232
 30
0.0
 11
76.416310550400425
 21
-1.265121311615232
 31
0.0
  0
LINE
  5
24E
100
AcDbEntity
  8
0
  6
CONTINUOUS
 62
               4
100
AcDbLine
 10
75.419340854000524
 20
-1.265121311615232
 30
0.0
 11
75.419340854000524
 21
0.1404150685752512
 31
0.0
  0
LINE
  5
24F
100
AcDbEntity
  8
0
  6
CONTINUOUS
 62
               4
100
AcDbLine
 10
75.518330752933792
 20
5.334878689184805
 30
0.0
 11
76.416310550400425
 21
0.2298281870514103
 31
0.0
  0
LINE
  5
250
100
AcDbEntity
  8
0
  6
CONTINUOUS
 62
               4
100
AcDbLine
 10
76.416310550400425
 20
-1.265121311615232
 30
0.0
 11
76.416310550400425
 21
0.2298281870514103
 31
0.0
  0
LINE
  5
251
100
AcDbEntity
  8
0
  6
CONTINUOUS
 62
               4
100
AcDbLine
 10
72.817320653467135
 20
-1.265121311615232
 30
0.0
 11
72.817320653467135
 21
6.734878688384768
 31
0.0
  0
LINE
  5
252
100
AcDbEntity
  8
0
  6
CONTINUOUS
 62
               4
100
AcDbLine
 10
71.021361058533756
 20
-1.265121311615232
 30
0.0
 11
71.021361058533756
 21
6.734878688384768
 31
0.0
  0
LINE
  5
253
100
AcDbEntity
  8
0
  6
CONTINUOUS
 62
               4
100
AcDbLine
 10
69.423381261467142
 20
-1.265121311615232
 30
0.0
 11
73.517320653067117
 21
-1.265121311615232
 31
0.0
  0
LINE
  5
254
100
AcDbEntity
  8
0
  6
CONTINUOUS
 62
               4
100
AcDbLine
 10
74.422371157600509
 20
7.2298281830514526
 30
0.0
 11
74.422371157600509
 21
23.584373628251527
 31
0.0
  0
LINE
  5
255
100
AcDbEntity
  8
0
  6
CONTINUOUS
 62
               4
100
AcDbLine
 10
66.418330758133806
 20
6.734878688384768
 30
0.0
 11
73.920350955867178
 21
6.734878688384768
 31
0.0
  0
LINE
  5
256
100
AcDbEntity
  8
0
  6
CONTINUOUS
 62
               4
100
AcDbLine
 10
64.418330762133877
 20
5.3348786883845634
 30
0.0
 11
52.418330766133835
 21
5.3348786883845634
 31
0.0
  0
LINE
  5
257
100
AcDbEntity
  8
0
  6
CONTINUOUS
 62
               4
100
AcDbLine
 10
64.418330762133877
 20
3.7348786883846543
 30
0.0
 11
64.418330762133877
 21
5.3348786883845634
 31
0.0
  0
ARC
  5
258
100
AcDbEntity
  8
0
  6
CONTINUOUS
 62
               4
100
AcDbCircle
 10
65.918330758133806
 20
4.3348786883845634
 30
0.0
 40
0.5
100
AcDbArc
 50
269.99999999999937
 51
0.0
  0
ARC
  5
259
100
AcDbEntity
  8
0
  6
CONTINUOUS
 62
               4
100
AcDbCircle
 10
52.918330766133835
 20
4.3348786883845634
 30
0.0
 40
0.5
100
AcDbArc
 50
179.99999999999963
 51
266.08041410034838
  0
ARC
  5
25A
100
AcDbEntity
  8
0
  6
CONTINUOUS
 62
               4
100
AcDbCircle
 10
53.217242847005622
 20
4.3337906832563959
 30
0.0
 40
0.5989129231257409
100
AcDbArc
 50
179.89591452477254
 51
270.10408547522644
  0
ARC
  5
25B
100
AcDbEntity
  8
0
  6
CONTINUOUS
 62
               4
100
AcDbCircle
 10
65.61842581878247
 20
4.3347835417359448
 30
0.0
 40
0.5999048008965869
100
AcDbArc
 50
269.990912722453
 51
303.75258212960529
  0
LINE
  5
25C
100
AcDbEntity
  8
0
  6
CONTINUOUS
 62
               4
100
AcDbLine
 10
65.618330672133851
 20
3.7348786883846543
 30
0.0
 11
53.218330852133789
 21
3.7348786883846543
 31
0.0
  0
LINE
  5
25D
100
AcDbEntity
  8
0
  6
CONTINUOUS
 62
               4
100
AcDbLine
 10
65.918330758133806
 20
3.8348786883845634
 30
0.0
 11
64.418330762133877
 21
3.8348786883845634
 31
0.0
  0
LINE
  5
25E
100
AcDbEntity
  8
0
  6
CONTINUOUS
 62
               4
100
AcDbLine
 10
55.118330762133809
 20
4.3348786883845634
 30
0.0
 11
52.418330766133835
 21
4.3348786883845634
 31
0.0
  0
LINE
  5
25F
100
AcDbEntity
  8
0
  6
CONTINUOUS
 62
               4
100
AcDbLine
 10
55.118330762133809
 20
3.7348786883846543
 30
0.0
 11
55.118330762133809
 21
4.3348786883845634
 31
0.0
  0
LINE
  5
260
100
AcDbEntity
  8
0
  6
CONTINUOUS
 62
               4
100
AcDbLine
 10
71.671866108667103
 20
-12.260070800281923
 30
0.0
 11
72.166815603333788
 21
-12.260070800281923
 31
0.0
  0
LINE
  5
261
100
AcDbEntity
  8
0
  6
CONTINUOUS
 62
               4
100
AcDbLine
 10
69.423381261467142
 20
26.234878688384768
 30
0.0
 11
69.423381261467142
 21
6.734878688384768
 31
0.0
  0
LINE
  5
262
100
AcDbEntity
  8
0
  6
CONTINUOUS
 62
               4
100
AcDbLine
 10
52.418330762133877
 20
4.334878688384677
 30
0.0
 11
52.418330762133877
 21
26.234878688384654
 31
0.0
  0
LINE
  5
263
100
AcDbEntity
  8
0
  6
CONTINUOUS
 62
               4
100
AcDbLine
 10
66.418330762133877
 20
26.234878688384654
 30
0.0
 11
66.418330762133877
 21
4.3348786934523815
 31
0.0
  0
LINE
  5
264
100
AcDbEntity
  8
0
  6
CONTINUOUS
 62
               4
100
AcDbLine
 10
74.134196389013852
 20
24.042141166694265
 30
0.0
 11
69.638617037889418
 21
26.186180760779635
 31
0.0
  0
LINE
  5
265
100
AcDbEntity
  8
0
  6
CONTINUOUS
 62
               4
100
AcDbLine
 10
52.418330762133877
 20
86.834878688384634
 30
0.0
 11
69.423381261467142
 21
86.834878688384634
 31
0.0
  0
LINE
  5
266
100
AcDbEntity
  8
0
  6
CONTINUOUS
 62
             200
100
AcDbLine
 10
73.418330754133848
 20
117.65811100971794
 30
0.0
 11
70.420350957867157
 21
119.39043424105128
 31
0.0
  0
LINE
  5
267
100
AcDbEntity
  8
0
  6
CONTINUOUS
 62
             200
100
AcDbLine
 10
73.418330754133848
 20
118.00457565598461
 30
0.0
 11
70.420350957867157
 21
119.73689888731784
 31
0.0
  0
LINE
  5
268
100
AcDbEntity
  8
0
  6
CONTINUOUS
 62
               4
100
AcDbLine
 10
72.166815603333788
 20
125.32982817705116
 30
0.0
 11
72.166815603333788
 21
121.82982817905119
 31
0.0
  0
LINE
  5
269
100
AcDbEntity
  8
0
  6
CONTINUOUS
 62
               4
100
AcDbLine
 10
71.671866108667103
 20
125.32982817705116
 30
0.0
 11
71.671866108667103
 21
121.82982817905119
 31
0.0
  0
LINE
  5
26A
100
AcDbEntity
  8
0
  6
CONTINUOUS
 62
               4
100
AcDbLine
 10
71.268835805867155
 20
121.82982817905119
 30
0.0
 11
72.56984590613385
 21
121.82982817905119
 31
0.0
  0
LINE
  5
26B
100
AcDbEntity
  8
0
  6
CONTINUOUS
 62
               4
100
AcDbLine
 10
71.268835805867155
 20
121.82982817905119
 30
0.0
 11
71.268835805867155
 21
119.24902009971791
 31
0.0
  0
LINE
  5
26C
100
AcDbEntity
  8
0
  6
CONTINUOUS
 62
               4
100
AcDbLine
 10
72.56984590613385
 20
121.82982817905119
 30
0.0
 11
72.56984590613385
 21
118.49952515065118
 31
0.0
  0
LINE
  5
26D
100
AcDbEntity
  8
0
  6
CONTINUOUS
 62
               4
100
AcDbLine
 10
71.671866108667103
 20
125.32982817705116
 30
0.0
 11
72.166815603333788
 21
125.32982817705116
 31
0.0
  0
ARC
  5
26E
100
AcDbEntity
  8
0
  6
CONTINUOUS
 62
               4
100
AcDbCircle
 10
73.920251884831799
 20
106.7413854480782
 30
0.0
 40
0.4029462287748787
100
AcDbArc
 50
180.49433091715488
 51
349.39117201772478
  0
ARC
  5
26F
100
AcDbEntity
  8
0
  6
CONTINUOUS
 62
               4
100
AcDbCircle
 10
74.018317703000633
 20
105.33521103902902
 30
0.0
 40
0.5030505883944908
100
AcDbArc
 50
0.3072892911898554
 51
36.562608354652731
  0
ARC
  5
270
100
AcDbEntity
  8
0
  6
CONTINUOUS
 62
               4
100
AcDbCircle
 10
75.216226880225662
 20
98.640012868692708
 30
0.0
 40
0.3021474965435785
100
AcDbArc
 50
270.97363298451126
 51
359.02636701548732
  0
ARC
  5
271
100
AcDbEntity
  8
0
  6
CONTINUOUS
 62
               4
100
AcDbCircle
 10
73.922164881412499
 20
105.83464782036813
 30
0.0
 40
0.5002341568128574
100
AcDbArc
 50
0.6049287534634878
 51
90.207763713153867
  0
ARC
  5
272
100
AcDbEntity
  8
0
  6
CONTINUOUS
 62
               4
100
AcDbCircle
 10
73.916363819702923
 20
89.484363185876276
 30
0.0
 40
0.5060324378497572
100
AcDbArc
 50
295.49748979005915
 51
359.429327830114
  0
LINE
  5
273
100
AcDbEntity
  8
0
  6
CONTINUOUS
 62
               4
100
AcDbLine
 10
69.918330756133827
 20
113.33487868438456
 30
0.0
 11
69.918330756133827
 21
108.3358887882512
 31
0.0
  0
LINE
  5
274
100
AcDbEntity
  8
0
  6
CONTINUOUS
 62
               4
100
AcDbLine
 10
69.423381261467142
 20
108.3358887882512
 30
0.0
 11
69.423381261467142
 21
106.33487868838452
 31
0.0
  0
LINE
  5
275
100
AcDbEntity
  8
0
  6
CONTINUOUS
 62
               4
100
AcDbLine
 10
69.423381261467142
 20
114.33487868838452
 30
0.0
 11
69.423381261467142
 21
113.33487868438456
 31
0.0
  0
LINE
  5
276
100
AcDbEntity
  8
0
  6
CONTINUOUS
 62
               4
100
AcDbLine
 10
74.422371157600509
 20
98.436898894917789
 30
0.0
 11
74.521361056533777
 21
98.337908995984463
 31
0.0
  0
LINE
  5
277
100
AcDbEntity
  8
0
  6
CONTINUOUS
 62
               4
100
AcDbLine
 10
74.422371157600509
 20
99.638919096251158
 30
0.0
 11
74.521361056533777
 21
99.638919096251158
 31
0.0
  0
LINE
  5
278
100
AcDbEntity
  8
0
  6
CONTINUOUS
 62
               4
100
AcDbLine
 10
74.521361056533777
 20
98.337908995984463
 30
0.0
 11
75.221361056133759
 21
98.337908995984463
 31
0.0
  0
LINE
  5
279
100
AcDbEntity
  8
0
  6
CONTINUOUS
 62
               4
100
AcDbLine
 10
75.518330752933792
 20
107.73487868758448
 30
0.0
 11
75.518330752933792
 21
98.634878692784497
 31
0.0
  0
LINE
  5
27A
100
AcDbEntity
  8
0
  6
CONTINUOUS
 62
               4
100
AcDbLine
 10
73.517320653067117
 20
107.83386858651787
 30
0.0
 11
73.821361056933796
 21
108.13790899038455
 31
0.0
  0
LINE
  5
27B
100
AcDbEntity
  8
0
  6
CONTINUOUS
 62
               4
100
AcDbLine
 10
69.423381261467142
 20
108.3358887882512
 30
0.0
 11
69.918330756133827
 21
108.3358887882512
 31
0.0
  0
LINE
  5
27C
100
AcDbEntity
  8
0
  6
CONTINUOUS
 62
               4
100
AcDbLine
 10
69.423381261467142
 20
113.33487868438456
 30
0.0
 11
69.918330756133827
 21
113.33487868438456
 31
0.0
  0
LINE
  5
27D
100
AcDbEntity
  8
0
  6
CONTINUOUS
 62
               4
100
AcDbLine
 10
73.517320653067117
 20
114.33487868838452
 30
0.0
 11
73.821361056933796
 21
114.03083828451784
 31
0.0
  0
LINE
  5
27E
100
AcDbEntity
  8
0
  6
CONTINUOUS
 62
               4
100
AcDbLine
 10
73.821361056933796
 20
114.03083828451784
 30
0.0
 11
73.821361056933796
 21
108.13790899038455
 31
0.0
  0
LINE
  5
27F
100
AcDbEntity
  8
0
  6
CONTINUOUS
 62
               4
100
AcDbLine
 10
73.517320653067117
 20
114.33487868838452
 30
0.0
 11
73.517320653067117
 21
106.73790899118458
 31
0.0
  0
LINE
  5
280
100
AcDbEntity
  8
0
  6
CONTINUOUS
 62
               4
100
AcDbLine
 10
74.521361056533777
 20
105.33790899198451
 30
0.0
 11
74.521361056533777
 21
99.638919096251158
 31
0.0
  0
LINE
  5
281
100
AcDbEntity
  8
0
  6
CONTINUOUS
 62
               4
100
AcDbLine
 10
74.31631055160048
 20
106.6672019205179
 30
0.0
 11
75.419340854000524
 21
112.92934230819404
 31
0.0
  0
LINE
  5
282
100
AcDbEntity
  8
0
  6
CONTINUOUS
 62
               4
100
AcDbLine
 10
75.419340854000524
 20
114.33487868838452
 30
0.0
 11
76.416310550400425
 21
114.33487868838452
 31
0.0
  0
LINE
  5
283
100
AcDbEntity
  8
0
  6
CONTINUOUS
 62
               4
100
AcDbLine
 10
75.419340854000524
 20
114.33487868838452
 30
0.0
 11
75.419340854000524
 21
112.92934230819404
 31
0.0
  0
LINE
  5
284
100
AcDbEntity
  8
0
  6
CONTINUOUS
 62
               4
100
AcDbLine
 10
75.518330752933792
 20
107.73487868758448
 30
0.0
 11
76.416310550400425
 21
112.83992918971788
 31
0.0
  0
LINE
  5
285
100
AcDbEntity
  8
0
  6
CONTINUOUS
 62
               4
100
AcDbLine
 10
76.416310550400425
 20
114.33487868838452
 30
0.0
 11
76.416310550400425
 21
112.83992918971788
 31
0.0
  0
LINE
  5
286
100
AcDbEntity
  8
0
  6
CONTINUOUS
 62
               4
100
AcDbLine
 10
72.817320653467135
 20
114.33487868838452
 30
0.0
 11
72.817320653467135
 21
106.33487868838452
 31
0.0
  0
LINE
  5
287
100
AcDbEntity
  8
0
  6
CONTINUOUS
 62
               4
100
AcDbLine
 10
71.021361058533756
 20
114.33487868838452
 30
0.0
 11
71.021361058533756
 21
106.33487868838452
 31
0.0
  0
LINE
  5
288
100
AcDbEntity
  8
0
  6
CONTINUOUS
 62
               4
100
AcDbLine
 10
69.423381261467142
 20
114.33487868838452
 30
0.0
 11
73.517320653067117
 21
114.33487868838452
 31
0.0
  0
LINE
  5
289
100
AcDbEntity
  8
0
  6
CONTINUOUS
 62
               4
100
AcDbLine
 10
74.422371157600509
 20
105.83992919371784
 30
0.0
 11
74.422371157600509
 21
89.485383748517762
 31
0.0
  0
LINE
  5
28A
100
AcDbEntity
  8
0
  6
CONTINUOUS
 62
               4
100
AcDbLine
 10
66.418330758133806
 20
106.33487868838452
 30
0.0
 11
73.920350955867178
 21
106.33487868838452
 31
0.0
  0
LINE
  5
28B
100
AcDbEntity
  8
0
  6
CONTINUOUS
 62
               4
100
AcDbLine
 10
64.418330762133877
 20
107.73487868838473
 30
0.0
 11
52.418330766133835
 21
107.73487868838473
 31
0.0
  0
LINE
  5
28C
100
AcDbEntity
  8
0
  6
CONTINUOUS
 62
               4
100
AcDbLine
 10
64.418330762133877
 20
109.33487868838463
 30
0.0
 11
64.418330762133877
 21
107.73487868838473
 31
0.0
  0
ARC
  5
28D
100
AcDbEntity
  8
0
  6
CONTINUOUS
 62
               4
100
AcDbCircle
 10
65.918330758133806
 20
108.73487868838473
 30
0.0
 40
0.5
100
AcDbArc
 50
0.0
 51
89.999999999999815
  0
ARC
  5
28E
100
AcDbEntity
  8
0
  6
CONTINUOUS
 62
               4
100
AcDbCircle
 10
52.918330766133835
 20
108.73487868838473
 30
0.0
 40
0.5
100
AcDbArc
 50
93.919585899650798
 51
179.99999999999963
  0
ARC
  5
28F
100
AcDbEntity
  8
0
  6
CONTINUOUS
 62
               4
100
AcDbCircle
 10
53.217242847005622
 20
108.73596669351289
 30
0.0
 40
0.5989129231257409
100
AcDbArc
 50
89.895914524772735
 51
180.10408547522667
  0
ARC
  5
290
100
AcDbEntity
  8
0
  6
CONTINUOUS
 62
               4
100
AcDbCircle
 10
65.61842581878247
 20
108.73497383503334
 30
0.0
 40
0.5999048008965869
100
AcDbArc
 50
56.247417870393882
 51
90.009087277546172
  0
LINE
  5
291
100
AcDbEntity
  8
0
  6
CONTINUOUS
 62
               4
100
AcDbLine
 10
65.618330672133851
 20
109.33487868838463
 30
0.0
 11
53.218330852133789
 21
109.33487868838463
 31
0.0
  0
LINE
  5
292
100
AcDbEntity
  8
0
  6
CONTINUOUS
 62
               4
100
AcDbLine
 10
65.918330758133806
 20
109.23487868838473
 30
0.0
 11
64.418330762133877
 21
109.23487868838473
 31
0.0
  0
LINE
  5
293
100
AcDbEntity
  8
0
  6
CONTINUOUS
 62
               4
100
AcDbLine
 10
55.118330762133809
 20
108.73487868838473
 30
0.0
 11
52.418330766133835
 21
108.73487868838473
 31
0.0
  0
LINE
  5
294
100
AcDbEntity
  8
0
  6
CONTINUOUS
 62
               4
100
AcDbLine
 10
55.118330762133809
 20
109.33487868838463
 30
0.0
 11
55.118330762133809
 21
108.73487868838473
 31
0.0
  0
LINE
  5
295
100
AcDbEntity
  8
0
  6
CONTINUOUS
 62
               4
100
AcDbLine
 10
71.268835805867155
 20
118.90255545345124
 30
0.0
 11
71.268835805867155
 21
114.33487868838452
 31
0.0
  0
LINE
  5
296
100
AcDbEntity
  8
0
  6
CONTINUOUS
 62
               4
100
AcDbLine
 10
72.56984590613385
 20
118.15306050438451
 30
0.0
 11
72.56984590613385
 21
114.33487868838452
 31
0.0
  0
LINE
  5
297
100
AcDbEntity
  8
0
  6
CONTINUOUS
 62
               4
100
AcDbLine
 10
69.423381261467142
 20
86.834878688384634
 30
0.0
 11
69.423381261467142
 21
106.33487868838452
 31
0.0
  0
LINE
  5
298
100
AcDbEntity
  8
0
  6
CONTINUOUS
 62
               4
100
AcDbLine
 10
52.418330762133877
 20
108.73487868838461
 30
0.0
 11
52.418330762133877
 21
86.834878688384634
 31
0.0
  0
LINE
  5
299
100
AcDbEntity
  8
0
  6
CONTINUOUS
 62
               4
100
AcDbLine
 10
66.418330762133877
 20
86.834878688384634
 30
0.0
 11
66.418330762133877
 21
108.73487868331691
 31
0.0
  0
LINE
  5
29A
100
AcDbEntity
  8
0
  6
CONTINUOUS
 62
               4
100
AcDbLine
 10
74.134196389013852
 20
89.027616210075024
 30
0.0
 11
69.638617037889418
 21
86.883576615989767
 31
0.0
  0
LINE
  5
29B
100
AcDbEntity
  8
0
  6
CONTINUOUS
 62
               7
100
AcDbLine
 10
35.718330748324462
 20
44.034878688384637
 30
0.0
 11
51.718330762133888
 21
44.034878688384637
 31
0.0
  0
LINE
  5
29C
100
AcDbEntity
  8
0
  6
CONTINUOUS
 62
               7
100
AcDbLine
 10
35.718330748324462
 20
77.034878688384637
 30
0.0
 11
51.718330748324462
 21
77.034878688384637
 31
0.0
  0
LINE
  5
29D
100
AcDbEntity
  8
0
  6
CENTER
 62
               2
100
AcDbLine
 10
46.718330762133888
 20
52.334878688384649
 30
0.0
 11
46.718330762133888
 21
60.334878688384649
 31
0.0
  0
CIRCLE
  5
29E
100
AcDbEntity
  8
0
  6
CONTINUOUS
 62
               7
100
AcDbCircle
 10
46.718330762133888
 20
56.334878688384649
 30
0.0
 40
2.1000000000000001
  0
CIRCLE
  5
29F
100
AcDbEntity
  8
0
  6
CONTINUOUS
 62
               7
100
AcDbCircle
 10
40.718330762133888
 20
64.734878688384626
 30
0.0
 40
2.1000000000000001
  0
CIRCLE
  5
2A0
100
AcDbEntity
  8
0
  6
CONTINUOUS
 62
               2
100
AcDbCircle
 10
40.718330762133888
 20
64.734878688384626
 30
0.0
 40
2.5
  0
CIRCLE
  5
2A1
100
AcDbEntity
  8
0
  6
CONTINUOUS
 62
               2
100
AcDbCircle
 10
46.718330762133888
 20
56.334878688384649
 30
0.0
 40
2.5
  0
LINE
  5
2A2
100
AcDbEntity
  8
0
  6
CENTER
 62
               2
100
AcDbLine
 10
42.718330762133888
 20
56.334878688384649
 30
0.0
 11
50.718330762133888
 21
56.334878688384649
 31
0.0
  0
LINE
  5
2A3
100
AcDbEntity
  8
0
  6
CENTER
 62
               2
100
AcDbLine
 10
36.718330762133888
 20
64.734878688384626
 30
0.0
 11
44.718330762133888
 21
64.734878688384626
 31
0.0
  0
LINE
  5
2A4
100
AcDbEntity
  8
0
  6
CONTINUOUS
 62
               7
100
AcDbLine
 10
35.718330762133888
 20
44.034878688384637
 30
0.0
 11
35.718330762133888
 21
77.034878688384637
 31
0.0
  0
LINE
  5
2A5
100
AcDbEntity
  8
0
  6
CONTINUOUS
 62
               7
100
AcDbLine
 10
51.718330762133888
 20
44.034878688384637
 30
0.0
 11
51.718330762133888
 21
77.034878688384637
 31
0.0
  0
LINE
  5
2A6
100
AcDbEntity
  8
0
  6
CENTER
 62
               2
100
AcDbLine
 10
40.718330762133888
 20
60.734878688384626
 30
0.0
 11
40.718330762133888
 21
68.734878688384626
 31
0.0
  0
LINE
  5
2A7
100
AcDbEntity
  8
0
  6
CONTINUOUS
 62
               7
100
AcDbLine
 10
52.418333578660651
 20
48.533905421783075
 30
0.0
 11
51.718330762133888
 21
48.533905421783075
 31
0.0
  0
LINE
  5
2A8
100
AcDbEntity
  8
0
  6
CONTINUOUS
 62
               7
100
AcDbLine
 10
52.418333578660651
 20
72.533905421783047
 30
0.0
 11
51.718330762133888
 21
72.533905421783047
 31
0.0
  0
ARC
  5
2A9
100
AcDbEntity
  8
0
  6
CONTINUOUS
 62
               7
100
AcDbCircle
 10
65.61832794560712
 20
66.734878687430978
 30
0.0
 40
0.4
100
AcDbArc
 50
270.00000000000023
 51
0.0
  0
ARC
  5
2AA
100
AcDbEntity
  8
0
  6
CONTINUOUS
 62
               7
100
AcDbCircle
 10
65.61832794560712
 20
68.934878687430967
 30
0.0
 40
0.4
100
AcDbArc
 50
0.0
 51
89.999999999999815
  0
LINE
  5
2AB
100
AcDbEntity
  8
0
  6
CONTINUOUS
 62
               7
100
AcDbLine
 10
66.018327945607126
 20
68.934878687430967
 30
0.0
 11
66.018327945607126
 21
66.734878687430978
 31
0.0
  0
LINE
  5
2AC
100
AcDbEntity
  8
0
  6
CONTINUOUS
 62
               7
100
AcDbLine
 10
65.418327945607103
 20
66.334878687430972
 30
0.0
 11
65.61832794560712
 21
66.334878687430972
 31
0.0
  0
LINE
  5
2AD
100
AcDbEntity
  8
0
  6
CONTINUOUS
 62
               7
100
AcDbLine
 10
65.418327945607103
 20
69.334878687430972
 30
0.0
 11
65.61832794560712
 21
69.334878687430972
 31
0.0
  0
LINE
  5
2AE
100
AcDbEntity
  8
0
  6
CONTINUOUS
 62
               7
100
AcDbLine
 10
68.018327945607126
 20
32.234878688384654
 30
0.0
 11
66.418327945607103
 21
33.834878688384663
 31
0.0
  0
LINE
  5
2AF
100
AcDbEntity
  8
0
  6
CONTINUOUS
 62
               7
100
AcDbLine
 10
68.018327945607126
 20
32.234878688384654
 30
0.0
 11
68.018327945607126
 21
26.234878688384654
 31
0.0
  0
LINE
  5
2B0
100
AcDbEntity
  8
0
  6
CONTINUOUS
 62
               7
100
AcDbLine
 10
52.418330762133877
 20
26.234878688384654
 30
0.0
 11
52.418330762133877
 21
86.834878688384634
 31
0.0
  0
LINE
  5
2B1
100
AcDbEntity
  8
0
  6
CONTINUOUS
 62
               7
100
AcDbLine
 10
65.418327945607103
 20
69.434878688384657
 30
0.0
 11
65.418327945607103
 21
66.234878688384669
 31
0.0
  0
LINE
  5
2B2
100
AcDbEntity
  8
0
  6
CONTINUOUS
 62
               7
100
AcDbLine
 10
65.41832794465347
 20
66.234878688384669
 30
0.0
 11
66.418327945607103
 21
66.234878688384669
 31
0.0
  0
LINE
  5
2B3
100
AcDbEntity
  8
0
  6
CONTINUOUS
 62
               7
100
AcDbLine
 10
65.41832794465347
 20
69.434878688384657
 30
0.0
 11
66.418327945607103
 21
69.434878688384657
 31
0.0
  0
LINE
  5
2B4
100
AcDbEntity
  8
0
  6
CONTINUOUS
 62
               7
100
AcDbLine
 10
68.018327945607126
 20
80.834878688384649
 30
0.0
 11
68.018327945607126
 21
86.834878688384649
 31
0.0
  0
LINE
  5
2B5
100
AcDbEntity
  8
0
  6
CONTINUOUS
 62
               7
100
AcDbLine
 10
66.418330762133877
 20
26.234878688384683
 30
0.0
 11
66.418330762133877
 21
86.83487868838462
 31
0.0
  0
LINE
  5
2B6
100
AcDbEntity
  8
0
  6
CONTINUOUS
 62
               7
100
AcDbLine
 10
52.418327945607103
 20
73.634878688384646
 30
0.0
 11
66.418327945607103
 21
73.634878688384646
 31
0.0
  0
LINE
  5
2B7
100
AcDbEntity
  8
0
  6
CONTINUOUS
 62
               7
100
AcDbLine
 10
52.418327945607103
 20
39.434878688384671
 30
0.0
 11
66.418327945607103
 21
39.434878688384671
 31
0.0
  0
LINE
  5
2B8
100
AcDbEntity
  8
0
  6
CONTINUOUS
 62
               7
100
AcDbLine
 10
66.418327945607103
 20
47.434878688384671
 30
0.0
 11
52.418330762133877
 21
47.434878688384671
 31
0.0
  0
LINE
  5
2B9
100
AcDbEntity
  8
0
  6
CENTER
 62
               2
100
AcDbLine
 10
59.418330762133877
 20
110.01781066727486
 30
0.0
 11
59.418330762133877
 21
3.0519467094943309
 31
0.0
  0
LINE
  5
2BA
100
AcDbEntity
  8
0
  6
CONTINUOUS
 62
               7
100
AcDbLine
 10
68.018327945607126
 20
80.834878688384649
 30
0.0
 11
66.418330762133877
 21
79.234878688384654
 31
0.0
  0
LINE
  5
2BB
100
AcDbEntity
  8
0
  6
CENTER
 62
               2
100
AcDbLine
 10
33.218330762133888
 20
74.034878688384637
 30
0.0
 11
38.218330762133888
 21
74.034878688384637
 31
0.0
  0
LINE
  5
2BC
100
AcDbEntity
  8
0
  6
CENTER
 62
               2
100
AcDbLine
 10
33.218330762133888
 20
47.034878688384637
 30
0.0
 11
38.218330762133888
 21
47.034878688384637
 31
0.0
  0
LINE
  5
2BD
100
AcDbEntity
  8
0
  6
CENTER
 62
               2
100
AcDbLine
 10
49.918330756605997
 20
67.834878688384663
 30
0.0
 11
54.918330756605997
 21
67.834878688384663
 31
0.0
  0
LINE
  5
2BE
100
AcDbEntity
  8
0
  6
CENTER
 62
               2
100
AcDbLine
 10
49.918330756605997
 20
53.234878688384661
 30
0.0
 11
54.918330756605997
 21
53.234878688384661
 31
0.0
  0
LINE
  5
2BF
100
AcDbEntity
  8
0
  6
PHANTOM
 62
             200
100
AcDbLine
 10
136.81152867828811
 20
18.734878688384782
 30
0.0
 11
133.81152867828811
 21
18.734878688384782
 31
0.0
  0
LINE
  5
2C0
100
AcDbEntity
  8
0
  6
PHANTOM
 62
             200
100
AcDbLine
 10
136.81152867828811
 20
20.734878688384782
 30
0.0
 11
133.81152867828811
 21
20.734878688384782
 31
0.0
  0
LINE
  5
2C1
100
AcDbEntity
  8
0
  6
PHANTOM
 62
             200
100
AcDbLine
 10
136.81152867828811
 20
18.734878688384782
 30
0.0
 11
136.81152867828811
 21
20.734878688384782
 31
0.0
  0
LINE
  5
2C2
100
AcDbEntity
  8
0
  6
PHANTOM
 62
             200
100
AcDbLine
 10
133.81152867828811
 20
18.734878688384782
 30
0.0
 11
133.81152867828811
 21
20.734878688384782
 31
0.0
  0
LINE
  5
2C3
100
AcDbEntity
  8
0
  6
CONTINUOUS
 62
               4
100
AcDbLine
 10
134.71151036774128
 20
-8.7580505845486698
 30
0.0
 11
133.41151036774122
 21
-8.7580505845486698
 31
0.0
  0
LINE
  5
2C4
100
AcDbEntity
  8
0
  6
CONTINUOUS
 62
             200
100
AcDbLine
 10
139.06151036774119
 20
-6.7851213116151996
 30
0.0
 11
131.56151036774119
 21
-4.7751213116152087
 31
0.0
  0
LINE
  5
2C5
100
AcDbEntity
  8
0
  6
CONTINUOUS
 62
             200
100
AcDbLine
 10
139.06151036774119
 20
-5.745121311615236
 30
0.0
 11
131.56151036774119
 21
-3.7351213116151882
 31
0.0
  0
LINE
  5
2C6
100
AcDbEntity
  8
0
  6
CONTINUOUS
 62
               4
100
AcDbLine
 10
137.21151036774128
 20
-8.7580505845486698
 30
0.0
 11
135.91151036774122
 21
-8.7580505845486698
 31
0.0
  0
LINE
  5
2C7
100
AcDbEntity
  8
0
  6
CONTINUOUS
 62
               4
100
AcDbLine
 10
135.91151036774122
 20
-4.9051213116152041
 30
0.0
 11
135.91151036774122
 21
-1.2651213116152178
 31
0.0
  0
LINE
  5
2C8
100
AcDbEntity
  8
0
  6
CONTINUOUS
 62
               4
100
AcDbLine
 10
134.31151036774119
 20
-12.258050582548691
 30
0.0
 11
134.31151036774119
 21
-8.7580505845486698
 31
0.0
  0
LINE
  5
2C9
100
AcDbEntity
  8
0
  6
CONTINUOUS
 62
               4
100
AcDbLine
 10
133.81151036774119
 20
-12.258050582548691
 30
0.0
 11
133.81151036774119
 21
-8.7580505845486698
 31
0.0
  0
LINE
  5
2CA
100
AcDbEntity
  8
0
  6
CONTINUOUS
 62
               4
100
AcDbLine
 10
137.21151036774128
 20
-8.7580505845486698
 30
0.0
 11
137.21151036774128
 21
-6.2851213116151996
 31
0.0
  0
LINE
  5
2CB
100
AcDbEntity
  8
0
  6
CONTINUOUS
 62
               4
100
AcDbLine
 10
135.91151036774122
 20
-8.7580505845486698
 30
0.0
 11
135.91151036774122
 21
-5.9351213116151769
 31
0.0
  0
LINE
  5
2CC
100
AcDbEntity
  8
0
  6
CONTINUOUS
 62
               4
100
AcDbLine
 10
137.21151036774128
 20
-5.2551213116152269
 30
0.0
 11
137.21151036774128
 21
-1.2651213116152178
 31
0.0
  0
LINE
  5
2CD
100
AcDbEntity
  8
0
  6
CONTINUOUS
 62
               4
100
AcDbLine
 10
134.71151036774128
 20
-4.585121311615211
 30
0.0
 11
134.71151036774128
 21
-1.2651213116152178
 31
0.0
  0
LINE
  5
2CE
100
AcDbEntity
  8
0
  6
CONTINUOUS
 62
               4
100
AcDbLine
 10
133.41151036774122
 20
-4.2351213116151882
 30
0.0
 11
133.41151036774122
 21
-1.2651213116152178
 31
0.0
  0
LINE
  5
2CF
100
AcDbEntity
  8
0
  6
CONTINUOUS
 62
               4
100
AcDbLine
 10
136.81151036774119
 20
-12.258050582548691
 30
0.0
 11
136.81151036774119
 21
-8.7580505845486698
 31
0.0
  0
LINE
  5
2D0
100
AcDbEntity
  8
0
  6
CONTINUOUS
 62
               4
100
AcDbLine
 10
136.31151036774119
 20
-12.258050582548691
 30
0.0
 11
136.31151036774119
 21
-8.7580505845486698
 31
0.0
  0
LINE
  5
2D1
100
AcDbEntity
  8
0
  6
CONTINUOUS
 62
               4
100
AcDbLine
 10
134.71151036774128
 20
-8.7580505845486698
 30
0.0
 11
134.71151036774128
 21
-5.6151213116152405
 31
0.0
  0
LINE
  5
2D2
100
AcDbEntity
  8
0
  6
CONTINUOUS
 62
               4
100
AcDbLine
 10
133.41151036774122
 20
-8.7580505845486698
 30
0.0
 11
133.41151036774122
 21
-5.2651213116152178
 31
0.0
  0
ARC
  5
2D3
100
AcDbEntity
  8
0
  6
CONTINUOUS
 62
               4
100
AcDbCircle
 10
130.81153325603893
 20
7.2348832661355971
 30
0.0
 40
0.5000045777717621
100
AcDbArc
 50
180.00052456679882
 51
269.99947543320042
  0
ARC
  5
2D4
100
AcDbEntity
  8
0
  6
CONTINUOUS
 62
               4
100
AcDbCircle
 10
139.81153935941947
 20
7.234868007253425
 30
0.0
 40
0.4999893189827007
100
AcDbArc
 50
269.99877600635432
 51
0.0012239936446972
  0
ARC
  5
2D5
100
AcDbEntity
  8
0
  6
CONTINUOUS
 62
               4
100
AcDbCircle
 10
139.58154149562583
 20
7.2348658710470488
 30
0.0
 40
0.4999871828265524
100
AcDbArc
 50
269.99853120363389
 51
0.0014687963652481
  0
ARC
  5
2D6
100
AcDbEntity
  8
0
  6
CONTINUOUS
 62
               4
100
AcDbCircle
 10
131.04153111976731
 20
7.2348811298640783
 30
0.0
 40
0.500002441485227
100
AcDbArc
 50
180.00027977154909
 51
269.99972022845009
  0
ARC
  5
2D7
100
AcDbEntity
  8
0
  6
CONTINUOUS
 62
               4
100
AcDbCircle
 10
131.0427321843998
 20
23.541755991606323
 30
0.0
 40
0.5012049510586274
100
AcDbArc
 50
90.137580219312724
 51
179.86241978068688
  0
ARC
  5
2D8
100
AcDbEntity
  8
0
  6
CONTINUOUS
 62
               4
100
AcDbCircle
 10
139.58034039438277
 20
23.54177121381278
 30
0.0
 40
0.5011896925741138
100
AcDbArc
 50
0.1358442071527786
 51
89.864155792846745
  0
LINE
  5
2D9
100
AcDbEntity
  8
0
  6
CONTINUOUS
 62
               4
100
AcDbLine
 10
139.06151036774119
 20
-1.2651213116152178
 30
0.0
 11
131.56151036774119
 21
-1.2651213116152178
 31
0.0
  0
LINE
  5
2DA
100
AcDbEntity
  8
0
  6
CONTINUOUS
 62
               4
100
AcDbLine
 10
131.56151036774119
 20
-1.2651213116152178
 30
0.0
 11
131.56151036774119
 21
6.7348786883847822
 31
0.0
  0
LINE
  5
2DB
100
AcDbEntity
  8
0
  6
CONTINUOUS
 62
               4
100
AcDbLine
 10
132.56151036774119
 20
-1.2651213116152178
 30
0.0
 11
132.56151036774119
 21
14.734878688384782
 31
0.0
  0
LINE
  5
2DC
100
AcDbEntity
  8
0
  6
CONTINUOUS
 62
               4
100
AcDbLine
 10
138.06151036774119
 20
0.2348786883847822
 30
0.0
 11
132.56151036774119
 21
0.2348786883847822
 31
0.0
  0
LINE
  5
2DD
100
AcDbEntity
  8
0
  6
CONTINUOUS
 62
               4
100
AcDbLine
 10
139.06151036774119
 20
-1.2651213116152178
 30
0.0
 11
139.06151036774119
 21
6.7348786883847822
 31
0.0
  0
LINE
  5
2DE
100
AcDbEntity
  8
0
  6
CONTINUOUS
 62
               4
100
AcDbLine
 10
138.06151036774119
 20
-1.2651213116152178
 30
0.0
 11
138.06151036774119
 21
14.734878688384782
 31
0.0
  0
LINE
  5
2DF
100
AcDbEntity
  8
0
  6
CONTINUOUS
 62
               4
100
AcDbLine
 10
132.56151036774119
 20
6.7348786883847822
 30
0.0
 11
130.81152867828811
 21
6.7348786883847822
 31
0.0
  0
LINE
  5
2E0
100
AcDbEntity
  8
0
  6
CONTINUOUS
 62
               4
100
AcDbLine
 10
138.06151036774119
 20
14.734878688384782
 30
0.0
 11
132.56151036774119
 21
14.734878688384782
 31
0.0
  0
LINE
  5
2E1
100
AcDbEntity
  8
0
  6
CONTINUOUS
 62
               4
100
AcDbLine
 10
130.81152867828811
 20
6.7348786883847822
 30
0.0
 11
130.31152867828811
 21
6.7348786883847822
 31
0.0
  0
LINE
  5
2E2
100
AcDbEntity
  8
0
  6
CONTINUOUS
 62
               4
100
AcDbLine
 10
139.58152867828809
 20
24.042959497718101
 30
0.0
 11
131.04152867828813
 21
24.042959497718101
 31
0.0
  0
LINE
  5
2E3
100
AcDbEntity
  8
0
  6
CONTINUOUS
 62
               4
100
AcDbLine
 10
140.08152867828809
 20
7.2348786883847822
 30
0.0
 11
140.08152867828809
 21
23.542959497718044
 31
0.0
  0
LINE
  5
2E4
100
AcDbEntity
  8
0
  6
CONTINUOUS
 62
               4
100
AcDbLine
 10
130.54152867828813
 20
7.2348786883847822
 30
0.0
 11
130.54152867828813
 21
23.542959497733619
 31
0.0
  0
LINE
  5
2E5
100
AcDbEntity
  8
0
  6
CONTINUOUS
 62
               4
100
AcDbLine
 10
139.81152867828811
 20
6.7348786883847822
 30
0.0
 11
138.06151036774119
 21
6.7348786883847822
 31
0.0
  0
LINE
  5
2E6
100
AcDbEntity
  8
0
  6
CONTINUOUS
 62
               4
100
AcDbLine
 10
140.31152867828811
 20
6.7348786883847822
 30
0.0
 11
139.81152867828811
 21
6.7348786883847822
 31
0.0
  0
LINE
  5
2E7
100
AcDbEntity
  8
0
  6
CONTINUOUS
 62
               4
100
AcDbLine
 10
130.31151036774119
 20
4.3348786841152958
 30
0.0
 11
131.56152867828811
 21
4.3348786841152958
 31
0.0
  0
LINE
  5
2E8
100
AcDbEntity
  8
0
  6
CONTINUOUS
 62
               4
100
AcDbLine
 10
130.31151036774119
 20
3.734878684115273
 30
0.0
 11
131.56151036774119
 21
3.734878684115273
 31
0.0
  0
LINE
  5
2E9
100
AcDbEntity
  8
0
  6
CONTINUOUS
 62
               4
100
AcDbLine
 10
130.31151036774119
 20
5.3348786841152958
 30
0.0
 11
131.56152867828811
 21
5.3348786841152958
 31
0.0
  0
LINE
  5
2EA
100
AcDbEntity
  8
0
  6
CONTINUOUS
 62
               4
100
AcDbLine
 10
139.06151036774119
 20
3.8348786841152958
 30
0.0
 11
139.81151036774119
 21
3.8348786841152958
 31
0.0
  0
ARC
  5
2EB
100
AcDbEntity
  8
0
  6
CONTINUOUS
 62
               4
100
AcDbCircle
 10
139.81151036774119
 20
4.3348786841152958
 30
0.0
 40
0.5
100
AcDbArc
 50
269.99999999999937
 51
0.0
  0
ARC
  5
2EC
100
AcDbEntity
  8
0
  6
CONTINUOUS
 62
               4
100
AcDbCircle
 10
131.10741522108307
 20
4.3347835374571275
 30
0.0
 40
0.5999048608870732
100
AcDbArc
 50
179.99091272245337
 51
270.00908727754575
  0
LINE
  5
2ED
100
AcDbEntity
  8
0
  6
CONTINUOUS
 62
               4
100
AcDbLine
 10
140.31151033865203
 20
3.734878684115273
 30
0.0
 11
139.06151036774119
 21
3.734878684115273
 31
0.0
  0
LINE
  5
2EE
100
AcDbEntity
  8
0
  6
CONTINUOUS
 62
               4
100
AcDbLine
 10
136.81151036774119
 20
-12.258050582548691
 30
0.0
 11
136.31151036774119
 21
-12.258050582548691
 31
0.0
  0
LINE
  5
2EF
100
AcDbEntity
  8
0
  6
CONTINUOUS
 62
               4
100
AcDbLine
 10
134.31151036774119
 20
-12.258050582548691
 30
0.0
 11
133.81151036774119
 21
-12.258050582548691
 31
0.0
  0
ARC
  5
2F0
100
AcDbEntity
  8
0
  6
CONTINUOUS
 62
               4
100
AcDbCircle
 10
130.81121351987699
 20
25.735175536248875
 30
0.0
 40
0.4997032403068001
100
AcDbArc
 50
89.965963537146934
 51
180.03403646285233
  0
LINE
  5
2F1
100
AcDbEntity
  8
0
  6
CONTINUOUS
 62
               4
100
AcDbLine
 10
130.31151036774119
 20
3.7348786883846685
 30
0.0
 11
130.31151036774119
 21
26.234878688384669
 31
0.0
  0
LINE
  5
2F2
100
AcDbEntity
  8
0
  6
CONTINUOUS
 62
               4
100
AcDbLine
 10
140.31151036774119
 20
3.734878684115273
 30
0.0
 11
140.31151036774119
 21
26.234878688384669
 31
0.0
  0
ARC
  5
2F3
100
AcDbEntity
  8
0
  6
CONTINUOUS
 62
               4
100
AcDbCircle
 10
139.81153325581064
 20
25.734883265907428
 30
0.0
 40
0.4999954224983215
100
AcDbArc
 50
359.99947544974214
 51
90.000524550256955
  0
ARC
  5
2F4
100
AcDbEntity
  8
0
  6
CONTINUOUS
 62
               4
100
AcDbCircle
 10
130.81153935946142
 20
25.734868007211475
 30
0.0
 40
0.5000106812873828
100
AcDbArc
 50
90.001223946153672
 51
179.99877605384583
  0
ARC
  5
2F5
100
AcDbEntity
  8
0
  6
CONTINUOUS
 62
               4
100
AcDbCircle
 10
139.8118072156054
 20
87.334581840520428
 30
0.0
 40
0.4997032403068001
100
AcDbArc
 50
269.96596353714654
 51
0.0340364628527164
  0
ARC
  5
2F6
100
AcDbEntity
  8
0
  6
CONTINUOUS
 62
               4
100
AcDbCircle
 10
130.81148747967174
 20
87.334874110861875
 30
0.0
 40
0.4999954224983215
100
AcDbArc
 50
179.99947544974256
 51
270.00052455025656
  0
ARC
  5
2F7
100
AcDbEntity
  8
0
  6
CONTINUOUS
 62
               4
100
AcDbCircle
 10
139.81148137602096
 20
87.334889369557771
 30
0.0
 40
0.5000106812873828
100
AcDbArc
 50
270.00122394615329
 51
359.9987760538454
  0
LINE
  5
2F8
100
AcDbEntity
  8
0
  6
CONTINUOUS
 62
               4
100
AcDbLine
 10
135.9115103677411
 20
121.82780796131797
 30
0.0
 11
137.21151036774117
 21
121.82780796131797
 31
0.0
  0
LINE
  5
2F9
100
AcDbEntity
  8
0
  6
CONTINUOUS
 62
             200
100
AcDbLine
 10
131.56151036774119
 20
119.8548786883845
 30
0.0
 11
139.06151036774119
 21
117.84487868838451
 31
0.0
  0
LINE
  5
2FA
100
AcDbEntity
  8
0
  6
CONTINUOUS
 62
               4
100
AcDbLine
 10
133.4115103677411
 20
121.82780796131797
 30
0.0
 11
134.71151036774117
 21
121.82780796131797
 31
0.0
  0
LINE
  5
2FB
100
AcDbEntity
  8
0
  6
CONTINUOUS
 62
               4
100
AcDbLine
 10
136.31151036774119
 20
125.32780795931799
 30
0.0
 11
136.31151036774119
 21
121.82780796131797
 31
0.0
  0
LINE
  5
2FC
100
AcDbEntity
  8
0
  6
CONTINUOUS
 62
               4
100
AcDbLine
 10
136.81151036774119
 20
125.32780795931799
 30
0.0
 11
136.81151036774119
 21
121.82780796131797
 31
0.0
  0
LINE
  5
2FD
100
AcDbEntity
  8
0
  6
CONTINUOUS
 62
               4
100
AcDbLine
 10
133.4115103677411
 20
121.82780796131797
 30
0.0
 11
133.4115103677411
 21
119.3548786883845
 31
0.0
  0
LINE
  5
2FE
100
AcDbEntity
  8
0
  6
CONTINUOUS
 62
               4
100
AcDbLine
 10
134.71151036774117
 20
121.82780796131797
 30
0.0
 11
134.71151036774117
 21
119.00487868838448
 31
0.0
  0
LINE
  5
2FF
100
AcDbEntity
  8
0
  6
CONTINUOUS
 62
               4
100
AcDbLine
 10
133.81151036774119
 20
125.32780795931799
 30
0.0
 11
133.81151036774119
 21
121.82780796131797
 31
0.0
  0
LINE
  5
300
100
AcDbEntity
  8
0
  6
CONTINUOUS
 62
               4
100
AcDbLine
 10
134.31151036774119
 20
125.32780795931799
 30
0.0
 11
134.31151036774119
 21
121.82780796131797
 31
0.0
  0
LINE
  5
301
100
AcDbEntity
  8
0
  6
CONTINUOUS
 62
               4
100
AcDbLine
 10
135.9115103677411
 20
121.82780796131797
 30
0.0
 11
135.9115103677411
 21
118.68487868838449
 31
0.0
  0
LINE
  5
302
100
AcDbEntity
  8
0
  6
CONTINUOUS
 62
               4
100
AcDbLine
 10
137.21151036774117
 20
121.82780796131797
 30
0.0
 11
137.21151036774117
 21
118.33487868838446
 31
0.0
  0
LINE
  5
303
100
AcDbEntity
  8
0
  6
CONTINUOUS
 62
               4
100
AcDbLine
 10
133.81151036774119
 20
125.32780795931799
 30
0.0
 11
134.31151036774119
 21
125.32780795931799
 31
0.0
  0
LINE
  5
304
100
AcDbEntity
  8
0
  6
CONTINUOUS
 62
               4
100
AcDbLine
 10
136.31151036774119
 20
125.32780795931799
 30
0.0
 11
136.81151036774119
 21
125.32780795931799
 31
0.0
  0
LINE
  5
305
100
AcDbEntity
  8
0
  6
PHANTOM
 62
             200
100
AcDbLine
 10
133.81149205719427
 20
94.334878688384521
 30
0.0
 11
136.81149205719427
 21
94.334878688384521
 31
0.0
  0
LINE
  5
306
100
AcDbEntity
  8
0
  6
PHANTOM
 62
             200
100
AcDbLine
 10
133.81149205719427
 20
92.334878688384521
 30
0.0
 11
136.81149205719427
 21
92.334878688384521
 31
0.0
  0
LINE
  5
307
100
AcDbEntity
  8
0
  6
PHANTOM
 62
             200
100
AcDbLine
 10
133.81149205719427
 20
94.334878688384521
 30
0.0
 11
133.81149205719427
 21
92.334878688384521
 31
0.0
  0
LINE
  5
308
100
AcDbEntity
  8
0
  6
PHANTOM
 62
             200
100
AcDbLine
 10
136.81149205719427
 20
94.334878688384521
 30
0.0
 11
136.81149205719427
 21
92.334878688384521
 31
0.0
  0
LINE
  5
309
100
AcDbEntity
  8
0
  6
CONTINUOUS
 62
               4
100
AcDbLine
 10
137.21151036774117
 20
117.30487868838443
 30
0.0
 11
137.21151036774117
 21
114.33487868838446
 31
0.0
  0
ARC
  5
30A
100
AcDbEntity
  8
0
  6
CONTINUOUS
 62
               4
100
AcDbCircle
 10
139.81148747944346
 20
105.83487411063371
 30
0.0
 40
0.5000045777717621
100
AcDbArc
 50
0.0005245667992071
 51
89.9994754332008
  0
ARC
  5
30B
100
AcDbEntity
  8
0
  6
CONTINUOUS
 62
               4
100
AcDbCircle
 10
130.81148137606291
 20
105.83488936951588
 30
0.0
 40
0.4999893189827007
100
AcDbArc
 50
89.998776006354774
 51
180.00122399364432
  0
ARC
  5
30C
100
AcDbEntity
  8
0
  6
CONTINUOUS
 62
               4
100
AcDbCircle
 10
131.04147923985656
 20
105.8348915057222
 30
0.0
 40
0.4999871828265524
100
AcDbArc
 50
89.998531203634272
 51
180.00146879636483
  0
ARC
  5
30D
100
AcDbEntity
  8
0
  6
CONTINUOUS
 62
               4
100
AcDbCircle
 10
139.58148961571507
 20
105.83487624690522
 30
0.0
 40
0.500002441485227
100
AcDbArc
 50
0.0002797715494944
 51
89.999720228450514
  0
ARC
  5
30E
100
AcDbEntity
  8
0
  6
CONTINUOUS
 62
               4
100
AcDbCircle
 10
139.58028855108259
 20
89.52800138516298
 30
0.0
 40
0.5012049510586274
100
AcDbArc
 50
270.13758021931233
 51
359.86241978068648
  0
ARC
  5
30F
100
AcDbEntity
  8
0
  6
CONTINUOUS
 62
               4
100
AcDbCircle
 10
131.04268034109961
 20
89.527986162956466
 30
0.0
 40
0.5011896925741138
100
AcDbArc
 50
180.13584420715239
 51
269.86415579284636
  0
LINE
  5
310
100
AcDbEntity
  8
0
  6
CONTINUOUS
 62
               4
100
AcDbLine
 10
131.56151036774119
 20
114.33487868838446
 30
0.0
 11
139.06151036774119
 21
114.33487868838446
 31
0.0
  0
LINE
  5
311
100
AcDbEntity
  8
0
  6
CONTINUOUS
 62
               4
100
AcDbLine
 10
139.06151036774119
 20
114.33487868838446
 30
0.0
 11
139.06151036774119
 21
106.33487868838446
 31
0.0
  0
LINE
  5
312
100
AcDbEntity
  8
0
  6
CONTINUOUS
 62
               4
100
AcDbLine
 10
138.06151036774119
 20
114.33487868838446
 30
0.0
 11
138.06151036774119
 21
98.334878688384521
 31
0.0
  0
LINE
  5
313
100
AcDbEntity
  8
0
  6
CONTINUOUS
 62
               4
100
AcDbLine
 10
132.56151036774119
 20
112.83487868838446
 30
0.0
 11
138.06151036774119
 21
112.83487868838446
 31
0.0
  0
LINE
  5
314
100
AcDbEntity
  8
0
  6
CONTINUOUS
 62
               4
100
AcDbLine
 10
131.56151036774119
 20
114.33487868838446
 30
0.0
 11
131.56151036774119
 21
106.33487868838446
 31
0.0
  0
LINE
  5
315
100
AcDbEntity
  8
0
  6
CONTINUOUS
 62
               4
100
AcDbLine
 10
132.56151036774119
 20
114.33487868838446
 30
0.0
 11
132.56151036774119
 21
98.334878688384521
 31
0.0
  0
LINE
  5
316
100
AcDbEntity
  8
0
  6
CONTINUOUS
 62
               4
100
AcDbLine
 10
138.06151036774119
 20
106.33487868838446
 30
0.0
 11
139.81149205719427
 21
106.33487868838446
 31
0.0
  0
LINE
  5
317
100
AcDbEntity
  8
0
  6
CONTINUOUS
 62
               4
100
AcDbLine
 10
132.56151036774119
 20
98.334878688384521
 30
0.0
 11
138.06151036774119
 21
98.334878688384521
 31
0.0
  0
LINE
  5
318
100
AcDbEntity
  8
0
  6
CONTINUOUS
 62
               4
100
AcDbLine
 10
139.81149205719427
 20
106.33487868838446
 30
0.0
 11
140.31149205719427
 21
106.33487868838446
 31
0.0
  0
LINE
  5
319
100
AcDbEntity
  8
0
  6
CONTINUOUS
 62
               4
100
AcDbLine
 10
131.04149205719429
 20
89.026797879051202
 30
0.0
 11
139.58149205719425
 21
89.026797879051202
 31
0.0
  0
LINE
  5
31A
100
AcDbEntity
  8
0
  6
CONTINUOUS
 62
               4
100
AcDbLine
 10
130.54149205719429
 20
105.83487868838446
 30
0.0
 11
130.54149205719429
 21
89.526797879051202
 31
0.0
  0
LINE
  5
31B
100
AcDbEntity
  8
0
  6
CONTINUOUS
 62
               4
100
AcDbLine
 10
140.08149205719425
 20
105.83487868838446
 30
0.0
 11
140.08149205719425
 21
89.526797879035627
 31
0.0
  0
LINE
  5
31C
100
AcDbEntity
  8
0
  6
CONTINUOUS
 62
               4
100
AcDbLine
 10
130.81149205719427
 20
106.33487868838446
 30
0.0
 11
132.56151036774119
 21
106.33487868838446
 31
0.0
  0
LINE
  5
31D
100
AcDbEntity
  8
0
  6
CONTINUOUS
 62
               4
100
AcDbLine
 10
130.31149205719427
 20
106.33487868838446
 30
0.0
 11
130.81149205719427
 21
106.33487868838446
 31
0.0
  0
LINE
  5
31E
100
AcDbEntity
  8
0
  6
CONTINUOUS
 62
               4
100
AcDbLine
 10
140.31151036774119
 20
108.73487869265395
 30
0.0
 11
139.06149205719427
 21
108.73487869265395
 31
0.0
  0
LINE
  5
31F
100
AcDbEntity
  8
0
  6
CONTINUOUS
 62
               4
100
AcDbLine
 10
140.31151036774119
 20
109.33487869265397
 30
0.0
 11
139.06151036774119
 21
109.33487869265397
 31
0.0
  0
LINE
  5
320
100
AcDbEntity
  8
0
  6
CONTINUOUS
 62
               4
100
AcDbLine
 10
140.31151036774119
 20
107.73487869265395
 30
0.0
 11
139.06149205719427
 21
107.73487869265395
 31
0.0
  0
LINE
  5
321
100
AcDbEntity
  8
0
  6
CONTINUOUS
 62
               4
100
AcDbLine
 10
131.56151036774119
 20
109.23487869265395
 30
0.0
 11
130.81151036774119
 21
109.23487869265395
 31
0.0
  0
ARC
  5
322
100
AcDbEntity
  8
0
  6
CONTINUOUS
 62
               4
100
AcDbCircle
 10
130.81151036774119
 20
108.73487869265395
 30
0.0
 40
0.5
100
AcDbArc
 50
89.999999999999815
 51
179.99999999999963
  0
ARC
  5
323
100
AcDbEntity
  8
0
  6
CONTINUOUS
 62
               4
100
AcDbCircle
 10
139.51560551439931
 20
108.73497383931212
 30
0.0
 40
0.5999048608870732
100
AcDbArc
 50
359.99091272245295
 51
90.009087277546172
  0
LINE
  5
324
100
AcDbEntity
  8
0
  6
CONTINUOUS
 62
               4
100
AcDbLine
 10
130.31151039683036
 20
109.33487869265397
 30
0.0
 11
131.56151036774119
 21
109.33487869265397
 31
0.0
  0
LINE
  5
325
100
AcDbEntity
  8
0
  6
CONTINUOUS
 62
               4
100
AcDbLine
 10
135.9115103677411
 20
117.65487868838446
 30
0.0
 11
135.9115103677411
 21
114.33487868838446
 31
0.0
  0
LINE
  5
326
100
AcDbEntity
  8
0
  6
CONTINUOUS
 62
               4
100
AcDbLine
 10
133.4115103677411
 20
118.32487868838447
 30
0.0
 11
133.4115103677411
 21
114.33487868838446
 31
0.0
  0
LINE
  5
327
100
AcDbEntity
  8
0
  6
CONTINUOUS
 62
               4
100
AcDbLine
 10
134.71151036774117
 20
117.97487868838451
 30
0.0
 11
134.71151036774117
 21
114.33487868838446
 31
0.0
  0
LINE
  5
328
100
AcDbEntity
  8
0
  6
CONTINUOUS
 62
             200
100
AcDbLine
 10
131.56151036774119
 20
118.81487868838448
 30
0.0
 11
139.06151036774119
 21
116.80487868838443
 31
0.0
  0
LINE
  5
329
100
AcDbEntity
  8
0
  6
CONTINUOUS
 62
               4
100
AcDbLine
 10
140.31151036774119
 20
109.33487868838463
 30
0.0
 11
140.31151036774119
 21
86.834878688384634
 31
0.0
  0
LINE
  5
32A
100
AcDbEntity
  8
0
  6
CONTINUOUS
 62
               4
100
AcDbLine
 10
130.31151036774119
 20
109.33487869265397
 30
0.0
 11
130.31151036774119
 21
86.834878688384634
 31
0.0
  0
LINE
  5
32B
100
AcDbEntity
  8
0
  6
CONTINUOUS
 62
               7
100
AcDbLine
 10
128.31151036774114
 20
44.034878688384637
 30
0.0
 11
130.31151036774119
 21
44.034878688384637
 31
0.0
  0
LINE
  5
32C
100
AcDbEntity
  8
0
  6
CONTINUOUS
 62
               7
100
AcDbLine
 10
128.31151036774114
 20
77.034878688384637
 30
0.0
 11
130.31151036774119
 21
77.034878688384637
 31
0.0
  0
LINE
  5
32D
100
AcDbEntity
  8
0
  6
CONTINUOUS
 62
               7
100
AcDbLine
 10
128.31151036774114
 20
44.034878688384637
 30
0.0
 11
128.31151036774114
 21
77.034878688384637
 31
0.0
  0
LINE
  5
32E
100
AcDbEntity
  8
0
  6
CENTER
 62
               2
100
AcDbLine
 10
145.31151036774114
 20
71.534878688384637
 30
0.0
 11
145.31151036774114
 21
76.534878688384637
 31
0.0
  0
LINE
  5
32F
100
AcDbEntity
  8
0
  6
CENTER
 62
               2
100
AcDbLine
 10
145.31151036774114
 20
44.534878692083893
 30
0.0
 11
145.31151036774114
 21
49.534878692083893
 31
0.0
  0
LINE
  5
330
100
AcDbEntity
  8
0
  6
CENTER
 62
               2
100
AcDbLine
 10
145.82771657337909
 20
52.135905421783079
 30
0.0
 11
163.44151036774113
 21
52.135905421783079
 31
0.0
  0
LINE
  5
331
100
AcDbEntity
  8
0
  6
PHANTOM
 62
             200
100
AcDbLine
 10
148.31151036774114
 20
56.135905421783079
 30
0.0
 11
161.81151036774114
 21
56.135905421783079
 31
0.0
  0
LINE
  5
332
100
AcDbEntity
  8
0
  6
PHANTOM
 62
             200
100
AcDbLine
 10
148.31151036774114
 20
48.135905421783079
 30
0.0
 11
161.81151036774114
 21
48.135905421783079
 31
0.0
  0
ARC
  5
333
100
AcDbEntity
  8
0
  6
PHANTOM
 62
             200
100
AcDbCircle
 10
161.81151036774114
 20
55.635905421783079
 30
0.0
 40
0.5
100
AcDbArc
 50
0.0
 51
89.999999999999815
  0
ARC
  5
334
100
AcDbEntity
  8
0
  6
PHANTOM
 62
             200
100
AcDbCircle
 10
161.81151036774114
 20
48.635905421783079
 30
0.0
 40
0.5
100
AcDbArc
 50
269.99999999999937
 51
0.0
  0
LINE
  5
335
100
AcDbEntity
  8
0
  6
PHANTOM
 62
             200
100
AcDbLine
 10
162.31151036774114
 20
55.635905421783079
 30
0.0
 11
162.31151036774114
 21
48.635905421783079
 31
0.0
  0
LINE
  5
336
100
AcDbEntity
  8
0
  6
PHANTOM
 62
             200
100
AcDbLine
 10
159.81151036774114
 20
56.135905421783079
 30
0.0
 11
159.81151036774114
 21
48.135905421783079
 31
0.0
  0
LINE
  5
337
100
AcDbEntity
  8
0
  6
PHANTOM
 62
             200
100
AcDbLine
 10
161.81151036774114
 20
56.135905421783079
 30
0.0
 11
161.81151036774114
 21
48.135905421783079
 31
0.0
  0
CIRCLE
  5
338
100
AcDbEntity
  8
0
  6
CONTINUOUS
 62
               7
100
AcDbCircle
 10
145.31151036774114
 20
74.034878688384637
 30
0.0
 40
1.6000000000000001
  0
CIRCLE
  5
339
100
AcDbEntity
  8
0
  6
CONTINUOUS
 62
               7
100
AcDbCircle
 10
145.31151036774114
 20
47.034878688384637
 30
0.0
 40
1.6000000000000001
  0
LINE
  5
33A
100
AcDbEntity
  8
0
  6
CONTINUOUS
 62
               7
100
AcDbLine
 10
148.31151036774114
 20
44.034878688384637
 30
0.0
 11
148.31151036774114
 21
77.034878688384637
 31
0.0
  0
LINE
  5
33B
100
AcDbEntity
  8
0
  6
CONTINUOUS
 62
               7
100
AcDbLine
 10
140.31151036774119
 20
44.034878688384637
 30
0.0
 11
148.31151036774114
 21
44.034878688384637
 31
0.0
  0
LINE
  5
33C
100
AcDbEntity
  8
0
  6
CONTINUOUS
 62
               7
100
AcDbLine
 10
140.31151036774119
 20
77.034878688384637
 30
0.0
 11
148.31151036774114
 21
77.034878688384637
 31
0.0
  0
LINE
  5
33D
100
AcDbEntity
  8
0
  6
CENTER
 62
               2
100
AcDbLine
 10
142.81151036774114
 20
74.034878688384637
 30
0.0
 11
147.81151036774114
 21
74.034878688384637
 31
0.0
  0
LINE
  5
33E
100
AcDbEntity
  8
0
  6
CENTER
 62
               2
100
AcDbLine
 10
142.81151036774114
 20
47.034878688384637
 30
0.0
 11
147.81151036774114
 21
47.034878688384637
 31
0.0
  0
LINE
  5
33F
100
AcDbEntity
  8
0
  6
CENTER
 62
               2
100
AcDbLine
 10
135.31151036774119
 20
115.76208827175802
 30
0.0
 11
135.31151036774119
 21
-2.9018859409868583
 31
0.0
  0
CIRCLE
  5
340
100
AcDbEntity
  8
0
  6
CONTINUOUS
 62
               7
100
AcDbCircle
 10
135.31151036774119
 20
28.534878688384666
 30
0.0
 40
0.7500000000000001
  0
CIRCLE
  5
341
100
AcDbEntity
  8
0
  6
CONTINUOUS
 62
               7
100
AcDbCircle
 10
135.31151036774119
 20
28.534878688384666
 30
0.0
 40
1.1000000000000001
  0
CIRCLE
  5
342
100
AcDbEntity
  8
0
  6
CONTINUOUS
 62
               7
100
AcDbCircle
 10
135.31151036774119
 20
28.534878688384666
 30
0.0
 40
1.1500000000000001
  0
CIRCLE
  5
343
100
AcDbEntity
  8
0
  6
CONTINUOUS
 62
               7
100
AcDbCircle
 10
135.31151036774119
 20
28.534878688384666
 30
0.0
 40
1.3000000000000012
  0
LINE
  5
344
100
AcDbEntity
  8
0
  6
CENTER
 62
               2
100
AcDbLine
 10
133.6115103677412
 20
28.534878688384666
 30
0.0
 11
137.01151036774124
 21
28.534878688384666
 31
0.0
  0
ARC
  5
345
100
AcDbEntity
  8
0
  6
CONTINUOUS
 62
               7
100
AcDbCircle
 10
135.31151036774119
 20
30.234878688384661
 30
0.0
 40
3.6000000000000005
100
AcDbArc
 50
0.0
 51
179.99999999999963
  0
ARC
  5
346
100
AcDbEntity
  8
0
  6
CONTINUOUS
 62
               7
100
AcDbCircle
 10
135.31151036774119
 20
30.234878688384661
 30
0.0
 40
2.0
100
AcDbArc
 50
0.0
 51
179.99999999999963
  0
LINE
  5
347
100
AcDbEntity
  8
0
  6
CONTINUOUS
 62
               7
100
AcDbLine
 10
131.71151036774123
 20
30.234878688384661
 30
0.0
 11
131.71151036774123
 21
26.234878688384669
 31
0.0
  0
LINE
  5
348
100
AcDbEntity
  8
0
  6
CONTINUOUS
 62
               7
100
AcDbLine
 10
138.91151036774122
 20
30.234878688384661
 30
0.0
 11
138.91151036774122
 21
26.234878688384669
 31
0.0
  0
LINE
  5
349
100
AcDbEntity
  8
0
  6
CONTINUOUS
 62
               7
100
AcDbLine
 10
133.31151036774119
 20
30.234878688384661
 30
0.0
 11
133.31151036774119
 21
26.234878688384669
 31
0.0
  0
LINE
  5
34A
100
AcDbEntity
  8
0
  6
CONTINUOUS
 62
               7
100
AcDbLine
 10
137.31151036774125
 20
30.234878688384661
 30
0.0
 11
137.31151036774125
 21
26.234878688384669
 31
0.0
  0
LINE
  5
34B
100
AcDbEntity
  8
0
  6
CONTINUOUS
 62
               7
100
AcDbLine
 10
140.31151036774119
 20
26.234878688384669
 30
0.0
 11
140.31151036774119
 21
52.334878688384684
 31
0.0
  0
LINE
  5
34C
100
AcDbEntity
  8
0
  6
CONTINUOUS
 62
               7
100
AcDbLine
 10
133.31151036774119
 20
82.834878688384649
 30
0.0
 11
133.31151036774119
 21
86.834878688384649
 31
0.0
  0
LINE
  5
34D
100
AcDbEntity
  8
0
  6
CONTINUOUS
 62
               7
100
AcDbLine
 10
137.31151036774119
 20
82.834878688384649
 30
0.0
 11
137.31151036774119
 21
86.834878688384649
 31
0.0
  0
LINE
  5
34E
100
AcDbEntity
  8
0
  6
CONTINUOUS
 62
               7
100
AcDbLine
 10
131.71151036774123
 20
82.834878688384649
 30
0.0
 11
131.71151036774123
 21
86.834878688384649
 31
0.0
  0
LINE
  5
34F
100
AcDbEntity
  8
0
  6
CONTINUOUS
 62
               7
100
AcDbLine
 10
138.91151036774122
 20
82.834878688384649
 30
0.0
 11
138.91151036774122
 21
86.834878688384649
 31
0.0
  0
ARC
  5
350
100
AcDbEntity
  8
0
  6
CONTINUOUS
 62
               7
100
AcDbCircle
 10
135.31151036774119
 20
82.834878688384649
 30
0.0
 40
2.0
100
AcDbArc
 50
179.99999999999963
 51
0.0
  0
ARC
  5
351
100
AcDbEntity
  8
0
  6
CONTINUOUS
 62
               7
100
AcDbCircle
 10
135.31151036774119
 20
82.834878688384649
 30
0.0
 40
3.6000000000000005
100
AcDbArc
 50
179.99999999999963
 51
0.0
  0
LINE
  5
352
100
AcDbEntity
  8
0
  6
CENTER
 62
               2
100
AcDbLine
 10
137.01151036774124
 20
84.534878688384651
 30
0.0
 11
133.6115103677412
 21
84.534878688384651
 31
0.0
  0
CIRCLE
  5
353
100
AcDbEntity
  8
0
  6
CONTINUOUS
 62
               7
100
AcDbCircle
 10
135.31151036774119
 20
84.534878688384651
 30
0.0
 40
1.3000000000000012
  0
CIRCLE
  5
354
100
AcDbEntity
  8
0
  6
CONTINUOUS
 62
               7
100
AcDbCircle
 10
135.31151036774119
 20
84.534878688384651
 30
0.0
 40
1.1500000000000001
  0
LINE
  5
355
100
AcDbEntity
  8
0
  6
CONTINUOUS
 62
               7
100
AcDbLine
 10
130.31151036774119
 20
73.634878688384646
 30
0.0
 11
140.31151036774119
 21
73.634878688384646
 31
0.0
  0
CIRCLE
  5
356
100
AcDbEntity
  8
0
  6
CONTINUOUS
 62
               7
100
AcDbCircle
 10
135.31151036774119
 20
84.534878688384651
 30
0.0
 40
1.1000000000000001
  0
CIRCLE
  5
357
100
AcDbEntity
  8
0
  6
CONTINUOUS
 62
               7
100
AcDbCircle
 10
135.31151036774119
 20
84.534878688384651
 30
0.0
 40
0.7500000000000001
  0
LINE
  5
358
100
AcDbEntity
  8
0
  6
CONTINUOUS
 62
               7
100
AcDbLine
 10
130.31151036774119
 20
26.234878688384669
 30
0.0
 11
130.31151036774119
 21
66.9348786883846
 31
0.0
  0
LINE
  5
359
100
AcDbEntity
  8
0
  6
CONTINUOUS
 62
               7
100
AcDbLine
 10
130.31151036774119
 20
39.43487868838465
 30
0.0
 11
140.31151036774119
 21
39.43487868838465
 31
0.0
  0
LINE
  5
35A
100
AcDbEntity
  8
0
  6
CONTINUOUS
 62
               7
100
AcDbLine
 10
140.31151036774119
 20
54.134878688384639
 30
0.0
 11
140.31151036774119
 21
86.834878688384649
 31
0.0
  0
LINE
  5
35B
100
AcDbEntity
  8
0
  6
CONTINUOUS
 62
               7
100
AcDbLine
 10
130.31151036774119
 20
68.734878688384711
 30
0.0
 11
130.31151036774119
 21
86.834878688384649
 31
0.0
  0
LINE
  5
35C
100
AcDbEntity
  8
0
  6
CONTINUOUS
 62
               4
100
AcDbLine
 10
130.31151036774119
 20
26.234878688384669
 30
0.0
 11
140.31151036774119
 21
26.234878688384669
 31
0.0
  0
LINE
  5
35D
100
AcDbEntity
  8
0
  6
CONTINUOUS
 62
               4
100
AcDbLine
 10
140.31151036774119
 20
86.834878688384634
 30
0.0
 11
130.31151036774119
 21
86.834878688384634
 31
0.0
  0
LINE
  5
35E
100
AcDbEntity
  8
0
  6
CONTINUOUS
 62
               7
100
AcDbLine
 10
130.31151036774119
 20
47.434878688384671
 30
0.0
 11
140.31151036774119
 21
47.434878688384671
 31
0.0
  0
CIRCLE
  5
35F
100
AcDbEntity
  8
0
  6
CONTINUOUS
 62
               7
100
AcDbCircle
 10
131.51151036774115
 20
67.834878688384663
 30
0.0
 40
1.5
  0
LINE
  5
360
100
AcDbEntity
  8
0
  6
CONTINUOUS
 62
               7
100
AcDbLine
 10
131.51151036774115
 20
69.434878688384657
 30
0.0
 11
130.31151036774116
 21
69.434878688384657
 31
0.0
  0
LINE
  5
361
100
AcDbEntity
  8
0
  6
CONTINUOUS
 62
               7
100
AcDbLine
 10
131.51151036774115
 20
66.234878688384669
 30
0.0
 11
130.31151036774116
 21
66.234878688384669
 31
0.0
  0
LINE
  5
362
100
AcDbEntity
  8
0
  6
CONTINUOUS
 62
               7
100
AcDbLine
 10
132.21861714892771
 20
68.541985469571216
 30
0.0
 11
130.8044035865546
 21
67.12777190719811
 31
0.0
  0
LINE
  5
363
100
AcDbEntity
  8
0
  6
CONTINUOUS
 62
               7
100
AcDbLine
 10
130.8044035865546
 20
68.541985469571216
 30
0.0
 11
132.21861714892771
 21
67.12777190719811
 31
0.0
  0
ARC
  5
364
100
AcDbEntity
  8
0
  6
CONTINUOUS
 62
               7
100
AcDbCircle
 10
131.51151036774115
 20
67.834878688384663
 30
0.0
 40
1.6000000000000001
100
AcDbArc
 50
269.99999999999937
 51
89.999999999999801
  0
ARC
  5
365
100
AcDbEntity
  8
0
  6
CONTINUOUS
 62
               7
100
AcDbCircle
 10
139.11151036774118
 20
53.234878688384661
 30
0.0
 40
1.6000000000000001
100
AcDbArc
 50
89.999999999999815
 51
269.99999999999937
  0
CIRCLE
  5
366
100
AcDbEntity
  8
0
  6
CONTINUOUS
 62
               7
100
AcDbCircle
 10
139.11151036774118
 20
53.234878688384661
 30
0.0
 40
1.5
  0
LINE
  5
367
100
AcDbEntity
  8
0
  6
CONTINUOUS
 62
               7
100
AcDbLine
 10
139.11151036774118
 20
54.834878688384663
 30
0.0
 11
140.31151036774116
 21
54.834878688384663
 31
0.0
  0
LINE
  5
368
100
AcDbEntity
  8
0
  6
CONTINUOUS
 62
               7
100
AcDbLine
 10
138.40440358655462
 20
53.941985469571208
 30
0.0
 11
139.81861714892773
 21
52.527771907198115
 31
0.0
  0
LINE
  5
369
100
AcDbEntity
  8
0
  6
CONTINUOUS
 62
               7
100
AcDbLine
 10
139.81861714892773
 20
53.941985469571208
 30
0.0
 11
138.40440358655462
 21
52.527771907198115
 31
0.0
  0
LINE
  5
36A
100
AcDbEntity
  8
0
  6
CONTINUOUS
 62
               7
100
AcDbLine
 10
139.11151036774118
 20
51.63487868838466
 30
0.0
 11
140.31151036774116
 21
51.63487868838466
 31
0.0
  0
LINE
  5
36B
100
AcDbEntity
  8
0
  6
CONTINUOUS
 62
               4
100
AcDbLine
 10
-82.126467171863993
 20
89.034583694296174
 30
0.0
 11
-77.514179528292487
 21
86.881801473807457
 31
0.0
  0
ARC
  5
36C
100
AcDbEntity
  8
0
  6
CONTINUOUS
 62
               4
100
AcDbCircle
 10
-81.915114923092716
 20
89.487401148923567
 30
0.0
 40
0.4997133381008656
100
AcDbArc
 50
180.11549557964344
 51
245.17378469019081
  0
ARC
  5
36D
100
AcDbEntity
  8
0
  6
CONTINUOUS
 62
               4
100
AcDbCircle
 10
-77.302706036735827
 20
87.334878688384435
 30
0.0
 40
0.5
100
AcDbArc
 50
244.97921683893236
 51
269.99999999999932
  0
LINE
  5
36E
100
AcDbEntity
  8
0
  6
CONTINUOUS
 62
               4
100
AcDbLine
 10
-82.126467171864107
 20
24.035173682473058
 30
0.0
 11
-77.514179528292601
 21
26.187955902961789
 31
0.0
  0
ARC
  5
36F
100
AcDbEntity
  8
0
  6
CONTINUOUS
 62
               4
100
AcDbCircle
 10
-77.302706036735941
 20
25.734878688384811
 30
0.0
 40
0.5
100
AcDbArc
 50
89.999999999999901
 51
115.02078316106684
  0
LINE
  5
370
100
AcDbEntity
  8
0
  6
CONTINUOUS
 62
               4
100
AcDbLine
 10
-60.41785756153584
 20
86.834878688384649
 30
0.0
 11
-77.302706036735827
 21
86.834878688384649
 31
0.0
  0
LINE
  5
371
100
AcDbEntity
  8
0
  6
CONTINUOUS
 62
               4
100
AcDbLine
 10
-60.417857561535897
 20
26.234878688384654
 30
0.0
 11
-77.302706036735941
 21
26.234878688384718
 31
0.0
  0
LINE
  5
372
100
AcDbEntity
  8
0
  6
CONTINUOUS
 62
               4
100
AcDbLine
 10
-97.913817136069525
 20
8.9806455758643864
 30
0.0
 11
-101.4138171360697
 21
8.9806455758643864
 31
0.0
  0
LINE
  5
373
100
AcDbEntity
  8
0
  6
CONTINUOUS
 62
               4
100
AcDbLine
 10
-97.913817136069525
 20
9.4806455758643864
 30
0.0
 11
-101.4138171360697
 21
9.4806455758643864
 31
0.0
  0
LINE
  5
374
100
AcDbEntity
  8
0
  6
CONTINUOUS
 62
               4
100
AcDbLine
 10
-82.414827245936266
 20
7.2358888002515442
 30
0.0
 11
-82.414827245936095
 21
23.583363538384802
 31
0.0
  0
ARC
  5
375
100
AcDbEntity
  8
0
  6
CONTINUOUS
 62
               4
100
AcDbCircle
 10
-63.018945755807437
 20
4.3337906831478392
 30
0.0
 40
0.5989129830170392
100
AcDbArc
 50
179.8959145247733
 51
270.10408547522724
  0
LINE
  5
376
100
AcDbEntity
  8
0
  6
CONTINUOUS
 62
               4
100
AcDbLine
 10
-64.11785775057038
 20
4.3348786883848476
 30
0.0
 11
-64.11785775057038
 21
3.7348786883848248
 31
0.0
  0
LINE
  5
377
100
AcDbEntity
  8
0
  6
CONTINUOUS
 62
               4
100
AcDbLine
 10
-97.913817136069582
 20
9.880333243185234
 30
0.0
 11
-97.913817136069696
 21
8.5793231429185397
 31
0.0
  0
LINE
  5
378
100
AcDbEntity
  8
0
  6
CONTINUOUS
 62
               4
100
AcDbLine
 10
-74.417857553536209
 20
6.7338685985180859
 30
0.0
 11
-81.912807044202935
 21
6.733868598518157
 31
0.0
  0
LINE
  5
379
100
AcDbEntity
  8
0
  6
CONTINUOUS
 62
               4
100
AcDbLine
 10
-90.411796938336266
 20
11.732858494651765
 30
0.0
 11
-90.411796938336209
 21
7.6318483959850312
 31
0.0
  0
LINE
  5
37A
100
AcDbEntity
  8
0
  6
CONTINUOUS
 62
               4
100
AcDbLine
 10
-83.807756538069697
 20
5.6308382961181707
 30
0.0
 11
-88.912807040202978
 21
4.732858498651666
 31
0.0
  0
LINE
  5
37B
100
AcDbEntity
  8
0
  6
CONTINUOUS
 62
               4
100
AcDbLine
 10
-90.411796938336323
 20
5.7298281950517378
 30
0.0
 11
-90.411796938336323
 21
4.732858498651666
 31
0.0
  0
LINE
  5
37C
100
AcDbEntity
  8
0
  6
CONTINUOUS
 62
               4
100
AcDbLine
 10
-82.747150478069642
 20
6.8328584974515962
 30
0.0
 11
-89.089574716869578
 21
5.7156867809183893
 31
0.0
  0
LINE
  5
37D
100
AcDbEntity
  8
0
  6
CONTINUOUS
 62
               4
100
AcDbLine
 10
-81.410786842469605
 20
6.6348786995848883
 30
0.0
 11
-75.711796946736257
 21
6.6348786995848172
 31
0.0
  0
LINE
  5
37E
100
AcDbEntity
  8
0
  6
CONTINUOUS
 62
               4
100
AcDbLine
 10
-90.411796938336209
 20
7.6318483959850312
 30
0.0
 11
-90.11482724153629
 21
7.3348786991850545
 31
0.0
  0
LINE
  5
37F
100
AcDbEntity
  8
0
  6
CONTINUOUS
 62
               4
100
AcDbLine
 10
-89.414827241936251
 20
11.732858494651765
 30
0.0
 11
-89.414827241936251
 21
11.131848393985052
 31
0.0
  0
LINE
  5
380
100
AcDbEntity
  8
0
  6
CONTINUOUS
 62
               4
100
AcDbLine
 10
-89.414827241936251
 20
11.131848393985052
 30
0.0
 11
-84.415837345802885
 21
11.131848393984868
 31
0.0
  0
LINE
  5
381
100
AcDbEntity
  8
0
  6
CONTINUOUS
 62
               4
100
AcDbLine
 10
-84.415837345802885
 20
11.732858494651694
 30
0.0
 11
-84.415837345802885
 21
11.131848393984868
 31
0.0
  0
LINE
  5
382
100
AcDbEntity
  8
0
  6
CONTINUOUS
 62
               4
100
AcDbLine
 10
-83.913817144069611
 20
7.6318483959849033
 30
0.0
 11
-84.210786840869531
 21
7.3348786991849266
 31
0.0
  0
LINE
  5
383
100
AcDbEntity
  8
0
  6
CONTINUOUS
 62
               4
100
AcDbLine
 10
-83.807756538069697
 20
5.6308382961181707
 30
0.0
 11
-74.714827250336242
 21
5.6308382961180428
 31
0.0
  0
LINE
  5
384
100
AcDbEntity
  8
0
  6
CONTINUOUS
 62
               4
100
AcDbLine
 10
-75.711796946736257
 20
6.7338685985180859
 30
0.0
 11
-75.711796946736257
 21
6.6348786995848172
 31
0.0
  0
LINE
  5
385
100
AcDbEntity
  8
0
  6
CONTINUOUS
 62
               4
100
AcDbLine
 10
-94.98122058397243
 20
9.8803332431851771
 30
0.0
 11
-90.411796938336323
 21
9.8803332431851061
 31
0.0
  0
LINE
  5
386
100
AcDbEntity
  8
0
  6
CONTINUOUS
 62
             200
100
AcDbLine
 10
-93.74209996673639
 20
7.7308382949184846
 30
0.0
 11
-95.474423198069616
 21
10.735888798251764
 31
0.0
  0
LINE
  5
387
100
AcDbEntity
  8
0
  6
CONTINUOUS
 62
               4
100
AcDbLine
 10
-94.229978754336315
 20
8.5793231429184829
 30
0.0
 11
-90.411796938336323
 21
8.579323142918355
 31
0.0
  0
LINE
  5
388
100
AcDbEntity
  8
0
  6
CONTINUOUS
 62
               4
100
AcDbLine
 10
-90.411796938336323
 20
4.732858498651666
 30
0.0
 11
-88.912807040202978
 21
4.732858498651666
 31
0.0
  0
LINE
  5
389
100
AcDbEntity
  8
0
  6
CONTINUOUS
 62
               4
100
AcDbLine
 10
-90.411796938336323
 20
5.7298281950517378
 30
0.0
 11
-89.004726232069601
 21
5.729828195051681
 31
0.0
  0
LINE
  5
38A
100
AcDbEntity
  8
0
  6
CONTINUOUS
 62
               4
100
AcDbLine
 10
-90.11482724153629
 20
7.3348786991850545
 30
0.0
 11
-84.210786840869531
 21
7.3348786991849266
 31
0.0
  0
LINE
  5
38B
100
AcDbEntity
  8
0
  6
CONTINUOUS
 62
               4
100
AcDbLine
 10
-90.411796938336209
 20
7.6318483959850312
 30
0.0
 11
-82.817857548736328
 21
7.6318483959849033
 31
0.0
  0
LINE
  5
38C
100
AcDbEntity
  8
0
  6
CONTINUOUS
 62
               4
100
AcDbLine
 10
-90.411796938336323
 20
8.3318483955850127
 30
0.0
 11
-82.41482724593638
 21
8.3318483955848279
 31
0.0
  0
LINE
  5
38D
100
AcDbEntity
  8
0
  6
CONTINUOUS
 62
               4
100
AcDbLine
 10
-90.411796938336323
 20
10.134878697584981
 30
0.0
 11
-82.41482724593638
 21
10.134878697584853
 31
0.0
  0
LINE
  5
38E
100
AcDbEntity
  8
0
  6
CONTINUOUS
 62
               4
100
AcDbLine
 10
-82.414827245936209
 20
11.73285849465158
 30
0.0
 11
-84.415837345802885
 21
11.732858494651694
 31
0.0
  0
LINE
  5
38F
100
AcDbEntity
  8
0
  6
CONTINUOUS
 62
               4
100
AcDbLine
 10
-89.414827241936251
 20
11.732858494651765
 30
0.0
 11
-90.411796938336266
 21
11.732858494651765
 31
0.0
  0
ARC
  5
390
100
AcDbEntity
  8
0
  6
CONTINUOUS
 62
               4
100
AcDbCircle
 10
-81.918190394457582
 20
7.2305054499968975
 30
0.0
 40
0.4966660273328702
100
AcDbArc
 50
179.37896036356238
 51
270.62103963643227
  0
ARC
  5
391
100
AcDbEntity
  8
0
  6
CONTINUOUS
 62
               4
100
AcDbCircle
 10
-74.717288845253705
 20
5.9302945589660681
 30
0.0
 40
0.2994663800970315
100
AcDbArc
 50
270.47097302846379
 51
0.8771007675052784
  0
ARC
  5
392
100
AcDbEntity
  8
0
  6
CONTINUOUS
 62
               4
100
AcDbCircle
 10
-81.417770067673445
 20
7.1298443632922641
 30
0.0
 40
0.4950149226876426
100
AcDbArc
 50
233.12312474116342
 51
270.80830412457721
  0
ARC
  5
393
100
AcDbEntity
  8
0
  6
CONTINUOUS
 62
               4
100
AcDbCircle
 10
-82.817753479915353
 20
7.2295514567803849
 30
0.0
 40
0.4029269013737999
100
AcDbArc
 50
280.09177155739462
 51
359.89571641424914
  0
ARC
  5
394
100
AcDbEntity
  8
0
  6
CONTINUOUS
 62
               4
100
AcDbCircle
 10
-82.818691592890644
 20
7.2279840490305816
 30
0.0
 40
0.403865208170398
100
AcDbArc
 50
0.1183247355140903
 51
89.881675264485196
  0
LINE
  5
395
100
AcDbEntity
  8
0
  6
CONTINUOUS
 62
             200
100
AcDbLine
 10
-94.088564613003058
 20
7.7308382949184278
 30
0.0
 11
-95.820887844336397
 21
10.728818091185175
 31
0.0
  0
LINE
  5
396
100
AcDbEntity
  8
0
  6
CONTINUOUS
 62
               4
100
AcDbLine
 10
-72.417857565534916
 20
5.334878688384606
 30
0.0
 11
-60.417857569534874
 21
5.3348786883849471
 31
0.0
  0
LINE
  5
397
100
AcDbEntity
  8
0
  6
CONTINUOUS
 62
               4
100
AcDbLine
 10
-72.417857565534888
 20
3.7348786883845264
 30
0.0
 11
-72.417857565534916
 21
5.334878688384606
 31
0.0
  0
LINE
  5
398
100
AcDbEntity
  8
0
  6
CONTINUOUS
 62
               4
100
AcDbLine
 10
-73.917857561534817
 20
3.8348786883844213
 30
0.0
 11
-72.417857565534888
 21
3.8348786883844923
 31
0.0
  0
ARC
  5
399
100
AcDbEntity
  8
0
  6
CONTINUOUS
 62
               4
100
AcDbCircle
 10
-73.917857561534817
 20
4.3348786883844781
 30
0.0
 40
0.5
100
AcDbArc
 50
180.00000000000142
 51
270.00000000000125
  0
LINE
  5
39A
100
AcDbEntity
  8
0
  6
CONTINUOUS
 62
               4
100
AcDbLine
 10
-73.617857475534862
 20
3.7348786883844554
 30
0.0
 11
-61.2178576555348
 21
3.7348786883848533
 31
0.0
  0
ARC
  5
39B
100
AcDbEntity
  8
0
  6
CONTINUOUS
 62
               4
100
AcDbCircle
 10
-60.917857569534732
 20
4.334878688384876
 30
0.0
 40
0.5
100
AcDbArc
 50
273.91958589965213
 51
0.0000000000017302
  0
LINE
  5
39C
100
AcDbEntity
  8
0
  6
CONTINUOUS
 62
               4
100
AcDbLine
 10
-64.11785775057038
 20
4.3348786883847907
 30
0.0
 11
-60.417857569534846
 21
4.334878688384876
 31
0.0
  0
ARC
  5
39D
100
AcDbEntity
  8
0
  6
CONTINUOUS
 62
               4
100
AcDbCircle
 10
-61.216769650406519
 20
4.3337906832565949
 30
0.0
 40
0.598912923125741
100
AcDbArc
 50
269.89591452477413
 51
0.1040854752288512
  0
ARC
  5
39E
100
AcDbEntity
  8
0
  6
CONTINUOUS
 62
               4
100
AcDbCircle
 10
-73.617952622183481
 20
4.3347835417358027
 30
0.0
 40
0.599904800896587
100
AcDbArc
 50
236.24741787039534
 51
270.00908727754762
  0
LINE
  5
39F
100
AcDbEntity
  8
0
  6
CONTINUOUS
 62
               4
100
AcDbLine
 10
-97.913817136069582
 20
9.880333243185234
 30
0.0
 11
-95.330607684525063
 21
9.8803332431851771
 31
0.0
  0
LINE
  5
3A0
100
AcDbEntity
  8
0
  6
CONTINUOUS
 62
               4
100
AcDbLine
 10
-97.913817136069696
 20
8.5793231429185397
 30
0.0
 11
-94.576443400603097
 21
8.5793231429184829
 31
0.0
  0
ARC
  5
3A1
100
AcDbEntity
  8
0
  6
CONTINUOUS
 62
               4
100
AcDbCircle
 10
-81.91511492309283
 20
23.582356227845665
 30
0.0
 40
0.4997133381008656
100
AcDbArc
 50
114.82621530980838
 51
179.88450442035577
  0
LINE
  5
3A2
100
AcDbEntity
  8
0
  6
CONTINUOUS
 62
               4
100
AcDbLine
 10
-77.302706036735941
 20
26.234878688384811
 30
0.0
 11
-77.302706036736225
 21
6.7338685985180859
 31
0.0
  0
LINE
  5
3A3
100
AcDbEntity
  8
0
  6
CONTINUOUS
 62
               4
100
AcDbLine
 10
-60.417857561535953
 20
26.234878688384555
 30
0.0
 11
-60.417857561536351
 21
4.3348786883845776
 31
0.0
  0
LINE
  5
3A4
100
AcDbEntity
  8
0
  6
CONTINUOUS
 62
               4
100
AcDbLine
 10
-74.417857553536322
 20
4.3348786883847765
 30
0.0
 11
-74.417857553535924
 21
26.234878688384754
 31
0.0
  0
LINE
  5
3A5
100
AcDbEntity
  8
0
  6
CONTINUOUS
 62
               4
100
AcDbLine
 10
-97.913817136069412
 20
103.58911180090487
 30
0.0
 11
-101.41381713606947
 21
103.5891118009049
 31
0.0
  0
LINE
  5
3A6
100
AcDbEntity
  8
0
  6
CONTINUOUS
 62
               4
100
AcDbLine
 10
-97.913817136069412
 20
104.08911180090487
 30
0.0
 11
-101.41381713606947
 21
104.0891118009049
 31
0.0
  0
ARC
  5
3A7
100
AcDbEntity
  8
0
  6
CONTINUOUS
 62
               4
100
AcDbCircle
 10
-71.816769367264016
 20
108.73596669362144
 30
0.0
 40
0.5989129830170392
100
AcDbArc
 50
359.89591452477356
 51
90.104085475227478
  0
LINE
  5
3A8
100
AcDbEntity
  8
0
  6
CONTINUOUS
 62
               4
100
AcDbLine
 10
-70.717857372501072
 20
108.73487868838441
 30
0.0
 11
-70.717857372501072
 21
109.33487868838444
 31
0.0
  0
LINE
  5
3A9
100
AcDbEntity
  8
0
  6
CONTINUOUS
 62
               4
100
AcDbLine
 10
-97.913817136069355
 20
103.18942413358403
 30
0.0
 11
-97.913817136069468
 21
104.49043423385072
 31
0.0
  0
LINE
  5
3AA
100
AcDbEntity
  8
0
  6
CONTINUOUS
 62
               4
100
AcDbLine
 10
-74.417857553536095
 20
106.33588877825116
 30
0.0
 11
-81.912807044202822
 21
106.33588877825105
 31
0.0
  0
LINE
  5
3AB
100
AcDbEntity
  8
0
  6
CONTINUOUS
 62
               4
100
AcDbLine
 10
-90.411796938336153
 20
101.33689888211748
 30
0.0
 11
-90.411796938336096
 21
105.43790898078421
 31
0.0
  0
LINE
  5
3AC
100
AcDbEntity
  8
0
  6
CONTINUOUS
 62
               4
100
AcDbLine
 10
-83.807756538069583
 20
107.43891908065106
 30
0.0
 11
-88.912807040202864
 21
108.33689887811764
 31
0.0
  0
LINE
  5
3AD
100
AcDbEntity
  8
0
  6
CONTINUOUS
 62
               4
100
AcDbLine
 10
-90.411796938336209
 20
107.33992918171751
 30
0.0
 11
-90.411796938336209
 21
108.33689887811758
 31
0.0
  0
LINE
  5
3AE
100
AcDbEntity
  8
0
  6
CONTINUOUS
 62
               4
100
AcDbLine
 10
-82.747150478069528
 20
106.23689887931761
 30
0.0
 11
-89.089574716869464
 21
107.35407059585091
 31
0.0
  0
LINE
  5
3AF
100
AcDbEntity
  8
0
  6
CONTINUOUS
 62
               4
100
AcDbLine
 10
-81.410786842469491
 20
106.43487867718437
 30
0.0
 11
-75.711796946736143
 21
106.43487867718443
 31
0.0
  0
LINE
  5
3B0
100
AcDbEntity
  8
0
  6
CONTINUOUS
 62
               4
100
AcDbLine
 10
-90.411796938336096
 20
105.43790898078421
 30
0.0
 11
-90.114827241536176
 21
105.73487867758419
 31
0.0
  0
LINE
  5
3B1
100
AcDbEntity
  8
0
  6
CONTINUOUS
 62
               4
100
AcDbLine
 10
-89.414827241936138
 20
101.33689888211754
 30
0.0
 11
-89.414827241936138
 21
101.93790898278425
 31
0.0
  0
LINE
  5
3B2
100
AcDbEntity
  8
0
  6
CONTINUOUS
 62
               4
100
AcDbLine
 10
-89.414827241936138
 20
101.93790898278425
 30
0.0
 11
-84.415837345802771
 21
101.93790898278436
 31
0.0
  0
LINE
  5
3B3
100
AcDbEntity
  8
0
  6
CONTINUOUS
 62
               4
100
AcDbLine
 10
-84.415837345802771
 20
101.33689888211759
 30
0.0
 11
-84.415837345802771
 21
101.93790898278436
 31
0.0
  0
LINE
  5
3B4
100
AcDbEntity
  8
0
  6
CONTINUOUS
 62
               4
100
AcDbLine
 10
-83.913817144069498
 20
105.43790898078433
 30
0.0
 11
-84.210786840869417
 21
105.73487867758431
 31
0.0
  0
LINE
  5
3B5
100
AcDbEntity
  8
0
  6
CONTINUOUS
 62
               4
100
AcDbLine
 10
-83.807756538069583
 20
107.43891908065106
 30
0.0
 11
-74.714827250336128
 21
107.4389190806512
 31
0.0
  0
LINE
  5
3B6
100
AcDbEntity
  8
0
  6
CONTINUOUS
 62
               4
100
AcDbLine
 10
-75.711796946736143
 20
106.33588877825116
 30
0.0
 11
-75.711796946736143
 21
106.43487867718443
 31
0.0
  0
LINE
  5
3B7
100
AcDbEntity
  8
0
  6
CONTINUOUS
 62
               4
100
AcDbLine
 10
-94.979473703402704
 20
103.18942413358408
 30
0.0
 11
-90.411796938336096
 21
103.18942413358414
 31
0.0
  0
LINE
  5
3B8
100
AcDbEntity
  8
0
  6
CONTINUOUS
 62
             200
100
AcDbLine
 10
-93.742099966736163
 20
105.33891908185078
 30
0.0
 11
-95.474423198069388
 21
102.3338685785175
 31
0.0
  0
LINE
  5
3B9
100
AcDbEntity
  8
0
  6
CONTINUOUS
 62
               4
100
AcDbLine
 10
-94.229978754336088
 20
104.49043423385078
 30
0.0
 11
-90.411796938336096
 21
104.49043423385089
 31
0.0
  0
LINE
  5
3BA
100
AcDbEntity
  8
0
  6
CONTINUOUS
 62
               4
100
AcDbLine
 10
-90.411796938336209
 20
108.33689887811758
 30
0.0
 11
-88.912807040202864
 21
108.33689887811764
 31
0.0
  0
LINE
  5
3BB
100
AcDbEntity
  8
0
  6
CONTINUOUS
 62
               4
100
AcDbLine
 10
-90.411796938336209
 20
107.33992918171751
 30
0.0
 11
-89.004726232069487
 21
107.33992918171757
 31
0.0
  0
LINE
  5
3BC
100
AcDbEntity
  8
0
  6
CONTINUOUS
 62
               4
100
AcDbLine
 10
-90.114827241536176
 20
105.73487867758419
 30
0.0
 11
-84.210786840869417
 21
105.73487867758431
 31
0.0
  0
LINE
  5
3BD
100
AcDbEntity
  8
0
  6
CONTINUOUS
 62
               4
100
AcDbLine
 10
-90.411796938336096
 20
105.43790898078421
 30
0.0
 11
-82.817857548736214
 21
105.4379089807843
 31
0.0
  0
LINE
  5
3BE
100
AcDbEntity
  8
0
  6
CONTINUOUS
 62
               4
100
AcDbLine
 10
-90.411796938336096
 20
104.73790898118423
 30
0.0
 11
-82.414827245936152
 21
104.73790898118438
 31
0.0
  0
LINE
  5
3BF
100
AcDbEntity
  8
0
  6
CONTINUOUS
 62
               4
100
AcDbLine
 10
-90.411796938336096
 20
102.93487867918427
 30
0.0
 11
-82.414827245936152
 21
102.93487867918435
 31
0.0
  0
LINE
  5
3C0
100
AcDbEntity
  8
0
  6
CONTINUOUS
 62
               4
100
AcDbLine
 10
-82.414827245936095
 20
101.33689888211762
 30
0.0
 11
-84.415837345802771
 21
101.33689888211759
 31
0.0
  0
LINE
  5
3C1
100
AcDbEntity
  8
0
  6
CONTINUOUS
 62
               4
100
AcDbLine
 10
-89.414827241936138
 20
101.33689888211754
 30
0.0
 11
-90.411796938336153
 21
101.33689888211748
 31
0.0
  0
ARC
  5
3C2
100
AcDbEntity
  8
0
  6
CONTINUOUS
 62
               4
100
AcDbCircle
 10
-81.918190394457469
 20
105.83925192677236
 30
0.0
 40
0.4966660273328702
100
AcDbArc
 50
89.378960363566861
 51
180.62103963643676
  0
ARC
  5
3C3
100
AcDbEntity
  8
0
  6
CONTINUOUS
 62
               4
100
AcDbCircle
 10
-74.717288845253591
 20
107.13946281780318
 30
0.0
 40
0.2994663800970315
100
AcDbArc
 50
359.12289923249392
 51
89.529026971536197
  0
ARC
  5
3C4
100
AcDbEntity
  8
0
  6
CONTINUOUS
 62
               4
100
AcDbCircle
 10
-81.417770067673331
 20
105.939913013477
 30
0.0
 40
0.4950149226876426
100
AcDbArc
 50
89.191695875422042
 51
126.87687525883584
  0
ARC
  5
3C5
100
AcDbEntity
  8
0
  6
CONTINUOUS
 62
               4
100
AcDbCircle
 10
-82.81775347991524
 20
105.84020591998882
 30
0.0
 40
0.4029269013737999
100
AcDbArc
 50
0.1042835857500924
 51
79.908228442604624
  0
ARC
  5
3C6
100
AcDbEntity
  8
0
  6
CONTINUOUS
 62
               4
100
AcDbCircle
 10
-82.818691592890531
 20
105.84177332773868
 30
0.0
 40
0.403865208170398
100
AcDbArc
 50
270.11832473551402
 51
359.88167526448512
  0
LINE
  5
3C7
100
AcDbEntity
  8
0
  6
CONTINUOUS
 62
             200
100
AcDbLine
 10
-94.088564613002831
 20
105.33891908185083
 30
0.0
 11
-95.82088784433617
 21
102.34093928558408
 31
0.0
  0
LINE
  5
3C8
100
AcDbEntity
  8
0
  6
CONTINUOUS
 62
               4
100
AcDbLine
 10
-62.417857557536536
 20
107.73487868838467
 30
0.0
 11
-74.417857553536578
 21
107.73487868838433
 31
0.0
  0
LINE
  5
3C9
100
AcDbEntity
  8
0
  6
CONTINUOUS
 62
               4
100
AcDbLine
 10
-62.417857557536564
 20
109.33487868838475
 30
0.0
 11
-62.417857557536536
 21
107.73487868838467
 31
0.0
  0
LINE
  5
3CA
100
AcDbEntity
  8
0
  6
CONTINUOUS
 62
               4
100
AcDbLine
 10
-60.917857561536636
 20
109.23487868838481
 30
0.0
 11
-62.417857557536564
 21
109.23487868838473
 31
0.0
  0
ARC
  5
3CB
100
AcDbEntity
  8
0
  6
CONTINUOUS
 62
               4
100
AcDbCircle
 10
-60.917857561536636
 20
108.73487868838475
 30
0.0
 40
0.5
100
AcDbArc
 50
0.000000000001603
 51
90.000000000001407
  0
LINE
  5
3CC
100
AcDbEntity
  8
0
  6
CONTINUOUS
 62
               4
100
AcDbLine
 10
-61.21785764753659
 20
109.33487868838478
 30
0.0
 11
-73.617857467536652
 21
109.33487868838441
 31
0.0
  0
ARC
  5
3CD
100
AcDbEntity
  8
0
  6
CONTINUOUS
 62
               4
100
AcDbCircle
 10
-73.91785755353672
 20
108.73487868838438
 30
0.0
 40
0.5
100
AcDbArc
 50
93.919585899652404
 51
180.00000000000119
  0
LINE
  5
3CE
100
AcDbEntity
  8
0
  6
CONTINUOUS
 62
               4
100
AcDbLine
 10
-70.717857372501072
 20
108.73487868838447
 30
0.0
 11
-74.417857553536606
 21
108.73487868838438
 31
0.0
  0
ARC
  5
3CF
100
AcDbEntity
  8
0
  6
CONTINUOUS
 62
               4
100
AcDbCircle
 10
-73.618945472664933
 20
108.73596669351267
 30
0.0
 40
0.598912923125741
100
AcDbArc
 50
89.895914524774327
 51
180.10408547522826
  0
ARC
  5
3D0
100
AcDbEntity
  8
0
  6
CONTINUOUS
 62
               4
100
AcDbCircle
 10
-61.217762500887972
 20
108.73497383503343
 30
0.0
 40
0.599904800896587
100
AcDbArc
 50
56.247417870395481
 51
90.009087277547778
  0
LINE
  5
3D1
100
AcDbEntity
  8
0
  6
CONTINUOUS
 62
               4
100
AcDbLine
 10
-97.913817136069355
 20
103.18942413358403
 30
0.0
 11
-95.330607684524836
 21
103.18942413358408
 31
0.0
  0
LINE
  5
3D2
100
AcDbEntity
  8
0
  6
CONTINUOUS
 62
               4
100
AcDbLine
 10
-97.913817136069468
 20
104.49043423385072
 30
0.0
 11
-94.578844772814165
 21
104.49043423385078
 31
0.0
  0
LINE
  5
3D3
100
AcDbEntity
  8
0
  6
CONTINUOUS
 62
               7
100
AcDbLine
 10
-101.41381713606947
 20
103.58911182979438
 30
0.0
 11
-101.41381713606947
 21
104.0891118009049
 31
0.0
  0
LINE
  5
3D4
100
AcDbEntity
  8
0
  6
CONTINUOUS
 62
               4
100
AcDbLine
 10
-82.414827245936152
 20
105.83386857651766
 30
0.0
 11
-82.414827245935982
 21
89.48639383838443
 31
0.0
  0
LINE
  5
3D5
100
AcDbEntity
  8
0
  6
CONTINUOUS
 62
               4
100
AcDbLine
 10
-77.302706036735827
 20
86.834878688384435
 30
0.0
 11
-77.302706036736112
 21
106.33588877825116
 31
0.0
  0
LINE
  5
3D6
100
AcDbEntity
  8
0
  6
CONTINUOUS
 62
               4
100
AcDbLine
 10
-60.41785756153584
 20
86.834878688384691
 30
0.0
 11
-60.417857561536238
 21
108.73487868838467
 31
0.0
  0
LINE
  5
3D7
100
AcDbEntity
  8
0
  6
CONTINUOUS
 62
               4
100
AcDbLine
 10
-74.417857553536209
 20
108.73487868838447
 30
0.0
 11
-74.417857553535811
 21
86.834878688384492
 31
0.0
  0
LINE
  5
3D8
100
AcDbEntity
  8
0
  6
CENTER
 62
               2
100
AcDbLine
 10
-67.417857561535641
 20
3.0509734428928255
 30
0.0
 11
-67.417857561536039
 21
110.01683740067335
 31
0.0
  0
LINE
  5
3D9
100
AcDbEntity
  8
0
  6
CONTINUOUS
 62
               7
100
AcDbLine
 10
-76.017860378062636
 20
80.834881504911465
 30
0.0
 11
-74.41785756153584
 21
79.234878688384697
 31
0.0
  0
LINE
  5
3DA
100
AcDbEntity
  8
0
  6
CONTINUOUS
 62
               7
100
AcDbLine
 10
-74.417857561535897
 20
33.834878688384691
 30
0.0
 11
-76.017860378062693
 21
32.234878688384697
 31
0.0
  0
LINE
  5
3DB
100
AcDbEntity
  8
0
  6
CONTINUOUS
 62
               7
100
AcDbLine
 10
-60.417860378062613
 20
39.434878688384714
 30
0.0
 11
-74.417860378062613
 21
39.434878688384714
 31
0.0
  0
ARC
  5
3DC
100
AcDbEntity
  8
0
  6
CONTINUOUS
 62
               7
100
AcDbCircle
 10
-73.418948383299636
 20
54.135966694575387
 30
0.0
 40
0.5989129830170392
100
AcDbArc
 50
89.895914524772735
 51
180.10408547522667
  0
LINE
  5
3DD
100
AcDbEntity
  8
0
  6
CONTINUOUS
 62
               7
100
AcDbLine
 10
-74.01786136631668
 20
52.333790684101359
 30
0.0
 11
-74.01786136631668
 21
54.135966694575387
 31
0.0
  0
LINE
  5
3DE
100
AcDbEntity
  8
0
  6
CONTINUOUS
 62
               7
100
AcDbLine
 10
-73.417860378062613
 20
51.634878688384688
 30
0.0
 11
-73.417860378062613
 21
54.834878688384677
 31
0.0
  0
LINE
  5
3DF
100
AcDbEntity
  8
0
  6
CONTINUOUS
 62
               7
100
AcDbLine
 10
-73.417860377108951
 20
54.834878688384677
 30
0.0
 11
-74.417860378062613
 21
54.834878688384677
 31
0.0
  0
LINE
  5
3E0
100
AcDbEntity
  8
0
  6
CONTINUOUS
 62
               7
100
AcDbLine
 10
-73.417860377108951
 20
51.634878688384688
 30
0.0
 11
-74.417860378062613
 21
51.634878688384688
 31
0.0
  0
LINE
  5
3E1
100
AcDbEntity
  8
0
  6
CONTINUOUS
 62
               7
100
AcDbLine
 10
-76.017860378062636
 20
80.834881504911465
 30
0.0
 11
-76.017860378062636
 21
86.834878688384691
 31
0.0
  0
LINE
  5
3E2
100
AcDbEntity
  8
0
  6
CONTINUOUS
 62
               7
100
AcDbLine
 10
-60.417857561535897
 20
26.234878688384697
 30
0.0
 11
-60.41785756153584
 21
86.834878688384691
 31
0.0
  0
LINE
  5
3E3
100
AcDbEntity
  8
0
  6
CONTINUOUS
 62
               7
100
AcDbLine
 10
-74.417857561535897
 20
26.234878688384725
 30
0.0
 11
-74.41785756153584
 21
86.834878688384663
 31
0.0
  0
LINE
  5
3E4
100
AcDbEntity
  8
0
  6
CONTINUOUS
 62
               7
100
AcDbLine
 10
-60.417860378062613
 20
73.634878688384688
 30
0.0
 11
-74.417860378062613
 21
73.634878688384688
 31
0.0
  0
LINE
  5
3E5
100
AcDbEntity
  8
0
  6
CONTINUOUS
 62
               7
100
AcDbLine
 10
-60.417860378062613
 20
47.434878688384714
 30
0.0
 11
-74.417860378062613
 21
47.434878688384714
 31
0.0
  0
ARC
  5
3E6
100
AcDbEntity
  8
0
  6
CONTINUOUS
 62
               7
100
AcDbCircle
 10
-73.418948383299636
 20
52.333790684101359
 30
0.0
 40
0.5989129830170392
100
AcDbArc
 50
179.89591452477254
 51
270.10408547522644
  0
LINE
  5
3E7
100
AcDbEntity
  8
0
  6
CONTINUOUS
 62
               7
100
AcDbLine
 10
-76.017860378062693
 20
32.234878688384697
 30
0.0
 11
-76.017860378062693
 21
26.234878688384725
 31
0.0
  0
LINE
  5
3E8
100
AcDbEntity
  8
0
  6
CENTER
 62
               2
100
AcDbLine
 10
-61.980540353824125
 20
81.534878688384708
 30
0.0
 11
-59.699881358985266
 21
81.534878688384708
 31
0.0
  0
LINE
  5
3E9
100
AcDbEntity
  8
0
  6
CONTINUOUS
 62
               7
100
AcDbLine
 10
-60.417854745009066
 20
48.535851954986207
 30
0.0
 11
-59.71785756153588
 21
48.535851954986207
 31
0.0
  0
LINE
  5
3EA
100
AcDbEntity
  8
0
  6
CONTINUOUS
 62
               7
100
AcDbLine
 10
-60.417854745009066
 20
72.535851954986185
 30
0.0
 11
-59.717857561535851
 21
72.535851954986185
 31
0.0
  0
LINE
  5
3EB
100
AcDbEntity
  8
0
  6
CENTER
 62
               2
100
AcDbLine
 10
-48.717857569360547
 20
56.134878688384624
 30
0.0
 11
-48.717857569360547
 21
48.134878688384624
 31
0.0
  0
LINE
  5
3EC
100
AcDbEntity
  8
0
  6
CENTER
 62
               2
100
AcDbLine
 10
-54.717857569360547
 20
64.534878688384623
 30
0.0
 11
-54.717857569360547
 21
56.534878688384623
 31
0.0
  0
LINE
  5
3ED
100
AcDbEntity
  8
0
  6
CENTER
 62
               2
100
AcDbLine
 10
-58.717857569360547
 20
60.534878688384623
 30
0.0
 11
-50.717857569360547
 21
60.534878688384623
 31
0.0
  0
LINE
  5
3EE
100
AcDbEntity
  8
0
  6
CENTER
 62
               2
100
AcDbLine
 10
-52.717857569360547
 20
52.134878688384624
 30
0.0
 11
-44.717857569360547
 21
52.134878688384624
 31
0.0
  0
LINE
  5
3EF
100
AcDbEntity
  8
0
  6
CONTINUOUS
 62
               7
100
AcDbLine
 10
-59.717857569360547
 20
44.034878688384623
 30
0.0
 11
-59.717857569360547
 21
77.034878688384623
 31
0.0
  0
LINE
  5
3F0
100
AcDbEntity
  8
0
  6
CONTINUOUS
 62
               7
100
AcDbLine
 10
-43.717857569360547
 20
44.034878688384623
 30
0.0
 11
-43.717857569360547
 21
77.034878688384623
 31
0.0
  0
CIRCLE
  5
3F1
100
AcDbEntity
  8
0
  6
CONTINUOUS
 62
               2
100
AcDbCircle
 10
-54.717857569360547
 20
60.534878688384623
 30
0.0
 40
2.5
  0
CIRCLE
  5
3F2
100
AcDbEntity
  8
0
  6
CONTINUOUS
 62
               2
100
AcDbCircle
 10
-48.717857569360547
 20
52.134878688384624
 30
0.0
 40
2.5
  0
CIRCLE
  5
3F3
100
AcDbEntity
  8
0
  6
CONTINUOUS
 62
               7
100
AcDbCircle
 10
-54.717857569360547
 20
60.534878688384623
 30
0.0
 40
2.1000000000000001
  0
CIRCLE
  5
3F4
100
AcDbEntity
  8
0
  6
CONTINUOUS
 62
               7
100
AcDbCircle
 10
-48.717857569360547
 20
52.134878688384624
 30
0.0
 40
2.1000000000000001
  0
LINE
  5
3F5
100
AcDbEntity
  8
0
  6
CONTINUOUS
 62
               7
100
AcDbLine
 10
-59.71785756153588
 20
44.034878688384623
 30
0.0
 11
-43.717857569360547
 21
44.034878688384623
 31
0.0
  0
LINE
  5
3F6
100
AcDbEntity
  8
0
  6
CONTINUOUS
 62
               7
100
AcDbLine
 10
-59.71785756153588
 20
77.034878688384623
 30
0.0
 11
-43.71785756153588
 21
77.034878688384623
 31
0.0
  0
LINE
  5
3F7
100
AcDbEntity
  8
0
  6
DASHED
 62
               2
100
AcDbLine
 10
-60.417860378062613
 20
80.784878688384708
 30
0.0
 11
-61.512932407375246
 21
80.784878688384708
 31
0.0
  0
LINE
  5
3F8
100
AcDbEntity
  8
0
  6
DASHED
 62
               2
100
AcDbLine
 10
-60.417860378062613
 20
82.284878688384708
 30
0.0
 11
-61.512932407375246
 21
82.284878688384708
 31
0.0
  0
LINE
  5
3F9
100
AcDbEntity
  8
0
  6
CENTER
 62
               2
100
AcDbLine
 10
-61.980540353824182
 20
31.533905421783118
 30
0.0
 11
-59.699881358985323
 21
31.533905421783118
 31
0.0
  0
LINE
  5
3FA
100
AcDbEntity
  8
0
  6
DASHED
 62
               2
100
AcDbLine
 10
-60.41786037806267
 20
32.283905421783118
 30
0.0
 11
-61.512932407375303
 21
32.283905421783118
 31
0.0
  0
LINE
  5
3FB
100
AcDbEntity
  8
0
  6
DASHED
 62
               2
100
AcDbLine
 10
-60.41786037806267
 20
30.783905421783118
 30
0.0
 11
-61.512932407375303
 21
30.783905421783118
 31
0.0
  0
LINE
  5
3FC
100
AcDbEntity
  8
0
  6
CENTER
 62
               2
100
AcDbLine
 10
-46.217857569360547
 20
74.034878688384637
 30
0.0
 11
-41.217857569360547
 21
74.034878688384637
 31
0.0
  0
LINE
  5
3FD
100
AcDbEntity
  8
0
  6
CENTER
 62
               2
100
AcDbLine
 10
-46.217857569360547
 20
47.034878688384637
 30
0.0
 11
-41.217857569360547
 21
47.034878688384637
 31
0.0
  0
LINE
  5
3FE
100
AcDbEntity
  8
0
  6
CENTER
 62
               2
100
AcDbLine
 10
-62.217857569360547
 20
67.834878688384663
 30
0.0
 11
-57.217857569360547
 21
67.834878688384663
 31
0.0
  0
LINE
  5
3FF
100
AcDbEntity
  8
0
  6
CENTER
 62
               2
100
AcDbLine
 10
-62.217857569360547
 20
53.234878688384661
 30
0.0
 11
-57.217857569360547
 21
53.234878688384661
 31
0.0
  0
LINE
  5
400
100
AcDbEntity
  8
0
  6
CONTINUOUS
 62
               7
100
AcDbLine
 10
-212.60421958927728
 20
80.834878688384649
 30
0.0
 11
-214.2042167727505
 21
79.234878688384654
 31
0.0
  0
LINE
  5
401
100
AcDbEntity
  8
0
  6
CONTINUOUS
 62
               4
100
AcDbLine
 10
-187.20825719821684
 20
103.58911182979429
 30
0.0
 11
-187.20825719821684
 21
104.08911180090482
 31
0.0
  0
ARC
  5
402
100
AcDbEntity
  8
0
  6
CONTINUOUS
 62
               4
100
AcDbCircle
 10
-211.31936829755054
 20
25.734878688384782
 30
0.0
 40
0.5
100
AcDbArc
 50
64.979216838932658
 51
89.999999999999602
  0
ARC
  5
403
100
AcDbEntity
  8
0
  6
CONTINUOUS
 62
               4
100
AcDbCircle
 10
-206.70695941119365
 20
23.582356227845622
 30
0.0
 40
0.4997133381008656
100
AcDbArc
 50
0.1154955796437407
 51
65.173784690191113
  0
LINE
  5
404
100
AcDbEntity
  8
0
  6
CONTINUOUS
 62
               4
100
AcDbLine
 10
-206.49560716242237
 20
24.035173682473015
 30
0.0
 11
-211.10789480599388
 21
26.187955902961761
 31
0.0
  0
LINE
  5
405
100
AcDbEntity
  8
0
  6
CONTINUOUS
 62
               4
100
AcDbLine
 10
-190.70825719821684
 20
8.5793231429184686
 30
0.0
 11
-194.04563093368344
 21
8.5793231429184118
 31
0.0
  0
LINE
  5
406
100
AcDbEntity
  8
0
  6
CONTINUOUS
 62
               4
100
AcDbLine
 10
-190.70825719821696
 20
9.8803332431851629
 30
0.0
 11
-193.29146664976147
 21
9.8803332431851061
 31
0.0
  0
ARC
  5
407
100
AcDbEntity
  8
0
  6
CONTINUOUS
 62
               4
100
AcDbCircle
 10
-227.40431183339874
 20
4.3347835417358453
 30
0.0
 40
0.599904800896587
100
AcDbArc
 50
236.24741787039483
 51
270.00908727754711
  0
ARC
  5
408
100
AcDbEntity
  8
0
  6
CONTINUOUS
 62
               4
100
AcDbCircle
 10
-215.00312886162178
 20
4.3337906832565238
 30
0.0
 40
0.598912923125741
100
AcDbArc
 50
269.89591452477362
 51
0.1040854752283423
  0
LINE
  5
409
100
AcDbEntity
  8
0
  6
CONTINUOUS
 62
               4
100
AcDbLine
 10
-217.90421696178564
 20
4.3348786883847481
 30
0.0
 11
-214.2042167807501
 21
4.3348786883848049
 31
0.0
  0
ARC
  5
40A
100
AcDbEntity
  8
0
  6
CONTINUOUS
 62
               4
100
AcDbCircle
 10
-214.70421678074999
 20
4.3348786883848049
 30
0.0
 40
0.5
100
AcDbArc
 50
273.91958589965162
 51
0.0000000000012213
  0
LINE
  5
40B
100
AcDbEntity
  8
0
  6
CONTINUOUS
 62
               4
100
AcDbLine
 10
-227.40421668675012
 20
3.734878688384498
 30
0.0
 11
-215.00421686675006
 21
3.7348786883847822
 31
0.0
  0
ARC
  5
40C
100
AcDbEntity
  8
0
  6
CONTINUOUS
 62
               4
100
AcDbCircle
 10
-227.70421677275007
 20
4.3348786883845207
 30
0.0
 40
0.5
100
AcDbArc
 50
180.00000000000091
 51
270.00000000000074
  0
LINE
  5
40D
100
AcDbEntity
  8
0
  6
CONTINUOUS
 62
               4
100
AcDbLine
 10
-227.70421677275007
 20
3.8348786883844639
 30
0.0
 11
-226.20421677675014
 21
3.8348786883845207
 31
0.0
  0
LINE
  5
40E
100
AcDbEntity
  8
0
  6
CONTINUOUS
 62
               4
100
AcDbLine
 10
-226.20421677675014
 20
3.7348786883845548
 30
0.0
 11
-226.20421677675014
 21
5.3348786883846344
 31
0.0
  0
LINE
  5
40F
100
AcDbEntity
  8
0
  6
CONTINUOUS
 62
               4
100
AcDbLine
 10
-226.20421677675014
 20
5.3348786883846344
 30
0.0
 11
-214.2042167807501
 21
5.3348786883848618
 31
0.0
  0
LINE
  5
410
100
AcDbEntity
  8
0
  6
CONTINUOUS
 62
             200
100
AcDbLine
 10
-194.53350972128348
 20
7.7308382949183567
 30
0.0
 11
-192.80118648995014
 21
10.728818091185104
 31
0.0
  0
ARC
  5
411
100
AcDbEntity
  8
0
  6
CONTINUOUS
 62
               4
100
AcDbCircle
 10
-205.80338274139589
 20
7.2279840490305389
 30
0.0
 40
0.403865208170398
100
AcDbArc
 50
90.118324735514292
 51
179.88167526448541
  0
ARC
  5
412
100
AcDbEntity
  8
0
  6
CONTINUOUS
 62
               4
100
AcDbCircle
 10
-205.80432085437118
 20
7.2295514567803423
 30
0.0
 40
0.4029269013737999
100
AcDbArc
 50
180.10428358574953
 51
259.90822844260407
  0
ARC
  5
413
100
AcDbEntity
  8
0
  6
CONTINUOUS
 62
               4
100
AcDbCircle
 10
-207.20430426661309
 20
7.1298443632922215
 30
0.0
 40
0.4950149226876426
100
AcDbArc
 50
269.19169587542149
 51
306.8768752588353
  0
ARC
  5
414
100
AcDbEntity
  8
0
  6
CONTINUOUS
 62
               4
100
AcDbCircle
 10
-213.90478548903283
 20
5.9302945589660396
 30
0.0
 40
0.2994663800970315
100
AcDbArc
 50
179.12289923249421
 51
269.5290269715357
  0
ARC
  5
415
100
AcDbEntity
  8
0
  6
CONTINUOUS
 62
               4
100
AcDbCircle
 10
-206.70388393982896
 20
7.2305054499968548
 30
0.0
 40
0.4966660273328702
100
AcDbArc
 50
269.37896036356642
 51
0.621039636437107
  0
LINE
  5
416
100
AcDbEntity
  8
0
  6
CONTINUOUS
 62
               4
100
AcDbLine
 10
-199.20724709235023
 20
11.732858494651708
 30
0.0
 11
-198.21027739595021
 21
11.732858494651708
 31
0.0
  0
LINE
  5
417
100
AcDbEntity
  8
0
  6
CONTINUOUS
 62
               4
100
AcDbLine
 10
-206.20724708835027
 20
11.732858494651538
 30
0.0
 11
-204.2062369884836
 21
11.732858494651651
 31
0.0
  0
LINE
  5
418
100
AcDbEntity
  8
0
  6
CONTINUOUS
 62
               4
100
AcDbLine
 10
-198.21027739595021
 20
10.134878697584924
 30
0.0
 11
-206.20724708835016
 21
10.13487869758481
 31
0.0
  0
LINE
  5
419
100
AcDbEntity
  8
0
  6
CONTINUOUS
 62
               4
100
AcDbLine
 10
-198.21027739595021
 20
8.3318483955849558
 30
0.0
 11
-206.20724708835016
 21
8.3318483955847853
 31
0.0
  0
LINE
  5
41A
100
AcDbEntity
  8
0
  6
CONTINUOUS
 62
               4
100
AcDbLine
 10
-198.21027739595033
 20
7.6318483959849743
 30
0.0
 11
-205.80421678555021
 21
7.6318483959848606
 31
0.0
  0
LINE
  5
41B
100
AcDbEntity
  8
0
  6
CONTINUOUS
 62
               4
100
AcDbLine
 10
-198.50724709275025
 20
7.3348786991849977
 30
0.0
 11
-204.41128749341701
 21
7.334878699184884
 31
0.0
  0
LINE
  5
41C
100
AcDbEntity
  8
0
  6
CONTINUOUS
 62
               4
100
AcDbLine
 10
-198.21027739595021
 20
5.729828195051681
 30
0.0
 11
-199.61734810221694
 21
5.7298281950516241
 31
0.0
  0
LINE
  5
41D
100
AcDbEntity
  8
0
  6
CONTINUOUS
 62
               4
100
AcDbLine
 10
-198.21027739595021
 20
4.7328584986516091
 30
0.0
 11
-199.70926729408356
 21
4.7328584986516091
 31
0.0
  0
LINE
  5
41E
100
AcDbEntity
  8
0
  6
CONTINUOUS
 62
               4
100
AcDbLine
 10
-194.39209557995022
 20
8.5793231429184118
 30
0.0
 11
-198.21027739595021
 21
8.5793231429182981
 31
0.0
  0
LINE
  5
41F
100
AcDbEntity
  8
0
  6
CONTINUOUS
 62
             200
100
AcDbLine
 10
-194.87997436755015
 20
7.7308382949184136
 30
0.0
 11
-193.14765113621692
 21
10.735888798251693
 31
0.0
  0
LINE
  5
420
100
AcDbEntity
  8
0
  6
CONTINUOUS
 62
               4
100
AcDbLine
 10
-193.64085375031411
 20
9.8803332431851061
 30
0.0
 11
-198.21027739595021
 21
9.8803332431850492
 31
0.0
  0
LINE
  5
421
100
AcDbEntity
  8
0
  6
CONTINUOUS
 62
               4
100
AcDbLine
 10
-212.91027738755028
 20
6.7338685985180575
 30
0.0
 11
-212.91027738755028
 21
6.6348786995847888
 31
0.0
  0
LINE
  5
422
100
AcDbEntity
  8
0
  6
CONTINUOUS
 62
               4
100
AcDbLine
 10
-204.81431779621684
 20
5.630838296118128
 30
0.0
 11
-213.9072470839503
 21
5.6308382961180143
 31
0.0
  0
LINE
  5
423
100
AcDbEntity
  8
0
  6
CONTINUOUS
 62
               4
100
AcDbLine
 10
-204.70825719021693
 20
7.6318483959848606
 30
0.0
 11
-204.41128749341701
 21
7.334878699184884
 31
0.0
  0
LINE
  5
424
100
AcDbEntity
  8
0
  6
CONTINUOUS
 62
               4
100
AcDbLine
 10
-204.2062369884836
 20
11.732858494651651
 30
0.0
 11
-204.2062369884836
 21
11.131848393984825
 31
0.0
  0
LINE
  5
425
100
AcDbEntity
  8
0
  6
CONTINUOUS
 62
               4
100
AcDbLine
 10
-199.20724709235023
 20
11.131848393984995
 30
0.0
 11
-204.2062369884836
 21
11.131848393984825
 31
0.0
  0
LINE
  5
426
100
AcDbEntity
  8
0
  6
CONTINUOUS
 62
               4
100
AcDbLine
 10
-199.20724709235023
 20
11.732858494651708
 30
0.0
 11
-199.20724709235023
 21
11.131848393984995
 31
0.0
  0
LINE
  5
427
100
AcDbEntity
  8
0
  6
CONTINUOUS
 62
               4
100
AcDbLine
 10
-198.21027739595033
 20
7.6318483959849743
 30
0.0
 11
-198.50724709275025
 21
7.3348786991849977
 31
0.0
  0
LINE
  5
428
100
AcDbEntity
  8
0
  6
CONTINUOUS
 62
               4
100
AcDbLine
 10
-207.21128749181693
 20
6.6348786995848457
 30
0.0
 11
-212.91027738755028
 21
6.6348786995847888
 31
0.0
  0
LINE
  5
429
100
AcDbEntity
  8
0
  6
CONTINUOUS
 62
               4
100
AcDbLine
 10
-205.8749238562169
 20
6.8328584974515536
 30
0.0
 11
-199.53249961741696
 21
5.7156867809183325
 31
0.0
  0
LINE
  5
42A
100
AcDbEntity
  8
0
  6
CONTINUOUS
 62
               4
100
AcDbLine
 10
-198.21027739595021
 20
5.729828195051681
 30
0.0
 11
-198.21027739595021
 21
4.7328584986516091
 31
0.0
  0
LINE
  5
42B
100
AcDbEntity
  8
0
  6
CONTINUOUS
 62
               4
100
AcDbLine
 10
-204.81431779621684
 20
5.630838296118128
 30
0.0
 11
-199.70926729408356
 21
4.7328584986516091
 31
0.0
  0
LINE
  5
42C
100
AcDbEntity
  8
0
  6
CONTINUOUS
 62
               4
100
AcDbLine
 10
-198.21027739595021
 20
11.732858494651708
 30
0.0
 11
-198.21027739595033
 21
7.6318483959849743
 31
0.0
  0
LINE
  5
42D
100
AcDbEntity
  8
0
  6
CONTINUOUS
 62
               4
100
AcDbLine
 10
-214.20421678075033
 20
6.7338685985180575
 30
0.0
 11
-206.7092672900836
 21
6.7338685985181144
 31
0.0
  0
LINE
  5
42E
100
AcDbEntity
  8
0
  6
CONTINUOUS
 62
               4
100
AcDbLine
 10
-190.70825719821696
 20
9.8803332431851629
 30
0.0
 11
-190.70825719821684
 21
8.5793231429184686
 31
0.0
  0
LINE
  5
42F
100
AcDbEntity
  8
0
  6
CONTINUOUS
 62
               4
100
AcDbLine
 10
-217.90421696178564
 20
4.3348786883848049
 30
0.0
 11
-217.90421696178564
 21
3.7348786883847822
 31
0.0
  0
ARC
  5
430
100
AcDbEntity
  8
0
  6
CONTINUOUS
 62
               4
100
AcDbCircle
 10
-216.80530496702269
 20
4.3337906831477824
 30
0.0
 40
0.5989129830170392
100
AcDbArc
 50
179.89591452477279
 51
270.10408547522673
  0
LINE
  5
431
100
AcDbEntity
  8
0
  6
CONTINUOUS
 62
               4
100
AcDbLine
 10
-206.20724708835027
 20
7.2358888002515016
 30
0.0
 11
-206.20724708835039
 21
23.583363538384759
 31
0.0
  0
LINE
  5
432
100
AcDbEntity
  8
0
  6
CONTINUOUS
 62
               4
100
AcDbLine
 10
-211.31936829755054
 20
26.234878688384782
 30
0.0
 11
-211.31936829755031
 21
6.7338685985180575
 31
0.0
  0
LINE
  5
433
100
AcDbEntity
  8
0
  6
CONTINUOUS
 62
               4
100
AcDbLine
 10
-228.20421677275053
 20
26.234878688384555
 30
0.0
 11
-228.20421677275019
 21
4.3348786883845776
 31
0.0
  0
LINE
  5
434
100
AcDbEntity
  8
0
  6
CONTINUOUS
 62
               4
100
AcDbLine
 10
-214.20421678075022
 20
4.3348786883847481
 30
0.0
 11
-214.20421678075056
 21
26.234878688384725
 31
0.0
  0
LINE
  5
435
100
AcDbEntity
  8
0
  6
CONTINUOUS
 62
               4
100
AcDbLine
 10
-190.70825719821701
 20
9.4806455758643153
 30
0.0
 11
-187.20825719821684
 21
9.4806455758643153
 31
0.0
  0
LINE
  5
436
100
AcDbEntity
  8
0
  6
CONTINUOUS
 62
               4
100
AcDbLine
 10
-190.70825719821701
 20
8.9806455758643153
 30
0.0
 11
-187.20825719821684
 21
8.9806455758643153
 31
0.0
  0
ARC
  5
437
100
AcDbEntity
  8
0
  6
CONTINUOUS
 62
               4
100
AcDbCircle
 10
-211.31936829755054
 20
87.334878688384407
 30
0.0
 40
0.5
100
AcDbArc
 50
269.99999999999937
 51
295.02078316106633
  0
ARC
  5
438
100
AcDbEntity
  8
0
  6
CONTINUOUS
 62
               4
100
AcDbCircle
 10
-206.70695941119365
 20
89.48740114892351
 30
0.0
 40
0.4997133381008656
100
AcDbArc
 50
294.82621530980788
 51
359.88450442035526
  0
LINE
  5
439
100
AcDbEntity
  8
0
  6
CONTINUOUS
 62
               4
100
AcDbLine
 10
-206.49560716242237
 20
89.034583694296117
 30
0.0
 11
-211.10789480599388
 21
86.881801473807428
 31
0.0
  0
LINE
  5
43A
100
AcDbEntity
  8
0
  6
CONTINUOUS
 62
               4
100
AcDbLine
 10
-190.70825719821684
 20
104.49043423385066
 30
0.0
 11
-194.04322956147215
 21
104.49043423385072
 31
0.0
  0
LINE
  5
43B
100
AcDbEntity
  8
0
  6
CONTINUOUS
 62
               4
100
AcDbLine
 10
-190.70825719821696
 20
103.18942413358397
 30
0.0
 11
-193.29146664976147
 21
103.18942413358403
 31
0.0
  0
ARC
  5
43C
100
AcDbEntity
  8
0
  6
CONTINUOUS
 62
               4
100
AcDbCircle
 10
-215.0041217121022
 20
108.73497383503334
 30
0.0
 40
0.599904800896587
100
AcDbArc
 50
56.247417870394948
 51
90.009087277547238
  0
ARC
  5
43D
100
AcDbEntity
  8
0
  6
CONTINUOUS
 62
               4
100
AcDbCircle
 10
-227.40530468387917
 20
108.73596669351272
 30
0.0
 40
0.598912923125741
100
AcDbArc
 50
89.895914524773801
 51
180.10408547522775
  0
LINE
  5
43E
100
AcDbEntity
  8
0
  6
CONTINUOUS
 62
               4
100
AcDbLine
 10
-224.5042165837153
 20
108.7348786883845
 30
0.0
 11
-228.20421676475084
 21
108.73487868838444
 31
0.0
  0
ARC
  5
43F
100
AcDbEntity
  8
0
  6
CONTINUOUS
 62
               4
100
AcDbCircle
 10
-227.70421676475095
 20
108.73487868838444
 30
0.0
 40
0.5
100
AcDbArc
 50
93.919585899651864
 51
180.00000000000065
  0
LINE
  5
440
100
AcDbEntity
  8
0
  6
CONTINUOUS
 62
               4
100
AcDbLine
 10
-215.00421685875082
 20
109.33487868838469
 30
0.0
 11
-227.40421667875088
 21
109.33487868838446
 31
0.0
  0
ARC
  5
441
100
AcDbEntity
  8
0
  6
CONTINUOUS
 62
               4
100
AcDbCircle
 10
-214.70421677275087
 20
108.73487868838467
 30
0.0
 40
0.5
100
AcDbArc
 50
0.0000000000010687
 51
90.000000000000867
  0
LINE
  5
442
100
AcDbEntity
  8
0
  6
CONTINUOUS
 62
               4
100
AcDbLine
 10
-214.70421677275087
 20
109.23487868838473
 30
0.0
 11
-216.2042167687508
 21
109.23487868838467
 31
0.0
  0
LINE
  5
443
100
AcDbEntity
  8
0
  6
CONTINUOUS
 62
               4
100
AcDbLine
 10
-216.2042167687508
 20
109.33487868838469
 30
0.0
 11
-216.2042167687508
 21
107.73487868838461
 31
0.0
  0
LINE
  5
444
100
AcDbEntity
  8
0
  6
CONTINUOUS
 62
               4
100
AcDbLine
 10
-216.2042167687508
 20
107.73487868838461
 30
0.0
 11
-228.20421676475084
 21
107.73487868838438
 31
0.0
  0
LINE
  5
445
100
AcDbEntity
  8
0
  6
CONTINUOUS
 62
             200
100
AcDbLine
 10
-194.53350972128348
 20
105.33891908185078
 30
0.0
 11
-192.80118648995014
 21
102.34093928558403
 31
0.0
  0
ARC
  5
446
100
AcDbEntity
  8
0
  6
CONTINUOUS
 62
               4
100
AcDbCircle
 10
-205.80338274139578
 20
105.84177332773865
 30
0.0
 40
0.403865208170398
100
AcDbArc
 50
180.1183247355136
 51
269.88167526448467
  0
ARC
  5
447
100
AcDbEntity
  8
0
  6
CONTINUOUS
 62
               4
100
AcDbCircle
 10
-205.80432085437107
 20
105.84020591998879
 30
0.0
 40
0.4029269013737999
100
AcDbArc
 50
100.09177155739488
 51
179.89571641424939
  0
ARC
  5
448
100
AcDbEntity
  8
0
  6
CONTINUOUS
 62
               4
100
AcDbCircle
 10
-207.20430426661298
 20
105.93991301347697
 30
0.0
 40
0.4950149226876426
100
AcDbArc
 50
53.123124741163664
 51
90.808304124577461
  0
ARC
  5
449
100
AcDbEntity
  8
0
  6
CONTINUOUS
 62
               4
100
AcDbCircle
 10
-213.90478548903272
 20
107.13946281780315
 30
0.0
 40
0.2994663800970315
100
AcDbArc
 50
90.470973028463291
 51
180.87710076750477
  0
ARC
  5
44A
100
AcDbEntity
  8
0
  6
CONTINUOUS
 62
               4
100
AcDbCircle
 10
-206.70388393982884
 20
105.83925192677233
 30
0.0
 40
0.4966660273328702
100
AcDbArc
 50
359.37896036356273
 51
90.621039636432627
  0
LINE
  5
44B
100
AcDbEntity
  8
0
  6
CONTINUOUS
 62
               4
100
AcDbLine
 10
-199.20724709235023
 20
101.33689888211748
 30
0.0
 11
-198.21027739595021
 21
101.33689888211742
 31
0.0
  0
LINE
  5
44C
100
AcDbEntity
  8
0
  6
CONTINUOUS
 62
               4
100
AcDbLine
 10
-206.20724708835027
 20
101.33689888211759
 30
0.0
 11
-204.2062369884836
 21
101.33689888211754
 31
0.0
  0
LINE
  5
44D
100
AcDbEntity
  8
0
  6
CONTINUOUS
 62
               4
100
AcDbLine
 10
-198.21027739595021
 20
102.93487867918421
 30
0.0
 11
-206.20724708835016
 21
102.93487867918432
 31
0.0
  0
LINE
  5
44E
100
AcDbEntity
  8
0
  6
CONTINUOUS
 62
               4
100
AcDbLine
 10
-198.21027739595021
 20
104.73790898118418
 30
0.0
 11
-206.20724708835016
 21
104.73790898118435
 31
0.0
  0
LINE
  5
44F
100
AcDbEntity
  8
0
  6
CONTINUOUS
 62
               4
100
AcDbLine
 10
-198.21027739595021
 20
105.43790898078416
 30
0.0
 11
-205.8042167855501
 21
105.43790898078427
 31
0.0
  0
LINE
  5
450
100
AcDbEntity
  8
0
  6
CONTINUOUS
 62
               4
100
AcDbLine
 10
-198.50724709275013
 20
105.73487867758413
 30
0.0
 11
-204.41128749341689
 21
105.73487867758425
 31
0.0
  0
LINE
  5
451
100
AcDbEntity
  8
0
  6
CONTINUOUS
 62
               4
100
AcDbLine
 10
-198.2102773959501
 20
107.33992918171745
 30
0.0
 11
-199.61734810221682
 21
107.33992918171751
 31
0.0
  0
LINE
  5
452
100
AcDbEntity
  8
0
  6
CONTINUOUS
 62
               4
100
AcDbLine
 10
-198.2102773959501
 20
108.33689887811752
 30
0.0
 11
-199.70926729408345
 21
108.33689887811758
 31
0.0
  0
LINE
  5
453
100
AcDbEntity
  8
0
  6
CONTINUOUS
 62
               4
100
AcDbLine
 10
-194.39209557995022
 20
104.49043423385072
 30
0.0
 11
-198.21027739595021
 21
104.49043423385083
 31
0.0
  0
LINE
  5
454
100
AcDbEntity
  8
0
  6
CONTINUOUS
 62
             200
100
AcDbLine
 10
-194.87997436755015
 20
105.33891908185072
 30
0.0
 11
-193.14765113621692
 21
102.33386857851744
 31
0.0
  0
LINE
  5
455
100
AcDbEntity
  8
0
  6
CONTINUOUS
 62
               4
100
AcDbLine
 10
-193.64260063088361
 20
103.18942413358403
 30
0.0
 11
-198.21027739595021
 21
103.18942413358408
 31
0.0
  0
LINE
  5
456
100
AcDbEntity
  8
0
  6
CONTINUOUS
 62
               4
100
AcDbLine
 10
-212.91027738755017
 20
106.33588877825113
 30
0.0
 11
-212.91027738755017
 21
106.4348786771844
 31
0.0
  0
LINE
  5
457
100
AcDbEntity
  8
0
  6
CONTINUOUS
 62
               4
100
AcDbLine
 10
-204.81431779621673
 20
107.438919080651
 30
0.0
 11
-213.90724708395018
 21
107.43891908065117
 31
0.0
  0
LINE
  5
458
100
AcDbEntity
  8
0
  6
CONTINUOUS
 62
               4
100
AcDbLine
 10
-204.70825719021681
 20
105.43790898078427
 30
0.0
 11
-204.41128749341689
 21
105.73487867758425
 31
0.0
  0
LINE
  5
459
100
AcDbEntity
  8
0
  6
CONTINUOUS
 62
               4
100
AcDbLine
 10
-204.2062369884836
 20
101.33689888211754
 30
0.0
 11
-204.2062369884836
 21
101.93790898278431
 31
0.0
  0
LINE
  5
45A
100
AcDbEntity
  8
0
  6
CONTINUOUS
 62
               4
100
AcDbLine
 10
-199.20724709235023
 20
101.93790898278419
 30
0.0
 11
-204.2062369884836
 21
101.93790898278431
 31
0.0
  0
LINE
  5
45B
100
AcDbEntity
  8
0
  6
CONTINUOUS
 62
               4
100
AcDbLine
 10
-199.20724709235023
 20
101.33689888211748
 30
0.0
 11
-199.20724709235023
 21
101.93790898278419
 31
0.0
  0
LINE
  5
45C
100
AcDbEntity
  8
0
  6
CONTINUOUS
 62
               4
100
AcDbLine
 10
-198.21027739595021
 20
105.43790898078416
 30
0.0
 11
-198.50724709275013
 21
105.73487867758413
 31
0.0
  0
LINE
  5
45D
100
AcDbEntity
  8
0
  6
CONTINUOUS
 62
               4
100
AcDbLine
 10
-207.21128749181682
 20
106.43487867718434
 30
0.0
 11
-212.91027738755017
 21
106.4348786771844
 31
0.0
  0
LINE
  5
45E
100
AcDbEntity
  8
0
  6
CONTINUOUS
 62
               4
100
AcDbLine
 10
-205.87492385621678
 20
106.23689887931758
 30
0.0
 11
-199.53249961741685
 21
107.35407059585086
 31
0.0
  0
LINE
  5
45F
100
AcDbEntity
  8
0
  6
CONTINUOUS
 62
               4
100
AcDbLine
 10
-198.2102773959501
 20
107.33992918171745
 30
0.0
 11
-198.2102773959501
 21
108.33689887811752
 31
0.0
  0
LINE
  5
460
100
AcDbEntity
  8
0
  6
CONTINUOUS
 62
               4
100
AcDbLine
 10
-204.81431779621673
 20
107.438919080651
 30
0.0
 11
-199.70926729408345
 21
108.33689887811758
 31
0.0
  0
LINE
  5
461
100
AcDbEntity
  8
0
  6
CONTINUOUS
 62
               4
100
AcDbLine
 10
-198.21027739595021
 20
101.33689888211742
 30
0.0
 11
-198.21027739595021
 21
105.43790898078416
 31
0.0
  0
LINE
  5
462
100
AcDbEntity
  8
0
  6
CONTINUOUS
 62
               4
100
AcDbLine
 10
-214.20421678075022
 20
106.33588877825113
 30
0.0
 11
-206.70926729008349
 21
106.33588877825102
 31
0.0
  0
LINE
  5
463
100
AcDbEntity
  8
0
  6
CONTINUOUS
 62
               4
100
AcDbLine
 10
-190.70825719821696
 20
103.18942413358397
 30
0.0
 11
-190.70825719821684
 21
104.49043423385066
 31
0.0
  0
LINE
  5
464
100
AcDbEntity
  8
0
  6
CONTINUOUS
 62
               4
100
AcDbLine
 10
-224.5042165837153
 20
108.73487868838444
 30
0.0
 11
-224.5042165837153
 21
109.33487868838446
 31
0.0
  0
ARC
  5
465
100
AcDbEntity
  8
0
  6
CONTINUOUS
 62
               4
100
AcDbCircle
 10
-225.60312857847825
 20
108.73596669362146
 30
0.0
 40
0.5989129830170392
100
AcDbArc
 50
359.89591452477299
 51
90.104085475226924
  0
LINE
  5
466
100
AcDbEntity
  8
0
  6
CONTINUOUS
 62
               4
100
AcDbLine
 10
-190.7082571982169
 20
104.08911180090482
 30
0.0
 11
-187.20825719821684
 21
104.08911180090482
 31
0.0
  0
LINE
  5
467
100
AcDbEntity
  8
0
  6
CONTINUOUS
 62
               4
100
AcDbLine
 10
-190.7082571982169
 20
103.58911180090482
 30
0.0
 11
-187.20825719821684
 21
103.58911180090482
 31
0.0
  0
LINE
  5
468
100
AcDbEntity
  8
0
  6
CONTINUOUS
 62
               4
100
AcDbLine
 10
-206.20724708835016
 20
105.83386857651763
 30
0.0
 11
-206.20724708835039
 21
89.486393838384373
 31
0.0
  0
LINE
  5
469
100
AcDbEntity
  8
0
  6
CONTINUOUS
 62
               4
100
AcDbLine
 10
-211.31936829755054
 20
86.834878688384407
 30
0.0
 11
-211.3193682975502
 21
106.33588877825113
 31
0.0
  0
LINE
  5
46A
100
AcDbEntity
  8
0
  6
CONTINUOUS
 62
               4
100
AcDbLine
 10
-228.20421677275053
 20
86.834878688384691
 30
0.0
 11
-228.20421677275007
 21
108.73487868838467
 31
0.0
  0
LINE
  5
46B
100
AcDbEntity
  8
0
  6
CONTINUOUS
 62
               4
100
AcDbLine
 10
-214.2042167807501
 20
108.73487868838444
 30
0.0
 11
-214.20421678075056
 21
86.834878688384464
 31
0.0
  0
LINE
  5
46C
100
AcDbEntity
  8
0
  6
CENTER
 62
               2
100
AcDbLine
 10
-221.20421677275053
 20
110.01781066727486
 30
0.0
 11
-221.20421677275053
 21
3.0519467094943309
 31
0.0
  0
LINE
  5
46D
100
AcDbEntity
  8
0
  6
CONTINUOUS
 62
               7
100
AcDbLine
 10
-214.20421958927727
 20
47.434878688384671
 30
0.0
 11
-228.20421677275053
 21
47.434878688384671
 31
0.0
  0
LINE
  5
46E
100
AcDbEntity
  8
0
  6
CONTINUOUS
 62
               7
100
AcDbLine
 10
-228.20421958927727
 20
39.434878688384671
 30
0.0
 11
-214.20421958927727
 21
39.434878688384671
 31
0.0
  0
LINE
  5
46F
100
AcDbEntity
  8
0
  6
CONTINUOUS
 62
               7
100
AcDbLine
 10
-228.20421958927727
 20
73.634878688384646
 30
0.0
 11
-214.20421958927727
 21
73.634878688384646
 31
0.0
  0
LINE
  5
470
100
AcDbEntity
  8
0
  6
CONTINUOUS
 62
               7
100
AcDbLine
 10
-214.2042167727505
 20
26.234878688384683
 30
0.0
 11
-214.2042167727505
 21
86.83487868838462
 31
0.0
  0
LINE
  5
471
100
AcDbEntity
  8
0
  6
CONTINUOUS
 62
               4
100
AcDbLine
 10
-228.20421395622378
 20
86.834878688384649
 30
0.0
 11
-211.31936829755054
 21
86.83487868838462
 31
0.0
  0
LINE
  5
472
100
AcDbEntity
  8
0
  6
CONTINUOUS
 62
               7
100
AcDbLine
 10
-212.60421958927728
 20
80.834878688384649
 30
0.0
 11
-212.60421958927728
 21
86.834878688384649
 31
0.0
  0
LINE
  5
473
100
AcDbEntity
  8
0
  6
CONTINUOUS
 62
               7
100
AcDbLine
 10
-215.20421959023093
 20
69.434878688384657
 30
0.0
 11
-214.20421958927727
 21
69.434878688384657
 31
0.0
  0
LINE
  5
474
100
AcDbEntity
  8
0
  6
CONTINUOUS
 62
               7
100
AcDbLine
 10
-215.20421959023093
 20
66.234878688384669
 30
0.0
 11
-214.20421958927727
 21
66.234878688384669
 31
0.0
  0
LINE
  5
475
100
AcDbEntity
  8
0
  6
CONTINUOUS
 62
               7
100
AcDbLine
 10
-215.20421958927727
 20
69.434878688384657
 30
0.0
 11
-215.20421958927727
 21
66.234878688384669
 31
0.0
  0
LINE
  5
476
100
AcDbEntity
  8
0
  6
CONTINUOUS
 62
               4
100
AcDbLine
 10
-228.20421677275053
 20
26.234878688384654
 30
0.0
 11
-211.31936829755054
 21
26.234878688384683
 31
0.0
  0
LINE
  5
477
100
AcDbEntity
  8
0
  6
CONTINUOUS
 62
               7
100
AcDbLine
 10
-228.20421677275053
 20
26.234878688384654
 30
0.0
 11
-228.20421677275053
 21
86.834878688384634
 31
0.0
  0
LINE
  5
478
100
AcDbEntity
  8
0
  6
CONTINUOUS
 62
               7
100
AcDbLine
 10
-212.60421958927728
 20
32.234878688384654
 30
0.0
 11
-212.60421958927728
 21
26.234878688384654
 31
0.0
  0
LINE
  5
479
100
AcDbEntity
  8
0
  6
CONTINUOUS
 62
               7
100
AcDbLine
 10
-212.60421958927728
 20
32.234878688384654
 30
0.0
 11
-214.20421958927727
 21
33.834878688384663
 31
0.0
  0
LINE
  5
47A
100
AcDbEntity
  8
0
  6
CONTINUOUS
 62
               7
100
AcDbLine
 10
-215.20421958927727
 20
69.334878687430972
 30
0.0
 11
-215.00421958927728
 21
69.334878687430972
 31
0.0
  0
LINE
  5
47B
100
AcDbEntity
  8
0
  6
CONTINUOUS
 62
               7
100
AcDbLine
 10
-215.20421958927727
 20
66.334878687430972
 30
0.0
 11
-215.00421958927728
 21
66.334878687430972
 31
0.0
  0
LINE
  5
47C
100
AcDbEntity
  8
0
  6
CONTINUOUS
 62
               7
100
AcDbLine
 10
-214.60421958927728
 20
68.934878687430967
 30
0.0
 11
-214.60421958927728
 21
66.734878687430978
 31
0.0
  0
ARC
  5
47D
100
AcDbEntity
  8
0
  6
CONTINUOUS
 62
               7
100
AcDbCircle
 10
-215.00421958927728
 20
68.934878687430967
 30
0.0
 40
0.4
100
AcDbArc
 50
0.0
 51
89.999999999999815
  0
ARC
  5
47E
100
AcDbEntity
  8
0
  6
CONTINUOUS
 62
               7
100
AcDbCircle
 10
-215.00421958927728
 20
66.734878687430978
 30
0.0
 40
0.4
100
AcDbArc
 50
270.00000000000023
 51
0.0
  0
LINE
  5
47F
100
AcDbEntity
  8
0
  6
CONTINUOUS
 62
               7
100
AcDbLine
 10
-228.20421395622378
 20
72.533905421783047
 30
0.0
 11
-228.90421677275054
 21
72.533905421783047
 31
0.0
  0
LINE
  5
480
100
AcDbEntity
  8
0
  6
CONTINUOUS
 62
               7
100
AcDbLine
 10
-228.20421395622378
 20
48.533905421783075
 30
0.0
 11
-228.90421677275049
 21
48.533905421783075
 31
0.0
  0
LINE
  5
481
100
AcDbEntity
  8
0
  6
CENTER
 62
               2
100
AcDbLine
 10
-239.90421677275054
 20
60.734878688384626
 30
0.0
 11
-239.90421677275054
 21
68.734878688384626
 31
0.0
  0
LINE
  5
482
100
AcDbEntity
  8
0
  6
CONTINUOUS
 62
               7
100
AcDbLine
 10
-228.90421677275054
 20
44.034878688384637
 30
0.0
 11
-228.90421677275054
 21
77.034878688384637
 31
0.0
  0
LINE
  5
483
100
AcDbEntity
  8
0
  6
CONTINUOUS
 62
               7
100
AcDbLine
 10
-244.90421677275054
 20
44.034878688384637
 30
0.0
 11
-244.90421677275054
 21
77.034878688384637
 31
0.0
  0
LINE
  5
484
100
AcDbEntity
  8
0
  6
CENTER
 62
               2
100
AcDbLine
 10
-243.90421677275054
 20
64.734878688384626
 30
0.0
 11
-235.90421677275054
 21
64.734878688384626
 31
0.0
  0
LINE
  5
485
100
AcDbEntity
  8
0
  6
CENTER
 62
               2
100
AcDbLine
 10
-237.90421677275054
 20
56.334878688384649
 30
0.0
 11
-229.90421677275054
 21
56.334878688384649
 31
0.0
  0
CIRCLE
  5
486
100
AcDbEntity
  8
0
  6
CONTINUOUS
 62
               2
100
AcDbCircle
 10
-233.90421677275054
 20
56.334878688384649
 30
0.0
 40
2.5
  0
CIRCLE
  5
487
100
AcDbEntity
  8
0
  6
CONTINUOUS
 62
               2
100
AcDbCircle
 10
-239.90421677275054
 20
64.734878688384626
 30
0.0
 40
2.5
  0
CIRCLE
  5
488
100
AcDbEntity
  8
0
  6
CONTINUOUS
 62
               7
100
AcDbCircle
 10
-239.90421677275054
 20
64.734878688384626
 30
0.0
 40
2.1000000000000001
  0
CIRCLE
  5
489
100
AcDbEntity
  8
0
  6
CONTINUOUS
 62
               7
100
AcDbCircle
 10
-233.90421677275054
 20
56.334878688384649
 30
0.0
 40
2.1000000000000001
  0
LINE
  5
48A
100
AcDbEntity
  8
0
  6
CENTER
 62
               2
100
AcDbLine
 10
-233.90421677275054
 20
52.334878688384649
 30
0.0
 11
-233.90421677275054
 21
60.334878688384649
 31
0.0
  0
LINE
  5
48B
100
AcDbEntity
  8
0
  6
CONTINUOUS
 62
               7
100
AcDbLine
 10
-244.90421678655997
 20
77.034878688384637
 30
0.0
 11
-228.90421678655997
 21
77.034878688384637
 31
0.0
  0
LINE
  5
48C
100
AcDbEntity
  8
0
  6
CONTINUOUS
 62
               7
100
AcDbLine
 10
-244.90421678655997
 20
44.034878688384637
 30
0.0
 11
-228.90421677275054
 21
44.034878688384637
 31
0.0
  0
LINE
  5
48D
100
AcDbEntity
  8
0
  6
CONTINUOUS
 62
               4
100
AcDbLine
 10
-187.20825719821684
 20
9.4806455758643153
 30
0.0
 11
-187.20825719821684
 21
8.9806455758643153
 31
0.0
  0
LINE
  5
48E
100
AcDbEntity
  8
0
  6
CENTER
 62
               2
100
AcDbLine
 10
-247.40421676635742
 20
74.034878688384637
 30
0.0
 11
-242.40421677275054
 21
74.034878688384637
 31
0.0
  0
LINE
  5
48F
100
AcDbEntity
  8
0
  6
CENTER
 62
               2
100
AcDbLine
 10
-247.40421676635742
 20
47.034878688384637
 30
0.0
 11
-242.40421677275054
 21
47.034878688384637
 31
0.0
  0
LINE
  5
490
100
AcDbEntity
  8
0
  6
CENTER
 62
               2
100
AcDbLine
 10
-230.70421677827835
 20
67.834878688384663
 30
0.0
 11
-225.70421677827835
 21
67.834878688384663
 31
0.0
  0
LINE
  5
491
100
AcDbEntity
  8
0
  6
CENTER
 62
               2
100
AcDbLine
 10
-230.70421677827835
 20
53.234878688384661
 30
0.0
 11
-225.70421677827835
 21
53.234878688384661
 31
0.0
  0
LINE
  5
492
100
AcDbEntity
  8
0
  6
CONTINUOUS
 62
               7
100
AcDbLine
 10
-150.31103716714318
 20
47.434878688384671
 30
0.0
 11
-140.31103716714318
 21
47.434878688384671
 31
0.0
  0
LINE
  5
493
100
AcDbEntity
  8
0
  6
CONTINUOUS
 62
               4
100
AcDbLine
 10
-142.56103716714321
 20
5.7298281950518515
 30
0.0
 11
-148.06103716714321
 21
5.7298281950518515
 31
0.0
  0
LINE
  5
494
100
AcDbEntity
  8
0
  6
CONTINUOUS
 62
               4
100
AcDbLine
 10
-142.56103716714321
 20
4.7328584986517797
 30
0.0
 11
-148.06103716714321
 21
4.7328584986517797
 31
0.0
  0
LINE
  5
495
100
AcDbEntity
  8
0
  6
CONTINUOUS
 62
               4
100
AcDbLine
 10
-143.56103716714321
 20
10.382878688384636
 30
0.0
 11
-143.56103716714321
 21
10.082878688384625
 31
0.0
  0
ARC
  5
496
100
AcDbEntity
  8
0
  6
CONTINUOUS
 62
               4
100
AcDbCircle
 10
-140.81133419134935
 20
25.734581664178592
 30
0.0
 40
0.5002971123771115
100
AcDbArc
 50
0.034016255545966
 51
89.965983744453979
  0
ARC
  5
497
100
AcDbEntity
  8
0
  6
CONTINUOUS
 62
               4
100
AcDbCircle
 10
-149.81133401500742
 20
25.735175536248875
 30
0.0
 40
0.4997032403068002
100
AcDbArc
 50
89.965963537146934
 51
180.03403646285233
  0
LINE
  5
498
100
AcDbEntity
  8
0
  6
CONTINUOUS
 62
               4
100
AcDbLine
 10
-140.31103716714321
 20
3.7348786883846685
 30
0.0
 11
-140.31103716714321
 21
26.234878688384669
 31
0.0
  0
LINE
  5
499
100
AcDbEntity
  8
0
  6
CONTINUOUS
 62
               4
100
AcDbLine
 10
-150.31103716714321
 20
3.7348786883846685
 30
0.0
 11
-150.31103716714321
 21
26.234878688384669
 31
0.0
  0
ARC
  5
49A
100
AcDbEntity
  8
0
  6
CONTINUOUS
 62
               4
100
AcDbCircle
 10
-147.71394916190619
 20
4.3337906831476118
 30
0.0
 40
0.5989129830170392
100
AcDbArc
 50
269.89591452477231
 51
0.1040854752270701
  0
ARC
  5
49B
100
AcDbEntity
  8
0
  6
CONTINUOUS
 62
               4
100
AcDbCircle
 10
-149.51513231380144
 20
4.3347835417264662
 30
0.0
 40
0.5999048608870732
100
AcDbArc
 50
179.99091272245337
 51
270.00908727754575
  0
LINE
  5
49C
100
AcDbEntity
  8
0
  6
CONTINUOUS
 62
               4
100
AcDbLine
 10
-150.31103716714321
 20
4.3348786883846344
 30
0.0
 11
-147.11103716714322
 21
4.3348786883846344
 31
0.0
  0
ARC
  5
49D
100
AcDbEntity
  8
0
  6
CONTINUOUS
 62
               4
100
AcDbCircle
 10
-140.81103716714321
 20
4.3348786883846344
 30
0.0
 40
0.5
100
AcDbArc
 50
269.99999999999937
 51
0.0
  0
LINE
  5
49E
100
AcDbEntity
  8
0
  6
CONTINUOUS
 62
               4
100
AcDbLine
 10
-147.11103716714322
 20
3.8348786883846344
 30
0.0
 11
-147.11103716714322
 21
4.7328584986517797
 31
0.0
  0
LINE
  5
49F
100
AcDbEntity
  8
0
  6
CONTINUOUS
 62
               4
100
AcDbLine
 10
-147.11103716714322
 20
3.8348786883846344
 30
0.0
 11
-140.81103716714321
 21
3.8348786883846344
 31
0.0
  0
LINE
  5
4A0
100
AcDbEntity
  8
0
  6
CONTINUOUS
 62
               4
100
AcDbLine
 10
-150.31103716714321
 20
5.3348786883846344
 30
0.0
 11
-148.06103716714321
 21
5.3348786883846344
 31
0.0
  0
LINE
  5
4A1
100
AcDbEntity
  8
0
  6
CONTINUOUS
 62
               4
100
AcDbLine
 10
-150.31103716714321
 20
3.7348786883846685
 30
0.0
 11
-140.31103716714321
 21
3.7348786883846685
 31
0.0
  0
LINE
  5
4A2
100
AcDbEntity
  8
0
  6
PHANTOM
 62
             200
100
AcDbLine
 10
-143.81103716714321
 20
18.734878688384669
 30
0.0
 11
-146.81103716714321
 21
18.734878688384669
 31
0.0
  0
LINE
  5
4A3
100
AcDbEntity
  8
0
  6
PHANTOM
 62
             200
100
AcDbLine
 10
-143.81103716714321
 20
20.734878688384669
 30
0.0
 11
-146.81103716714321
 21
20.734878688384669
 31
0.0
  0
LINE
  5
4A4
100
AcDbEntity
  8
0
  6
PHANTOM
 62
             200
100
AcDbLine
 10
-146.81103716714321
 20
18.734878688384669
 30
0.0
 11
-146.81103716714321
 21
20.734878688384669
 31
0.0
  0
LINE
  5
4A5
100
AcDbEntity
  8
0
  6
PHANTOM
 62
             200
100
AcDbLine
 10
-143.81103716714321
 20
18.734878688384669
 30
0.0
 11
-143.81103716714321
 21
20.734878688384669
 31
0.0
  0
LINE
  5
4A6
100
AcDbEntity
  8
0
  6
CONTINUOUS
 62
               4
100
AcDbLine
 10
-141.04103716714312
 20
24.041862276907835
 30
0.0
 11
-149.58103716714331
 21
24.041862276907835
 31
0.0
  0
LINE
  5
4A7
100
AcDbEntity
  8
0
  6
CONTINUOUS
 62
               4
100
AcDbLine
 10
-150.08103716714331
 20
7.2328786883846021
 30
0.0
 11
-150.08103716714331
 21
23.541862276907437
 31
0.0
  0
ARC
  5
4A8
100
AcDbEntity
  8
0
  6
CONTINUOUS
 62
               4
100
AcDbCircle
 10
-149.57983974265343
 20
23.540664852418132
 30
0.0
 40
0.5011988548874781
100
AcDbArc
 50
90.136886655154825
 51
179.86311334484458
  0
LINE
  5
4A9
100
AcDbEntity
  8
0
  6
CONTINUOUS
 62
               4
100
AcDbLine
 10
-140.54103716714323
 20
7.2328786883846021
 30
0.0
 11
-140.54103716714312
 21
23.541862276907437
 31
0.0
  0
ARC
  5
4AA
100
AcDbEntity
  8
0
  6
CONTINUOUS
 62
               4
100
AcDbCircle
 10
-141.04223459163299
 20
23.540664852418132
 30
0.0
 40
0.5011988548874781
100
AcDbArc
 50
0.1368866551550224
 51
89.863113344844777
  0
LINE
  5
4AB
100
AcDbEntity
  8
0
  6
CONTINUOUS
 62
               4
100
AcDbLine
 10
-142.8910371671432
 20
7.3328786883846249
 30
0.0
 11
-147.72103716714324
 21
7.3328786883846249
 31
0.0
  0
LINE
  5
4AC
100
AcDbEntity
  8
0
  6
CONTINUOUS
 62
               4
100
AcDbLine
 10
-142.59103716714324
 20
7.6328786883846362
 30
0.0
 11
-148.02103716714319
 21
7.6328786883846362
 31
0.0
  0
LINE
  5
4AD
100
AcDbEntity
  8
0
  6
CONTINUOUS
 62
               4
100
AcDbLine
 10
-142.56103716714321
 20
6.6328786883846362
 30
0.0
 11
-148.06103716714321
 21
6.6328786883846362
 31
0.0
  0
LINE
  5
4AE
100
AcDbEntity
  8
0
  6
CONTINUOUS
 62
               4
100
AcDbLine
 10
-142.46103716714325
 20
11.732878688384602
 30
0.0
 11
-148.16103716714318
 21
11.732878688384602
 31
0.0
  0
LINE
  5
4AF
100
AcDbEntity
  8
0
  6
CONTINUOUS
 62
               4
100
AcDbLine
 10
-142.56103716714321
 20
11.632878688384636
 30
0.0
 11
-148.06103716714321
 21
11.632878688384636
 31
0.0
  0
LINE
  5
4B0
100
AcDbEntity
  8
0
  6
CONTINUOUS
 62
               4
100
AcDbLine
 10
-143.11103716714322
 20
10.082878688384625
 30
0.0
 11
-145.0110371671432
 21
10.082878688384625
 31
0.0
  0
CIRCLE
  5
4B1
100
AcDbEntity
  8
0
  6
CONTINUOUS
 62
               4
100
AcDbCircle
 10
-144.06103716714321
 20
9.1328939471736987
 30
0.0
 40
0.8499675393104553
  0
LINE
  5
4B2
100
AcDbEntity
  8
0
  6
CONTINUOUS
 62
               4
100
AcDbLine
 10
-143.11103716714322
 20
8.1828786883846476
 30
0.0
 11
-145.0110371671432
 21
8.1828786883846476
 31
0.0
  0
LINE
  5
4B3
100
AcDbEntity
  8
0
  6
CONTINUOUS
 62
               4
100
AcDbLine
 10
-143.11103716714322
 20
7.9828786883846021
 30
0.0
 11
-145.0110371671432
 21
7.9828786883846021
 31
0.0
  0
ARC
  5
4B4
100
AcDbEntity
  8
0
  6
CONTINUOUS
 62
               4
100
AcDbCircle
 10
-140.81104784831652
 20
7.2328893695579097
 30
0.0
 40
0.5000106812873828
100
AcDbArc
 50
270.00122394615283
 51
359.99877605384501
  0
LINE
  5
4B5
100
AcDbEntity
  8
0
  6
CONTINUOUS
 62
               4
100
AcDbLine
 10
-142.56103716714321
 20
10.132878688384636
 30
0.0
 11
-142.56103716714321
 21
11.632878688384636
 31
0.0
  0
LINE
  5
4B6
100
AcDbEntity
  8
0
  6
CONTINUOUS
 62
               4
100
AcDbLine
 10
-142.46103716714325
 20
10.232878688384602
 30
0.0
 11
-142.46103716714325
 21
11.732878688384602
 31
0.0
  0
LINE
  5
4B7
100
AcDbEntity
  8
0
  6
CONTINUOUS
 62
               4
100
AcDbLine
 10
-141.4610371671433
 20
10.232878688384602
 30
0.0
 11
-142.46103716714325
 21
10.232878688384602
 31
0.0
  0
LINE
  5
4B8
100
AcDbEntity
  8
0
  6
CONTINUOUS
 62
               4
100
AcDbLine
 10
-141.56103716714321
 20
10.132878688384636
 30
0.0
 11
-142.56103716714321
 21
10.132878688384636
 31
0.0
  0
LINE
  5
4B9
100
AcDbEntity
  8
0
  6
CONTINUOUS
 62
               4
100
AcDbLine
 10
-141.56103716714321
 20
8.3328786883846249
 30
0.0
 11
-142.56103716714321
 21
8.3328786883846249
 31
0.0
  0
LINE
  5
4BA
100
AcDbEntity
  8
0
  6
CONTINUOUS
 62
               4
100
AcDbLine
 10
-141.4610371671433
 20
8.2328786883846021
 30
0.0
 11
-142.46103716714325
 21
8.2328786883846021
 31
0.0
  0
LINE
  5
4BB
100
AcDbEntity
  8
0
  6
CONTINUOUS
 62
               4
100
AcDbLine
 10
-141.4610371671433
 20
8.2328786883846021
 30
0.0
 11
-141.4610371671433
 21
10.232878688384602
 31
0.0
  0
LINE
  5
4BC
100
AcDbEntity
  8
0
  6
CONTINUOUS
 62
               4
100
AcDbLine
 10
-141.56103716714321
 20
10.132878688384636
 30
0.0
 11
-141.56103716714321
 21
8.3328786883846249
 31
0.0
  0
LINE
  5
4BD
100
AcDbEntity
  8
0
  6
CONTINUOUS
 62
               4
100
AcDbLine
 10
-142.56103716714321
 20
7.6728786883845999
 30
0.0
 11
-142.8910371671432
 21
7.3328786883846249
 31
0.0
  0
ARC
  5
4BE
100
AcDbEntity
  8
0
  6
CONTINUOUS
 62
               4
100
AcDbCircle
 10
-141.04103808269755
 20
7.2328796039388692
 30
0.0
 40
0.5000009155550945
100
AcDbArc
 50
270.00010491459648
 51
359.99989508540216
  0
LINE
  5
4BF
100
AcDbEntity
  8
0
  6
CONTINUOUS
 62
               4
100
AcDbLine
 10
-140.81103716714321
 20
6.7328786883846021
 30
0.0
 11
-142.56103716714321
 21
6.7328786883846021
 31
0.0
  0
LINE
  5
4C0
100
AcDbEntity
  8
0
  6
CONTINUOUS
 62
               4
100
AcDbLine
 10
-142.46103716714325
 20
6.7328786883846021
 30
0.0
 11
-142.46103716714325
 21
8.2328786883846021
 31
0.0
  0
LINE
  5
4C1
100
AcDbEntity
  8
0
  6
CONTINUOUS
 62
               4
100
AcDbLine
 10
-143.11103716714322
 20
7.9828786883846021
 30
0.0
 11
-143.11103716714322
 21
10.082878688384625
 31
0.0
  0
LINE
  5
4C2
100
AcDbEntity
  8
0
  6
CONTINUOUS
 62
               4
100
AcDbLine
 10
-142.56103716714321
 20
4.7328584986517797
 30
0.0
 11
-142.56103716714321
 21
8.3328786883846249
 31
0.0
  0
LINE
  5
4C3
100
AcDbEntity
  8
0
  6
CONTINUOUS
 62
               4
100
AcDbLine
 10
-144.56103716714321
 20
10.082878688384625
 30
0.0
 11
-144.56103716714321
 21
10.382878688384636
 31
0.0
  0
LINE
  5
4C4
100
AcDbEntity
  8
0
  6
CONTINUOUS
 62
               4
100
AcDbLine
 10
-143.56103716714321
 20
10.382878688384636
 30
0.0
 11
-144.56103716714321
 21
10.382878688384636
 31
0.0
  0
LINE
  5
4C5
100
AcDbEntity
  8
0
  6
CONTINUOUS
 62
               4
100
AcDbLine
 10
-148.06103716714321
 20
4.7328584986517797
 30
0.0
 11
-148.06103716714321
 21
8.3328786883846249
 31
0.0
  0
LINE
  5
4C6
100
AcDbEntity
  8
0
  6
CONTINUOUS
 62
               4
100
AcDbLine
 10
-148.02103716714319
 20
7.6328786883846362
 30
0.0
 11
-147.72103716714324
 21
7.3328786883846249
 31
0.0
  0
LINE
  5
4C7
100
AcDbEntity
  8
0
  6
CONTINUOUS
 62
               4
100
AcDbLine
 10
-148.16103716714318
 20
6.7328786883846021
 30
0.0
 11
-148.16103716714318
 21
8.2328786883846021
 31
0.0
  0
LINE
  5
4C8
100
AcDbEntity
  8
0
  6
CONTINUOUS
 62
               4
100
AcDbLine
 10
-148.06103716714321
 20
10.132878688384636
 30
0.0
 11
-148.06103716714321
 21
11.632878688384636
 31
0.0
  0
LINE
  5
4C9
100
AcDbEntity
  8
0
  6
CONTINUOUS
 62
               4
100
AcDbLine
 10
-148.16103716714318
 20
10.232878688384602
 30
0.0
 11
-148.16103716714318
 21
11.732878688384602
 31
0.0
  0
LINE
  5
4CA
100
AcDbEntity
  8
0
  6
CONTINUOUS
 62
               4
100
AcDbLine
 10
-145.61103716714322
 20
7.9828786883846021
 30
0.0
 11
-147.5110371671432
 21
7.9828786883846021
 31
0.0
  0
LINE
  5
4CB
100
AcDbEntity
  8
0
  6
CONTINUOUS
 62
               4
100
AcDbLine
 10
-145.61103716714322
 20
8.1828786883846476
 30
0.0
 11
-147.5110371671432
 21
8.1828786883846476
 31
0.0
  0
LINE
  5
4CC
100
AcDbEntity
  8
0
  6
CONTINUOUS
 62
               4
100
AcDbLine
 10
-149.06103716714321
 20
10.132878688384636
 30
0.0
 11
-149.06103716714321
 21
8.3328786883846249
 31
0.0
  0
LINE
  5
4CD
100
AcDbEntity
  8
0
  6
CONTINUOUS
 62
               4
100
AcDbLine
 10
-148.06103716714321
 20
8.3328786883846249
 30
0.0
 11
-149.06103716714321
 21
8.3328786883846249
 31
0.0
  0
LINE
  5
4CE
100
AcDbEntity
  8
0
  6
CONTINUOUS
 62
               4
100
AcDbLine
 10
-145.61103716714322
 20
10.082878688384625
 30
0.0
 11
-147.5110371671432
 21
10.082878688384625
 31
0.0
  0
LINE
  5
4CF
100
AcDbEntity
  8
0
  6
CONTINUOUS
 62
               4
100
AcDbLine
 10
-146.06103716714321
 20
10.382878688384636
 30
0.0
 11
-147.06103716714321
 21
10.382878688384636
 31
0.0
  0
LINE
  5
4D0
100
AcDbEntity
  8
0
  6
CONTINUOUS
 62
               4
100
AcDbLine
 10
-147.06103716714321
 20
10.082878688384625
 30
0.0
 11
-147.06103716714321
 21
10.382878688384636
 31
0.0
  0
LINE
  5
4D1
100
AcDbEntity
  8
0
  6
CONTINUOUS
 62
               4
100
AcDbLine
 10
-146.06103716714321
 20
10.082878688384625
 30
0.0
 11
-146.06103716714321
 21
10.382878688384636
 31
0.0
  0
LINE
  5
4D2
100
AcDbEntity
  8
0
  6
CONTINUOUS
 62
               4
100
AcDbLine
 10
-145.61103716714322
 20
7.9828786883846021
 30
0.0
 11
-145.61103716714322
 21
10.082878688384625
 31
0.0
  0
LINE
  5
4D3
100
AcDbEntity
  8
0
  6
CONTINUOUS
 62
               4
100
AcDbLine
 10
-148.16103716714318
 20
10.232878688384602
 30
0.0
 11
-149.16103716714323
 21
10.232878688384602
 31
0.0
  0
LINE
  5
4D4
100
AcDbEntity
  8
0
  6
CONTINUOUS
 62
               4
100
AcDbLine
 10
-148.06103716714321
 20
10.132878688384636
 30
0.0
 11
-149.06103716714321
 21
10.132878688384636
 31
0.0
  0
LINE
  5
4D5
100
AcDbEntity
  8
0
  6
CONTINUOUS
 62
               4
100
AcDbLine
 10
-147.5110371671432
 20
7.9828786883846021
 30
0.0
 11
-147.5110371671432
 21
10.082878688384625
 31
0.0
  0
CIRCLE
  5
4D6
100
AcDbEntity
  8
0
  6
CONTINUOUS
 62
               4
100
AcDbCircle
 10
-146.56103716714321
 20
9.1328939471736987
 30
0.0
 40
0.8499675393104553
  0
LINE
  5
4D7
100
AcDbEntity
  8
0
  6
CONTINUOUS
 62
               4
100
AcDbLine
 10
-148.16103716714318
 20
8.2328786883846021
 30
0.0
 11
-149.16103716714323
 21
8.2328786883846021
 31
0.0
  0
LINE
  5
4D8
100
AcDbEntity
  8
0
  6
CONTINUOUS
 62
               4
100
AcDbLine
 10
-149.16103716714323
 20
8.2328786883846021
 30
0.0
 11
-149.16103716714323
 21
10.232878688384602
 31
0.0
  0
LINE
  5
4D9
100
AcDbEntity
  8
0
  6
CONTINUOUS
 62
               4
100
AcDbLine
 10
-145.0110371671432
 20
7.9828786883846021
 30
0.0
 11
-145.0110371671432
 21
10.082878688384625
 31
0.0
  0
ARC
  5
4DA
100
AcDbEntity
  8
0
  6
CONTINUOUS
 62
               4
100
AcDbCircle
 10
-149.81104174466586
 20
7.2328741108620136
 30
0.0
 40
0.4999954224983215
100
AcDbArc
 50
179.99947544974253
 51
270.00052455025644
  0
ARC
  5
4DB
100
AcDbEntity
  8
0
  6
CONTINUOUS
 62
               4
100
AcDbCircle
 10
-149.58103625158887
 20
7.2328796039388692
 30
0.0
 40
0.5000009155550945
100
AcDbArc
 50
180.00010491459673
 51
269.99989508540227
  0
LINE
  5
4DC
100
AcDbEntity
  8
0
  6
CONTINUOUS
 62
               4
100
AcDbLine
 10
-148.06103716714321
 20
6.7328786883846021
 30
0.0
 11
-149.81103716714321
 21
6.7328786883846021
 31
0.0
  0
LINE
  5
4DD
100
AcDbEntity
  8
0
  6
CONTINUOUS
 62
               4
100
AcDbLine
 10
-148.06103716714321
 20
107.33992918171745
 30
0.0
 11
-142.56103716714321
 21
107.33992918171745
 31
0.0
  0
LINE
  5
4DE
100
AcDbEntity
  8
0
  6
CONTINUOUS
 62
               4
100
AcDbLine
 10
-148.06103716714321
 20
108.33689887811752
 30
0.0
 11
-142.56103716714321
 21
108.33689887811752
 31
0.0
  0
LINE
  5
4DF
100
AcDbEntity
  8
0
  6
CONTINUOUS
 62
               4
100
AcDbLine
 10
-147.06103716714321
 20
102.68687868838467
 30
0.0
 11
-147.06103716714321
 21
102.98687868838468
 31
0.0
  0
ARC
  5
4E0
100
AcDbEntity
  8
0
  6
CONTINUOUS
 62
               4
100
AcDbCircle
 10
-149.81074014293714
 20
87.335175712590711
 30
0.0
 40
0.5002971123771115
100
AcDbArc
 50
180.03401625554557
 51
269.96598374445358
  0
ARC
  5
4E1
100
AcDbEntity
  8
0
  6
CONTINUOUS
 62
               4
100
AcDbCircle
 10
-140.81074031927901
 20
87.334581840520428
 30
0.0
 40
0.4997032403068002
100
AcDbArc
 50
269.96596353714654
 51
0.0340364628527164
  0
LINE
  5
4E2
100
AcDbEntity
  8
0
  6
CONTINUOUS
 62
               4
100
AcDbLine
 10
-150.31103716714321
 20
109.33487868838463
 30
0.0
 11
-150.31103716714321
 21
86.834878688384634
 31
0.0
  0
LINE
  5
4E3
100
AcDbEntity
  8
0
  6
CONTINUOUS
 62
               4
100
AcDbLine
 10
-140.31103716714321
 20
109.33487868838463
 30
0.0
 11
-140.31103716714321
 21
86.834878688384634
 31
0.0
  0
ARC
  5
4E4
100
AcDbEntity
  8
0
  6
CONTINUOUS
 62
               4
100
AcDbCircle
 10
-142.90812517238024
 20
108.73596669362169
 30
0.0
 40
0.5989129830170392
100
AcDbArc
 50
89.895914524772735
 51
180.10408547522667
  0
ARC
  5
4E5
100
AcDbEntity
  8
0
  6
CONTINUOUS
 62
               4
100
AcDbCircle
 10
-141.10694202048498
 20
108.73497383504284
 30
0.0
 40
0.5999048608870732
100
AcDbArc
 50
359.99091272245295
 51
90.009087277546172
  0
LINE
  5
4E6
100
AcDbEntity
  8
0
  6
CONTINUOUS
 62
               4
100
AcDbLine
 10
-140.31103716714321
 20
108.73487868838467
 30
0.0
 11
-143.5110371671432
 21
108.73487868838467
 31
0.0
  0
ARC
  5
4E7
100
AcDbEntity
  8
0
  6
CONTINUOUS
 62
               4
100
AcDbCircle
 10
-149.81103716714321
 20
108.73487868838467
 30
0.0
 40
0.5
100
AcDbArc
 50
89.999999999999815
 51
179.99999999999963
  0
LINE
  5
4E8
100
AcDbEntity
  8
0
  6
CONTINUOUS
 62
               4
100
AcDbLine
 10
-143.5110371671432
 20
109.23487868838467
 30
0.0
 11
-143.5110371671432
 21
108.33689887811752
 31
0.0
  0
LINE
  5
4E9
100
AcDbEntity
  8
0
  6
CONTINUOUS
 62
               4
100
AcDbLine
 10
-143.5110371671432
 20
109.23487868838467
 30
0.0
 11
-149.81103716714321
 21
109.23487868838467
 31
0.0
  0
LINE
  5
4EA
100
AcDbEntity
  8
0
  6
CONTINUOUS
 62
               4
100
AcDbLine
 10
-140.31103716714321
 20
107.73487868838467
 30
0.0
 11
-142.56103716714321
 21
107.73487868838467
 31
0.0
  0
LINE
  5
4EB
100
AcDbEntity
  8
0
  6
CONTINUOUS
 62
               4
100
AcDbLine
 10
-140.31103716714321
 20
109.33487868838463
 30
0.0
 11
-150.31103716714321
 21
109.33487868838463
 31
0.0
  0
LINE
  5
4EC
100
AcDbEntity
  8
0
  6
PHANTOM
 62
             200
100
AcDbLine
 10
-146.81103716714321
 20
94.334878688384634
 30
0.0
 11
-143.81103716714321
 21
94.334878688384634
 31
0.0
  0
LINE
  5
4ED
100
AcDbEntity
  8
0
  6
PHANTOM
 62
             200
100
AcDbLine
 10
-146.81103716714321
 20
92.334878688384634
 30
0.0
 11
-143.81103716714321
 21
92.334878688384634
 31
0.0
  0
LINE
  5
4EE
100
AcDbEntity
  8
0
  6
PHANTOM
 62
             200
100
AcDbLine
 10
-143.81103716714321
 20
94.334878688384634
 30
0.0
 11
-143.81103716714321
 21
92.334878688384634
 31
0.0
  0
LINE
  5
4EF
100
AcDbEntity
  8
0
  6
PHANTOM
 62
             200
100
AcDbLine
 10
-146.81103716714321
 20
94.334878688384634
 30
0.0
 11
-146.81103716714321
 21
92.334878688384634
 31
0.0
  0
LINE
  5
4F0
100
AcDbEntity
  8
0
  6
CONTINUOUS
 62
               4
100
AcDbLine
 10
-149.58103716714325
 20
89.027895099861468
 30
0.0
 11
-141.04103716714312
 21
89.027895099861468
 31
0.0
  0
LINE
  5
4F1
100
AcDbEntity
  8
0
  6
CONTINUOUS
 62
               4
100
AcDbLine
 10
-140.54103716714312
 20
105.8368786883847
 30
0.0
 11
-140.54103716714312
 21
89.527895099861865
 31
0.0
  0
ARC
  5
4F2
100
AcDbEntity
  8
0
  6
CONTINUOUS
 62
               4
100
AcDbCircle
 10
-141.04223459163299
 20
89.529092524351171
 30
0.0
 40
0.5011988548874781
100
AcDbArc
 50
270.1368866551544
 51
359.86311334484418
  0
LINE
  5
4F3
100
AcDbEntity
  8
0
  6
CONTINUOUS
 62
               4
100
AcDbLine
 10
-150.08103716714325
 20
105.8368786883847
 30
0.0
 11
-150.08103716714325
 21
89.527895099861865
 31
0.0
  0
ARC
  5
4F4
100
AcDbEntity
  8
0
  6
CONTINUOUS
 62
               4
100
AcDbCircle
 10
-149.57983974265349
 20
89.529092524351171
 30
0.0
 40
0.5011988548874781
100
AcDbArc
 50
180.13688665515463
 51
269.86311334484435
  0
LINE
  5
4F5
100
AcDbEntity
  8
0
  6
CONTINUOUS
 62
               4
100
AcDbLine
 10
-147.73103716714323
 20
105.73687868838468
 30
0.0
 11
-142.90103716714319
 21
105.73687868838468
 31
0.0
  0
LINE
  5
4F6
100
AcDbEntity
  8
0
  6
CONTINUOUS
 62
               4
100
AcDbLine
 10
-148.03103716714318
 20
105.43687868838467
 30
0.0
 11
-142.60103716714323
 21
105.43687868838467
 31
0.0
  0
LINE
  5
4F7
100
AcDbEntity
  8
0
  6
CONTINUOUS
 62
               4
100
AcDbLine
 10
-148.06103716714321
 20
106.43687868838467
 30
0.0
 11
-142.56103716714321
 21
106.43687868838467
 31
0.0
  0
LINE
  5
4F8
100
AcDbEntity
  8
0
  6
CONTINUOUS
 62
               4
100
AcDbLine
 10
-148.16103716714318
 20
101.3368786883847
 30
0.0
 11
-142.46103716714325
 21
101.3368786883847
 31
0.0
  0
LINE
  5
4F9
100
AcDbEntity
  8
0
  6
CONTINUOUS
 62
               4
100
AcDbLine
 10
-148.06103716714321
 20
101.43687868838467
 30
0.0
 11
-142.56103716714321
 21
101.43687868838467
 31
0.0
  0
LINE
  5
4FA
100
AcDbEntity
  8
0
  6
CONTINUOUS
 62
               4
100
AcDbLine
 10
-147.5110371671432
 20
102.98687868838468
 30
0.0
 11
-145.61103716714322
 21
102.98687868838468
 31
0.0
  0
CIRCLE
  5
4FB
100
AcDbEntity
  8
0
  6
CONTINUOUS
 62
               4
100
AcDbCircle
 10
-146.56103716714321
 20
103.9368634295956
 30
0.0
 40
0.8499675393104553
  0
LINE
  5
4FC
100
AcDbEntity
  8
0
  6
CONTINUOUS
 62
               4
100
AcDbLine
 10
-147.5110371671432
 20
104.88687868838466
 30
0.0
 11
-145.61103716714322
 21
104.88687868838466
 31
0.0
  0
LINE
  5
4FD
100
AcDbEntity
  8
0
  6
CONTINUOUS
 62
               4
100
AcDbLine
 10
-147.5110371671432
 20
105.0868786883847
 30
0.0
 11
-145.61103716714322
 21
105.0868786883847
 31
0.0
  0
ARC
  5
4FE
100
AcDbEntity
  8
0
  6
CONTINUOUS
 62
               4
100
AcDbCircle
 10
-149.81102648596996
 20
105.83686800721139
 30
0.0
 40
0.5000106812873828
100
AcDbArc
 50
90.001223946153175
 51
179.9987760538454
  0
LINE
  5
4FF
100
AcDbEntity
  8
0
  6
CONTINUOUS
 62
               4
100
AcDbLine
 10
-148.06103716714321
 20
102.93687868838467
 30
0.0
 11
-148.06103716714321
 21
101.43687868838467
 31
0.0
  0
LINE
  5
500
100
AcDbEntity
  8
0
  6
CONTINUOUS
 62
               4
100
AcDbLine
 10
-148.16103716714318
 20
102.8368786883847
 30
0.0
 11
-148.16103716714318
 21
101.3368786883847
 31
0.0
  0
LINE
  5
501
100
AcDbEntity
  8
0
  6
CONTINUOUS
 62
               4
100
AcDbLine
 10
-149.16103716714318
 20
102.8368786883847
 30
0.0
 11
-148.16103716714318
 21
102.8368786883847
 31
0.0
  0
LINE
  5
502
100
AcDbEntity
  8
0
  6
CONTINUOUS
 62
               4
100
AcDbLine
 10
-149.06103716714321
 20
102.93687868838467
 30
0.0
 11
-148.06103716714321
 21
102.93687868838467
 31
0.0
  0
LINE
  5
503
100
AcDbEntity
  8
0
  6
CONTINUOUS
 62
               4
100
AcDbLine
 10
-149.06103716714321
 20
104.73687868838468
 30
0.0
 11
-148.06103716714321
 21
104.73687868838468
 31
0.0
  0
LINE
  5
504
100
AcDbEntity
  8
0
  6
CONTINUOUS
 62
               4
100
AcDbLine
 10
-149.16103716714318
 20
104.8368786883847
 30
0.0
 11
-148.16103716714318
 21
104.8368786883847
 31
0.0
  0
LINE
  5
505
100
AcDbEntity
  8
0
  6
CONTINUOUS
 62
               4
100
AcDbLine
 10
-149.16103716714318
 20
104.8368786883847
 30
0.0
 11
-149.16103716714318
 21
102.8368786883847
 31
0.0
  0
LINE
  5
506
100
AcDbEntity
  8
0
  6
CONTINUOUS
 62
               4
100
AcDbLine
 10
-149.06103716714321
 20
102.93687868838467
 30
0.0
 11
-149.06103716714321
 21
104.73687868838468
 31
0.0
  0
LINE
  5
507
100
AcDbEntity
  8
0
  6
CONTINUOUS
 62
               4
100
AcDbLine
 10
-148.06103716714321
 20
105.3968786883847
 30
0.0
 11
-147.73103716714323
 21
105.73687868838468
 31
0.0
  0
ARC
  5
508
100
AcDbEntity
  8
0
  6
CONTINUOUS
 62
               4
100
AcDbCircle
 10
-149.58103625158893
 20
105.83687777283043
 30
0.0
 40
0.5000009155550945
100
AcDbArc
 50
90.000104914596918
 51
179.99989508540253
  0
LINE
  5
509
100
AcDbEntity
  8
0
  6
CONTINUOUS
 62
               4
100
AcDbLine
 10
-149.81103716714321
 20
106.3368786883847
 30
0.0
 11
-148.06103716714321
 21
106.3368786883847
 31
0.0
  0
LINE
  5
50A
100
AcDbEntity
  8
0
  6
CONTINUOUS
 62
               4
100
AcDbLine
 10
-148.16103716714318
 20
106.3368786883847
 30
0.0
 11
-148.16103716714318
 21
104.8368786883847
 31
0.0
  0
LINE
  5
50B
100
AcDbEntity
  8
0
  6
CONTINUOUS
 62
               4
100
AcDbLine
 10
-147.5110371671432
 20
105.0868786883847
 30
0.0
 11
-147.5110371671432
 21
102.98687868838468
 31
0.0
  0
LINE
  5
50C
100
AcDbEntity
  8
0
  6
CONTINUOUS
 62
               4
100
AcDbLine
 10
-148.06103716714321
 20
108.33689887811752
 30
0.0
 11
-148.06103716714321
 21
104.73687868838468
 31
0.0
  0
LINE
  5
50D
100
AcDbEntity
  8
0
  6
CONTINUOUS
 62
               4
100
AcDbLine
 10
-146.06103716714321
 20
102.98687868838468
 30
0.0
 11
-146.06103716714321
 21
102.68687868838467
 31
0.0
  0
LINE
  5
50E
100
AcDbEntity
  8
0
  6
CONTINUOUS
 62
               4
100
AcDbLine
 10
-147.06103716714321
 20
102.68687868838467
 30
0.0
 11
-146.06103716714321
 21
102.68687868838467
 31
0.0
  0
LINE
  5
50F
100
AcDbEntity
  8
0
  6
CONTINUOUS
 62
               4
100
AcDbLine
 10
-142.56103716714321
 20
108.33689887811752
 30
0.0
 11
-142.56103716714321
 21
104.73687868838468
 31
0.0
  0
LINE
  5
510
100
AcDbEntity
  8
0
  6
CONTINUOUS
 62
               4
100
AcDbLine
 10
-142.60103716714323
 20
105.43687868838467
 30
0.0
 11
-142.90103716714319
 21
105.73687868838468
 31
0.0
  0
LINE
  5
511
100
AcDbEntity
  8
0
  6
CONTINUOUS
 62
               4
100
AcDbLine
 10
-142.46103716714325
 20
106.3368786883847
 30
0.0
 11
-142.46103716714325
 21
104.8368786883847
 31
0.0
  0
LINE
  5
512
100
AcDbEntity
  8
0
  6
CONTINUOUS
 62
               4
100
AcDbLine
 10
-142.56103716714321
 20
102.93687868838467
 30
0.0
 11
-142.56103716714321
 21
101.43687868838467
 31
0.0
  0
LINE
  5
513
100
AcDbEntity
  8
0
  6
CONTINUOUS
 62
               4
100
AcDbLine
 10
-142.46103716714325
 20
102.8368786883847
 30
0.0
 11
-142.46103716714325
 21
101.3368786883847
 31
0.0
  0
LINE
  5
514
100
AcDbEntity
  8
0
  6
CONTINUOUS
 62
               4
100
AcDbLine
 10
-145.0110371671432
 20
105.0868786883847
 30
0.0
 11
-143.11103716714322
 21
105.0868786883847
 31
0.0
  0
LINE
  5
515
100
AcDbEntity
  8
0
  6
CONTINUOUS
 62
               4
100
AcDbLine
 10
-145.0110371671432
 20
104.88687868838466
 30
0.0
 11
-143.11103716714322
 21
104.88687868838466
 31
0.0
  0
LINE
  5
516
100
AcDbEntity
  8
0
  6
CONTINUOUS
 62
               4
100
AcDbLine
 10
-141.56103716714321
 20
102.93687868838467
 30
0.0
 11
-141.56103716714321
 21
104.73687868838468
 31
0.0
  0
LINE
  5
517
100
AcDbEntity
  8
0
  6
CONTINUOUS
 62
               4
100
AcDbLine
 10
-142.56103716714321
 20
104.73687868838468
 30
0.0
 11
-141.56103716714321
 21
104.73687868838468
 31
0.0
  0
LINE
  5
518
100
AcDbEntity
  8
0
  6
CONTINUOUS
 62
               4
100
AcDbLine
 10
-145.0110371671432
 20
102.98687868838468
 30
0.0
 11
-143.11103716714322
 21
102.98687868838468
 31
0.0
  0
LINE
  5
519
100
AcDbEntity
  8
0
  6
CONTINUOUS
 62
               4
100
AcDbLine
 10
-144.56103716714321
 20
102.68687868838467
 30
0.0
 11
-143.56103716714321
 21
102.68687868838467
 31
0.0
  0
LINE
  5
51A
100
AcDbEntity
  8
0
  6
CONTINUOUS
 62
               4
100
AcDbLine
 10
-143.56103716714321
 20
102.98687868838468
 30
0.0
 11
-143.56103716714321
 21
102.68687868838467
 31
0.0
  0
LINE
  5
51B
100
AcDbEntity
  8
0
  6
CONTINUOUS
 62
               4
100
AcDbLine
 10
-144.56103716714321
 20
102.98687868838468
 30
0.0
 11
-144.56103716714321
 21
102.68687868838467
 31
0.0
  0
LINE
  5
51C
100
AcDbEntity
  8
0
  6
CONTINUOUS
 62
               4
100
AcDbLine
 10
-145.0110371671432
 20
105.0868786883847
 30
0.0
 11
-145.0110371671432
 21
102.98687868838468
 31
0.0
  0
LINE
  5
51D
100
AcDbEntity
  8
0
  6
CONTINUOUS
 62
               4
100
AcDbLine
 10
-142.46103716714325
 20
102.8368786883847
 30
0.0
 11
-141.46103716714319
 21
102.8368786883847
 31
0.0
  0
LINE
  5
51E
100
AcDbEntity
  8
0
  6
CONTINUOUS
 62
               4
100
AcDbLine
 10
-142.56103716714321
 20
102.93687868838467
 30
0.0
 11
-141.56103716714321
 21
102.93687868838467
 31
0.0
  0
LINE
  5
51F
100
AcDbEntity
  8
0
  6
CONTINUOUS
 62
               4
100
AcDbLine
 10
-143.11103716714322
 20
105.0868786883847
 30
0.0
 11
-143.11103716714322
 21
102.98687868838468
 31
0.0
  0
CIRCLE
  5
520
100
AcDbEntity
  8
0
  6
CONTINUOUS
 62
               4
100
AcDbCircle
 10
-144.06103716714321
 20
103.9368634295956
 30
0.0
 40
0.8499675393104553
  0
LINE
  5
521
100
AcDbEntity
  8
0
  6
CONTINUOUS
 62
               4
100
AcDbLine
 10
-142.46103716714325
 20
104.8368786883847
 30
0.0
 11
-141.46103716714319
 21
104.8368786883847
 31
0.0
  0
LINE
  5
522
100
AcDbEntity
  8
0
  6
CONTINUOUS
 62
               4
100
AcDbLine
 10
-141.46103716714319
 20
104.8368786883847
 30
0.0
 11
-141.46103716714319
 21
102.8368786883847
 31
0.0
  0
LINE
  5
523
100
AcDbEntity
  8
0
  6
CONTINUOUS
 62
               4
100
AcDbLine
 10
-145.61103716714322
 20
105.0868786883847
 30
0.0
 11
-145.61103716714322
 21
102.98687868838468
 31
0.0
  0
ARC
  5
524
100
AcDbEntity
  8
0
  6
CONTINUOUS
 62
               4
100
AcDbCircle
 10
-140.81103258962057
 20
105.83688326590729
 30
0.0
 40
0.4999954224983215
100
AcDbArc
 50
359.99947544974214
 51
90.000524550256856
  0
ARC
  5
525
100
AcDbEntity
  8
0
  6
CONTINUOUS
 62
               4
100
AcDbCircle
 10
-141.04103808269755
 20
105.83687777283043
 30
0.0
 40
0.5000009155550945
100
AcDbArc
 50
0.0001049145970977
 51
89.999895085402713
  0
LINE
  5
526
100
AcDbEntity
  8
0
  6
CONTINUOUS
 62
               4
100
AcDbLine
 10
-142.56103716714321
 20
106.3368786883847
 30
0.0
 11
-140.81103716714321
 21
106.3368786883847
 31
0.0
  0
LINE
  5
527
100
AcDbEntity
  8
0
  6
CONTINUOUS
 62
               4
100
AcDbLine
 10
-140.31103716714321
 20
86.834878688384634
 30
0.0
 11
-150.31103716714321
 21
86.834878688384634
 31
0.0
  0
LINE
  5
528
100
AcDbEntity
  8
0
  6
CONTINUOUS
 62
               4
100
AcDbLine
 10
-150.31103716714321
 20
26.234878688384669
 30
0.0
 11
-140.31103716714321
 21
26.234878688384669
 31
0.0
  0
LINE
  5
529
100
AcDbEntity
  8
0
  6
CONTINUOUS
 62
               7
100
AcDbLine
 10
-150.31103716714318
 20
68.735542860229145
 30
0.0
 11
-150.31103716714318
 21
86.834878688384649
 31
0.0
  0
LINE
  5
52A
100
AcDbEntity
  8
0
  6
CONTINUOUS
 62
               7
100
AcDbLine
 10
-140.31103716714318
 20
54.134878688384674
 30
0.0
 11
-140.31103716714318
 21
86.834878688384649
 31
0.0
  0
LINE
  5
52B
100
AcDbEntity
  8
0
  6
CONTINUOUS
 62
               7
100
AcDbLine
 10
-150.31103716714318
 20
39.43487868838465
 30
0.0
 11
-140.31103716714318
 21
39.43487868838465
 31
0.0
  0
LINE
  5
52C
100
AcDbEntity
  8
0
  6
CONTINUOUS
 62
               7
100
AcDbLine
 10
-150.31103716714318
 20
26.234878688384669
 30
0.0
 11
-150.31103716714318
 21
66.938208794079429
 31
0.0
  0
CIRCLE
  5
52D
100
AcDbEntity
  8
0
  6
CONTINUOUS
 62
               7
100
AcDbCircle
 10
-145.31103716714318
 20
84.534878688384651
 30
0.0
 40
0.7500000000000001
  0
CIRCLE
  5
52E
100
AcDbEntity
  8
0
  6
CONTINUOUS
 62
               7
100
AcDbCircle
 10
-145.31103716714318
 20
84.534878688384651
 30
0.0
 40
1.1000000000000001
  0
LINE
  5
52F
100
AcDbEntity
  8
0
  6
CONTINUOUS
 62
               7
100
AcDbLine
 10
-150.31103716714318
 20
73.634878688384646
 30
0.0
 11
-140.31103716714318
 21
73.634878688384646
 31
0.0
  0
CIRCLE
  5
530
100
AcDbEntity
  8
0
  6
CONTINUOUS
 62
               7
100
AcDbCircle
 10
-145.31103716714318
 20
84.534878688384651
 30
0.0
 40
1.1500000000000001
  0
CIRCLE
  5
531
100
AcDbEntity
  8
0
  6
CONTINUOUS
 62
               7
100
AcDbCircle
 10
-145.31103716714318
 20
84.534878688384651
 30
0.0
 40
1.3000000000000012
  0
LINE
  5
532
100
AcDbEntity
  8
0
  6
CENTER
 62
               2
100
AcDbLine
 10
-143.61103716714319
 20
84.534878688384651
 30
0.0
 11
-147.01103716714317
 21
84.534878688384651
 31
0.0
  0
ARC
  5
533
100
AcDbEntity
  8
0
  6
CONTINUOUS
 62
               7
100
AcDbCircle
 10
-145.31103716714318
 20
82.834878688384649
 30
0.0
 40
3.6000000000000005
100
AcDbArc
 50
179.99999999999963
 51
0.0
  0
ARC
  5
534
100
AcDbEntity
  8
0
  6
CONTINUOUS
 62
               7
100
AcDbCircle
 10
-145.31103716714318
 20
82.834878688384649
 30
0.0
 40
2.0
100
AcDbArc
 50
179.99999999999963
 51
0.0
  0
LINE
  5
535
100
AcDbEntity
  8
0
  6
CONTINUOUS
 62
               7
100
AcDbLine
 10
-141.71103716714319
 20
82.834878688384649
 30
0.0
 11
-141.71103716714319
 21
86.834878688384649
 31
0.0
  0
LINE
  5
536
100
AcDbEntity
  8
0
  6
CONTINUOUS
 62
               7
100
AcDbLine
 10
-148.91103716714318
 20
82.834878688384649
 30
0.0
 11
-148.91103716714318
 21
86.834878688384649
 31
0.0
  0
LINE
  5
537
100
AcDbEntity
  8
0
  6
CONTINUOUS
 62
               7
100
AcDbLine
 10
-143.31103716714318
 20
82.834878688384649
 30
0.0
 11
-143.31103716714318
 21
86.834878688384649
 31
0.0
  0
LINE
  5
538
100
AcDbEntity
  8
0
  6
CONTINUOUS
 62
               7
100
AcDbLine
 10
-147.31103716714318
 20
82.834878688384649
 30
0.0
 11
-147.31103716714318
 21
86.834878688384649
 31
0.0
  0
LINE
  5
539
100
AcDbEntity
  8
0
  6
CONTINUOUS
 62
               7
100
AcDbLine
 10
-140.31103716714318
 20
26.234878688384669
 30
0.0
 11
-140.31103716714318
 21
52.334878688384649
 31
0.0
  0
LINE
  5
53A
100
AcDbEntity
  8
0
  6
CONTINUOUS
 62
               7
100
AcDbLine
 10
-143.31103716714318
 20
30.234878688384661
 30
0.0
 11
-143.31103716714318
 21
26.234878688384669
 31
0.0
  0
LINE
  5
53B
100
AcDbEntity
  8
0
  6
CONTINUOUS
 62
               7
100
AcDbLine
 10
-147.31103716714318
 20
30.234878688384661
 30
0.0
 11
-147.31103716714318
 21
26.234878688384669
 31
0.0
  0
LINE
  5
53C
100
AcDbEntity
  8
0
  6
CONTINUOUS
 62
               7
100
AcDbLine
 10
-141.71103716714319
 20
30.234878688384661
 30
0.0
 11
-141.71103716714319
 21
26.234878688384669
 31
0.0
  0
LINE
  5
53D
100
AcDbEntity
  8
0
  6
CONTINUOUS
 62
               7
100
AcDbLine
 10
-148.91103716714318
 20
30.234878688384661
 30
0.0
 11
-148.91103716714318
 21
26.234878688384669
 31
0.0
  0
ARC
  5
53E
100
AcDbEntity
  8
0
  6
CONTINUOUS
 62
               7
100
AcDbCircle
 10
-145.31103716714318
 20
30.234878688384661
 30
0.0
 40
2.0
100
AcDbArc
 50
0.0
 51
179.99999999999963
  0
ARC
  5
53F
100
AcDbEntity
  8
0
  6
CONTINUOUS
 62
               7
100
AcDbCircle
 10
-145.31103716714318
 20
30.234878688384661
 30
0.0
 40
3.6000000000000005
100
AcDbArc
 50
0.0
 51
179.99999999999963
  0
LINE
  5
540
100
AcDbEntity
  8
0
  6
CENTER
 62
               2
100
AcDbLine
 10
-147.01103716714317
 20
28.534878688384666
 30
0.0
 11
-143.61103716714319
 21
28.534878688384666
 31
0.0
  0
CIRCLE
  5
541
100
AcDbEntity
  8
0
  6
CONTINUOUS
 62
               7
100
AcDbCircle
 10
-145.31103716714318
 20
28.534878688384666
 30
0.0
 40
1.3000000000000012
  0
CIRCLE
  5
542
100
AcDbEntity
  8
0
  6
CONTINUOUS
 62
               7
100
AcDbCircle
 10
-145.31103716714318
 20
28.534878688384666
 30
0.0
 40
1.1500000000000001
  0
CIRCLE
  5
543
100
AcDbEntity
  8
0
  6
CONTINUOUS
 62
               7
100
AcDbCircle
 10
-145.31103716714318
 20
28.534878688384666
 30
0.0
 40
1.1000000000000001
  0
CIRCLE
  5
544
100
AcDbEntity
  8
0
  6
CONTINUOUS
 62
               7
100
AcDbCircle
 10
-145.31103716714318
 20
28.534878688384666
 30
0.0
 40
0.7500000000000001
  0
LINE
  5
545
100
AcDbEntity
  8
0
  6
CENTER
 62
               2
100
AcDbLine
 10
-145.31103716714318
 20
110.03482522158778
 30
0.0
 11
-145.31103716714318
 21
3.0368786883846752
 31
0.0
  0
LINE
  5
546
100
AcDbEntity
  8
0
  6
CENTER
 62
               2
100
AcDbLine
 10
-137.81103716714327
 20
47.034878688384637
 30
0.0
 11
-132.81103716714327
 21
47.034878688384637
 31
0.0
  0
LINE
  5
547
100
AcDbEntity
  8
0
  6
CENTER
 62
               2
100
AcDbLine
 10
-137.81103716714327
 20
74.034878688384637
 30
0.0
 11
-132.81103716714327
 21
74.034878688384637
 31
0.0
  0
LINE
  5
548
100
AcDbEntity
  8
0
  6
CONTINUOUS
 62
               7
100
AcDbLine
 10
-140.31103716714318
 20
77.034878688384637
 30
0.0
 11
-132.31103716714327
 21
77.034878688384637
 31
0.0
  0
LINE
  5
549
100
AcDbEntity
  8
0
  6
CONTINUOUS
 62
               7
100
AcDbLine
 10
-140.31103716714318
 20
44.034878688384637
 30
0.0
 11
-132.31103716714327
 21
44.034878688384637
 31
0.0
  0
LINE
  5
54A
100
AcDbEntity
  8
0
  6
CONTINUOUS
 62
               7
100
AcDbLine
 10
-132.31103716714327
 20
44.034878688384637
 30
0.0
 11
-132.31103716714327
 21
77.034878688384637
 31
0.0
  0
CIRCLE
  5
54B
100
AcDbEntity
  8
0
  6
CONTINUOUS
 62
               7
100
AcDbCircle
 10
-135.31103716714327
 20
47.034878688384637
 30
0.0
 40
1.6000000000000001
  0
CIRCLE
  5
54C
100
AcDbEntity
  8
0
  6
CONTINUOUS
 62
               7
100
AcDbCircle
 10
-135.31103716714327
 20
74.034878688384637
 30
0.0
 40
1.6000000000000001
  0
LINE
  5
54D
100
AcDbEntity
  8
0
  6
PHANTOM
 62
             200
100
AcDbLine
 10
-118.81103716714327
 20
56.135905421783079
 30
0.0
 11
-118.81103716714327
 21
48.135905421783079
 31
0.0
  0
LINE
  5
54E
100
AcDbEntity
  8
0
  6
PHANTOM
 62
             200
100
AcDbLine
 10
-120.81103716714327
 20
56.135905421783079
 30
0.0
 11
-120.81103716714327
 21
48.135905421783079
 31
0.0
  0
LINE
  5
54F
100
AcDbEntity
  8
0
  6
PHANTOM
 62
             200
100
AcDbLine
 10
-118.31103716714327
 20
55.635905421783079
 30
0.0
 11
-118.31103716714327
 21
48.635905421783079
 31
0.0
  0
ARC
  5
550
100
AcDbEntity
  8
0
  6
PHANTOM
 62
             200
100
AcDbCircle
 10
-118.81103716714327
 20
48.635905421783079
 30
0.0
 40
0.5
100
AcDbArc
 50
269.99999999999937
 51
0.0
  0
ARC
  5
551
100
AcDbEntity
  8
0
  6
PHANTOM
 62
             200
100
AcDbCircle
 10
-118.81103716714327
 20
55.635905421783079
 30
0.0
 40
0.5
100
AcDbArc
 50
0.0
 51
89.999999999999815
  0
LINE
  5
552
100
AcDbEntity
  8
0
  6
PHANTOM
 62
             200
100
AcDbLine
 10
-132.31103716714327
 20
48.135905421783079
 30
0.0
 11
-118.81103716714327
 21
48.135905421783079
 31
0.0
  0
LINE
  5
553
100
AcDbEntity
  8
0
  6
PHANTOM
 62
             200
100
AcDbLine
 10
-132.31103716714327
 20
56.135905421783079
 30
0.0
 11
-118.81103716714327
 21
56.135905421783079
 31
0.0
  0
LINE
  5
554
100
AcDbEntity
  8
0
  6
CENTER
 62
               2
100
AcDbLine
 10
-134.79483096150531
 20
52.135905421783079
 30
0.0
 11
-117.18103716714327
 21
52.135905421783079
 31
0.0
  0
LINE
  5
555
100
AcDbEntity
  8
0
  6
CENTER
 62
               2
100
AcDbLine
 10
-135.31103716714327
 20
44.534878692083893
 30
0.0
 11
-135.31103716714327
 21
49.534878692083893
 31
0.0
  0
LINE
  5
556
100
AcDbEntity
  8
0
  6
CENTER
 62
               2
100
AcDbLine
 10
-135.31103716714327
 20
71.534878688384637
 30
0.0
 11
-135.31103716714327
 21
76.534878688384637
 31
0.0
  0
LINE
  5
557
100
AcDbEntity
  8
0
  6
CONTINUOUS
 62
               7
100
AcDbLine
 10
-152.31103716714327
 20
44.034878688384637
 30
0.0
 11
-152.31103716714327
 21
77.034878688384637
 31
0.0
  0
LINE
  5
558
100
AcDbEntity
  8
0
  6
CONTINUOUS
 62
               7
100
AcDbLine
 10
-152.31103716714327
 20
77.034878688384637
 30
0.0
 11
-150.31103716714318
 21
77.034878688384637
 31
0.0
  0
LINE
  5
559
100
AcDbEntity
  8
0
  6
CONTINUOUS
 62
               7
100
AcDbLine
 10
-152.31103716714327
 20
44.034878688384637
 30
0.0
 11
-150.31103716714318
 21
44.034878688384637
 31
0.0
  0
CIRCLE
  5
55A
100
AcDbEntity
  8
0
  6
CONTINUOUS
 62
               7
100
AcDbCircle
 10
-149.11103716714319
 20
67.834878688384663
 30
0.0
 40
1.5
  0
ARC
  5
55B
100
AcDbEntity
  8
0
  6
CONTINUOUS
 62
               7
100
AcDbCircle
 10
-149.11103716714319
 20
67.834878688384663
 30
0.0
 40
1.6000000000000001
100
AcDbArc
 50
269.99999999999937
 51
89.999999999999801
  0
LINE
  5
55C
100
AcDbEntity
  8
0
  6
CONTINUOUS
 62
               7
100
AcDbLine
 10
-149.11103716714319
 20
69.434878688384657
 30
0.0
 11
-150.31103716714318
 21
69.434878688384657
 31
0.0
  0
LINE
  5
55D
100
AcDbEntity
  8
0
  6
CONTINUOUS
 62
               7
100
AcDbLine
 10
-149.11103716714319
 20
66.234878688384669
 30
0.0
 11
-150.31103716714318
 21
66.234878688384669
 31
0.0
  0
LINE
  5
55E
100
AcDbEntity
  8
0
  6
CONTINUOUS
 62
               7
100
AcDbLine
 10
-148.40393038595664
 20
68.541985469571216
 30
0.0
 11
-149.81814394832975
 21
67.12777190719811
 31
0.0
  0
LINE
  5
55F
100
AcDbEntity
  8
0
  6
CONTINUOUS
 62
               7
100
AcDbLine
 10
-149.81814394832975
 20
68.541985469571216
 30
0.0
 11
-148.40393038595664
 21
67.12777190719811
 31
0.0
  0
ARC
  5
560
100
AcDbEntity
  8
0
  6
CONTINUOUS
 62
               7
100
AcDbCircle
 10
-141.51103716714317
 20
53.234878688384661
 30
0.0
 40
1.6000000000000001
100
AcDbArc
 50
89.999999999999815
 51
269.99999999999937
  0
CIRCLE
  5
561
100
AcDbEntity
  8
0
  6
CONTINUOUS
 62
               7
100
AcDbCircle
 10
-141.51103716714317
 20
53.234878688384661
 30
0.0
 40
1.5
  0
LINE
  5
562
100
AcDbEntity
  8
0
  6
CONTINUOUS
 62
               7
100
AcDbLine
 10
-141.51103716714317
 20
54.834878688384663
 30
0.0
 11
-140.31103716714318
 21
54.834878688384663
 31
0.0
  0
LINE
  5
563
100
AcDbEntity
  8
0
  6
CONTINUOUS
 62
               7
100
AcDbLine
 10
-141.51103716714317
 20
51.63487868838466
 30
0.0
 11
-140.31103716714318
 21
51.63487868838466
 31
0.0
  0
LINE
  5
564
100
AcDbEntity
  8
0
  6
CONTINUOUS
 62
               7
100
AcDbLine
 10
-140.80393038595662
 20
53.941985469571208
 30
0.0
 11
-142.21814394832973
 21
52.527771907198115
 31
0.0
  0
LINE
  5
565
100
AcDbEntity
  8
0
  6
CONTINUOUS
 62
               7
100
AcDbLine
 10
-142.21814394832973
 20
53.941985469571208
 30
0.0
 11
-140.80393038595662
 21
52.527771907198115
 31
0.0
  0
ENDSEC
  0
SECTION
  2
OBJECTS
  0
DICTIONARY
  5
19
100
AcDbDictionary
  3
ACAD_GROUP
350
1A
  3
ACAD_MLINESTYLE
350
1B
  0
DICTIONARY
  5
1A
102
{ACAD_REACTORS
330
19
102
}
100
AcDbDictionary
  0
DICTIONARY
  5
1B
102
{ACAD_REACTORS
330
19
102
}
100
AcDbDictionary
  3
STANDARD
350
1C
  0
MLINESTYLE
  5
1C
102
{ACAD_REACTORS
330
1B
102
}
100
AcDbMlineStyle
  2
Standard
 70
               0
  3

 62
               0
 51
90.0
 52
90.0
 71
               2
 49
0.5
 62
             256
  6
ByLayer
 49
-0.5
 62
             256
  6
ByLayer
  0
ENDSEC
  0
EOF
