  0
SECTION
  2
HEADER
  9
$ACADVER
  1
AC1012
  9
$DWGCODEPAGE
  3
dos932
  9
$INSBASE
 10
0.0
 20
0.0
 30
0.0
  9
$EXTMIN
 10
-281.25
 20
-195.0
 30
0.0
  9
$EXTMAX
 10
285.6319057062413
 20
195.5
 30
0.0
  9
$LIMMIN
 10
-281.25
 20
-195.0
  9
$LIMMAX
 10
285.6319057062413
 20
195.5
  9
$ORTHOMODE
 70
               0
  9
$REGENMODE
 70
               1
  9
$FILLMODE
 70
               1
  9
$QTEXTMODE
 70
               0
  9
$MIRRTEXT
 70
               1
  9
$DRAGMODE
 70
               2
  9
$LTSCALE
 40
1.0
  9
$OSMODE
 70
               0
  9
$ATTMODE
 70
               1
  9
$TEXTSIZE
 40
3.2000000476837158
  9
$TRACEWID
 40
0.05
  9
$TEXTSTYLE
  7
MX_NOTE_STANDARD
  9
$CLAYER
  8
0
  9
$CELTYPE
  6
CONTINUOUS
  9
$CECOLOR
 62
             256
  9
$CELTSCALE
 40
1.0
  9
$DELOBJ
 70
               1
  9
$DISPSILH
 70
               0
  9
$DIMSCALE
 40
1.0
  9
$DIMASZ
 40
2.5
  9
$DIMEXO
 40
1.5
  9
$DIMDLI
 40
3.75
  9
$DIMRND
 40
0.0
  9
$DIMDLE
 40
0.0
  9
$DIMEXE
 40
1.5
  9
$DIMTP
 40
0.0
  9
$DIMTM
 40
0.0
  9
$DIMTXT
 40
3.2000000476837158
  9
$DIMCEN
 40
2.5
  9
$DIMTSZ
 40
0.0
  9
$DIMTOL
 70
               0
  9
$DIMLIM
 70
               0
  9
$DIMTIH
 70
               0
  9
$DIMTOH
 70
               0
  9
$DIMSE1
 70
               0
  9
$DIMSE2
 70
               0
  9
$DIMTAD
 70
               1
  9
$DIMZIN
 70
               8
  9
$DIMBLK
  1

  9
$DIMASO
 70
               1
  9
$DIMSHO
 70
               1
  9
$DIMPOST
  1

  9
$DIMAPOST
  1

  9
$DIMALT
 70
               0
  9
$DIMALTD
 70
               4
  9
$DIMALTF
 40
0.03937007874016
  9
$DIMLFAC
 40
1.0
  9
$DIMTOFL
 70
               1
  9
$DIMTVP
 40
0.0
  9
$DIMTIX
 70
               0
  9
$DIMSOXD
 70
               0
  9
$DIMSAH
 70
               0
  9
$DIMBLK1
  1

  9
$DIMBLK2
  1

  9
$DIMSTYLE
  2
MXDIMSTYLE
  9
$DIMCLRD
 70
               0
  9
$DIMCLRE
 70
               0
  9
$DIMCLRT
 70
               0
  9
$DIMTFAC
 40
1.0
  9
$DIMGAP
 40
1.0
  9
$DIMJUST
 70
               0
  9
$DIMSD1
 70
               0
  9
$DIMSD2
 70
               0
  9
$DIMTOLJ
 70
               1
  9
$DIMTZIN
 70
               0
  9
$DIMALTZ
 70
               0
  9
$DIMALTTZ
 70
               0
  9
$DIMFIT
 70
               3
  9
$DIMUPT
 70
               1
  9
$DIMUNIT
 70
               2
  9
$DIMDEC
 70
               4
  9
$DIMTDEC
 70
               4
  9
$DIMALTU
 70
               2
  9
$DIMALTTD
 70
               4
  9
$DIMTXSTY
  7
MX_NOTE_STANDARD
  9
$DIMAUNIT
 70
               0
  9
$LUNITS
 70
               2
  9
$LUPREC
 70
               4
  9
$SKETCHINC
 40
0.1
  9
$FILLETRAD
 40
0.0
  9
$AUNITS
 70
               0
  9
$AUPREC
 70
               0
  9
$MENU
  1
acad
  9
$ELEVATION
 40
0.0
  9
$PELEVATION
 40
0.0
  9
$THICKNESS
 40
0.0
  9
$LIMCHECK
 70
               0
  9
$BLIPMODE
 70
               1
  9
$CHAMFERA
 40
0.0
  9
$CHAMFERB
 40
0.0
  9
$CHAMFERC
 40
0.0
  9
$CHAMFERD
 40
0.0
  9
$SKPOLY
 70
               0
  9
$TDCREATE
 40
2453378.356597222
  9
$TDUPDATE
 40
2453378.356597222
  9
$TDINDWG
 40
0.0000000000
  9
$TDUSRTIMER
 40
0.0000000000
  9
$USRTIMER
 70
               1
  9
$ANGBASE
 50
0.0
  9
$ANGDIR
 70
               0
  9
$PDMODE
 70
               0
  9
$PDSIZE
 40
0.0
  9
$PLINEWID
 40
0.0
  9
$COORDS
 70
               1
  9
$SPLFRAME
 70
               0
  9
$SPLINETYPE
 70
               6
  9
$SPLINESEGS
 70
               8
  9
$ATTDIA
 70
               0
  9
$ATTREQ
 70
               1
  9
$HANDLING
 70
               1
  9
$HANDSEED
  5
453
  9
$SURFTAB1
 70
               6
  9
$SURFTAB2
 70
               6
  9
$SURFTYPE
 70
               6
  9
$SURFU
 70
               6
  9
$SURFV
 70
               6
  9
$UCSNAME
  2

  9
$UCSORG
 10
0.0
 20
0.0
 30
0.0
  9
$UCSXDIR
 10
1.0
 20
0.0
 30
0.0
  9
$UCSYDIR
 10
0.0
 20
1.0
 30
0.0
  9
$PUCSNAME
  2

  9
$PUCSORG
 10
0.0
 20
0.0
 30
0.0
  9
$PUCSXDIR
 10
1.0
 20
0.0
 30
0.0
  9
$PUCSYDIR
 10
0.0
 20
1.0
 30
0.0
  9
$USERI1
 70
               0
  9
$USERI2
 70
               0
  9
$USERI3
 70
               0
  9
$USERI4
 70
               0
  9
$USERI5
 70
               0
  9
$USERR1
 40
0.0
  9
$USERR2
 40
0.0
  9
$USERR3
 40
0.0
  9
$USERR4
 40
0.0
  9
$USERR5
 40
0.0
  9
$WORLDVIEW
 70
               1
  9
$SHADEDGE
 70
               3
  9
$SHADEDIF
 70
              70
  9
$TILEMODE
 70
               1
  9
$MAXACTVP
 70
              16
  9
$PINSBASE
 10
0.0
 20
0.0
 30
0.0
  9
$PLIMCHECK
 70
               0
  9
$PEXTMIN
 10
1.0000000000000000E+20
 20
1.0000000000000000E+20
 30
1.0000000000000000E+20
  9
$PEXTMAX
 10
-1.0000000000000000E+20
 20
-1.0000000000000000E+20
 30
-1.0000000000000000E+20
  9
$PLIMMIN
 10
0.0
 20
0.0
  9
$PLIMMAX
 10
12.0
 20
9.0
  9
$UNITMODE
 70
               0
  9
$VISRETAIN
 70
               0
  9
$PLINEGEN
 70
               1
  9
$PSLTSCALE
 70
               0
  9
$TREEDEPTH
 70
            3020
  9
$PICKSTYLE
 70
               1
  9
$CMLSTYLE
  2
Standard
  9
$CMLJUST
 70
               0
  9
$CMLSCALE
 40
1.0
  9
$SAVEIMAGES
 70
               0
  0
ENDSEC
  0
SECTION
  2
CLASSES
  0
CLASS
  1
LWPOLYLINE
  2
AcDbPolyline
  3
"AutoCAD"
 90
        0
280
               0
281
               1
  0
CLASS
  1
IMAGE
  2
AcDbRasterImage
  3
ISM
 90
      127
280
               0
281
               1
  0
CLASS
  1
OLE2FRAME
  2
AcDbOle2Frame
  3
""
 90
        0
280
               0
281
               1
  0
CLASS
  1
HATCH
  2
AcDbHatch
  3
"ACAD_SEDONA"
 90
        0
280
               0
281
               1
  0
CLASS
  1
DICTIONARYVAR
  2
AcDbDictionaryVar
  3
"AutoCAD"
 90
        0
280
               0
281
               0
  0
CLASS
  1
RASTERVARIABLES
  2
AcDbRasterVariables
  3
ISM
 90
        0
280
               0
281
               0
  0
CLASS
  1
IMAGEDEF
  2
AcDbRasterImageDef
  3
ISM
 90
        0
280
               0
281
               0
  0
CLASS
  1
IMAGEDEF_REACTOR
  2
AcDbRasterImageDefReactor
  3
ISM
 90
        1
280
               0
281
               0
  0
CLASS
  1
IDBUFFER
  2
AcDbIdBuffer
  3
"Acad"
 90
        0
280
               0
281
               0
  0
CLASS
  1
SPATIAL_FILTER
  2
AcDbSpatialFilter
  3
"Acad"
 90
        0
280
               0
281
               0
  0
CLASS
  1
XRECORD
  2
AcDbXrecord
  3
"<Built In>"
 90
        0
280
               0
281
               0
  0
CLASS
  1
SORTENTSTABLE
  2
AcDbSortentsTable
  3
"AutoCAD"
 90
        0
280
               0
281
               0
  0
CLASS
  1
LAYER_INDEX
  2
AcDbLayerIndex
  3
"Acad"
 90
        0
280
               0
281
               0
  0
CLASS
  1
SPATIAL_INDEX
  2
AcDbSpatialIndex
  3
"Acad"
 90
        0
280
               0
281
               0
  0
CLASS
  1
OBJECT_PTR
  2
CAseDLPNTableRecord
  3
"ASE-LPNTableRecord"
 90
        1
280
               0
281
               0
  0
CLASS
  1
LAYOUT
  2
AcDbLayout
  3
"AutoCAD 2000"
 90
        1
280
               0
281
               0
  0
CLASS
  1
PLOTSETTINGS
  2
AcDbPlotSettings
  3
"AutoCAD 2000"
 90
        1
280
               0
281
               0
  0
CLASS
  1
ACDBDICTIONARYWDFLT
  2
AcDbDictionaryWithDefault
  3
"AutoCAD 2000"
 90
        1
280
               0
281
               0
  0
CLASS
  1
ACDBPLACEHOLDER
  2
AcDbPlaceHolder
  3
"AutoCAD 2000"
 90
        1
280
               0
281
               0
  0
ENDSEC
  0
SECTION
  2
TABLES
  0
TABLE
  2
VPORT
  5
7
100
AcDbSymbolTable
 70
               1
  0
VPORT
  5
15
100
AcDbSymbolTableRecord
100
AcDbViewportTableRecord
  2
*ACTIVE
 70
               0
 10
0.0
 20
0.0
 11
1.0
 21
1.0
 12
2.1909528531206206
 22
0.25
 13
0.0
 23
0.0
 14
1.0
 24
1.0
 15
0.0
 25
0.0
 16
0.0
 26
0.0
 36
1.0
 17
0.0
 27
0.0
 37
0.0
 40
394.40500000000003
 41
1.7320508075688772
 42
50.0
 43
0.0
 44
0.0
 50
0.0
 51
0.0
 71
               0
 72
             100
 73
               1
 74
               1
 75
               0
 76
               0
 77
               0
 78
               0
  0
ENDTAB
  0
TABLE
  2
LTYPE
  5
4
100
AcDbSymbolTable
 70
               6
  0
LTYPE
  5
11
100
AcDbSymbolTableRecord
100
AcDbLinetypeTableRecord
  2
BYBLOCK
 70
              64
  3

 72
              65
 73
               0
 40
0.0
  0
LTYPE
  5
12
100
AcDbSymbolTableRecord
100
AcDbLinetypeTableRecord
  2
BYLAYER
 70
              64
  3

 72
              65
 73
               0
 40
0.0
  0
LTYPE
  5
13
100
AcDbSymbolTableRecord
100
AcDbLinetypeTableRecord
  2
CONTINUOUS
 70
              64
  3
Solid line
 72
              65
 73
               0
 40
0.0
  0
LTYPE
  5
48
100
AcDbSymbolTableRecord
100
AcDbLinetypeTableRecord
  2
CENTER
 70
              64
  3
Center ____ _ ____ _ ____ _ ____ _ ____ _ ____
 72
              65
 73
               4
 40
26.0
 49
20.0
 74
               0
 49
-2.0
 74
               0
 49
2.0
 74
               0
 49
-2.0
 74
               0
  0
LTYPE
  5
64
100
AcDbSymbolTableRecord
100
AcDbLinetypeTableRecord
  2
DASHED
 70
              64
  3
Dashed __ __ __ __ __ __ __ __ __ __ __ __ __ _
 72
              65
 73
               2
 40
4.0
 49
2.0
 74
               0
 49
-2.0
 74
               0
  0
LTYPE
  5
D7
100
AcDbSymbolTableRecord
100
AcDbLinetypeTableRecord
  2
PHANTOM
 70
              64
  3
Phantom ______  __  __  ______  __  __  ______
 72
              65
 73
               6
 40
30.0
 49
20.0
 74
               0
 49
-2.0
 74
               0
 49
2.0
 74
               0
 49
-2.0
 74
               0
 49
2.0
 74
               0
 49
-2.0
 74
               0
  0
ENDTAB
  0
TABLE
  2
LAYER
  5
2
100
AcDbSymbolTable
 70
               2
  0
LAYER
  5
14
100
AcDbSymbolTableRecord
100
AcDbLayerTableRecord
  2
0
 70
               0
 62
               7
  6
CONTINUOUS
  0
LAYER
  5
1D
100
AcDbSymbolTableRecord
100
AcDbLayerTableRecord
  2
DEFPOINTS
 70
               0
 62
               7
  6
CONTINUOUS
  0
ENDTAB
  0
TABLE
  2
STYLE
  5
3
100
AcDbSymbolTable
 70
               1
  0
STYLE
  5
17
100
AcDbSymbolTableRecord
100
AcDbTextStyleTableRecord
  2
MX_NOTE_STANDARD
 70
               0
 40
0.0
 41
1.0
 50
0.0
 71
               0
 42
3.2000000476837158
  3
txt.shx
  4
extfont.shx
  0
ENDTAB
  0
TABLE
  2
VIEW
  5
5
100
AcDbSymbolTable
 70
               0
  0
ENDTAB
  0
TABLE
  2
UCS
  5
6
100
AcDbSymbolTable
 70
               0
  0
ENDTAB
  0
TABLE
  2
APPID
  5
8
100
AcDbSymbolTable
 70
               1
  0
APPID
  5
16
100
AcDbSymbolTableRecord
100
AcDbRegAppTableRecord
  2
ACAD
 70
               0
  0
ENDTAB
  0
TABLE
  2
DIMSTYLE
  5
9
100
AcDbSymbolTable
 70
               1
  0
DIMSTYLE
105
18
100
AcDbSymbolTableRecord
100
AcDbDimStyleTableRecord
  2
MXDIMSTYLE
 70
               0
  3

  4

  5

  6

  7

 40
1.0
 41
2.5
 42
1.5
 43
3.75
 44
1.5
 45
0.0
 46
0.0
 47
0.0
 48
0.0
 71
               0
 72
               0
 73
               0
 74
               0
 75
               0
 76
               0
 77
               1
 78
               8
140
3.2000000476837158
141
2.5
142
0.0
143
0.03937007874016
144
1.0
145
0.0
146
1.0
147
1.0
170
               0
171
               4
172
               1
173
               0
174
               0
175
               0
176
               0
177
               0
178
               0
270
               2
271
               4
272
               4
273
               2
274
               4
275
               0
280
               0
281
               0
282
               0
283
               1
284
               0
285
               0
286
               0
287
               3
288
               1
340
17
  0
ENDTAB
  0
TABLE
  2
BLOCK_RECORD
  5
1
100
AcDbSymbolTable
 70
               0
  0
BLOCK_RECORD
  5
A
100
AcDbSymbolTableRecord
100
AcDbBlockTableRecord
  2
*MODEL_SPACE
  0
BLOCK_RECORD
  5
B
100
AcDbSymbolTableRecord
100
AcDbBlockTableRecord
  2
*PAPER_SPACE
  0
ENDTAB
  0
ENDSEC
  0
SECTION
  2
BLOCKS
  0
BLOCK
  5
D
100
AcDbEntity
  8
0
100
AcDbBlockBegin
  2
*MODEL_SPACE
 70
               0
 10
0.0
 20
0.0
 30
0.0
  3
*MODEL_SPACE
  1

  0
ENDBLK
  5
E
100
AcDbEntity
  8
0
100
AcDbBlockEnd
  0
BLOCK
  5
F
100
AcDbEntity
 67
               1
  8
0
100
AcDbBlockBegin
  2
*PAPER_SPACE
 70
               0
 10
0.0
 20
0.0
 30
0.0
  3
*PAPER_SPACE
  1

  0
ENDBLK
  5
10
100
AcDbEntity
 67
               1
  8
0
100
AcDbBlockEnd
  0
ENDSEC
  0
SECTION
  2
ENTITIES
  0
MTEXT
  5
1E
100
AcDbEntity
  8
0
  6
CONTINUOUS
 62
               7
100
AcDbMText
 10
-268.26144588680285
 20
160.5
 30
0.0
 40
6.3000001907348633
 41
0.0
 71
               4
 72
               1
  1
\W1.084;\A1;MODEL:JC10F6-PL
  0
LINE
  5
1F
100
AcDbEntity
  8
0
  6
CONTINUOUS
 62
               7
100
AcDbLine
 10
-281.25
 20
-195.0
 30
0.0
 11
282.099853515625
 21
-195.0
 31
0.0
  0
LINE
  5
20
100
AcDbEntity
  8
0
  6
CONTINUOUS
 62
               7
100
AcDbLine
 10
-281.25
 20
195.5
 30
0.0
 11
-281.25
 21
-195.0
 31
0.0
  0
LINE
  5
21
100
AcDbEntity
  8
0
  6
CONTINUOUS
 62
               7
100
AcDbLine
 10
-281.25
 20
195.5
 30
0.0
 11
282.099853515625
 21
195.5
 31
0.0
  0
LINE
  5
22
100
AcDbEntity
  8
0
  6
CONTINUOUS
 62
               7
100
AcDbLine
 10
282.099853515625
 20
195.5
 30
0.0
 11
282.099853515625
 21
-195.0
 31
0.0
  0
LINE
  5
23
100
AcDbEntity
  8
0
  6
CONTINUOUS
 62
               7
100
AcDbLine
 10
162.0999755859375
 20
195.5
 30
0.0
 11
162.0999755859375
 21
175.5
 31
0.0
  0
LINE
  5
24
100
AcDbEntity
  8
0
  6
CONTINUOUS
 62
               7
100
AcDbLine
 10
162.0999755859375
 20
175.5
 30
0.0
 11
282.099853515625
 21
175.5
 31
0.0
  0
MTEXT
  5
25
100
AcDbEntity
  8
0
  6
CONTINUOUS
 62
               7
100
AcDbMText
 10
198.27702406779611
 20
185.5
 30
0.0
 40
6.3000001907348633
 41
0.0
 71
               4
 72
               1
  1
\W1.311;\A1;Ver. 1.0
  0
MTEXT
  5
26
100
AcDbEntity
  8
0
  6
CONTINUOUS
 62
               7
100
AcDbMText
 10
170.28099805280428
 20
-185.0
 30
0.0
 40
9.0
 41
0.0
 71
               4
 72
               1
  1
\W1.121;\A1;KOGANEI CORP.
  0
LINE
  5
27
100
AcDbEntity
  8
0
  6
CONTINUOUS
 62
               7
100
AcDbLine
 10
162.0999755859375
 20
-175.0
 30
0.0
 11
282.099853515625
 21
-175.0
 31
0.0
  0
LINE
  5
28
100
AcDbEntity
  8
0
  6
CONTINUOUS
 62
               7
100
AcDbLine
 10
162.0999755859375
 20
-175.0
 30
0.0
 11
162.0999755859375
 21
-195.0
 31
0.0
  0
LINE
  5
29
100
AcDbEntity
  8
0
  6
CONTINUOUS
 62
               7
100
AcDbLine
 10
-161.25
 20
195.5
 30
0.0
 11
-161.25
 21
175.5
 31
0.0
  0
LINE
  5
2A
100
AcDbEntity
  8
0
  6
CONTINUOUS
 62
               7
100
AcDbLine
 10
-281.25
 20
175.5
 30
0.0
 11
-161.25
 21
175.5
 31
0.0
  0
MTEXT
  5
2B
100
AcDbEntity
  8
0
  6
CONTINUOUS
 62
               7
100
AcDbMText
 10
-257.88333446177035
 20
185.5
 30
0.0
 40
6.3000001907348633
 41
0.0
 71
               4
 72
               1
  1
\W1.111;\A1;JC･JE SERIES
  0
LINE
  5
2C
100
AcDbEntity
  8
0
  6
CONTINUOUS
 62
               7
100
AcDbLine
 10
-281.25
 20
-38.799999999999983
 30
0.0
 11
282.099853515625
 21
-38.799999999999983
 31
0.0
  0
LINE
  5
2D
100
AcDbEntity
  8
0
  6
CONTINUOUS
 62
               7
100
AcDbLine
 10
0.4249267578125
 20
-38.799999999999983
 30
0.0
 11
0.4249267578125
 21
195.5
 31
0.0
  0
MTEXT
  5
2E
100
AcDbEntity
  8
0
  6
CONTINUOUS
 62
               7
100
AcDbMText
 10
13.413480871009668
 20
160.5
 30
0.0
 40
6.3000001907348633
 41
0.0
 71
               4
 72
               1
  1
\W1.084;\A1;MODEL:JC10F6-PS
  0
MTEXT
  5
2F
100
AcDbEntity
  8
0
  6
CONTINUOUS
 62
               7
100
AcDbMText
 10
-268.26144588680285
 20
-53.799999999999983
 30
0.0
 40
6.3000001907348633
 41
0.0
 71
               4
 72
               1
  1
\W1.084;\A1;MODEL:JC10F6-GL
  0
MTEXT
  5
30
100
AcDbEntity
  8
0
  6
CONTINUOUS
 62
               7
100
AcDbMText
 10
51.180191007819936
 20
150.5
 30
0.0
 40
6.3000001907348633
 41
0.0
 71
               4
 72
               1
  1
\W1.053;\A1;JC10LF6-PS
  0
MTEXT
  5
31
100
AcDbEntity
  8
0
  6
CONTINUOUS
 62
               7
100
AcDbMText
 10
51.180191007819936
 20
140.5
 30
0.0
 40
6.3000001907348633
 41
0.0
 71
               4
 72
               1
  1
\W1.053;\A1;JC10SF6-PS
  0
MTEXT
  5
32
100
AcDbEntity
  8
0
  6
CONTINUOUS
 62
               7
100
AcDbMText
 10
-230.49473574999257
 20
150.5
 30
0.0
 40
6.3000001907348633
 41
0.0
 71
               4
 72
               1
  1
\W1.053;\A1;JC10LF6-PL
  0
MTEXT
  5
33
100
AcDbEntity
  8
0
  6
CONTINUOUS
 62
               7
100
AcDbMText
 10
-230.49473574999257
 20
140.5
 30
0.0
 40
6.3000001907348633
 41
0.0
 71
               4
 72
               1
  1
\W1.053;\A1;JC10SF6-PL
  0
LINE
  5
34
100
AcDbEntity
  8
0
  6
CONTINUOUS
 62
               4
100
AcDbLine
 10
-146.22562884141905
 20
-179.519303666296
 30
0.0
 11
-136.22562884141905
 21
-179.519303666296
 31
0.0
  0
LINE
  5
35
100
AcDbEntity
  8
0
  6
CONTINUOUS
 62
               4
100
AcDbLine
 10
-146.22562884141905
 20
-177.91930366629603
 30
0.0
 11
-143.02562884141901
 21
-177.91930366629603
 31
0.0
  0
LINE
  5
36
100
AcDbEntity
  8
0
  6
CONTINUOUS
 62
               4
100
AcDbLine
 10
-143.02562884141901
 20
-179.41930366629603
 30
0.0
 11
-136.72562884141905
 21
-179.41930366629603
 31
0.0
  0
LINE
  5
37
100
AcDbEntity
  8
0
  6
CONTINUOUS
 62
               4
100
AcDbLine
 10
-143.02562884141901
 20
-179.41930366629603
 30
0.0
 11
-143.02562884141901
 21
-177.91930366629603
 31
0.0
  0
ARC
  5
38
100
AcDbEntity
  8
0
  6
CONTINUOUS
 62
               4
100
AcDbCircle
 10
-136.72562884141905
 20
-178.91930366629597
 30
0.0
 40
0.5
100
AcDbArc
 50
269.99999999999937
 51
0.0
  0
LINE
  5
39
100
AcDbEntity
  8
0
  6
CONTINUOUS
 62
               4
100
AcDbLine
 10
-146.22562884141905
 20
-178.91930366629597
 30
0.0
 11
-143.02562884141901
 21
-178.91930366629597
 31
0.0
  0
ARC
  5
3A
100
AcDbEntity
  8
0
  6
CONTINUOUS
 62
               4
100
AcDbCircle
 10
-145.42972398807717
 20
-178.91939881295414
 30
0.0
 40
0.5999048608870732
100
AcDbArc
 50
179.99091272245337
 51
270.00908727754575
  0
ARC
  5
3B
100
AcDbEntity
  8
0
  6
CONTINUOUS
 62
               4
100
AcDbCircle
 10
-143.62854083618197
 20
-178.92039167153305
 30
0.0
 40
0.5989129830170392
100
AcDbArc
 50
269.89591452477231
 51
0.1040854752270701
  0
LINE
  5
3C
100
AcDbEntity
  8
0
  6
CONTINUOUS
 62
               4
100
AcDbLine
 10
-136.22562884141905
 20
-179.519303666296
 30
0.0
 11
-136.22562884141905
 21
-157.01930366629605
 31
0.0
  0
LINE
  5
3D
100
AcDbEntity
  8
0
  6
CONTINUOUS
 62
               4
100
AcDbLine
 10
-146.22562884141905
 20
-179.519303666296
 30
0.0
 11
-146.22562884141905
 21
-157.01930366629605
 31
0.0
  0
ARC
  5
3E
100
AcDbEntity
  8
0
  6
CONTINUOUS
 62
               4
100
AcDbCircle
 10
-138.82271684665602
 20
-84.518215661059074
 30
0.0
 40
0.5989129830170392
100
AcDbArc
 50
89.895914524772735
 51
180.10408547522667
  0
ARC
  5
3F
100
AcDbEntity
  8
0
  6
CONTINUOUS
 62
               4
100
AcDbCircle
 10
-137.02153369476071
 20
-84.519208519637928
 30
0.0
 40
0.5999048608870732
100
AcDbArc
 50
359.99091272245295
 51
90.009087277546172
  0
LINE
  5
40
100
AcDbEntity
  8
0
  6
CONTINUOUS
 62
               4
100
AcDbLine
 10
-136.22562884141905
 20
-84.519303666296096
 30
0.0
 11
-139.42562884141898
 21
-84.519303666296096
 31
0.0
  0
ARC
  5
41
100
AcDbEntity
  8
0
  6
CONTINUOUS
 62
               4
100
AcDbCircle
 10
-145.72562884141905
 20
-84.519303666296096
 30
0.0
 40
0.5
100
AcDbArc
 50
89.999999999999815
 51
179.99999999999963
  0
LINE
  5
42
100
AcDbEntity
  8
0
  6
CONTINUOUS
 62
               4
100
AcDbLine
 10
-139.4256288414191
 20
-84.019303666296068
 30
0.0
 11
-139.4256288414191
 21
-85.519303666296068
 31
0.0
  0
LINE
  5
43
100
AcDbEntity
  8
0
  6
CONTINUOUS
 62
               4
100
AcDbLine
 10
-139.4256288414191
 20
-84.019303666296068
 30
0.0
 11
-145.72562884141905
 21
-84.019303666296068
 31
0.0
  0
LINE
  5
44
100
AcDbEntity
  8
0
  6
CONTINUOUS
 62
               4
100
AcDbLine
 10
-136.22562884141905
 20
-85.519303666296068
 30
0.0
 11
-139.4256288414191
 21
-85.519303666296068
 31
0.0
  0
LINE
  5
45
100
AcDbEntity
  8
0
  6
CONTINUOUS
 62
               4
100
AcDbLine
 10
-136.22562884141905
 20
-83.919303666296102
 30
0.0
 11
-146.22562884141905
 21
-83.919303666296102
 31
0.0
  0
LINE
  5
46
100
AcDbEntity
  8
0
  6
CONTINUOUS
 62
               4
100
AcDbLine
 10
-146.22562884141905
 20
-83.919303666296102
 30
0.0
 11
-146.22562884141905
 21
-106.41930366629605
 31
0.0
  0
LINE
  5
47
100
AcDbEntity
  8
0
  6
CONTINUOUS
 62
               4
100
AcDbLine
 10
-136.22562884141905
 20
-83.919303666296102
 30
0.0
 11
-136.22562884141905
 21
-106.41930366629605
 31
0.0
  0
LINE
  5
49
100
AcDbEntity
  8
0
  6
CENTER
 62
               2
100
AcDbLine
 10
-138.07476226950473
 20
-131.71930366629607
 30
0.0
 11
-144.43363265930691
 21
-131.71930366629604
 31
0.0
  0
LINE
  5
4A
100
AcDbEntity
  8
0
  6
CENTER
 62
               2
100
AcDbLine
 10
-137.42562884141898
 20
-141.16930366629606
 30
0.0
 11
-137.42562884141898
 21
-138.86930366629605
 31
0.0
  0
CIRCLE
  5
4B
100
AcDbEntity
  8
0
  6
CONTINUOUS
 62
               7
100
AcDbCircle
 10
-137.42647735216121
 20
-140.01833039969449
 30
0.0
 40
0.9
  0
LINE
  5
4C
100
AcDbEntity
  8
0
  6
CENTER
 62
               2
100
AcDbLine
 10
-136.27562884141901
 20
-140.01930366629608
 30
0.0
 11
-138.57562884141896
 21
-140.01930366629608
 31
0.0
  0
LINE
  5
4D
100
AcDbEntity
  8
0
  6
CENTER
 62
               2
100
AcDbLine
 10
-143.87562884141892
 20
-123.41930366629606
 30
0.0
 11
-146.17562884141898
 21
-123.41930366629606
 31
0.0
  0
LINE
  5
4E
100
AcDbEntity
  8
0
  6
CENTER
 62
               2
100
AcDbLine
 10
-145.02562884141901
 20
-124.56930366629607
 30
0.0
 11
-145.02562884141901
 21
-122.26930366629608
 31
0.0
  0
CIRCLE
  5
4F
100
AcDbEntity
  8
0
  6
CONTINUOUS
 62
               7
100
AcDbCircle
 10
-145.02647735216112
 20
-123.4183303996945
 30
0.0
 40
0.9
  0
LINE
  5
50
100
AcDbEntity
  8
0
  6
CENTER
 62
               2
100
AcDbLine
 10
-139.52562884141901
 20
-140.11930366629605
 30
0.0
 11
-143.23861585440602
 21
-140.11930366629605
 31
0.0
  0
CIRCLE
  5
51
100
AcDbEntity
  8
0
  6
CONTINUOUS
 62
               7
100
AcDbCircle
 10
-141.22562884141894
 20
-140.11930366629605
 30
0.0
 40
1.25
  0
CIRCLE
  5
52
100
AcDbEntity
  8
0
  6
CONTINUOUS
 62
               2
100
AcDbCircle
 10
-141.22562884141894
 20
-140.11930366629605
 30
0.0
 40
1.5
  0
CIRCLE
  5
53
100
AcDbEntity
  8
0
  6
CONTINUOUS
 62
               7
100
AcDbCircle
 10
-141.22562884141894
 20
-123.31930366629607
 30
0.0
 40
1.25
  0
CIRCLE
  5
54
100
AcDbEntity
  8
0
  6
CONTINUOUS
 62
               2
100
AcDbCircle
 10
-141.22647735216117
 20
-123.32642813393664
 30
0.0
 40
1.5
  0
LINE
  5
55
100
AcDbEntity
  8
0
  6
CENTER
 62
               2
100
AcDbLine
 10
-139.52562884141901
 20
-123.31930366629607
 30
0.0
 11
-142.92562884141898
 21
-123.31930366629607
 31
0.0
  0
CIRCLE
  5
56
100
AcDbEntity
  8
0
  6
CONTINUOUS
 62
               7
100
AcDbCircle
 10
-141.22562884141894
 20
-131.71930366629607
 30
0.0
 40
2.1000000000000001
  0
CIRCLE
  5
57
100
AcDbEntity
  8
0
  6
CONTINUOUS
 62
               2
100
AcDbCircle
 10
-141.22562884141894
 20
-131.71930366629607
 30
0.0
 40
2.5
  0
LINE
  5
58
100
AcDbEntity
  8
0
  6
CENTER
 62
               2
100
AcDbLine
 10
-141.22562884141894
 20
-83.221303666296052
 30
0.0
 11
-141.22562884141894
 21
-180.21730366629603
 31
0.0
  0
CIRCLE
  5
59
100
AcDbEntity
  8
0
  6
CONTINUOUS
 62
               7
100
AcDbCircle
 10
-141.22562884141894
 20
-151.71930366629604
 30
0.0
 40
0.75
  0
LINE
  5
5A
100
AcDbEntity
  8
0
  6
CENTER
 62
               2
100
AcDbLine
 10
-143.22562884141894
 20
-151.71930366629604
 30
0.0
 11
-139.22562884141894
 21
-151.71930366629604
 31
0.0
  0
LINE
  5
5B
100
AcDbEntity
  8
0
  6
CONTINUOUS
 62
               7
100
AcDbLine
 10
-136.22562884141894
 20
-143.81930366629604
 30
0.0
 11
-146.22562884141894
 21
-143.81930366629604
 31
0.0
  0
LINE
  5
5C
100
AcDbEntity
  8
0
  6
CONTINUOUS
 62
               7
100
AcDbLine
 10
-146.22562884141894
 20
-157.01930366629605
 30
0.0
 11
-146.22562884141894
 21
-106.41930366629605
 31
0.0
  0
LINE
  5
5D
100
AcDbEntity
  8
0
  6
CONTINUOUS
 62
               7
100
AcDbLine
 10
-146.22562884141894
 20
-157.01930366629605
 30
0.0
 11
-136.22562884141894
 21
-157.01930366629605
 31
0.0
  0
CIRCLE
  5
5E
100
AcDbEntity
  8
0
  6
CONTINUOUS
 62
               7
100
AcDbCircle
 10
-141.22562884141894
 20
-111.71930366629604
 30
0.0
 40
0.75
  0
LINE
  5
5F
100
AcDbEntity
  8
0
  6
CENTER
 62
               2
100
AcDbLine
 10
-143.22562884141894
 20
-111.71930366629604
 30
0.0
 11
-139.22562884141894
 21
-111.71930366629604
 31
0.0
  0
LINE
  5
60
100
AcDbEntity
  8
0
  6
CONTINUOUS
 62
               7
100
AcDbLine
 10
-136.22562884141894
 20
-119.61930366629605
 30
0.0
 11
-146.22562884141894
 21
-119.61930366629605
 31
0.0
  0
LINE
  5
61
100
AcDbEntity
  8
0
  6
CONTINUOUS
 62
               7
100
AcDbLine
 10
-136.22562884141894
 20
-157.01930366629605
 30
0.0
 11
-136.22562884141894
 21
-106.41930366629605
 31
0.0
  0
LINE
  5
62
100
AcDbEntity
  8
0
  6
CONTINUOUS
 62
               7
100
AcDbLine
 10
-146.22562884141894
 20
-106.41930366629605
 30
0.0
 11
-136.22562884141894
 21
-106.41930366629605
 31
0.0
  0
LINE
  5
63
100
AcDbEntity
  8
0
  6
CENTER
 62
               2
100
AcDbLine
 10
-54.332452052338454
 20
-83.23637168740585
 30
0.0
 11
-54.332452052338454
 21
-180.21730366629609
 31
0.0
  0
ARC
  5
65
100
AcDbEntity
  8
0
  6
DASHED
 62
             200
100
AcDbCircle
 10
-72.832452052338454
 20
-137.62027693289758
 30
0.0
 40
0.5
100
AcDbArc
 50
89.999999999999815
 51
179.99999999999963
  0
ARC
  5
66
100
AcDbEntity
  8
0
  6
DASHED
 62
             200
100
AcDbCircle
 10
-72.832452052338454
 20
-142.62027693289758
 30
0.0
 40
0.5
100
AcDbArc
 50
179.99999999999963
 51
269.99999999999937
  0
LINE
  5
67
100
AcDbEntity
  8
0
  6
DASHED
 62
             200
100
AcDbLine
 10
-73.332452052338454
 20
-137.62027693289758
 30
0.0
 11
-73.332452052338454
 21
-142.62027693289758
 31
0.0
  0
LINE
  5
68
100
AcDbEntity
  8
0
  6
DASHED
 62
             200
100
AcDbLine
 10
-70.832452052338454
 20
-137.12027693289758
 30
0.0
 11
-70.832452052338454
 21
-143.12027693289758
 31
0.0
  0
LINE
  5
69
100
AcDbEntity
  8
0
  6
DASHED
 62
             200
100
AcDbLine
 10
-72.832452052338454
 20
-137.12027693289758
 30
0.0
 11
-72.832452052338454
 21
-143.12027693289758
 31
0.0
  0
LINE
  5
6A
100
AcDbEntity
  8
0
  6
DASHED
 62
             200
100
AcDbLine
 10
-61.332452052338454
 20
-143.12027693289758
 30
0.0
 11
-72.832452052338454
 21
-143.12027693289758
 31
0.0
  0
LINE
  5
6B
100
AcDbEntity
  8
0
  6
DASHED
 62
             200
100
AcDbLine
 10
-61.332452052338454
 20
-137.12027693289758
 30
0.0
 11
-72.832452052338454
 21
-137.12027693289758
 31
0.0
  0
LINE
  5
6C
100
AcDbEntity
  8
0
  6
DASHED
 62
             200
100
AcDbLine
 10
-61.332452052338454
 20
-126.31833039969449
 30
0.0
 11
-72.832452052338454
 21
-126.31833039969449
 31
0.0
  0
LINE
  5
6D
100
AcDbEntity
  8
0
  6
DASHED
 62
             200
100
AcDbLine
 10
-61.332452052338454
 20
-120.3183303996945
 30
0.0
 11
-72.832452052338454
 21
-120.3183303996945
 31
0.0
  0
LINE
  5
6E
100
AcDbEntity
  8
0
  6
DASHED
 62
             200
100
AcDbLine
 10
-72.832452052338454
 20
-126.31833039969449
 30
0.0
 11
-72.832452052338454
 21
-120.3183303996945
 31
0.0
  0
LINE
  5
6F
100
AcDbEntity
  8
0
  6
DASHED
 62
             200
100
AcDbLine
 10
-70.832452052338454
 20
-126.31833039969449
 30
0.0
 11
-70.832452052338454
 21
-120.3183303996945
 31
0.0
  0
LINE
  5
70
100
AcDbEntity
  8
0
  6
DASHED
 62
             200
100
AcDbLine
 10
-73.332452052338454
 20
-125.81833039969449
 30
0.0
 11
-73.332452052338454
 21
-120.8183303996945
 31
0.0
  0
ARC
  5
71
100
AcDbEntity
  8
0
  6
DASHED
 62
             200
100
AcDbCircle
 10
-72.832452052338454
 20
-120.8183303996945
 30
0.0
 40
0.5
100
AcDbArc
 50
89.999999999999815
 51
179.99999999999963
  0
ARC
  5
72
100
AcDbEntity
  8
0
  6
DASHED
 62
             200
100
AcDbCircle
 10
-72.832452052338454
 20
-125.81833039969449
 30
0.0
 40
0.5
100
AcDbArc
 50
179.99999999999963
 51
269.99999999999937
  0
LINE
  5
73
100
AcDbEntity
  8
0
  6
CENTER
 62
               2
100
AcDbLine
 10
-59.296371621605886
 20
-140.12027693289758
 30
0.0
 11
-74.738383119828427
 21
-140.12027693289758
 31
0.0
  0
LINE
  5
74
100
AcDbEntity
  8
0
  6
CENTER
 62
               2
100
AcDbLine
 10
-59.296371621605886
 20
-123.31833039969449
 30
0.0
 11
-74.738383119828427
 21
-123.31833039969449
 31
0.0
  0
LINE
  5
75
100
AcDbEntity
  8
0
  6
CONTINUOUS
 62
               7
100
AcDbLine
 10
-48.33245205233834
 20
-138.42027693289759
 30
0.0
 11
-48.33245205233834
 21
-141.62027693289764
 31
0.0
  0
LINE
  5
76
100
AcDbEntity
  8
0
  6
CONTINUOUS
 62
               7
100
AcDbLine
 10
-47.332452041371198
 20
-138.42027693289759
 30
0.0
 11
-48.332452041371198
 21
-138.42027693289759
 31
0.0
  0
LINE
  5
77
100
AcDbEntity
  8
0
  6
CONTINUOUS
 62
               7
100
AcDbLine
 10
-47.332452041371198
 20
-141.62027693289764
 30
0.0
 11
-48.332452041371198
 21
-141.62027693289764
 31
0.0
  0
CIRCLE
  5
78
100
AcDbEntity
  8
0
  6
CONTINUOUS
 62
               7
100
AcDbCircle
 10
-58.532452052338385
 20
-127.21930366629606
 30
0.0
 40
1.0499999999999998
  0
LINE
  5
79
100
AcDbEntity
  8
0
  6
CENTER
 62
               2
100
AcDbLine
 10
-58.532452052338385
 20
-128.71930366629607
 30
0.0
 11
-58.532452052338385
 21
-125.71930366629606
 31
0.0
  0
LINE
  5
7A
100
AcDbEntity
  8
0
  6
CENTER
 62
               2
100
AcDbLine
 10
-60.032452052338385
 20
-127.21930366629606
 30
0.0
 11
-57.032452052338385
 21
-127.21930366629606
 31
0.0
  0
CIRCLE
  5
7B
100
AcDbEntity
  8
0
  6
CONTINUOUS
 62
               7
100
AcDbCircle
 10
-58.532452052338385
 20
-136.21930366629607
 30
0.0
 40
1.0499999999999998
  0
LINE
  5
7C
100
AcDbEntity
  8
0
  6
CENTER
 62
               2
100
AcDbLine
 10
-58.532452052338385
 20
-137.71930366629607
 30
0.0
 11
-58.532452052338385
 21
-134.71930366629607
 31
0.0
  0
LINE
  5
7D
100
AcDbEntity
  8
0
  6
CENTER
 62
               2
100
AcDbLine
 10
-60.032452052338385
 20
-136.21930366629607
 30
0.0
 11
-57.032452052338385
 21
-136.21930366629607
 31
0.0
  0
LINE
  5
7E
100
AcDbEntity
  8
0
  6
CONTINUOUS
 62
               7
100
AcDbLine
 10
-45.7324492358116
 20
-151.01930366629605
 30
0.0
 11
-47.332449235811623
 21
-149.41930366629603
 31
0.0
  0
LINE
  5
7F
100
AcDbEntity
  8
0
  6
CONTINUOUS
 62
               7
100
AcDbLine
 10
-45.7324492358116
 20
-151.01930366629605
 30
0.0
 11
-45.7324492358116
 21
-157.01930366629605
 31
0.0
  0
LINE
  5
80
100
AcDbEntity
  8
0
  6
CONTINUOUS
 62
               7
100
AcDbLine
 10
-45.7324492358116
 20
-112.41930366629605
 30
0.0
 11
-47.332449235811623
 21
-114.01930366629605
 31
0.0
  0
LINE
  5
81
100
AcDbEntity
  8
0
  6
CONTINUOUS
 62
               7
100
AcDbLine
 10
-61.332449235811623
 20
-143.81930366629601
 30
0.0
 11
-47.332449235811623
 21
-143.81930366629601
 31
0.0
  0
LINE
  5
82
100
AcDbEntity
  8
0
  6
CONTINUOUS
 62
               7
100
AcDbLine
 10
-61.332449235811623
 20
-119.61930366629605
 30
0.0
 11
-47.332449235811623
 21
-119.61930366629605
 31
0.0
  0
LINE
  5
83
100
AcDbEntity
  8
0
  6
CONTINUOUS
 62
               7
100
AcDbLine
 10
-47.332452052338454
 20
-157.019303666296
 30
0.0
 11
-47.33245205233834
 21
-106.41930366629606
 31
0.0
  0
LINE
  5
84
100
AcDbEntity
  8
0
  6
CONTINUOUS
 62
               7
100
AcDbLine
 10
-61.332452052338454
 20
-157.01930366629605
 30
0.0
 11
-61.332452052338454
 21
-106.41930366629602
 31
0.0
  0
LINE
  5
85
100
AcDbEntity
  8
0
  6
CONTINUOUS
 62
               7
100
AcDbLine
 10
-45.7324492358116
 20
-112.41930366629605
 30
0.0
 11
-45.7324492358116
 21
-106.41930366629605
 31
0.0
  0
LINE
  5
86
100
AcDbEntity
  8
0
  6
CONTINUOUS
 62
               4
100
AcDbLine
 10
-47.332452052338567
 20
-106.41930366629602
 30
0.0
 11
-47.332452052338567
 21
-84.519303671363744
 31
0.0
  0
LINE
  5
87
100
AcDbEntity
  8
0
  6
CONTINUOUS
 62
               4
100
AcDbLine
 10
-61.332452052338454
 20
-84.51930366629604
 30
0.0
 11
-61.332452052338454
 21
-106.41930366629602
 31
0.0
  0
LINE
  5
88
100
AcDbEntity
  8
0
  6
CONTINUOUS
 62
               4
100
AcDbLine
 10
-44.332449235811737
 20
-106.41930366629602
 30
0.0
 11
-44.332449235811737
 21
-87.921303666296083
 31
0.0
  0
LINE
  5
89
100
AcDbEntity
  8
0
  6
CONTINUOUS
 62
               4
100
AcDbLine
 10
-44.332449235811737
 20
-106.41930366629602
 30
0.0
 11
-42.020449235811611
 21
-105.34130366629604
 31
0.0
  0
ARC
  5
8A
100
AcDbEntity
  8
0
  6
CONTINUOUS
 62
               4
100
AcDbCircle
 10
-41.032449235811782
 20
-89.421303666296083
 30
0.0
 40
0.5
100
AcDbArc
 50
0.0
 51
89.999999999999815
  0
ARC
  5
8B
100
AcDbEntity
  8
0
  6
CONTINUOUS
 62
               4
100
AcDbCircle
 10
-41.032449235811782
 20
-93.421303666296083
 30
0.0
 40
0.5
100
AcDbArc
 50
270.00000000000023
 51
0.0
  0
LINE
  5
8C
100
AcDbEntity
  8
0
  6
CONTINUOUS
 62
               4
100
AcDbLine
 10
-41.7324492358116
 20
-88.921303666296083
 30
0.0
 11
-41.032449235811782
 21
-88.921303666296083
 31
0.0
  0
LINE
  5
8D
100
AcDbEntity
  8
0
  6
CONTINUOUS
 62
               4
100
AcDbLine
 10
-40.532449235811782
 20
-93.421303666296083
 30
0.0
 11
-40.532449235811782
 21
-89.421303666296083
 31
0.0
  0
LINE
  5
8E
100
AcDbEntity
  8
0
  6
CONTINUOUS
 62
               4
100
AcDbLine
 10
-41.7324492358116
 20
-93.921303666296083
 30
0.0
 11
-41.032449235811782
 21
-93.921303666296083
 31
0.0
  0
LINE
  5
8F
100
AcDbEntity
  8
0
  6
CONTINUOUS
 62
               4
100
AcDbLine
 10
-35.035548113134155
 20
-90.772121049108662
 30
0.0
 11
-35.035548113134155
 21
-92.072121049108617
 31
0.0
  0
LINE
  5
90
100
AcDbEntity
  8
0
  6
CONTINUOUS
 62
             200
100
AcDbLine
 10
-38.90154811313414
 20
-90.171303666296083
 30
0.0
 11
-37.45754811313418
 21
-92.671303666296083
 31
0.0
  0
LINE
  5
91
100
AcDbEntity
  8
0
  6
CONTINUOUS
 62
               4
100
AcDbLine
 10
-38.555548113134137
 20
-90.771303666296106
 30
0.0
 11
-35.035548113134155
 21
-90.771303666296106
 31
0.0
  0
LINE
  5
92
100
AcDbEntity
  8
0
  6
CONTINUOUS
 62
               4
100
AcDbLine
 10
-37.805548113134137
 20
-92.07130366629606
 30
0.0
 11
-35.035548113134155
 21
-92.07130366629606
 31
0.0
  0
LINE
  5
93
100
AcDbEntity
  8
0
  6
CONTINUOUS
 62
             200
100
AcDbLine
 10
-39.40154811313414
 20
-90.171303666296083
 30
0.0
 11
-37.95754811313418
 21
-92.671303666296083
 31
0.0
  0
LINE
  5
94
100
AcDbEntity
  8
0
  6
CONTINUOUS
 62
               4
100
AcDbLine
 10
-41.7324492358116
 20
-88.421303666296083
 30
0.0
 11
-41.7324492358116
 21
-88.921303666296083
 31
0.0
  0
ARC
  5
95
100
AcDbEntity
  8
0
  6
CONTINUOUS
 62
               4
100
AcDbCircle
 10
-42.232913680329602
 20
-104.8881764415798
 30
0.0
 40
0.5004652055472239
100
AcDbArc
 50
295.12116424320402
 51
0.0999197646782735
  0
ARC
  5
96
100
AcDbEntity
  8
0
  6
CONTINUOUS
 62
               4
100
AcDbCircle
 10
-42.232411711806208
 20
-88.42126614229069
 30
0.0
 40
0.4999624774027422
100
AcDbArc
 50
359.99569974300096
 51
90.004300256998803
  0
LINE
  5
97
100
AcDbEntity
  8
0
  6
CONTINUOUS
 62
               4
100
AcDbLine
 10
-47.332449235811737
 20
-87.921303666296083
 30
0.0
 11
-42.2324492358116
 21
-87.921303666296083
 31
0.0
  0
LINE
  5
98
100
AcDbEntity
  8
0
  6
CONTINUOUS
 62
               4
100
AcDbLine
 10
-40.532449235811782
 20
-92.07130366629606
 30
0.0
 11
-38.305548113134137
 21
-92.07130366629606
 31
0.0
  0
LINE
  5
99
100
AcDbEntity
  8
0
  6
CONTINUOUS
 62
               4
100
AcDbLine
 10
-40.532449235811782
 20
-90.771303666296106
 30
0.0
 11
-39.055548113134137
 21
-90.771303666296106
 31
0.0
  0
LINE
  5
9A
100
AcDbEntity
  8
0
  6
CONTINUOUS
 62
               4
100
AcDbLine
 10
-41.7324492358116
 20
-88.921303666296083
 30
0.0
 11
-41.7324492358116
 21
-104.88730366629609
 31
0.0
  0
LINE
  5
9B
100
AcDbEntity
  8
0
  6
CONTINUOUS
 62
               4
100
AcDbLine
 10
-57.632452052338522
 20
-84.519303666295926
 30
0.0
 11
-57.632452052338522
 21
-83.919303666296017
 31
0.0
  0
LINE
  5
9C
100
AcDbEntity
  8
0
  6
CONTINUOUS
 62
               4
100
AcDbLine
 10
-60.649547198996743
 20
-83.919303666296017
 30
0.0
 11
-49.332449235811737
 21
-83.919303666296017
 31
0.0
  0
ARC
  5
9D
100
AcDbEntity
  8
0
  6
CONTINUOUS
 62
               4
100
AcDbCircle
 10
-58.848364047101427
 20
-84.518215661059074
 30
0.0
 40
0.5989129830170392
100
AcDbArc
 50
359.89591452477293
 51
90.104085475226867
  0
ARC
  5
9E
100
AcDbEntity
  8
0
  6
CONTINUOUS
 62
               4
100
AcDbCircle
 10
-60.649547198996629
 20
-84.519208519637871
 30
0.0
 40
0.5999048608870732
100
AcDbArc
 50
123.56005066674096
 51
180.00908727754583
  0
LINE
  5
9F
100
AcDbEntity
  8
0
  6
CONTINUOUS
 62
               4
100
AcDbLine
 10
-61.33245205233834
 20
-84.519303666295926
 30
0.0
 11
-57.632452052338522
 21
-84.519303666295926
 31
0.0
  0
LINE
  5
A0
100
AcDbEntity
  8
0
  6
CONTINUOUS
 62
               4
100
AcDbLine
 10
-49.332449235811737
 20
-83.919303666296017
 30
0.0
 11
-49.332449235811737
 21
-85.519303666295926
 31
0.0
  0
LINE
  5
A1
100
AcDbEntity
  8
0
  6
CONTINUOUS
 62
               4
100
AcDbLine
 10
-61.332452052338454
 20
-85.519303666295926
 30
0.0
 11
-49.332449235811737
 21
-85.519303666295926
 31
0.0
  0
LINE
  5
A2
100
AcDbEntity
  8
0
  6
CONTINUOUS
 62
               4
100
AcDbLine
 10
-47.83245205233834
 20
-84.01930366629604
 30
0.0
 11
-49.33245205233834
 21
-84.01930366629604
 31
0.0
  0
ARC
  5
A3
100
AcDbEntity
  8
0
  6
CONTINUOUS
 62
               4
100
AcDbCircle
 10
-47.83245205233834
 20
-84.51930366629604
 30
0.0
 40
0.5
100
AcDbArc
 50
0.0
 51
89.999999999999815
  0
ARC
  5
A4
100
AcDbEntity
  8
0
  6
CONTINUOUS
 62
               4
100
AcDbCircle
 10
-60.83245205233834
 20
-84.51930366629604
 30
0.0
 40
0.5
100
AcDbArc
 50
114.73039869686018
 51
179.99999999999963
  0
ARC
  5
A5
100
AcDbEntity
  8
0
  6
CONTINUOUS
 62
               4
100
AcDbCircle
 10
-60.649547198996629
 20
-84.519208519637871
 30
0.0
 40
0.5999048608870732
100
AcDbArc
 50
89.99091272245343
 51
123.56005066674096
  0
LINE
  5
A6
100
AcDbEntity
  8
0
  6
CONTINUOUS
 62
               4
100
AcDbLine
 10
-35.035548113134155
 20
-91.171303666296083
 30
0.0
 11
-31.535548113134155
 21
-91.171303666295856
 31
0.0
  0
LINE
  5
A7
100
AcDbEntity
  8
0
  6
CONTINUOUS
 62
               4
100
AcDbLine
 10
-35.035548113134155
 20
-91.671303666296083
 30
0.0
 11
-31.535548113134155
 21
-91.671303666295856
 31
0.0
  0
LINE
  5
A8
100
AcDbEntity
  8
0
  6
CONTINUOUS
 62
               4
100
AcDbLine
 10
-31.535548113134155
 20
-91.171303666295856
 30
0.0
 11
-31.535548113134155
 21
-91.671303666295856
 31
0.0
  0
LINE
  5
A9
100
AcDbEntity
  8
0
  6
CONTINUOUS
 62
               4
100
AcDbLine
 10
-61.332452052338454
 20
-106.41930366629602
 30
0.0
 11
-44.332449235811737
 21
-106.41930366629602
 31
0.0
  0
LINE
  5
AA
100
AcDbEntity
  8
0
  6
CONTINUOUS
 62
               4
100
AcDbLine
 10
-47.332452052338567
 20
-157.01930366629608
 30
0.0
 11
-47.332452052338795
 21
-178.91930366122835
 31
0.0
  0
LINE
  5
AB
100
AcDbEntity
  8
0
  6
CONTINUOUS
 62
               4
100
AcDbLine
 10
-61.332452052338567
 20
-178.91930366629595
 30
0.0
 11
-61.332452052338454
 21
-157.01930366629597
 31
0.0
  0
LINE
  5
AC
100
AcDbEntity
  8
0
  6
CONTINUOUS
 62
               4
100
AcDbLine
 10
-44.332449235811737
 20
-157.01930366629608
 30
0.0
 11
-44.332449235811964
 21
-175.51730366629602
 31
0.0
  0
LINE
  5
AD
100
AcDbEntity
  8
0
  6
CONTINUOUS
 62
               4
100
AcDbLine
 10
-44.332449235811737
 20
-157.01930366629608
 30
0.0
 11
-42.020449235811611
 21
-158.09730366629606
 31
0.0
  0
ARC
  5
AE
100
AcDbEntity
  8
0
  6
CONTINUOUS
 62
               4
100
AcDbCircle
 10
-41.032449235811782
 20
-174.01730366629602
 30
0.0
 40
0.5
100
AcDbArc
 50
269.99999999999898
 51
359.99999999999881
  0
ARC
  5
AF
100
AcDbEntity
  8
0
  6
CONTINUOUS
 62
               4
100
AcDbCircle
 10
-41.032449235811782
 20
-170.01730366629602
 30
0.0
 40
0.5
100
AcDbArc
 50
359.99999999999881
 51
89.999999999999389
  0
LINE
  5
B0
100
AcDbEntity
  8
0
  6
CONTINUOUS
 62
               4
100
AcDbLine
 10
-41.732449235811828
 20
-174.51730366629602
 30
0.0
 11
-41.03244923581201
 21
-174.51730366629602
 31
0.0
  0
LINE
  5
B1
100
AcDbEntity
  8
0
  6
CONTINUOUS
 62
               4
100
AcDbLine
 10
-40.532449235811782
 20
-170.01730366629602
 30
0.0
 11
-40.532449235811782
 21
-174.01730366629602
 31
0.0
  0
LINE
  5
B2
100
AcDbEntity
  8
0
  6
CONTINUOUS
 62
               4
100
AcDbLine
 10
-41.7324492358116
 20
-169.51730366629602
 30
0.0
 11
-41.032449235811782
 21
-169.51730366629602
 31
0.0
  0
LINE
  5
B3
100
AcDbEntity
  8
0
  6
CONTINUOUS
 62
               4
100
AcDbLine
 10
-35.035548113134155
 20
-172.66648628348355
 30
0.0
 11
-35.035548113134155
 21
-171.3664862834836
 31
0.0
  0
LINE
  5
B4
100
AcDbEntity
  8
0
  6
CONTINUOUS
 62
             200
100
AcDbLine
 10
-38.90154811313414
 20
-173.26730366629602
 30
0.0
 11
-37.45754811313418
 21
-170.76730366629602
 31
0.0
  0
LINE
  5
B5
100
AcDbEntity
  8
0
  6
CONTINUOUS
 62
               4
100
AcDbLine
 10
-38.555548113134137
 20
-172.66730366629599
 30
0.0
 11
-35.035548113134155
 21
-172.66730366629611
 31
0.0
  0
LINE
  5
B6
100
AcDbEntity
  8
0
  6
CONTINUOUS
 62
               4
100
AcDbLine
 10
-37.805548113134137
 20
-171.36730366629604
 30
0.0
 11
-35.035548113134155
 21
-171.36730366629615
 31
0.0
  0
LINE
  5
B7
100
AcDbEntity
  8
0
  6
CONTINUOUS
 62
             200
100
AcDbLine
 10
-39.40154811313414
 20
-173.26730366629602
 30
0.0
 11
-37.95754811313418
 21
-170.76730366629602
 31
0.0
  0
LINE
  5
B8
100
AcDbEntity
  8
0
  6
CONTINUOUS
 62
               4
100
AcDbLine
 10
-41.732449235811828
 20
-175.01730366629602
 30
0.0
 11
-41.732449235811828
 21
-174.51730366629602
 31
0.0
  0
ARC
  5
B9
100
AcDbEntity
  8
0
  6
CONTINUOUS
 62
               4
100
AcDbCircle
 10
-42.232913680329602
 20
-158.5504308910123
 30
0.0
 40
0.5004652055472239
100
AcDbArc
 50
359.90008023532044
 51
64.87883575679551
  0
ARC
  5
BA
100
AcDbEntity
  8
0
  6
CONTINUOUS
 62
               4
100
AcDbCircle
 10
-42.232411711806435
 20
-175.01734119030141
 30
0.0
 40
0.4999624774027422
100
AcDbArc
 50
269.99569974299999
 51
0.0043002569986451
  0
LINE
  5
BB
100
AcDbEntity
  8
0
  6
CONTINUOUS
 62
               4
100
AcDbLine
 10
-47.332449235811964
 20
-175.51730366629602
 30
0.0
 11
-42.232449235811828
 21
-175.51730366629602
 31
0.0
  0
LINE
  5
BC
100
AcDbEntity
  8
0
  6
CONTINUOUS
 62
               4
100
AcDbLine
 10
-40.532449235811782
 20
-171.36730366629604
 30
0.0
 11
-38.305548113134137
 21
-171.36730366629604
 31
0.0
  0
LINE
  5
BD
100
AcDbEntity
  8
0
  6
CONTINUOUS
 62
               4
100
AcDbLine
 10
-40.532449235811782
 20
-172.66730366629599
 30
0.0
 11
-39.055548113134137
 21
-172.66730366629599
 31
0.0
  0
LINE
  5
BE
100
AcDbEntity
  8
0
  6
CONTINUOUS
 62
               4
100
AcDbLine
 10
-41.732449235811828
 20
-174.51730366629602
 30
0.0
 11
-41.7324492358116
 21
-158.55130366629601
 31
0.0
  0
LINE
  5
BF
100
AcDbEntity
  8
0
  6
CONTINUOUS
 62
               4
100
AcDbLine
 10
-51.032452052338385
 20
-178.91930366629606
 30
0.0
 11
-51.032452052338385
 21
-179.51930366629597
 31
0.0
  0
LINE
  5
C0
100
AcDbEntity
  8
0
  6
CONTINUOUS
 62
               4
100
AcDbLine
 10
-48.015356905680164
 20
-179.51930366629597
 30
0.0
 11
-59.33245486886517
 21
-179.51930366629608
 31
0.0
  0
ARC
  5
C1
100
AcDbEntity
  8
0
  6
CONTINUOUS
 62
               4
100
AcDbCircle
 10
-49.816540057575367
 20
-178.92039167153291
 30
0.0
 40
0.5989129830170392
100
AcDbArc
 50
179.89591452477302
 51
270.1040854752269
  0
ARC
  5
C2
100
AcDbEntity
  8
0
  6
CONTINUOUS
 62
               4
100
AcDbCircle
 10
-48.015356905680164
 20
-178.91939881295411
 30
0.0
 40
0.5999048608870732
100
AcDbArc
 50
303.56005066674174
 51
0.0090872775466285
  0
LINE
  5
C3
100
AcDbEntity
  8
0
  6
CONTINUOUS
 62
               4
100
AcDbLine
 10
-47.33245205233834
 20
-178.91930366629606
 30
0.0
 11
-51.032452052338385
 21
-178.91930366629606
 31
0.0
  0
LINE
  5
C4
100
AcDbEntity
  8
0
  6
CONTINUOUS
 62
               4
100
AcDbLine
 10
-59.33245486886517
 20
-179.51930366629608
 30
0.0
 11
-59.33245486886517
 21
-177.91930366629617
 31
0.0
  0
LINE
  5
C5
100
AcDbEntity
  8
0
  6
CONTINUOUS
 62
               4
100
AcDbLine
 10
-47.33245205233834
 20
-177.91930366629606
 30
0.0
 11
-59.33245486886517
 21
-177.91930366629617
 31
0.0
  0
LINE
  5
C6
100
AcDbEntity
  8
0
  6
CONTINUOUS
 62
               4
100
AcDbLine
 10
-60.83245205233834
 20
-179.41930366629606
 30
0.0
 11
-59.33245205233834
 21
-179.41930366629606
 31
0.0
  0
ARC
  5
C7
100
AcDbEntity
  8
0
  6
CONTINUOUS
 62
               4
100
AcDbCircle
 10
-60.83245205233834
 20
-178.91930366629606
 30
0.0
 40
0.5
100
AcDbArc
 50
180.0
 51
269.99999999999983
  0
ARC
  5
C8
100
AcDbEntity
  8
0
  6
CONTINUOUS
 62
               4
100
AcDbCircle
 10
-47.83245205233834
 20
-178.91930366629595
 30
0.0
 40
0.5
100
AcDbArc
 50
294.73039869686102
 51
0.0000000000004071
  0
ARC
  5
C9
100
AcDbEntity
  8
0
  6
CONTINUOUS
 62
               4
100
AcDbCircle
 10
-48.015356905680164
 20
-178.91939881295411
 30
0.0
 40
0.5999048608870732
100
AcDbArc
 50
269.9909127224534
 51
303.56005066674095
  0
LINE
  5
CA
100
AcDbEntity
  8
0
  6
CONTINUOUS
 62
               4
100
AcDbLine
 10
-35.035548113134155
 20
-172.26730366629613
 30
0.0
 11
-31.535548113134155
 21
-172.26730366629636
 31
0.0
  0
LINE
  5
CB
100
AcDbEntity
  8
0
  6
CONTINUOUS
 62
               4
100
AcDbLine
 10
-35.035548113134155
 20
-171.76730366629613
 30
0.0
 11
-31.535548113134155
 21
-171.76730366629636
 31
0.0
  0
LINE
  5
CC
100
AcDbEntity
  8
0
  6
CONTINUOUS
 62
               4
100
AcDbLine
 10
-31.535548113134155
 20
-172.26730366629636
 30
0.0
 11
-31.535548113134155
 21
-171.76730366629636
 31
0.0
  0
LINE
  5
CD
100
AcDbEntity
  8
0
  6
CONTINUOUS
 62
               4
100
AcDbLine
 10
-61.332452052338454
 20
-157.01930366629597
 30
0.0
 11
-44.332449235811737
 21
-157.01930366629608
 31
0.0
  0
LINE
  5
CE
100
AcDbEntity
  8
0
  6
CENTER
 62
               2
100
AcDbLine
 10
-63.832452062266611
 20
-123.419303666296
 30
0.0
 11
-58.832452062266611
 21
-123.419303666296
 31
0.0
  0
LINE
  5
CF
100
AcDbEntity
  8
0
  6
CENTER
 62
               2
100
AcDbLine
 10
-63.832452062266611
 20
-140.01930366629603
 30
0.0
 11
-58.832452062266611
 21
-140.01930366629603
 31
0.0
  0
LINE
  5
D0
100
AcDbEntity
  8
0
  6
CONTINUOUS
 62
               4
100
AcDbLine
 10
45.62273036979559
 20
-105.34130367056558
 30
0.0
 11
37.498730369795567
 21
-105.34130367056558
 31
0.0
  0
LINE
  5
D1
100
AcDbEntity
  8
0
  6
CONTINUOUS
 62
               4
100
AcDbLine
 10
46.060730369795692
 20
-87.919303666296045
 30
0.0
 11
37.060730369795692
 21
-87.919303666296045
 31
0.0
  0
LINE
  5
D2
100
AcDbEntity
  8
0
  6
CONTINUOUS
 62
               4
100
AcDbLine
 10
46.560730369795692
 20
-85.519303666296068
 30
0.0
 11
43.360730369795647
 21
-85.519303666296068
 31
0.0
  0
LINE
  5
D3
100
AcDbEntity
  8
0
  6
CONTINUOUS
 62
               4
100
AcDbLine
 10
46.560730369795692
 20
-83.919303666296045
 30
0.0
 11
36.560730369795692
 21
-83.919303666296045
 31
0.0
  0
LINE
  5
D4
100
AcDbEntity
  8
0
  6
CONTINUOUS
 62
               4
100
AcDbLine
 10
46.560730369795692
 20
-84.519303666296068
 30
0.0
 11
43.360730369795647
 21
-84.519303666296068
 31
0.0
  0
LINE
  5
D5
100
AcDbEntity
  8
0
  6
CONTINUOUS
 62
               4
100
AcDbLine
 10
36.560730369795692
 20
-106.41930366629605
 30
0.0
 11
46.560730369795692
 21
-106.41930366629605
 31
0.0
  0
ARC
  5
D6
100
AcDbEntity
  8
0
  6
CONTINUOUS
 62
               4
100
AcDbCircle
 10
37.061027394001712
 20
-105.91900664208991
 30
0.0
 40
0.5002971123771115
100
AcDbArc
 50
180.03401625554557
 51
269.96598374445358
  0
LINE
  5
D8
100
AcDbEntity
  8
0
  6
PHANTOM
 62
               4
100
AcDbLine
 10
40.060712059248772
 20
-98.919303670565554
 30
0.0
 11
40.060712059248772
 21
-100.91930367056555
 31
0.0
  0
LINE
  5
D9
100
AcDbEntity
  8
0
  6
PHANTOM
 62
               4
100
AcDbLine
 10
43.060712059248772
 20
-98.919303670565554
 30
0.0
 11
43.060712059248772
 21
-100.91930367056555
 31
0.0
  0
LINE
  5
DA
100
AcDbEntity
  8
0
  6
PHANTOM
 62
               4
100
AcDbLine
 10
40.060712059248772
 20
-100.91930367056555
 30
0.0
 11
43.060712059248772
 21
-100.91930367056555
 31
0.0
  0
LINE
  5
DB
100
AcDbEntity
  8
0
  6
PHANTOM
 62
               4
100
AcDbLine
 10
40.060712059248772
 20
-98.919303670565554
 30
0.0
 11
43.060712059248772
 21
-98.919303670565554
 31
0.0
  0
LINE
  5
DC
100
AcDbEntity
  8
0
  6
CONTINUOUS
 62
               4
100
AcDbLine
 10
43.360730369795647
 20
-84.019303666296068
 30
0.0
 11
37.060730369795692
 21
-84.019303666296068
 31
0.0
  0
LINE
  5
DD
100
AcDbEntity
  8
0
  6
CONTINUOUS
 62
               4
100
AcDbLine
 10
43.360730369795647
 20
-84.019303666296068
 30
0.0
 11
43.360730369795647
 21
-85.519303666296068
 31
0.0
  0
ARC
  5
DE
100
AcDbEntity
  8
0
  6
CONTINUOUS
 62
               4
100
AcDbCircle
 10
37.060730369795692
 20
-84.519303666296068
 30
0.0
 40
0.5
100
AcDbArc
 50
89.999999999999815
 51
179.99999999999963
  0
CIRCLE
  5
DF
100
AcDbEntity
  8
0
  6
CONTINUOUS
 62
               4
100
AcDbCircle
 10
42.811324241866032
 20
-91.419303666296045
 30
0.0
 40
0.25
  0
CIRCLE
  5
E0
100
AcDbEntity
  8
0
  6
CONTINUOUS
 62
               4
100
AcDbCircle
 10
40.311324241866032
 20
-91.419303666296045
 30
0.0
 40
0.25
  0
LINE
  5
E1
100
AcDbEntity
  8
0
  6
CONTINUOUS
 62
               4
100
AcDbLine
 10
36.998730369795567
 20
-88.419303666296045
 30
0.0
 11
36.998730369795567
 21
-104.84130367056558
 31
0.0
  0
ARC
  5
E2
100
AcDbEntity
  8
0
  6
CONTINUOUS
 62
               4
100
AcDbCircle
 10
37.498748314453451
 20
-88.419321610954043
 30
0.0
 40
0.5000179449799356
100
AcDbArc
 50
90.002056232531103
 51
179.99794376746806
  0
ARC
  5
E3
100
AcDbEntity
  8
0
  6
CONTINUOUS
 62
               4
100
AcDbCircle
 10
37.061027394001712
 20
-88.419600690502179
 30
0.0
 40
0.5002971123771114
100
AcDbArc
 50
90.034016255545609
 51
179.96598374445358
  0
ARC
  5
E4
100
AcDbEntity
  8
0
  6
CONTINUOUS
 62
               4
100
AcDbCircle
 10
37.498516809004741
 20
-104.84151723135635
 30
0.0
 40
0.4997864848369056
100
AcDbArc
 50
179.97551728042748
 51
270.02448271957149
  0
ARC
  5
E5
100
AcDbEntity
  8
0
  6
CONTINUOUS
 62
               4
100
AcDbCircle
 10
42.810730369795692
 20
-91.419303666296045
 30
0.0
 40
2.0000000881710065
100
AcDbArc
 50
269.99999999999937
 51
89.999999999999801
  0
ARC
  5
E6
100
AcDbEntity
  8
0
  6
CONTINUOUS
 62
               4
100
AcDbCircle
 10
40.310730369795692
 20
-91.419303666296045
 30
0.0
 40
2.0000000881710065
100
AcDbArc
 50
89.999999999999815
 51
269.99999999999937
  0
LINE
  5
E7
100
AcDbEntity
  8
0
  6
CONTINUOUS
 62
               4
100
AcDbLine
 10
42.810730369795692
 20
-89.419303666296045
 30
0.0
 11
40.310730369795692
 21
-89.419303666296045
 31
0.0
  0
LINE
  5
E8
100
AcDbEntity
  8
0
  6
CONTINUOUS
 62
               4
100
AcDbLine
 10
42.810730369795692
 20
-93.419303666296045
 30
0.0
 11
40.310730369795692
 21
-93.419303666296045
 31
0.0
  0
CIRCLE
  5
E9
100
AcDbEntity
  8
0
  6
CONTINUOUS
 62
               4
100
AcDbCircle
 10
42.811324241866032
 20
-91.419303666296045
 30
0.0
 40
0.7250000000000001
  0
CIRCLE
  5
EA
100
AcDbEntity
  8
0
  6
CONTINUOUS
 62
               4
100
AcDbCircle
 10
40.311324241866032
 20
-91.419303666296045
 30
0.0
 40
0.7250000000000001
  0
ARC
  5
EB
100
AcDbEntity
  8
0
  6
CONTINUOUS
 62
               4
100
AcDbCircle
 10
43.963642364558609
 20
-84.518215661059102
 30
0.0
 40
0.5989129830170392
100
AcDbArc
 50
89.895914524772735
 51
180.10408547522667
  0
LINE
  5
EC
100
AcDbEntity
  8
0
  6
CONTINUOUS
 62
               4
100
AcDbLine
 10
36.560730369795692
 20
-83.919303666296045
 30
0.0
 11
36.560730369795692
 21
-106.41930366629605
 31
0.0
  0
ARC
  5
ED
100
AcDbEntity
  8
0
  6
CONTINUOUS
 62
               4
100
AcDbCircle
 10
46.061027217659785
 20
-105.91960051416025
 30
0.0
 40
0.4997032403068001
100
AcDbArc
 50
269.96596353714654
 51
0.0340364628527164
  0
LINE
  5
EE
100
AcDbEntity
  8
0
  6
CONTINUOUS
 62
               4
100
AcDbLine
 10
46.12273036979559
 20
-88.419303666296045
 30
0.0
 11
46.12273036979559
 21
-104.84130367056558
 31
0.0
  0
ARC
  5
EF
100
AcDbEntity
  8
0
  6
CONTINUOUS
 62
               4
100
AcDbCircle
 10
46.061027217659785
 20
-88.419006818431839
 30
0.0
 40
0.4997032403068001
100
AcDbArc
 50
359.96596353714654
 51
90.034036462852711
  0
ARC
  5
F0
100
AcDbEntity
  8
0
  6
CONTINUOUS
 62
               4
100
AcDbCircle
 10
45.623305965837972
 20
-88.418728070253778
 30
0.0
 40
0.499424735650256
100
AcDbArc
 50
359.93396556302804
 51
90.066034436970796
  0
ARC
  5
F1
100
AcDbEntity
  8
0
  6
CONTINUOUS
 62
               4
100
AcDbCircle
 10
45.623537746329248
 20
-104.84211104709924
 30
0.0
 40
0.4991932763770037
100
AcDbArc
 50
269.90733190886618
 51
0.0926680911333844
  0
ARC
  5
F2
100
AcDbEntity
  8
0
  6
CONTINUOUS
 62
               4
100
AcDbCircle
 10
45.764825516453811
 20
-84.5192085196379
 30
0.0
 40
0.5999048608870732
100
AcDbArc
 50
359.99091272245295
 51
90.009087277546172
  0
LINE
  5
F3
100
AcDbEntity
  8
0
  6
CONTINUOUS
 62
               4
100
AcDbLine
 10
46.560730369795692
 20
-83.919303666296045
 30
0.0
 11
46.560730369795692
 21
-106.41930366629605
 31
0.0
  0
LINE
  5
F4
100
AcDbEntity
  8
0
  6
CONTINUOUS
 62
               7
100
AcDbLine
 10
36.560730369795692
 20
-143.81930366629604
 30
0.0
 11
46.560730369795692
 21
-143.81930366629604
 31
0.0
  0
LINE
  5
F5
100
AcDbEntity
  8
0
  6
CENTER
 62
               2
100
AcDbLine
 10
45.36073036979576
 20
-125.36930366629605
 30
0.0
 11
45.36073036979576
 21
-121.46930366629601
 31
0.0
  0
ARC
  5
F6
100
AcDbEntity
  8
0
  6
CONTINUOUS
 62
               7
100
AcDbCircle
 10
45.36073036979576
 20
-123.419303666296
 30
0.0
 40
1.6000000000000003
100
AcDbArc
 50
89.999999999999815
 51
269.99999999999937
  0
LINE
  5
F7
100
AcDbEntity
  8
0
  6
CONTINUOUS
 62
               7
100
AcDbLine
 10
45.36073036979576
 20
-125.01930366629603
 30
0.0
 11
46.560730369795692
 21
-125.01930366629603
 31
0.0
  0
LINE
  5
F8
100
AcDbEntity
  8
0
  6
CONTINUOUS
 62
               7
100
AcDbLine
 10
45.36073036979576
 20
-121.81930366629598
 30
0.0
 11
46.560730369795692
 21
-121.81930366629598
 31
0.0
  0
CIRCLE
  5
F9
100
AcDbEntity
  8
0
  6
CONTINUOUS
 62
               7
100
AcDbCircle
 10
45.36073036979576
 20
-123.419303666296
 30
0.0
 40
0.8500000000000002
  0
CIRCLE
  5
FA
100
AcDbEntity
  8
0
  6
CONTINUOUS
 62
               7
100
AcDbCircle
 10
41.560727318037948
 20
-126.81930061453824
 30
0.0
 40
2.1000000000000001
  0
CIRCLE
  5
FB
100
AcDbEntity
  8
0
  6
CONTINUOUS
 62
               2
100
AcDbCircle
 10
41.560727318037948
 20
-126.81930061453824
 30
0.0
 40
2.5
  0
LINE
  5
FC
100
AcDbEntity
  8
0
  6
CENTER
 62
               2
100
AcDbLine
 10
44.372730369795704
 20
-126.81930366629604
 30
0.0
 11
38.65273036979579
 21
-126.81930366629604
 31
0.0
  0
LINE
  5
FD
100
AcDbEntity
  8
0
  6
CENTER
 62
               2
100
AcDbLine
 10
43.410730369795715
 20
-123.419303666296
 30
0.0
 11
47.310730369795692
 21
-123.419303666296
 31
0.0
  0
ARC
  5
FE
100
AcDbEntity
  8
0
  6
CONTINUOUS
 62
               7
100
AcDbCircle
 10
37.760730369795738
 20
-140.01930366629603
 30
0.0
 40
1.6000000000000003
100
AcDbArc
 50
270.00000000000023
 51
89.999999999999801
  0
LINE
  5
FF
100
AcDbEntity
  8
0
  6
CENTER
 62
               2
100
AcDbLine
 10
37.760730369795738
 20
-141.96930366629604
 30
0.0
 11
37.760730369795738
 21
-138.06930366629604
 31
0.0
  0
CIRCLE
  5
100
100
AcDbEntity
  8
0
  6
CONTINUOUS
 62
               7
100
AcDbCircle
 10
37.760730369795738
 20
-140.01930366629603
 30
0.0
 40
0.8500000000000002
  0
LINE
  5
101
100
AcDbEntity
  8
0
  6
CONTINUOUS
 62
               7
100
AcDbLine
 10
37.760730369795738
 20
-138.41930366629603
 30
0.0
 11
36.560730369795692
 21
-138.41930366629603
 31
0.0
  0
LINE
  5
102
100
AcDbEntity
  8
0
  6
CONTINUOUS
 62
               7
100
AcDbLine
 10
37.760730369795738
 20
-141.61930366629605
 30
0.0
 11
36.560730369795692
 21
-141.61930366629605
 31
0.0
  0
LINE
  5
103
100
AcDbEntity
  8
0
  6
CENTER
 62
               2
100
AcDbLine
 10
36.033837758416325
 20
-140.01930366629603
 30
0.0
 11
39.777243986756048
 21
-140.01930366629603
 31
0.0
  0
CIRCLE
  5
104
100
AcDbEntity
  8
0
  6
CONTINUOUS
 62
               7
100
AcDbCircle
 10
41.560727318037834
 20
-136.61930061453825
 30
0.0
 40
2.1000000000000001
  0
CIRCLE
  5
105
100
AcDbEntity
  8
0
  6
CONTINUOUS
 62
               2
100
AcDbCircle
 10
41.560727318037834
 20
-136.61930061453825
 30
0.0
 40
2.5
  0
LINE
  5
106
100
AcDbEntity
  8
0
  6
CENTER
 62
               2
100
AcDbLine
 10
44.452730369795745
 20
-136.61930366629605
 30
0.0
 11
38.732730369795718
 21
-136.61930366629605
 31
0.0
  0
LINE
  5
107
100
AcDbEntity
  8
0
  6
CENTER
 62
               2
100
AcDbLine
 10
41.560730369795692
 20
-83.22130366629608
 30
0.0
 11
41.560730369795692
 21
-180.21730366629603
 31
0.0
  0
CIRCLE
  5
108
100
AcDbEntity
  8
0
  6
CONTINUOUS
 62
               7
100
AcDbCircle
 10
41.560730369795692
 20
-154.71930366629604
 30
0.0
 40
0.7500000000000001
  0
CIRCLE
  5
109
100
AcDbEntity
  8
0
  6
CONTINUOUS
 62
               7
100
AcDbCircle
 10
41.560730369795692
 20
-154.71930366629604
 30
0.0
 40
1.1000000000000001
  0
CIRCLE
  5
10A
100
AcDbEntity
  8
0
  6
CONTINUOUS
 62
               7
100
AcDbCircle
 10
41.560730369795692
 20
-154.71930366629604
 30
0.0
 40
1.1500000000000001
  0
CIRCLE
  5
10B
100
AcDbEntity
  8
0
  6
CONTINUOUS
 62
               7
100
AcDbCircle
 10
41.560730369795692
 20
-154.71930366629604
 30
0.0
 40
1.3000000000000012
  0
LINE
  5
10C
100
AcDbEntity
  8
0
  6
CENTER
 62
               2
100
AcDbLine
 10
39.86073036979576
 20
-154.71930366629604
 30
0.0
 11
43.260730369795738
 21
-154.71930366629604
 31
0.0
  0
ARC
  5
10D
100
AcDbEntity
  8
0
  6
CONTINUOUS
 62
               7
100
AcDbCircle
 10
41.560730369795692
 20
-153.01930366629603
 30
0.0
 40
3.6000000000000005
100
AcDbArc
 50
0.0
 51
179.99999999999963
  0
ARC
  5
10E
100
AcDbEntity
  8
0
  6
CONTINUOUS
 62
               7
100
AcDbCircle
 10
41.560730369795692
 20
-153.01930366629603
 30
0.0
 40
2.0
100
AcDbArc
 50
0.0
 51
179.99999999999963
  0
LINE
  5
10F
100
AcDbEntity
  8
0
  6
CONTINUOUS
 62
               7
100
AcDbLine
 10
37.960730369795783
 20
-153.01930366629603
 30
0.0
 11
37.960730369795783
 21
-157.01930366629603
 31
0.0
  0
LINE
  5
110
100
AcDbEntity
  8
0
  6
CONTINUOUS
 62
               7
100
AcDbLine
 10
45.160730369795715
 20
-153.01930366629603
 30
0.0
 11
45.160730369795715
 21
-157.01930366629603
 31
0.0
  0
LINE
  5
111
100
AcDbEntity
  8
0
  6
CONTINUOUS
 62
               7
100
AcDbLine
 10
39.560730369795692
 20
-153.01930366629603
 30
0.0
 11
39.560730369795692
 21
-157.01930366629603
 31
0.0
  0
LINE
  5
112
100
AcDbEntity
  8
0
  6
CONTINUOUS
 62
               7
100
AcDbLine
 10
43.560730369795692
 20
-153.01930366629603
 30
0.0
 11
43.560730369795692
 21
-157.01930366629603
 31
0.0
  0
LINE
  5
113
100
AcDbEntity
  8
0
  6
CONTINUOUS
 62
               7
100
AcDbLine
 10
36.560730369795692
 20
-157.01930366629603
 30
0.0
 11
46.560730369795692
 21
-157.01930366629603
 31
0.0
  0
LINE
  5
114
100
AcDbEntity
  8
0
  6
CONTINUOUS
 62
               7
100
AcDbLine
 10
46.560730369795692
 20
-157.01930366629603
 30
0.0
 11
46.560730369795692
 21
-106.41930366629606
 31
0.0
  0
LINE
  5
115
100
AcDbEntity
  8
0
  6
CONTINUOUS
 62
               7
100
AcDbLine
 10
46.560730369795692
 20
-106.41930366629605
 30
0.0
 11
36.560730369795692
 21
-106.41930366629605
 31
0.0
  0
LINE
  5
116
100
AcDbEntity
  8
0
  6
CONTINUOUS
 62
               7
100
AcDbLine
 10
39.560730369795692
 20
-110.41930366629605
 30
0.0
 11
39.560730369795692
 21
-106.41930366629605
 31
0.0
  0
LINE
  5
117
100
AcDbEntity
  8
0
  6
CONTINUOUS
 62
               7
100
AcDbLine
 10
43.560730369795692
 20
-110.41930366629605
 30
0.0
 11
43.560730369795692
 21
-106.41930366629605
 31
0.0
  0
LINE
  5
118
100
AcDbEntity
  8
0
  6
CONTINUOUS
 62
               7
100
AcDbLine
 10
37.960730369795783
 20
-110.41930366629605
 30
0.0
 11
37.960730369795783
 21
-106.41930366629605
 31
0.0
  0
LINE
  5
119
100
AcDbEntity
  8
0
  6
CONTINUOUS
 62
               7
100
AcDbLine
 10
45.160730369795715
 20
-110.41930366629605
 30
0.0
 11
45.160730369795715
 21
-106.41930366629605
 31
0.0
  0
ARC
  5
11A
100
AcDbEntity
  8
0
  6
CONTINUOUS
 62
               7
100
AcDbCircle
 10
41.560730369795692
 20
-110.41930366629605
 30
0.0
 40
2.0
100
AcDbArc
 50
179.99999999999963
 51
0.0
  0
ARC
  5
11B
100
AcDbEntity
  8
0
  6
CONTINUOUS
 62
               7
100
AcDbCircle
 10
41.560730369795692
 20
-110.41930366629605
 30
0.0
 40
3.6000000000000005
100
AcDbArc
 50
179.99999999999963
 51
0.0
  0
LINE
  5
11C
100
AcDbEntity
  8
0
  6
CENTER
 62
               2
100
AcDbLine
 10
43.260730369795738
 20
-108.71930366629604
 30
0.0
 11
39.86073036979576
 21
-108.71930366629604
 31
0.0
  0
CIRCLE
  5
11D
100
AcDbEntity
  8
0
  6
CONTINUOUS
 62
               7
100
AcDbCircle
 10
41.560730369795692
 20
-108.71930366629604
 30
0.0
 40
1.3000000000000012
  0
CIRCLE
  5
11E
100
AcDbEntity
  8
0
  6
CONTINUOUS
 62
               7
100
AcDbCircle
 10
41.560730369795692
 20
-108.71930366629604
 30
0.0
 40
1.1500000000000001
  0
LINE
  5
11F
100
AcDbEntity
  8
0
  6
CONTINUOUS
 62
               7
100
AcDbLine
 10
36.560730369795692
 20
-119.61930366629605
 30
0.0
 11
46.560730369795692
 21
-119.61930366629605
 31
0.0
  0
CIRCLE
  5
120
100
AcDbEntity
  8
0
  6
CONTINUOUS
 62
               7
100
AcDbCircle
 10
41.560730369795692
 20
-108.71930366629604
 30
0.0
 40
1.1000000000000001
  0
CIRCLE
  5
121
100
AcDbEntity
  8
0
  6
CONTINUOUS
 62
               7
100
AcDbCircle
 10
41.560730369795692
 20
-108.71930366629604
 30
0.0
 40
0.7500000000000001
  0
LINE
  5
122
100
AcDbEntity
  8
0
  6
CONTINUOUS
 62
               7
100
AcDbLine
 10
36.560730369795692
 20
-157.01930366629603
 30
0.0
 11
36.560730369795692
 21
-106.41930366629606
 31
0.0
  0
ARC
  5
123
100
AcDbEntity
  8
0
  6
CONTINUOUS
 62
               4
100
AcDbCircle
 10
46.060433345589445
 20
-157.51960069050216
 30
0.0
 40
0.5002971123771115
100
AcDbArc
 50
0.034016255545966
 51
89.965983744453979
  0
LINE
  5
124
100
AcDbEntity
  8
0
  6
CONTINUOUS
 62
               4
100
AcDbLine
 10
46.560730369795692
 20
-179.51930366629603
 30
0.0
 11
46.560730369795692
 21
-157.01930366629603
 31
0.0
  0
ARC
  5
125
100
AcDbEntity
  8
0
  6
CONTINUOUS
 62
               4
100
AcDbCircle
 10
37.060433521931373
 20
-157.51900681843182
 30
0.0
 40
0.4997032403068001
100
AcDbArc
 50
89.965963537146934
 51
180.03403646285233
  0
LINE
  5
126
100
AcDbEntity
  8
0
  6
CONTINUOUS
 62
               4
100
AcDbLine
 10
36.560730369795692
 20
-179.51930366629603
 30
0.0
 11
36.560730369795692
 21
-157.01930366629603
 31
0.0
  0
ARC
  5
127
100
AcDbEntity
  8
0
  6
CONTINUOUS
 62
               4
100
AcDbCircle
 10
37.356635223137573
 20
-178.91939881295417
 30
0.0
 40
0.5999048608870732
100
AcDbArc
 50
179.99091272245337
 51
270.00908727754575
  0
ARC
  5
128
100
AcDbEntity
  8
0
  6
CONTINUOUS
 62
               4
100
AcDbCircle
 10
37.497922993261909
 20
-158.59649628549283
 30
0.0
 40
0.4991932763770037
100
AcDbArc
 50
89.907331908866567
 51
180.09266809113299
  0
ARC
  5
129
100
AcDbEntity
  8
0
  6
CONTINUOUS
 62
               4
100
AcDbCircle
 10
37.498154773753413
 20
-175.01987926233829
 30
0.0
 40
0.499424735650256
100
AcDbArc
 50
179.93396556302844
 51
270.06603443697037
  0
ARC
  5
12A
100
AcDbEntity
  8
0
  6
CONTINUOUS
 62
               4
100
AcDbCircle
 10
37.060433521931373
 20
-175.01960051416023
 30
0.0
 40
0.4997032403068001
100
AcDbArc
 50
179.96596353714693
 51
270.03403646285233
  0
LINE
  5
12B
100
AcDbEntity
  8
0
  6
CONTINUOUS
 62
               4
100
AcDbLine
 10
36.998730369795567
 20
-175.01930366629603
 30
0.0
 11
36.998730369795567
 21
-158.59730366202649
 31
0.0
  0
ARC
  5
12C
100
AcDbEntity
  8
0
  6
CONTINUOUS
 62
               4
100
AcDbCircle
 10
39.157818375032775
 20
-178.92039167153297
 30
0.0
 40
0.5989129830170392
100
AcDbArc
 50
269.89591452477231
 51
0.1040854752270701
  0
CIRCLE
  5
12D
100
AcDbEntity
  8
0
  6
CONTINUOUS
 62
               4
100
AcDbCircle
 10
42.810136497725352
 20
-172.01930366629603
 30
0.0
 40
0.7250000000000001
  0
CIRCLE
  5
12E
100
AcDbEntity
  8
0
  6
CONTINUOUS
 62
               4
100
AcDbCircle
 10
40.310136497725352
 20
-172.01930366629603
 30
0.0
 40
0.7250000000000001
  0
LINE
  5
12F
100
AcDbEntity
  8
0
  6
CONTINUOUS
 62
               4
100
AcDbLine
 10
40.310730369795692
 20
-170.01930366629603
 30
0.0
 11
42.810730369795692
 21
-170.01930366629603
 31
0.0
  0
LINE
  5
130
100
AcDbEntity
  8
0
  6
CONTINUOUS
 62
               4
100
AcDbLine
 10
40.310730369795692
 20
-174.01930366629603
 30
0.0
 11
42.810730369795692
 21
-174.01930366629603
 31
0.0
  0
ARC
  5
131
100
AcDbEntity
  8
0
  6
CONTINUOUS
 62
               4
100
AcDbCircle
 10
42.810730369795692
 20
-172.01930366629603
 30
0.0
 40
2.0000000881710065
100
AcDbArc
 50
269.99999999999937
 51
89.999999999999801
  0
ARC
  5
132
100
AcDbEntity
  8
0
  6
CONTINUOUS
 62
               4
100
AcDbCircle
 10
40.310730369795692
 20
-172.01930366629603
 30
0.0
 40
2.0000000881710065
100
AcDbArc
 50
89.999999999999815
 51
269.99999999999937
  0
ARC
  5
133
100
AcDbEntity
  8
0
  6
CONTINUOUS
 62
               4
100
AcDbCircle
 10
45.622943930586416
 20
-158.59709010123572
 30
0.0
 40
0.4997864848369056
100
AcDbArc
 50
359.97551728042708
 51
90.024482719571907
  0
ARC
  5
134
100
AcDbEntity
  8
0
  6
CONTINUOUS
 62
               4
100
AcDbCircle
 10
46.060433345589445
 20
-175.01900664208989
 30
0.0
 40
0.5002971123771114
100
AcDbArc
 50
270.03401625554523
 51
359.96598374445318
  0
ARC
  5
135
100
AcDbEntity
  8
0
  6
CONTINUOUS
 62
               4
100
AcDbCircle
 10
45.622712425137706
 20
-175.01928572163803
 30
0.0
 40
0.5000179449799356
100
AcDbArc
 50
270.00205623253072
 51
359.99794376746769
  0
LINE
  5
136
100
AcDbEntity
  8
0
  6
CONTINUOUS
 62
               4
100
AcDbLine
 10
46.12273036979559
 20
-175.01930366629603
 30
0.0
 11
46.12273036979559
 21
-158.59730366202649
 31
0.0
  0
CIRCLE
  5
137
100
AcDbEntity
  8
0
  6
CONTINUOUS
 62
               4
100
AcDbCircle
 10
42.810136497725352
 20
-172.01930366629603
 30
0.0
 40
0.25
  0
CIRCLE
  5
138
100
AcDbEntity
  8
0
  6
CONTINUOUS
 62
               4
100
AcDbCircle
 10
40.310136497725352
 20
-172.01930366629603
 30
0.0
 40
0.25
  0
ARC
  5
139
100
AcDbEntity
  8
0
  6
CONTINUOUS
 62
               4
100
AcDbCircle
 10
46.060730369795692
 20
-178.919303666296
 30
0.0
 40
0.5
100
AcDbArc
 50
269.99999999999937
 51
0.0
  0
LINE
  5
13A
100
AcDbEntity
  8
0
  6
CONTINUOUS
 62
               4
100
AcDbLine
 10
39.760730369795738
 20
-179.419303666296
 30
0.0
 11
39.760730369795738
 21
-177.919303666296
 31
0.0
  0
LINE
  5
13B
100
AcDbEntity
  8
0
  6
CONTINUOUS
 62
               4
100
AcDbLine
 10
39.760730369795738
 20
-179.419303666296
 30
0.0
 11
46.060730369795692
 21
-179.419303666296
 31
0.0
  0
LINE
  5
13C
100
AcDbEntity
  8
0
  6
PHANTOM
 62
               4
100
AcDbLine
 10
43.060748680342613
 20
-164.51930366202652
 30
0.0
 11
40.060748680342613
 21
-164.51930366202652
 31
0.0
  0
LINE
  5
13D
100
AcDbEntity
  8
0
  6
PHANTOM
 62
               4
100
AcDbLine
 10
43.060748680342613
 20
-162.51930366202652
 30
0.0
 11
40.060748680342613
 21
-162.51930366202652
 31
0.0
  0
LINE
  5
13E
100
AcDbEntity
  8
0
  6
PHANTOM
 62
               4
100
AcDbLine
 10
40.060748680342613
 20
-164.51930366202652
 30
0.0
 11
40.060748680342613
 21
-162.51930366202652
 31
0.0
  0
LINE
  5
13F
100
AcDbEntity
  8
0
  6
PHANTOM
 62
               4
100
AcDbLine
 10
43.060748680342613
 20
-164.51930366202652
 30
0.0
 11
43.060748680342613
 21
-162.51930366202652
 31
0.0
  0
LINE
  5
140
100
AcDbEntity
  8
0
  6
CONTINUOUS
 62
               4
100
AcDbLine
 10
36.560730369795692
 20
-178.919303666296
 30
0.0
 11
39.760730369795738
 21
-178.919303666296
 31
0.0
  0
LINE
  5
141
100
AcDbEntity
  8
0
  6
CONTINUOUS
 62
               4
100
AcDbLine
 10
36.560730369795692
 20
-179.51930366629603
 30
0.0
 11
46.560730369795692
 21
-179.51930366629603
 31
0.0
  0
LINE
  5
142
100
AcDbEntity
  8
0
  6
CONTINUOUS
 62
               4
100
AcDbLine
 10
36.560730369795692
 20
-177.919303666296
 30
0.0
 11
39.760730369795738
 21
-177.919303666296
 31
0.0
  0
LINE
  5
143
100
AcDbEntity
  8
0
  6
CONTINUOUS
 62
               4
100
AcDbLine
 10
37.060730369795692
 20
-175.51930366629603
 30
0.0
 11
46.060730369795692
 21
-175.51930366629603
 31
0.0
  0
LINE
  5
144
100
AcDbEntity
  8
0
  6
CONTINUOUS
 62
               4
100
AcDbLine
 10
37.498730369795567
 20
-158.09730366202649
 30
0.0
 11
45.62273036979559
 21
-158.09730366202649
 31
0.0
  0
LINE
  5
145
100
AcDbEntity
  8
0
  6
CONTINUOUS
 62
               4
100
AcDbLine
 10
46.560730369795692
 20
-157.01930366629603
 30
0.0
 11
36.560730369795692
 21
-157.01930366629603
 31
0.0
  0
LINE
  5
146
100
AcDbEntity
  8
0
  6
CENTER
 62
               2
100
AcDbLine
 10
51.573087084804854
 20
52.737362662121726
 30
0.0
 11
45.214216695002676
 21
52.73736266212174
 31
0.0
  0
LINE
  5
147
100
AcDbEntity
  8
0
  6
CENTER
 62
               2
100
AcDbLine
 10
52.222220512890601
 20
43.287362662121723
 30
0.0
 11
52.222220512890601
 21
45.587362662121734
 31
0.0
  0
CIRCLE
  5
148
100
AcDbEntity
  8
0
  6
CONTINUOUS
 62
               7
100
AcDbCircle
 10
52.221372002148371
 20
44.438335928723291
 30
0.0
 40
0.9
  0
LINE
  5
149
100
AcDbEntity
  8
0
  6
CENTER
 62
               2
100
AcDbLine
 10
53.372220512890578
 20
44.4373626621217
 30
0.0
 11
51.072220512890624
 21
44.4373626621217
 31
0.0
  0
LINE
  5
14A
100
AcDbEntity
  8
0
  6
CENTER
 62
               2
100
AcDbLine
 10
45.772220512890669
 20
61.037362662121723
 30
0.0
 11
43.472220512890601
 21
61.037362662121723
 31
0.0
  0
LINE
  5
14B
100
AcDbEntity
  8
0
  6
CENTER
 62
               2
100
AcDbLine
 10
44.622220512890578
 20
59.887362662121717
 30
0.0
 11
44.622220512890578
 21
62.1873626621217
 31
0.0
  0
CIRCLE
  5
14C
100
AcDbEntity
  8
0
  6
CONTINUOUS
 62
               7
100
AcDbCircle
 10
44.621372002148462
 20
61.038335928723285
 30
0.0
 40
0.9
  0
LINE
  5
14D
100
AcDbEntity
  8
0
  6
CENTER
 62
               2
100
AcDbLine
 10
50.122220512890578
 20
44.337362662121734
 30
0.0
 11
46.409233499903564
 21
44.337362662121734
 31
0.0
  0
CIRCLE
  5
14E
100
AcDbEntity
  8
0
  6
CONTINUOUS
 62
               7
100
AcDbCircle
 10
48.422220512890647
 20
44.337362662121734
 30
0.0
 40
1.25
  0
CIRCLE
  5
14F
100
AcDbEntity
  8
0
  6
CONTINUOUS
 62
               2
100
AcDbCircle
 10
48.422220512890647
 20
44.337362662121734
 30
0.0
 40
1.5
  0
CIRCLE
  5
150
100
AcDbEntity
  8
0
  6
CONTINUOUS
 62
               7
100
AcDbCircle
 10
48.422220512890647
 20
61.137362662121717
 30
0.0
 40
1.25
  0
CIRCLE
  5
151
100
AcDbEntity
  8
0
  6
CONTINUOUS
 62
               2
100
AcDbCircle
 10
48.421372002148416
 20
61.130238194481137
 30
0.0
 40
1.5
  0
LINE
  5
152
100
AcDbEntity
  8
0
  6
CENTER
 62
               2
100
AcDbLine
 10
50.122220512890578
 20
61.137362662121717
 30
0.0
 11
46.722220512890601
 21
61.137362662121717
 31
0.0
  0
CIRCLE
  5
153
100
AcDbEntity
  8
0
  6
CONTINUOUS
 62
               7
100
AcDbCircle
 10
48.422220512890647
 20
52.737362662121711
 30
0.0
 40
2.1000000000000001
  0
CIRCLE
  5
154
100
AcDbEntity
  8
0
  6
CONTINUOUS
 62
               2
100
AcDbCircle
 10
48.422220512890647
 20
52.737362662121711
 30
0.0
 40
2.5
  0
LINE
  5
155
100
AcDbEntity
  8
0
  6
CENTER
 62
               2
100
AcDbLine
 10
48.422220512890647
 20
106.79274358107853
 30
0.0
 11
48.422220512890647
 21
-1.318018256835046
 31
0.0
  0
CIRCLE
  5
156
100
AcDbEntity
  8
0
  6
CONTINUOUS
 62
               7
100
AcDbCircle
 10
48.422220512890647
 20
32.73736266212174
 30
0.0
 40
0.75
  0
LINE
  5
157
100
AcDbEntity
  8
0
  6
CENTER
 62
               2
100
AcDbLine
 10
46.422220512890647
 20
32.73736266212174
 30
0.0
 11
50.422220512890647
 21
32.73736266212174
 31
0.0
  0
LINE
  5
158
100
AcDbEntity
  8
0
  6
CONTINUOUS
 62
               7
100
AcDbLine
 10
53.422220512890647
 20
40.637362662121745
 30
0.0
 11
43.422220512890647
 21
40.637362662121745
 31
0.0
  0
LINE
  5
159
100
AcDbEntity
  8
0
  6
CONTINUOUS
 62
               7
100
AcDbLine
 10
43.422220512890647
 20
27.437362662121743
 30
0.0
 11
43.422220512890647
 21
78.037362662121737
 31
0.0
  0
LINE
  5
15A
100
AcDbEntity
  8
0
  6
CONTINUOUS
 62
               7
100
AcDbLine
 10
43.422220512890647
 20
27.437362662121743
 30
0.0
 11
53.422220512890647
 21
27.437362662121743
 31
0.0
  0
CIRCLE
  5
15B
100
AcDbEntity
  8
0
  6
CONTINUOUS
 62
               7
100
AcDbCircle
 10
48.422220512890647
 20
72.73736266212174
 30
0.0
 40
0.75
  0
LINE
  5
15C
100
AcDbEntity
  8
0
  6
CENTER
 62
               2
100
AcDbLine
 10
46.422220512890647
 20
72.73736266212174
 30
0.0
 11
50.422220512890647
 21
72.73736266212174
 31
0.0
  0
LINE
  5
15D
100
AcDbEntity
  8
0
  6
CONTINUOUS
 62
               7
100
AcDbLine
 10
53.422220512890647
 20
64.837362662121734
 30
0.0
 11
43.422220512890647
 21
64.837362662121734
 31
0.0
  0
LINE
  5
15E
100
AcDbEntity
  8
0
  6
CONTINUOUS
 62
               7
100
AcDbLine
 10
53.422220512890647
 20
27.437362662121743
 30
0.0
 11
53.422220512890647
 21
78.037362662121737
 31
0.0
  0
LINE
  5
15F
100
AcDbEntity
  8
0
  6
CONTINUOUS
 62
               7
100
AcDbLine
 10
43.422220512890647
 20
78.037362662121737
 30
0.0
 11
53.422220512890647
 21
78.037362662121737
 31
0.0
  0
LINE
  5
160
100
AcDbEntity
  8
0
  6
CONTINUOUS
 62
               4
100
AcDbLine
 10
53.422220512890533
 20
100.53736266212174
 30
0.0
 11
53.422220512890533
 21
78.037362662121765
 31
0.0
  0
LINE
  5
161
100
AcDbEntity
  8
0
  6
CONTINUOUS
 62
               4
100
AcDbLine
 10
43.422220512890533
 20
100.53736266212174
 30
0.0
 11
43.422220512890533
 21
78.037362662121765
 31
0.0
  0
LINE
  5
162
100
AcDbEntity
  8
0
  6
CONTINUOUS
 62
               4
100
AcDbLine
 10
49.422220512890533
 20
116.53029193305511
 30
0.0
 11
49.922220512890533
 21
116.53029193305511
 31
0.0
  0
LINE
  5
163
100
AcDbEntity
  8
0
  6
CONTINUOUS
 62
               4
100
AcDbLine
 10
46.922220512890533
 20
116.53029193305511
 30
0.0
 11
47.422220512890533
 21
116.53029193305511
 31
0.0
  0
LINE
  5
164
100
AcDbEntity
  8
0
  6
CONTINUOUS
 62
               4
100
AcDbLine
 10
50.322220512890397
 20
113.03029193505509
 30
0.0
 11
50.322220512890397
 21
109.53736266212164
 31
0.0
  0
LINE
  5
165
100
AcDbEntity
  8
0
  6
CONTINUOUS
 62
               4
100
AcDbLine
 10
49.022220512890442
 20
113.03029193505509
 30
0.0
 11
49.022220512890442
 21
109.88736266212166
 31
0.0
  0
LINE
  5
166
100
AcDbEntity
  8
0
  6
CONTINUOUS
 62
               4
100
AcDbLine
 10
47.422220512890533
 20
116.53029193305511
 30
0.0
 11
47.422220512890533
 21
113.03029193505509
 31
0.0
  0
LINE
  5
167
100
AcDbEntity
  8
0
  6
CONTINUOUS
 62
               4
100
AcDbLine
 10
46.922220512890533
 20
116.53029193305511
 30
0.0
 11
46.922220512890533
 21
113.03029193505509
 31
0.0
  0
LINE
  5
168
100
AcDbEntity
  8
0
  6
CONTINUOUS
 62
               4
100
AcDbLine
 10
47.822220512890397
 20
113.03029193505509
 30
0.0
 11
47.822220512890397
 21
110.20736266212165
 31
0.0
  0
LINE
  5
169
100
AcDbEntity
  8
0
  6
CONTINUOUS
 62
               4
100
AcDbLine
 10
46.522220512890442
 20
113.03029193505509
 30
0.0
 11
46.522220512890442
 21
110.55736266212162
 31
0.0
  0
LINE
  5
16A
100
AcDbEntity
  8
0
  6
CONTINUOUS
 62
               4
100
AcDbLine
 10
49.922220512890533
 20
116.53029193305511
 30
0.0
 11
49.922220512890533
 21
113.03029193505509
 31
0.0
  0
LINE
  5
16B
100
AcDbEntity
  8
0
  6
CONTINUOUS
 62
               4
100
AcDbLine
 10
49.422220512890533
 20
116.53029193305511
 30
0.0
 11
49.422220512890533
 21
113.03029193505509
 31
0.0
  0
LINE
  5
16C
100
AcDbEntity
  8
0
  6
CONTINUOUS
 62
               4
100
AcDbLine
 10
46.522220512890442
 20
113.03029193505509
 30
0.0
 11
47.822220512890397
 21
113.03029193505509
 31
0.0
  0
LINE
  5
16D
100
AcDbEntity
  8
0
  6
CONTINUOUS
 62
             200
100
AcDbLine
 10
44.672220512890533
 20
111.05736266212162
 30
0.0
 11
52.172220512890533
 21
109.04736266212163
 31
0.0
  0
LINE
  5
16E
100
AcDbEntity
  8
0
  6
CONTINUOUS
 62
               4
100
AcDbLine
 10
49.022220512890442
 20
113.03029193505509
 30
0.0
 11
50.322220512890397
 21
113.03029193505509
 31
0.0
  0
LINE
  5
16F
100
AcDbEntity
  8
0
  6
CONTINUOUS
 62
               4
100
AcDbLine
 10
52.172220512890533
 20
104.53736265812161
 30
0.0
 11
44.672220512890533
 21
104.53736265812161
 31
0.0
  0
LINE
  5
170
100
AcDbEntity
  8
0
  6
CONTINUOUS
 62
               4
100
AcDbLine
 10
52.172220512890533
 20
105.53736266212164
 30
0.0
 11
52.172220512890533
 21
100.53736266212174
 31
0.0
  0
LINE
  5
171
100
AcDbEntity
  8
0
  6
CONTINUOUS
 62
               4
100
AcDbLine
 10
44.672220512890533
 20
105.53736266212164
 30
0.0
 11
52.172220512890533
 21
105.53736266212164
 31
0.0
  0
LINE
  5
172
100
AcDbEntity
  8
0
  6
CONTINUOUS
 62
               4
100
AcDbLine
 10
44.672220512890533
 20
105.53736266212164
 30
0.0
 11
44.672220512890533
 21
100.53736266212174
 31
0.0
  0
LINE
  5
173
100
AcDbEntity
  8
0
  6
CONTINUOUS
 62
               4
100
AcDbLine
 10
50.322220512890397
 20
108.50736266212161
 30
0.0
 11
50.322220512890397
 21
105.53736266212164
 31
0.0
  0
LINE
  5
174
100
AcDbEntity
  8
0
  6
CONTINUOUS
 62
               4
100
AcDbLine
 10
53.422220512890533
 20
100.53736266212174
 30
0.0
 11
43.422220512890533
 21
100.53736266212174
 31
0.0
  0
LINE
  5
175
100
AcDbEntity
  8
0
  6
CONTINUOUS
 62
               4
100
AcDbLine
 10
53.422220512890533
 20
98.937362662121714
 30
0.0
 11
50.222220512890487
 21
98.937362662121714
 31
0.0
  0
LINE
  5
176
100
AcDbEntity
  8
0
  6
CONTINUOUS
 62
               4
100
AcDbLine
 10
50.222220512890487
 20
100.43736266212171
 30
0.0
 11
43.922220512890533
 21
100.43736266212171
 31
0.0
  0
LINE
  5
177
100
AcDbEntity
  8
0
  6
CONTINUOUS
 62
               4
100
AcDbLine
 10
50.222220512890487
 20
100.43736266212171
 30
0.0
 11
50.222220512890487
 21
98.937362662121714
 31
0.0
  0
ARC
  5
178
100
AcDbEntity
  8
0
  6
CONTINUOUS
 62
               4
100
AcDbCircle
 10
43.922220512890533
 20
99.937362662121714
 30
0.0
 40
0.5
100
AcDbArc
 50
89.999999999999815
 51
179.99999999999963
  0
LINE
  5
179
100
AcDbEntity
  8
0
  6
CONTINUOUS
 62
               4
100
AcDbLine
 10
53.422220512890533
 20
99.937362662121714
 30
0.0
 11
50.222220512890487
 21
99.937362662121714
 31
0.0
  0
ARC
  5
17A
100
AcDbEntity
  8
0
  6
CONTINUOUS
 62
               4
100
AcDbCircle
 10
52.626315659548652
 20
99.937457808779882
 30
0.0
 40
0.5999048608870732
100
AcDbArc
 50
359.99091272245295
 51
90.009087277546172
  0
ARC
  5
17B
100
AcDbEntity
  8
0
  6
CONTINUOUS
 62
               4
100
AcDbCircle
 10
50.82513250765345
 20
99.938450667358737
 30
0.0
 40
0.5989129830170392
100
AcDbArc
 50
89.895914524772735
 51
180.10408547522667
  0
LINE
  5
17C
100
AcDbEntity
  8
0
  6
CONTINUOUS
 62
               4
100
AcDbLine
 10
49.022220512890442
 20
108.85736266212163
 30
0.0
 11
49.022220512890442
 21
105.53736266212164
 31
0.0
  0
LINE
  5
17D
100
AcDbEntity
  8
0
  6
CONTINUOUS
 62
               4
100
AcDbLine
 10
46.522220512890442
 20
109.52736266212165
 30
0.0
 11
46.522220512890442
 21
105.53736266212164
 31
0.0
  0
LINE
  5
17E
100
AcDbEntity
  8
0
  6
CONTINUOUS
 62
               4
100
AcDbLine
 10
47.822220512890397
 20
109.17736266212162
 30
0.0
 11
47.822220512890397
 21
105.53736266212164
 31
0.0
  0
LINE
  5
17F
100
AcDbEntity
  8
0
  6
CONTINUOUS
 62
             200
100
AcDbLine
 10
44.672220512890533
 20
110.01736266212166
 30
0.0
 11
52.172220512890533
 21
108.00736266212161
 31
0.0
  0
LINE
  5
180
100
AcDbEntity
  8
0
  6
CONTINUOUS
 62
               4
100
AcDbLine
 10
43.422220512890533
 20
4.9373626621217994
 30
0.0
 11
43.422220512890533
 21
27.437362662121743
 31
0.0
  0
LINE
  5
181
100
AcDbEntity
  8
0
  6
CONTINUOUS
 62
               4
100
AcDbLine
 10
53.422220512890533
 20
4.9373626621217994
 30
0.0
 11
53.422220512890533
 21
27.437362662121743
 31
0.0
  0
LINE
  5
182
100
AcDbEntity
  8
0
  6
CONTINUOUS
 62
               4
100
AcDbLine
 10
44.672220512890533
 20
0.9373626661218708
 30
0.0
 11
52.172220512890533
 21
0.9373626661218708
 31
0.0
  0
LINE
  5
183
100
AcDbEntity
  8
0
  6
CONTINUOUS
 62
               4
100
AcDbLine
 10
44.672220512890533
 20
-0.0626373378780869
 30
0.0
 11
44.672220512890533
 21
4.9373626621217994
 31
0.0
  0
LINE
  5
184
100
AcDbEntity
  8
0
  6
CONTINUOUS
 62
               4
100
AcDbLine
 10
52.172220512890533
 20
-0.0626373378780869
 30
0.0
 11
44.672220512890533
 21
-0.0626373378780869
 31
0.0
  0
LINE
  5
185
100
AcDbEntity
  8
0
  6
CONTINUOUS
 62
               4
100
AcDbLine
 10
52.172220512890533
 20
-0.0626373378780869
 30
0.0
 11
52.172220512890533
 21
4.9373626621217994
 31
0.0
  0
LINE
  5
186
100
AcDbEntity
  8
0
  6
CONTINUOUS
 62
               4
100
AcDbLine
 10
47.422220512890533
 20
-11.055566608811617
 30
0.0
 11
46.922220512890533
 21
-11.055566608811617
 31
0.0
  0
LINE
  5
187
100
AcDbEntity
  8
0
  6
CONTINUOUS
 62
               4
100
AcDbLine
 10
49.922220512890533
 20
-11.055566608811617
 30
0.0
 11
49.422220512890533
 21
-11.055566608811617
 31
0.0
  0
LINE
  5
188
100
AcDbEntity
  8
0
  6
CONTINUOUS
 62
               4
100
AcDbLine
 10
46.522220512890669
 20
-7.5555666108115958
 30
0.0
 11
46.522220512890669
 21
-4.0626373378780869
 31
0.0
  0
LINE
  5
189
100
AcDbEntity
  8
0
  6
CONTINUOUS
 62
               4
100
AcDbLine
 10
47.822220512890624
 20
-7.5555666108115958
 30
0.0
 11
47.822220512890624
 21
-4.4126373378781096
 31
0.0
  0
LINE
  5
18A
100
AcDbEntity
  8
0
  6
CONTINUOUS
 62
               4
100
AcDbLine
 10
49.422220512890533
 20
-11.055566608811617
 30
0.0
 11
49.422220512890533
 21
-7.5555666108115958
 31
0.0
  0
LINE
  5
18B
100
AcDbEntity
  8
0
  6
CONTINUOUS
 62
               4
100
AcDbLine
 10
49.922220512890533
 20
-11.055566608811617
 30
0.0
 11
49.922220512890533
 21
-7.5555666108115958
 31
0.0
  0
LINE
  5
18C
100
AcDbEntity
  8
0
  6
CONTINUOUS
 62
               4
100
AcDbLine
 10
49.022220512890669
 20
-7.5555666108115958
 30
0.0
 11
49.022220512890669
 21
-4.7326373378781597
 31
0.0
  0
LINE
  5
18D
100
AcDbEntity
  8
0
  6
CONTINUOUS
 62
               4
100
AcDbLine
 10
50.322220512890624
 20
-7.5555666108115958
 30
0.0
 11
50.322220512890624
 21
-5.0826373378781255
 31
0.0
  0
LINE
  5
18E
100
AcDbEntity
  8
0
  6
CONTINUOUS
 62
               4
100
AcDbLine
 10
46.922220512890533
 20
-11.055566608811617
 30
0.0
 11
46.922220512890533
 21
-7.5555666108115958
 31
0.0
  0
LINE
  5
18F
100
AcDbEntity
  8
0
  6
CONTINUOUS
 62
               4
100
AcDbLine
 10
47.422220512890533
 20
-11.055566608811617
 30
0.0
 11
47.422220512890533
 21
-7.5555666108115958
 31
0.0
  0
LINE
  5
190
100
AcDbEntity
  8
0
  6
CONTINUOUS
 62
               4
100
AcDbLine
 10
50.322220512890624
 20
-7.5555666108115958
 30
0.0
 11
49.022220512890669
 21
-7.5555666108115958
 31
0.0
  0
LINE
  5
191
100
AcDbEntity
  8
0
  6
CONTINUOUS
 62
             200
100
AcDbLine
 10
52.172220512890533
 20
-4.5426373378781051
 30
0.0
 11
44.672220512890533
 21
-2.5326373378781142
 31
0.0
  0
LINE
  5
192
100
AcDbEntity
  8
0
  6
CONTINUOUS
 62
             200
100
AcDbLine
 10
52.172220512890533
 20
-5.5826373378781255
 30
0.0
 11
44.672220512890533
 21
-3.5726373378781346
 31
0.0
  0
LINE
  5
193
100
AcDbEntity
  8
0
  6
CONTINUOUS
 62
               4
100
AcDbLine
 10
47.822220512890624
 20
-7.5555666108115958
 30
0.0
 11
46.522220512890669
 21
-7.5555666108115958
 31
0.0
  0
LINE
  5
194
100
AcDbEntity
  8
0
  6
CONTINUOUS
 62
               4
100
AcDbLine
 10
49.022220512890669
 20
-3.7026373378781301
 30
0.0
 11
49.022220512890669
 21
-0.0626373378780869
 31
0.0
  0
LINE
  5
195
100
AcDbEntity
  8
0
  6
CONTINUOUS
 62
               4
100
AcDbLine
 10
50.322220512890624
 20
-4.052637337878096
 30
0.0
 11
50.322220512890624
 21
-0.0626373378780869
 31
0.0
  0
LINE
  5
196
100
AcDbEntity
  8
0
  6
CONTINUOUS
 62
               4
100
AcDbLine
 10
47.822220512890624
 20
-3.3826373378781369
 30
0.0
 11
47.822220512890624
 21
-0.0626373378780869
 31
0.0
  0
LINE
  5
197
100
AcDbEntity
  8
0
  6
CONTINUOUS
 62
               4
100
AcDbLine
 10
46.522220512890669
 20
-3.0326373378781142
 30
0.0
 11
46.522220512890669
 21
-0.0626373378780869
 31
0.0
  0
LINE
  5
198
100
AcDbEntity
  8
0
  6
CONTINUOUS
 62
               4
100
AcDbLine
 10
43.422220512890533
 20
4.9373626621217994
 30
0.0
 11
53.422220512890533
 21
4.9373626621217994
 31
0.0
  0
LINE
  5
199
100
AcDbEntity
  8
0
  6
CONTINUOUS
 62
               4
100
AcDbLine
 10
43.422220512890533
 20
6.5373626621218222
 30
0.0
 11
46.622220512890578
 21
6.5373626621218222
 31
0.0
  0
LINE
  5
19A
100
AcDbEntity
  8
0
  6
CONTINUOUS
 62
               4
100
AcDbLine
 10
46.622220512890578
 20
5.0373626621218222
 30
0.0
 11
52.922220512890533
 21
5.0373626621218222
 31
0.0
  0
LINE
  5
19B
100
AcDbEntity
  8
0
  6
CONTINUOUS
 62
               4
100
AcDbLine
 10
46.622220512890578
 20
5.0373626621218222
 30
0.0
 11
46.622220512890578
 21
6.5373626621218222
 31
0.0
  0
ARC
  5
19C
100
AcDbEntity
  8
0
  6
CONTINUOUS
 62
               4
100
AcDbCircle
 10
52.922220512890533
 20
5.5373626621218222
 30
0.0
 40
0.5
100
AcDbArc
 50
269.99999999999937
 51
0.0
  0
LINE
  5
19D
100
AcDbEntity
  8
0
  6
CONTINUOUS
 62
               4
100
AcDbLine
 10
43.422220512890533
 20
5.5373626621218222
 30
0.0
 11
46.622220512890578
 21
5.5373626621218222
 31
0.0
  0
ARC
  5
19E
100
AcDbEntity
  8
0
  6
CONTINUOUS
 62
               4
100
AcDbCircle
 10
44.218125366232414
 20
5.5372675154636539
 30
0.0
 40
0.5999048608870732
100
AcDbArc
 50
179.99091272245337
 51
270.00908727754575
  0
ARC
  5
19F
100
AcDbEntity
  8
0
  6
CONTINUOUS
 62
               4
100
AcDbCircle
 10
46.019308518127616
 20
5.5362746568847427
 30
0.0
 40
0.5989129830170392
100
AcDbArc
 50
269.89591452477231
 51
0.1040854752270701
  0
LINE
  5
1A0
100
AcDbEntity
  8
0
  6
CENTER
 62
               2
100
AcDbLine
 10
135.31539730197113
 20
101.22029464101203
 30
0.0
 11
135.3153973019713
 21
4.2393626621217919
 31
0.0
  0
ARC
  5
1A1
100
AcDbEntity
  8
0
  6
DASHED
 62
             200
100
AcDbCircle
 10
116.81539730197122
 20
46.836389395520193
 30
0.0
 40
0.5
100
AcDbArc
 50
89.999999999999901
 51
179.99999999999969
  0
ARC
  5
1A2
100
AcDbEntity
  8
0
  6
DASHED
 62
             200
100
AcDbCircle
 10
116.81539730197122
 20
41.836389395520193
 30
0.0
 40
0.5
100
AcDbArc
 50
179.99999999999969
 51
269.99999999999949
  0
LINE
  5
1A3
100
AcDbEntity
  8
0
  6
DASHED
 62
             200
100
AcDbLine
 10
116.31539730197122
 20
46.836389395520193
 30
0.0
 11
116.31539730197122
 21
41.836389395520193
 31
0.0
  0
LINE
  5
1A4
100
AcDbEntity
  8
0
  6
DASHED
 62
             200
100
AcDbLine
 10
118.81539730197122
 20
47.3363893955202
 30
0.0
 11
118.81539730197122
 21
41.3363893955202
 31
0.0
  0
LINE
  5
1A5
100
AcDbEntity
  8
0
  6
DASHED
 62
             200
100
AcDbLine
 10
116.81539730197122
 20
47.336389395520193
 30
0.0
 11
116.81539730197122
 21
41.336389395520193
 31
0.0
  0
LINE
  5
1A6
100
AcDbEntity
  8
0
  6
DASHED
 62
             200
100
AcDbLine
 10
128.31539730197122
 20
41.336389395520214
 30
0.0
 11
116.81539730197122
 21
41.336389395520193
 31
0.0
  0
LINE
  5
1A7
100
AcDbEntity
  8
0
  6
DASHED
 62
             200
100
AcDbLine
 10
128.31539730197122
 20
47.336389395520214
 30
0.0
 11
116.81539730197122
 21
47.336389395520193
 31
0.0
  0
LINE
  5
1A8
100
AcDbEntity
  8
0
  6
DASHED
 62
             200
100
AcDbLine
 10
128.31539730197119
 20
58.138335928723293
 30
0.0
 11
116.81539730197119
 21
58.138335928723272
 31
0.0
  0
LINE
  5
1A9
100
AcDbEntity
  8
0
  6
DASHED
 62
             200
100
AcDbLine
 10
128.31539730197119
 20
64.138335928723279
 30
0.0
 11
116.81539730197119
 21
64.138335928723265
 31
0.0
  0
LINE
  5
1AA
100
AcDbEntity
  8
0
  6
DASHED
 62
             200
100
AcDbLine
 10
116.81539730197119
 20
58.138335928723272
 30
0.0
 11
116.81539730197119
 21
64.138335928723265
 31
0.0
  0
LINE
  5
1AB
100
AcDbEntity
  8
0
  6
DASHED
 62
             200
100
AcDbLine
 10
118.81539730197119
 20
58.138335928723279
 30
0.0
 11
118.81539730197119
 21
64.138335928723265
 31
0.0
  0
LINE
  5
1AC
100
AcDbEntity
  8
0
  6
DASHED
 62
             200
100
AcDbLine
 10
116.31539730197119
 20
58.638335928723272
 30
0.0
 11
116.31539730197119
 21
63.638335928723258
 31
0.0
  0
ARC
  5
1AD
100
AcDbEntity
  8
0
  6
DASHED
 62
             200
100
AcDbCircle
 10
116.81539730197119
 20
63.638335928723258
 30
0.0
 40
0.5
100
AcDbArc
 50
89.999999999999901
 51
179.99999999999969
  0
ARC
  5
1AE
100
AcDbEntity
  8
0
  6
DASHED
 62
             200
100
AcDbCircle
 10
116.81539730197119
 20
58.638335928723272
 30
0.0
 40
0.5
100
AcDbArc
 50
179.99999999999969
 51
269.99999999999949
  0
LINE
  5
1AF
100
AcDbEntity
  8
0
  6
CENTER
 62
               2
100
AcDbLine
 10
130.35147773270378
 20
44.336389395520214
 30
0.0
 11
114.90946623448124
 21
44.336389395520186
 31
0.0
  0
LINE
  5
1B0
100
AcDbEntity
  8
0
  6
CENTER
 62
               2
100
AcDbLine
 10
130.35147773270376
 20
61.138335928723301
 30
0.0
 11
114.90946623448121
 21
61.138335928723272
 31
0.0
  0
LINE
  5
1B1
100
AcDbEntity
  8
0
  6
CONTINUOUS
 62
               7
100
AcDbLine
 10
141.31539730197133
 20
46.03638939552021
 30
0.0
 11
141.31539730197133
 21
42.836389395520172
 31
0.0
  0
LINE
  5
1B2
100
AcDbEntity
  8
0
  6
CONTINUOUS
 62
               7
100
AcDbLine
 10
142.31539731293847
 20
46.036389395520217
 30
0.0
 11
141.31539731293847
 21
46.03638939552021
 31
0.0
  0
LINE
  5
1B3
100
AcDbEntity
  8
0
  6
CONTINUOUS
 62
               7
100
AcDbLine
 10
142.31539731293847
 20
42.836389395520172
 30
0.0
 11
141.31539731293847
 21
42.836389395520172
 31
0.0
  0
CIRCLE
  5
1B4
100
AcDbEntity
  8
0
  6
CONTINUOUS
 62
               7
100
AcDbCircle
 10
131.11539730197126
 20
57.237362662121733
 30
0.0
 40
1.0499999999999998
  0
LINE
  5
1B5
100
AcDbEntity
  8
0
  6
CENTER
 62
               2
100
AcDbLine
 10
131.11539730197126
 20
55.737362662121733
 30
0.0
 11
131.11539730197126
 21
58.737362662121733
 31
0.0
  0
LINE
  5
1B6
100
AcDbEntity
  8
0
  6
CENTER
 62
               2
100
AcDbLine
 10
129.61539730197126
 20
57.237362662121726
 30
0.0
 11
132.61539730197126
 21
57.237362662121733
 31
0.0
  0
CIRCLE
  5
1B7
100
AcDbEntity
  8
0
  6
CONTINUOUS
 62
               7
100
AcDbCircle
 10
131.11539730197129
 20
48.237362662121733
 30
0.0
 40
1.0499999999999998
  0
LINE
  5
1B8
100
AcDbEntity
  8
0
  6
CENTER
 62
               2
100
AcDbLine
 10
131.11539730197129
 20
46.737362662121733
 30
0.0
 11
131.11539730197129
 21
49.737362662121733
 31
0.0
  0
LINE
  5
1B9
100
AcDbEntity
  8
0
  6
CENTER
 62
               2
100
AcDbLine
 10
129.61539730197129
 20
48.237362662121726
 30
0.0
 11
132.61539730197129
 21
48.237362662121733
 31
0.0
  0
LINE
  5
1BA
100
AcDbEntity
  8
0
  6
CONTINUOUS
 62
               7
100
AcDbLine
 10
143.9154001184981
 20
33.437362662121771
 30
0.0
 11
142.31540011849808
 21
35.03736266212178
 31
0.0
  0
LINE
  5
1BB
100
AcDbEntity
  8
0
  6
CONTINUOUS
 62
               7
100
AcDbLine
 10
143.9154001184981
 20
33.437362662121771
 30
0.0
 11
143.9154001184981
 21
27.437362662121771
 31
0.0
  0
LINE
  5
1BC
100
AcDbEntity
  8
0
  6
CONTINUOUS
 62
               7
100
AcDbLine
 10
143.91540011849801
 20
72.037362662121765
 30
0.0
 11
142.31540011849799
 21
70.437362662121757
 31
0.0
  0
LINE
  5
1BD
100
AcDbEntity
  8
0
  6
CONTINUOUS
 62
               7
100
AcDbLine
 10
128.31540011849805
 20
40.637362662121774
 30
0.0
 11
142.31540011849805
 21
40.637362662121802
 31
0.0
  0
LINE
  5
1BE
100
AcDbEntity
  8
0
  6
CONTINUOUS
 62
               7
100
AcDbLine
 10
128.31540011849802
 20
64.837362662121734
 30
0.0
 11
142.31540011849802
 21
64.837362662121762
 31
0.0
  0
LINE
  5
1BF
100
AcDbEntity
  8
0
  6
CONTINUOUS
 62
               7
100
AcDbLine
 10
142.31539730197125
 20
27.437362662121799
 30
0.0
 11
142.31539730197127
 21
78.037362662121751
 31
0.0
  0
LINE
  5
1C0
100
AcDbEntity
  8
0
  6
CONTINUOUS
 62
               7
100
AcDbLine
 10
128.31539730197125
 20
27.437362662121743
 30
0.0
 11
128.31539730197116
 21
78.037362662121765
 31
0.0
  0
LINE
  5
1C1
100
AcDbEntity
  8
0
  6
CONTINUOUS
 62
               7
100
AcDbLine
 10
143.91540011849801
 20
72.037362662121765
 30
0.0
 11
143.91540011849801
 21
78.037362662121765
 31
0.0
  0
LINE
  5
1C2
100
AcDbEntity
  8
0
  6
CONTINUOUS
 62
               4
100
AcDbLine
 10
145.32044780130451
 20
27.43130204492202
 30
0.0
 11
145.32044780130454
 21
7.9373626621218847
 31
0.0
  0
LINE
  5
1C3
100
AcDbEntity
  8
0
  6
CONTINUOUS
 62
               4
100
AcDbLine
 10
145.32044780130451
 20
27.437362662121885
 30
0.0
 11
150.02953870770449
 21
25.245443471455154
 31
0.0
  0
LINE
  5
1C4
100
AcDbEntity
  8
0
  6
CONTINUOUS
 62
               4
100
AcDbLine
 10
128.31539730197127
 20
5.5373626621217653
 30
0.0
 11
128.31539730197125
 21
27.437362662121743
 31
0.0
  0
LINE
  5
1C5
100
AcDbEntity
  8
0
  6
CONTINUOUS
 62
               4
100
AcDbLine
 10
142.31539730197125
 20
27.437362662121771
 30
0.0
 11
142.31539730197127
 21
5.5373626671894982
 31
0.0
  0
ARC
  5
1C6
100
AcDbEntity
  8
0
  6
CONTINUOUS
 62
               4
100
AcDbCircle
 10
149.8173184246692
 20
7.5308559024282076
 30
0.0
 40
0.4029462287748787
100
AcDbArc
 50
10.608827982274514
 51
179.50566908284443
  0
ARC
  5
1C7
100
AcDbEntity
  8
0
  6
CONTINUOUS
 62
               4
100
AcDbCircle
 10
149.91538424283803
 20
8.9370303114773932
 30
0.0
 40
0.5030505883944908
100
AcDbArc
 50
323.43739164534657
 51
359.69271070880944
  0
ARC
  5
1C8
100
AcDbEntity
  8
0
  6
CONTINUOUS
 62
               4
100
AcDbCircle
 10
151.11329342006306
 20
15.632228481813712
 30
0.0
 40
0.3021474965435785
100
AcDbArc
 50
0.9736329845119481
 51
89.026367015488077
  0
ARC
  5
1C9
100
AcDbEntity
  8
0
  6
CONTINUOUS
 62
               4
100
AcDbCircle
 10
149.81923142124978
 20
8.4375935301382796
 30
0.0
 40
0.5002341568128574
100
AcDbArc
 50
269.79223628684542
 51
359.39507124653579
  0
ARC
  5
1CA
100
AcDbEntity
  8
0
  6
CONTINUOUS
 62
               4
100
AcDbCircle
 10
149.81343035954029
 20
24.787878164630136
 30
0.0
 40
0.5060324378497572
100
AcDbArc
 50
0.5706721698852568
 51
64.71860809994719
  0
LINE
  5
1CB
100
AcDbEntity
  8
0
  6
CONTINUOUS
 62
               4
100
AcDbLine
 10
145.81539729597114
 20
0.9373626661218424
 30
0.0
 11
145.81539729597114
 21
5.9363525622552089
 31
0.0
  0
LINE
  5
1CC
100
AcDbEntity
  8
0
  6
CONTINUOUS
 62
               4
100
AcDbLine
 10
145.32044780130457
 20
5.9363525622552089
 30
0.0
 11
145.32044780130454
 21
7.9373626621218847
 31
0.0
  0
LINE
  5
1CD
100
AcDbEntity
  8
0
  6
CONTINUOUS
 62
               4
100
AcDbLine
 10
145.32044780130457
 20
-0.0626373378781153
 30
0.0
 11
145.32044780130457
 21
0.9373626661218424
 31
0.0
  0
LINE
  5
1CE
100
AcDbEntity
  8
0
  6
CONTINUOUS
 62
               4
100
AcDbLine
 10
148.46691244597116
 20
-3.8808191538780932
 30
0.0
 11
148.46691244597116
 21
-0.0626373378781082
 31
0.0
  0
LINE
  5
1CF
100
AcDbEntity
  8
0
  6
CONTINUOUS
 62
             200
100
AcDbLine
 10
149.31539729397116
 20
-3.3858696592115223
 30
0.0
 11
146.31741749770447
 21
-5.1181928905448757
 31
0.0
  0
LINE
  5
1D0
100
AcDbEntity
  8
0
  6
CONTINUOUS
 62
             200
100
AcDbLine
 10
149.31539729397116
 20
-3.7323343054781901
 30
0.0
 11
146.31741749770447
 21
-5.4646575368114298
 31
0.0
  0
LINE
  5
1D1
100
AcDbEntity
  8
0
  6
CONTINUOUS
 62
               4
100
AcDbLine
 10
148.0638821431711
 20
-11.057586826544807
 30
0.0
 11
148.0638821431711
 21
-7.5575868285447854
 31
0.0
  0
LINE
  5
1D2
100
AcDbEntity
  8
0
  6
CONTINUOUS
 62
               4
100
AcDbLine
 10
147.56893264850453
 20
-11.057586826544807
 30
0.0
 11
147.56893264850453
 21
-7.5575868285447854
 31
0.0
  0
LINE
  5
1D3
100
AcDbEntity
  8
0
  6
CONTINUOUS
 62
               4
100
AcDbLine
 10
147.16590234570447
 20
-7.5575868285447854
 30
0.0
 11
148.46691244597116
 21
-7.5575868285447712
 31
0.0
  0
LINE
  5
1D4
100
AcDbEntity
  8
0
  6
CONTINUOUS
 62
               4
100
AcDbLine
 10
147.16590234570447
 20
-7.5575868285447854
 30
0.0
 11
147.16590234570447
 21
-4.9767787492115048
 31
0.0
  0
LINE
  5
1D5
100
AcDbEntity
  8
0
  6
CONTINUOUS
 62
               4
100
AcDbLine
 10
148.46691244597116
 20
-7.5575868285447712
 30
0.0
 11
148.46691244597116
 21
-4.227283800144761
 31
0.0
  0
LINE
  5
1D6
100
AcDbEntity
  8
0
  6
CONTINUOUS
 62
               4
100
AcDbLine
 10
147.16590234570447
 20
-4.6303141029448369
 30
0.0
 11
147.16590234570447
 21
-0.0626373378781082
 31
0.0
  0
LINE
  5
1D7
100
AcDbEntity
  8
0
  6
CONTINUOUS
 62
               4
100
AcDbLine
 10
150.31943769743779
 20
15.835342455588631
 30
0.0
 11
150.41842759637106
 21
15.934332354521956
 31
0.0
  0
LINE
  5
1D8
100
AcDbEntity
  8
0
  6
CONTINUOUS
 62
               4
100
AcDbLine
 10
150.31943769743779
 20
14.633322254255262
 30
0.0
 11
150.41842759637106
 21
14.633322254255262
 31
0.0
  0
LINE
  5
1D9
100
AcDbEntity
  8
0
  6
CONTINUOUS
 62
               4
100
AcDbLine
 10
150.41842759637106
 20
15.934332354521956
 30
0.0
 11
151.11842759597116
 21
15.934332354521956
 31
0.0
  0
LINE
  5
1DA
100
AcDbEntity
  8
0
  6
CONTINUOUS
 62
               4
100
AcDbLine
 10
151.41539729277119
 20
6.5373626629219359
 30
0.0
 11
151.41539729277119
 21
15.637362657721923
 31
0.0
  0
LINE
  5
1DB
100
AcDbEntity
  8
0
  6
CONTINUOUS
 62
               4
100
AcDbLine
 10
149.4143871929044
 20
6.4383727639885464
 30
0.0
 11
149.71842759677119
 21
6.1343323601218671
 31
0.0
  0
LINE
  5
1DC
100
AcDbEntity
  8
0
  6
CONTINUOUS
 62
               4
100
AcDbLine
 10
145.32044780130457
 20
5.9363525622552089
 30
0.0
 11
145.81539729597114
 21
5.9363525622552089
 31
0.0
  0
LINE
  5
1DD
100
AcDbEntity
  8
0
  6
CONTINUOUS
 62
               4
100
AcDbLine
 10
145.32044780130457
 20
0.9373626661218424
 30
0.0
 11
145.81539729597114
 21
0.9373626661218424
 31
0.0
  0
LINE
  5
1DE
100
AcDbEntity
  8
0
  6
CONTINUOUS
 62
               4
100
AcDbLine
 10
149.41438719290443
 20
-0.0626373378781082
 30
0.0
 11
149.71842759677122
 21
0.2414030659885711
 31
0.0
  0
LINE
  5
1DF
100
AcDbEntity
  8
0
  6
CONTINUOUS
 62
               4
100
AcDbLine
 10
149.71842759677122
 20
0.2414030659885711
 30
0.0
 11
149.71842759677119
 21
6.1343323601218671
 31
0.0
  0
LINE
  5
1E0
100
AcDbEntity
  8
0
  6
CONTINUOUS
 62
               4
100
AcDbLine
 10
149.41438719290443
 20
-0.0626373378781082
 30
0.0
 11
149.4143871929044
 21
7.5343323593218301
 31
0.0
  0
LINE
  5
1E1
100
AcDbEntity
  8
0
  6
CONTINUOUS
 62
               4
100
AcDbLine
 10
150.41842759637106
 20
8.9343323585219139
 30
0.0
 11
150.41842759637106
 21
14.633322254255262
 31
0.0
  0
LINE
  5
1E2
100
AcDbEntity
  8
0
  6
CONTINUOUS
 62
               4
100
AcDbLine
 10
150.21337709143776
 20
7.6050394299885156
 30
0.0
 11
151.31640739383795
 21
1.3428990423123821
 31
0.0
  0
LINE
  5
1E3
100
AcDbEntity
  8
0
  6
CONTINUOUS
 62
               4
100
AcDbLine
 10
151.31640739383795
 20
-0.0626373378781011
 30
0.0
 11
152.31337709023785
 21
-0.0626373378781011
 31
0.0
  0
LINE
  5
1E4
100
AcDbEntity
  8
0
  6
CONTINUOUS
 62
               4
100
AcDbLine
 10
151.31640739383795
 20
-0.0626373378781011
 30
0.0
 11
151.31640739383795
 21
1.3428990423123821
 31
0.0
  0
LINE
  5
1E5
100
AcDbEntity
  8
0
  6
CONTINUOUS
 62
               4
100
AcDbLine
 10
151.41539729277119
 20
6.5373626629219359
 30
0.0
 11
152.31337709023785
 21
1.4323121607885412
 31
0.0
  0
LINE
  5
1E6
100
AcDbEntity
  8
0
  6
CONTINUOUS
 62
               4
100
AcDbLine
 10
152.31337709023785
 20
-0.0626373378781011
 30
0.0
 11
152.31337709023785
 21
1.4323121607885412
 31
0.0
  0
LINE
  5
1E7
100
AcDbEntity
  8
0
  6
CONTINUOUS
 62
               4
100
AcDbLine
 10
148.71438719330456
 20
-0.0626373378781082
 30
0.0
 11
148.71438719330453
 21
7.9373626621218918
 31
0.0
  0
LINE
  5
1E8
100
AcDbEntity
  8
0
  6
CONTINUOUS
 62
               4
100
AcDbLine
 10
146.91842759837107
 20
-0.0626373378781082
 30
0.0
 11
146.91842759837104
 21
7.9373626621218918
 31
0.0
  0
LINE
  5
1E9
100
AcDbEntity
  8
0
  6
CONTINUOUS
 62
               4
100
AcDbLine
 10
145.32044780130457
 20
-0.0626373378781153
 30
0.0
 11
149.41438719290443
 21
-0.0626373378781082
 31
0.0
  0
LINE
  5
1EA
100
AcDbEntity
  8
0
  6
CONTINUOUS
 62
               4
100
AcDbLine
 10
150.31943769743779
 20
8.4323121567885835
 30
0.0
 11
150.31943769743776
 21
24.786857601988658
 31
0.0
  0
LINE
  5
1EB
100
AcDbEntity
  8
0
  6
CONTINUOUS
 62
               4
100
AcDbLine
 10
142.31539729797109
 20
7.9373626621218776
 30
0.0
 11
149.81741749570446
 21
7.9373626621218918
 31
0.0
  0
LINE
  5
1EC
100
AcDbEntity
  8
0
  6
CONTINUOUS
 62
               4
100
AcDbLine
 10
130.31539730197127
 20
6.5373626621216516
 30
0.0
 11
142.31539729797132
 21
6.5373626621216729
 31
0.0
  0
LINE
  5
1ED
100
AcDbEntity
  8
0
  6
CONTINUOUS
 62
               4
100
AcDbLine
 10
130.3153973019713
 20
4.9373626621217426
 30
0.0
 11
130.31539730197127
 21
6.5373626621216516
 31
0.0
  0
ARC
  5
1EE
100
AcDbEntity
  8
0
  6
CONTINUOUS
 62
               4
100
AcDbCircle
 10
128.81539730597146
 20
5.5373626621216516
 30
0.0
 40
0.5
100
AcDbArc
 50
179.99999999999969
 51
269.99999999999949
  0
ARC
  5
1EF
100
AcDbEntity
  8
0
  6
CONTINUOUS
 62
               4
100
AcDbCircle
 10
141.81539729797134
 20
5.5373626621216729
 30
0.0
 40
0.5
100
AcDbArc
 50
273.91958589965049
 51
0.0000000000001018
  0
ARC
  5
1F0
100
AcDbEntity
  8
0
  6
CONTINUOUS
 62
               4
100
AcDbCircle
 10
141.51648521709956
 20
5.5362746569935055
 30
0.0
 40
0.5989129231257409
100
AcDbArc
 50
269.89591452477242
 51
0.1040854752271718
  0
ARC
  5
1F1
100
AcDbEntity
  8
0
  6
CONTINUOUS
 62
               4
100
AcDbCircle
 10
129.11530224532279
 20
5.5372675154730331
 30
0.0
 40
0.5999048008965869
100
AcDbArc
 50
236.2474178703936
 51
270.00908727754586
  0
LINE
  5
1F2
100
AcDbEntity
  8
0
  6
CONTINUOUS
 62
               4
100
AcDbLine
 10
129.11539739197144
 20
4.9373626621217426
 30
0.0
 11
141.51539721197139
 21
4.9373626621217639
 31
0.0
  0
LINE
  5
1F3
100
AcDbEntity
  8
0
  6
CONTINUOUS
 62
               4
100
AcDbLine
 10
128.81539730597149
 20
5.0373626621216516
 30
0.0
 11
130.3153973019713
 21
5.0373626621216516
 31
0.0
  0
LINE
  5
1F4
100
AcDbEntity
  8
0
  6
CONTINUOUS
 62
               4
100
AcDbLine
 10
139.61539730197148
 20
5.5373626621216729
 30
0.0
 11
142.31539729797134
 21
5.5373626621216729
 31
0.0
  0
LINE
  5
1F5
100
AcDbEntity
  8
0
  6
CONTINUOUS
 62
               4
100
AcDbLine
 10
139.61539730197148
 20
4.9373626621217639
 30
0.0
 11
139.61539730197148
 21
5.5373626621216729
 31
0.0
  0
LINE
  5
1F6
100
AcDbEntity
  8
0
  6
CONTINUOUS
 62
               4
100
AcDbLine
 10
147.56893264850453
 20
-11.057586826544807
 30
0.0
 11
148.0638821431711
 21
-11.057586826544807
 31
0.0
  0
LINE
  5
1F7
100
AcDbEntity
  8
0
  6
CONTINUOUS
 62
               4
100
AcDbLine
 10
128.31539730197125
 20
27.437362662121743
 30
0.0
 11
145.32044780130451
 21
27.437362662121771
 31
0.0
  0
LINE
  5
1F8
100
AcDbEntity
  8
0
  6
CONTINUOUS
 62
               4
100
AcDbLine
 10
145.32044780130443
 20
78.043423279321544
 30
0.0
 11
145.3204478013044
 21
97.537362662121708
 31
0.0
  0
LINE
  5
1F9
100
AcDbEntity
  8
0
  6
CONTINUOUS
 62
               4
100
AcDbLine
 10
145.32044780130443
 20
78.037362662121708
 30
0.0
 11
150.0295387077044
 21
80.229281852788432
 31
0.0
  0
LINE
  5
1FA
100
AcDbEntity
  8
0
  6
CONTINUOUS
 62
               4
100
AcDbLine
 10
128.31539730197113
 20
99.937362662121771
 30
0.0
 11
128.31539730197116
 21
78.037362662121765
 31
0.0
  0
LINE
  5
1FB
100
AcDbEntity
  8
0
  6
CONTINUOUS
 62
               4
100
AcDbLine
 10
142.31539730197116
 20
78.037362662121794
 30
0.0
 11
142.31539730197113
 21
99.937362657054067
 31
0.0
  0
LINE
  5
1FC
100
AcDbEntity
  8
0
  6
CONTINUOUS
 62
             200
100
AcDbLine
 10
149.31539729397096
 20
108.86059498345506
 30
0.0
 11
146.31741749770427
 21
110.5929182147884
 31
0.0
  0
LINE
  5
1FD
100
AcDbEntity
  8
0
  6
CONTINUOUS
 62
             200
100
AcDbLine
 10
149.31539729397096
 20
109.20705962972173
 30
0.0
 11
146.31741749770427
 21
110.93938286105501
 31
0.0
  0
LINE
  5
1FE
100
AcDbEntity
  8
0
  6
CONTINUOUS
 62
               4
100
AcDbLine
 10
148.06388214317087
 20
116.53231215078839
 30
0.0
 11
148.0638821431709
 21
113.03231215278836
 31
0.0
  0
LINE
  5
1FF
100
AcDbEntity
  8
0
  6
CONTINUOUS
 62
               4
100
AcDbLine
 10
147.5689326485043
 20
116.53231215078839
 30
0.0
 11
147.56893264850433
 21
113.03231215278836
 31
0.0
  0
LINE
  5
200
100
AcDbEntity
  8
0
  6
CONTINUOUS
 62
               4
100
AcDbLine
 10
147.16590234570427
 20
113.03231215278836
 30
0.0
 11
148.46691244597096
 21
113.03231215278836
 31
0.0
  0
LINE
  5
201
100
AcDbEntity
  8
0
  6
CONTINUOUS
 62
               4
100
AcDbLine
 10
147.16590234570427
 20
113.03231215278836
 30
0.0
 11
147.16590234570427
 21
110.45150407345503
 31
0.0
  0
LINE
  5
202
100
AcDbEntity
  8
0
  6
CONTINUOUS
 62
               4
100
AcDbLine
 10
148.46691244597096
 20
113.03231215278836
 30
0.0
 11
148.46691244597096
 21
109.70200912438835
 31
0.0
  0
LINE
  5
203
100
AcDbEntity
  8
0
  6
CONTINUOUS
 62
               4
100
AcDbLine
 10
147.5689326485043
 20
116.53231215078839
 30
0.0
 11
148.06388214317087
 21
116.53231215078839
 31
0.0
  0
ARC
  5
204
100
AcDbEntity
  8
0
  6
CONTINUOUS
 62
               4
100
AcDbCircle
 10
149.81731842466905
 20
97.943869421815407
 30
0.0
 40
0.4029462287748787
100
AcDbArc
 50
180.49433091715497
 51
349.3911720177249
  0
ARC
  5
205
100
AcDbEntity
  8
0
  6
CONTINUOUS
 62
               4
100
AcDbCircle
 10
149.91538424283789
 20
96.537695012766221
 30
0.0
 40
0.5030505883944908
100
AcDbArc
 50
0.3072892911899571
 51
36.562608354652831
  0
ARC
  5
206
100
AcDbEntity
  8
0
  6
CONTINUOUS
 62
               4
100
AcDbCircle
 10
151.11329342006292
 20
89.842496842429881
 30
0.0
 40
0.3021474965435785
100
AcDbArc
 50
270.97363298451137
 51
359.02636701548744
  0
ARC
  5
207
100
AcDbEntity
  8
0
  6
CONTINUOUS
 62
               4
100
AcDbCircle
 10
149.81923142124964
 20
97.037131794105335
 30
0.0
 40
0.5002341568128574
100
AcDbArc
 50
0.6049287534635895
 51
90.207763713153966
  0
ARC
  5
208
100
AcDbEntity
  8
0
  6
CONTINUOUS
 62
               4
100
AcDbCircle
 10
149.81343035954021
 20
80.68684715961345
 30
0.0
 40
0.5060324378497572
100
AcDbArc
 50
295.28139190005226
 51
359.42932783011412
  0
LINE
  5
209
100
AcDbEntity
  8
0
  6
CONTINUOUS
 62
               4
100
AcDbLine
 10
145.81539729597094
 20
104.53736265812169
 30
0.0
 11
145.81539729597097
 21
99.538372761988327
 31
0.0
  0
LINE
  5
20A
100
AcDbEntity
  8
0
  6
CONTINUOUS
 62
               4
100
AcDbLine
 10
145.3204478013044
 20
99.538372761988327
 30
0.0
 11
145.3204478013044
 21
97.537362662121708
 31
0.0
  0
LINE
  5
20B
100
AcDbEntity
  8
0
  6
CONTINUOUS
 62
               4
100
AcDbLine
 10
145.32044780130437
 20
105.53736266212169
 30
0.0
 11
145.32044780130437
 21
104.53736265812169
 31
0.0
  0
LINE
  5
20C
100
AcDbEntity
  8
0
  6
CONTINUOUS
 62
               4
100
AcDbLine
 10
150.31943769743765
 20
89.639382868654963
 30
0.0
 11
150.41842759637092
 21
89.540392969721637
 31
0.0
  0
LINE
  5
20D
100
AcDbEntity
  8
0
  6
CONTINUOUS
 62
               4
100
AcDbLine
 10
150.31943769743765
 20
90.841403069988331
 30
0.0
 11
150.41842759637092
 21
90.841403069988331
 31
0.0
  0
LINE
  5
20E
100
AcDbEntity
  8
0
  6
CONTINUOUS
 62
               4
100
AcDbLine
 10
150.41842759637092
 20
89.540392969721637
 30
0.0
 11
151.11842759597101
 21
89.540392969721637
 31
0.0
  0
LINE
  5
20F
100
AcDbEntity
  8
0
  6
CONTINUOUS
 62
               4
100
AcDbLine
 10
151.41539729277105
 20
98.937362661321686
 30
0.0
 11
151.41539729277105
 21
89.83736266652167
 31
0.0
  0
LINE
  5
210
100
AcDbEntity
  8
0
  6
CONTINUOUS
 62
               4
100
AcDbLine
 10
149.41438719290426
 20
99.036352560255068
 30
0.0
 11
149.71842759677105
 21
99.340392964121691
 31
0.0
  0
LINE
  5
211
100
AcDbEntity
  8
0
  6
CONTINUOUS
 62
               4
100
AcDbLine
 10
145.3204478013044
 20
99.538372761988327
 30
0.0
 11
145.81539729597097
 21
99.538372761988327
 31
0.0
  0
LINE
  5
212
100
AcDbEntity
  8
0
  6
CONTINUOUS
 62
               4
100
AcDbLine
 10
145.32044780130437
 20
104.53736265812169
 30
0.0
 11
145.81539729597094
 21
104.53736265812169
 31
0.0
  0
LINE
  5
213
100
AcDbEntity
  8
0
  6
CONTINUOUS
 62
               4
100
AcDbLine
 10
149.41438719290423
 20
105.53736266212169
 30
0.0
 11
149.71842759677102
 21
105.23332225825501
 31
0.0
  0
LINE
  5
214
100
AcDbEntity
  8
0
  6
CONTINUOUS
 62
               4
100
AcDbLine
 10
149.71842759677102
 20
105.23332225825501
 30
0.0
 11
149.71842759677105
 21
99.340392964121691
 31
0.0
  0
LINE
  5
215
100
AcDbEntity
  8
0
  6
CONTINUOUS
 62
               4
100
AcDbLine
 10
149.41438719290423
 20
105.53736266212169
 30
0.0
 11
149.41438719290426
 21
97.940392964921728
 31
0.0
  0
LINE
  5
216
100
AcDbEntity
  8
0
  6
CONTINUOUS
 62
               4
100
AcDbLine
 10
150.41842759637092
 20
96.540392965721708
 30
0.0
 11
150.41842759637092
 21
90.841403069988331
 31
0.0
  0
LINE
  5
217
100
AcDbEntity
  8
0
  6
CONTINUOUS
 62
               4
100
AcDbLine
 10
150.21337709143762
 20
97.869685894255042
 30
0.0
 11
151.31640739383775
 21
104.13182628193121
 31
0.0
  0
LINE
  5
218
100
AcDbEntity
  8
0
  6
CONTINUOUS
 62
               4
100
AcDbLine
 10
151.31640739383775
 20
105.53736266212171
 30
0.0
 11
152.31337709023765
 21
105.53736266212171
 31
0.0
  0
LINE
  5
219
100
AcDbEntity
  8
0
  6
CONTINUOUS
 62
               4
100
AcDbLine
 10
151.31640739383775
 20
105.53736266212171
 30
0.0
 11
151.31640739383775
 21
104.13182628193121
 31
0.0
  0
LINE
  5
21A
100
AcDbEntity
  8
0
  6
CONTINUOUS
 62
               4
100
AcDbLine
 10
151.41539729277105
 20
98.937362661321686
 30
0.0
 11
152.31337709023765
 21
104.04241316345502
 31
0.0
  0
LINE
  5
21B
100
AcDbEntity
  8
0
  6
CONTINUOUS
 62
               4
100
AcDbLine
 10
152.31337709023765
 20
105.53736266212171
 30
0.0
 11
152.31337709023765
 21
104.04241316345502
 31
0.0
  0
LINE
  5
21C
100
AcDbEntity
  8
0
  6
CONTINUOUS
 62
               4
100
AcDbLine
 10
148.71438719330436
 20
105.53736266212169
 30
0.0
 11
148.71438719330439
 21
97.537362662121723
 31
0.0
  0
LINE
  5
21D
100
AcDbEntity
  8
0
  6
CONTINUOUS
 62
               4
100
AcDbLine
 10
146.91842759837087
 20
105.53736266212169
 30
0.0
 11
146.9184275983709
 21
97.537362662121723
 31
0.0
  0
LINE
  5
21E
100
AcDbEntity
  8
0
  6
CONTINUOUS
 62
               4
100
AcDbLine
 10
145.32044780130437
 20
105.53736266212169
 30
0.0
 11
149.41438719290423
 21
105.53736266212169
 31
0.0
  0
LINE
  5
21F
100
AcDbEntity
  8
0
  6
CONTINUOUS
 62
               4
100
AcDbLine
 10
150.31943769743765
 20
97.042413167455038
 30
0.0
 11
150.31943769743768
 21
80.681807105042125
 31
0.0
  0
LINE
  5
220
100
AcDbEntity
  8
0
  6
CONTINUOUS
 62
               4
100
AcDbLine
 10
142.31539729797095
 20
97.537362662121694
 30
0.0
 11
149.81741749570432
 21
97.537362662121723
 31
0.0
  0
LINE
  5
221
100
AcDbEntity
  8
0
  6
CONTINUOUS
 62
               4
100
AcDbLine
 10
140.31539730197113
 20
98.937362662121842
 30
0.0
 11
128.31539730597109
 21
98.937362662121828
 31
0.0
  0
LINE
  5
222
100
AcDbEntity
  8
0
  6
CONTINUOUS
 62
               4
100
AcDbLine
 10
140.31539730197113
 20
100.53736266212181
 30
0.0
 11
140.31539730197113
 21
98.937362662121842
 31
0.0
  0
ARC
  5
223
100
AcDbEntity
  8
0
  6
CONTINUOUS
 62
               4
100
AcDbCircle
 10
141.81539729797095
 20
99.937362662121842
 30
0.0
 40
0.5
100
AcDbArc
 50
0.0000000000001018
 51
89.999999999999901
  0
ARC
  5
224
100
AcDbEntity
  8
0
  6
CONTINUOUS
 62
               4
100
AcDbCircle
 10
128.81539730597109
 20
99.937362662121828
 30
0.0
 40
0.5
100
AcDbArc
 50
93.919585899650897
 51
179.99999999999969
  0
ARC
  5
225
100
AcDbEntity
  8
0
  6
CONTINUOUS
 62
               4
100
AcDbCircle
 10
129.11430938684288
 20
99.938450667249995
 30
0.0
 40
0.5989129231257409
100
AcDbArc
 50
89.895914524772834
 51
180.10408547522678
  0
ARC
  5
226
100
AcDbEntity
  8
0
  6
CONTINUOUS
 62
               4
100
AcDbCircle
 10
141.51549235861961
 20
99.937457808770461
 30
0.0
 40
0.5999048008965869
100
AcDbArc
 50
56.247417870393981
 51
90.009087277546271
  0
LINE
  5
227
100
AcDbEntity
  8
0
  6
CONTINUOUS
 62
               4
100
AcDbLine
 10
141.51539721197099
 20
100.53736266212181
 30
0.0
 11
129.11539739197104
 21
100.53736266212179
 31
0.0
  0
LINE
  5
228
100
AcDbEntity
  8
0
  6
CONTINUOUS
 62
               4
100
AcDbLine
 10
141.81539729797095
 20
100.43736266212184
 30
0.0
 11
140.31539730197113
 21
100.43736266212184
 31
0.0
  0
LINE
  5
229
100
AcDbEntity
  8
0
  6
CONTINUOUS
 62
               4
100
AcDbLine
 10
131.01539730197095
 20
99.937362662121842
 30
0.0
 11
128.31539730597109
 21
99.937362662121828
 31
0.0
  0
LINE
  5
22A
100
AcDbEntity
  8
0
  6
CONTINUOUS
 62
               4
100
AcDbLine
 10
131.01539730197095
 20
100.53736266212181
 30
0.0
 11
131.01539730197095
 21
99.937362662121842
 31
0.0
  0
LINE
  5
22B
100
AcDbEntity
  8
0
  6
CONTINUOUS
 62
               4
100
AcDbLine
 10
147.16590234570427
 20
110.10503942718836
 30
0.0
 11
147.16590234570427
 21
105.53736266212169
 31
0.0
  0
LINE
  5
22C
100
AcDbEntity
  8
0
  6
CONTINUOUS
 62
               4
100
AcDbLine
 10
148.46691244597096
 20
109.35554447812169
 30
0.0
 11
148.46691244597096
 21
105.53736266212169
 31
0.0
  0
LINE
  5
22D
100
AcDbEntity
  8
0
  6
CONTINUOUS
 62
               4
100
AcDbLine
 10
128.31539730197116
 20
78.037362662121765
 30
0.0
 11
145.32044780130443
 21
78.037362662121794
 31
0.0
  0
LINE
  5
22E
100
AcDbEntity
  8
0
  6
CENTER
 62
               2
100
AcDbLine
 10
125.81539730197119
 20
61.037362662121772
 30
0.0
 11
130.81539730197119
 21
61.037362662121787
 31
0.0
  0
LINE
  5
22F
100
AcDbEntity
  8
0
  6
CENTER
 62
               2
100
AcDbLine
 10
125.81539732217792
 20
44.437362662121757
 30
0.0
 11
130.81539730197122
 21
44.437362662121757
 31
0.0
  0
LINE
  5
230
100
AcDbEntity
  8
0
  6
CONTINUOUS
 62
               7
100
AcDbLine
 10
226.20857972410533
 20
40.637362662121738
 30
0.0
 11
236.20857972410533
 21
40.637362662121738
 31
0.0
  0
LINE
  5
231
100
AcDbEntity
  8
0
  6
CENTER
 62
               2
100
AcDbLine
 10
235.0085797241054
 20
59.087362662121734
 30
0.0
 11
235.0085797241054
 21
62.987362662121768
 31
0.0
  0
ARC
  5
232
100
AcDbEntity
  8
0
  6
CONTINUOUS
 62
               7
100
AcDbCircle
 10
235.0085797241054
 20
61.03736266212178
 30
0.0
 40
1.6000000000000003
100
AcDbArc
 50
89.999999999999815
 51
269.99999999999937
  0
LINE
  5
233
100
AcDbEntity
  8
0
  6
CONTINUOUS
 62
               7
100
AcDbLine
 10
235.0085797241054
 20
59.437362662121757
 30
0.0
 11
236.20857972410533
 21
59.437362662121757
 31
0.0
  0
LINE
  5
234
100
AcDbEntity
  8
0
  6
CONTINUOUS
 62
               7
100
AcDbLine
 10
235.0085797241054
 20
62.637362662121802
 30
0.0
 11
236.20857972410533
 21
62.637362662121802
 31
0.0
  0
CIRCLE
  5
235
100
AcDbEntity
  8
0
  6
CONTINUOUS
 62
               7
100
AcDbCircle
 10
235.0085797241054
 20
61.03736266212178
 30
0.0
 40
0.8500000000000002
  0
CIRCLE
  5
236
100
AcDbEntity
  8
0
  6
CONTINUOUS
 62
               7
100
AcDbCircle
 10
231.20857667234759
 20
57.637365713879547
 30
0.0
 40
2.1000000000000001
  0
CIRCLE
  5
237
100
AcDbEntity
  8
0
  6
CONTINUOUS
 62
               2
100
AcDbCircle
 10
231.20857667234759
 20
57.637365713879547
 30
0.0
 40
2.5
  0
LINE
  5
238
100
AcDbEntity
  8
0
  6
CENTER
 62
               2
100
AcDbLine
 10
234.02057972410535
 20
57.637362662121745
 30
0.0
 11
228.30057972410543
 21
57.637362662121745
 31
0.0
  0
LINE
  5
239
100
AcDbEntity
  8
0
  6
CENTER
 62
               2
100
AcDbLine
 10
233.05857972410536
 20
61.03736266212178
 30
0.0
 11
236.95857972410533
 21
61.03736266212178
 31
0.0
  0
ARC
  5
23A
100
AcDbEntity
  8
0
  6
CONTINUOUS
 62
               7
100
AcDbCircle
 10
227.40857972410538
 20
44.437362662121757
 30
0.0
 40
1.6000000000000003
100
AcDbArc
 50
270.00000000000023
 51
89.999999999999801
  0
LINE
  5
23B
100
AcDbEntity
  8
0
  6
CENTER
 62
               2
100
AcDbLine
 10
227.40857972410538
 20
42.48736266212174
 30
0.0
 11
227.40857972410538
 21
46.387362662121745
 31
0.0
  0
CIRCLE
  5
23C
100
AcDbEntity
  8
0
  6
CONTINUOUS
 62
               7
100
AcDbCircle
 10
227.40857972410538
 20
44.437362662121757
 30
0.0
 40
0.8500000000000002
  0
LINE
  5
23D
100
AcDbEntity
  8
0
  6
CONTINUOUS
 62
               7
100
AcDbLine
 10
227.40857972410538
 20
46.037362662121751
 30
0.0
 11
226.20857972410533
 21
46.037362662121751
 31
0.0
  0
LINE
  5
23E
100
AcDbEntity
  8
0
  6
CONTINUOUS
 62
               7
100
AcDbLine
 10
227.40857972410538
 20
42.837362662121734
 30
0.0
 11
226.20857972410533
 21
42.837362662121734
 31
0.0
  0
LINE
  5
23F
100
AcDbEntity
  8
0
  6
CENTER
 62
               2
100
AcDbLine
 10
225.68168711272597
 20
44.437362662121757
 30
0.0
 11
229.42509334106569
 21
44.437362662121757
 31
0.0
  0
CIRCLE
  5
240
100
AcDbEntity
  8
0
  6
CONTINUOUS
 62
               7
100
AcDbCircle
 10
231.20857667234748
 20
47.837365713879535
 30
0.0
 40
2.1000000000000001
  0
CIRCLE
  5
241
100
AcDbEntity
  8
0
  6
CONTINUOUS
 62
               2
100
AcDbCircle
 10
231.20857667234748
 20
47.837365713879535
 30
0.0
 40
2.5
  0
LINE
  5
242
100
AcDbEntity
  8
0
  6
CENTER
 62
               2
100
AcDbLine
 10
234.10057972410539
 20
47.837362662121734
 30
0.0
 11
228.38057972410536
 21
47.837362662121734
 31
0.0
  0
CIRCLE
  5
243
100
AcDbEntity
  8
0
  6
CONTINUOUS
 62
               7
100
AcDbCircle
 10
231.20857972410533
 20
29.737362662121747
 30
0.0
 40
0.7500000000000001
  0
CIRCLE
  5
244
100
AcDbEntity
  8
0
  6
CONTINUOUS
 62
               7
100
AcDbCircle
 10
231.20857972410533
 20
29.737362662121747
 30
0.0
 40
1.1000000000000001
  0
CIRCLE
  5
245
100
AcDbEntity
  8
0
  6
CONTINUOUS
 62
               7
100
AcDbCircle
 10
231.20857972410533
 20
29.737362662121747
 30
0.0
 40
1.1500000000000001
  0
CIRCLE
  5
246
100
AcDbEntity
  8
0
  6
CONTINUOUS
 62
               7
100
AcDbCircle
 10
231.20857972410533
 20
29.737362662121747
 30
0.0
 40
1.3000000000000012
  0
LINE
  5
247
100
AcDbEntity
  8
0
  6
CENTER
 62
               2
100
AcDbLine
 10
229.5085797241054
 20
29.737362662121747
 30
0.0
 11
232.90857972410538
 21
29.737362662121747
 31
0.0
  0
ARC
  5
248
100
AcDbEntity
  8
0
  6
CONTINUOUS
 62
               7
100
AcDbCircle
 10
231.20857972410533
 20
31.43736266212175
 30
0.0
 40
3.6000000000000005
100
AcDbArc
 50
0.0
 51
179.99999999999963
  0
ARC
  5
249
100
AcDbEntity
  8
0
  6
CONTINUOUS
 62
               7
100
AcDbCircle
 10
231.20857972410533
 20
31.43736266212175
 30
0.0
 40
2.0
100
AcDbArc
 50
0.0
 51
179.99999999999963
  0
LINE
  5
24A
100
AcDbEntity
  8
0
  6
CONTINUOUS
 62
               7
100
AcDbLine
 10
227.60857972410543
 20
31.43736266212175
 30
0.0
 11
227.60857972410543
 21
27.43736266212175
 31
0.0
  0
LINE
  5
24B
100
AcDbEntity
  8
0
  6
CONTINUOUS
 62
               7
100
AcDbLine
 10
234.80857972410536
 20
31.43736266212175
 30
0.0
 11
234.80857972410536
 21
27.43736266212175
 31
0.0
  0
LINE
  5
24C
100
AcDbEntity
  8
0
  6
CONTINUOUS
 62
               7
100
AcDbLine
 10
229.20857972410533
 20
31.43736266212175
 30
0.0
 11
229.20857972410533
 21
27.43736266212175
 31
0.0
  0
LINE
  5
24D
100
AcDbEntity
  8
0
  6
CONTINUOUS
 62
               7
100
AcDbLine
 10
233.20857972410533
 20
31.43736266212175
 30
0.0
 11
233.20857972410533
 21
27.43736266212175
 31
0.0
  0
LINE
  5
24E
100
AcDbEntity
  8
0
  6
CONTINUOUS
 62
               7
100
AcDbLine
 10
226.20857972410533
 20
27.43736266212175
 30
0.0
 11
236.20857972410533
 21
27.43736266212175
 31
0.0
  0
LINE
  5
24F
100
AcDbEntity
  8
0
  6
CONTINUOUS
 62
               7
100
AcDbLine
 10
236.20857972410533
 20
27.43736266212175
 30
0.0
 11
236.20857972410533
 21
78.037362662121723
 31
0.0
  0
LINE
  5
250
100
AcDbEntity
  8
0
  6
CONTINUOUS
 62
               7
100
AcDbLine
 10
236.20857972410533
 20
78.037362662121737
 30
0.0
 11
226.20857972410533
 21
78.037362662121737
 31
0.0
  0
LINE
  5
251
100
AcDbEntity
  8
0
  6
CONTINUOUS
 62
               7
100
AcDbLine
 10
229.20857972410533
 20
74.037362662121737
 30
0.0
 11
229.20857972410533
 21
78.037362662121737
 31
0.0
  0
LINE
  5
252
100
AcDbEntity
  8
0
  6
CONTINUOUS
 62
               7
100
AcDbLine
 10
233.20857972410533
 20
74.037362662121737
 30
0.0
 11
233.20857972410533
 21
78.037362662121737
 31
0.0
  0
LINE
  5
253
100
AcDbEntity
  8
0
  6
CONTINUOUS
 62
               7
100
AcDbLine
 10
227.60857972410543
 20
74.037362662121737
 30
0.0
 11
227.60857972410543
 21
78.037362662121737
 31
0.0
  0
LINE
  5
254
100
AcDbEntity
  8
0
  6
CONTINUOUS
 62
               7
100
AcDbLine
 10
234.80857972410536
 20
74.037362662121737
 30
0.0
 11
234.80857972410536
 21
78.037362662121737
 31
0.0
  0
ARC
  5
255
100
AcDbEntity
  8
0
  6
CONTINUOUS
 62
               7
100
AcDbCircle
 10
231.20857972410533
 20
74.037362662121737
 30
0.0
 40
2.0
100
AcDbArc
 50
179.99999999999963
 51
0.0
  0
ARC
  5
256
100
AcDbEntity
  8
0
  6
CONTINUOUS
 62
               7
100
AcDbCircle
 10
231.20857972410533
 20
74.037362662121737
 30
0.0
 40
3.6000000000000005
100
AcDbArc
 50
179.99999999999963
 51
0.0
  0
LINE
  5
257
100
AcDbEntity
  8
0
  6
CENTER
 62
               2
100
AcDbLine
 10
232.90857972410538
 20
75.73736266212174
 30
0.0
 11
229.5085797241054
 21
75.73736266212174
 31
0.0
  0
CIRCLE
  5
258
100
AcDbEntity
  8
0
  6
CONTINUOUS
 62
               7
100
AcDbCircle
 10
231.20857972410533
 20
75.73736266212174
 30
0.0
 40
1.3000000000000012
  0
CIRCLE
  5
259
100
AcDbEntity
  8
0
  6
CONTINUOUS
 62
               7
100
AcDbCircle
 10
231.20857972410533
 20
75.73736266212174
 30
0.0
 40
1.1500000000000001
  0
LINE
  5
25A
100
AcDbEntity
  8
0
  6
CONTINUOUS
 62
               7
100
AcDbLine
 10
226.20857972410533
 20
64.837362662121734
 30
0.0
 11
236.20857972410533
 21
64.837362662121734
 31
0.0
  0
CIRCLE
  5
25B
100
AcDbEntity
  8
0
  6
CONTINUOUS
 62
               7
100
AcDbCircle
 10
231.20857972410533
 20
75.73736266212174
 30
0.0
 40
1.1000000000000001
  0
CIRCLE
  5
25C
100
AcDbEntity
  8
0
  6
CONTINUOUS
 62
               7
100
AcDbCircle
 10
231.20857972410533
 20
75.73736266212174
 30
0.0
 40
0.7500000000000001
  0
LINE
  5
25D
100
AcDbEntity
  8
0
  6
CONTINUOUS
 62
               7
100
AcDbLine
 10
226.20857972410533
 20
27.43736266212175
 30
0.0
 11
226.20857972410533
 21
78.037362662121723
 31
0.0
  0
ARC
  5
25E
100
AcDbEntity
  8
0
  6
CONTINUOUS
 62
               4
100
AcDbCircle
 10
235.70887657196954
 20
78.537065814257531
 30
0.0
 40
0.4997032403068001
100
AcDbArc
 50
269.96596353714654
 51
0.0340364628527164
  0
LINE
  5
25F
100
AcDbEntity
  8
0
  6
CONTINUOUS
 62
               4
100
AcDbLine
 10
236.20857972410522
 20
100.53736266212174
 30
0.0
 11
236.20857972410522
 21
78.037362662121737
 31
0.0
  0
LINE
  5
260
100
AcDbEntity
  8
0
  6
CONTINUOUS
 62
               4
100
AcDbLine
 10
226.20857972410522
 20
100.5373626663911
 30
0.0
 11
226.20857972410522
 21
78.037362662121737
 31
0.0
  0
ARC
  5
261
100
AcDbEntity
  8
0
  6
CONTINUOUS
 62
               4
100
AcDbCircle
 10
226.70855683603577
 20
78.537358084598978
 30
0.0
 40
0.4999954224983215
100
AcDbArc
 50
179.99947544974256
 51
270.00052455025656
  0
ARC
  5
262
100
AcDbEntity
  8
0
  6
CONTINUOUS
 62
               4
100
AcDbCircle
 10
235.70855073238499
 20
78.537373343294902
 30
0.0
 40
0.5000106812873828
100
AcDbArc
 50
270.00122394615329
 51
359.9987760538454
  0
LINE
  5
263
100
AcDbEntity
  8
0
  6
CONTINUOUS
 62
               4
100
AcDbLine
 10
231.80857972410513
 20
113.03029193505509
 30
0.0
 11
233.10857972410531
 21
113.03029193505509
 31
0.0
  0
LINE
  5
264
100
AcDbEntity
  8
0
  6
CONTINUOUS
 62
             200
100
AcDbLine
 10
227.45857972410522
 20
111.05736266212162
 30
0.0
 11
234.95857972410522
 21
109.04736266212163
 31
0.0
  0
LINE
  5
265
100
AcDbEntity
  8
0
  6
CONTINUOUS
 62
               4
100
AcDbLine
 10
229.30857972410513
 20
113.03029193505509
 30
0.0
 11
230.60857972410531
 21
113.03029193505509
 31
0.0
  0
LINE
  5
266
100
AcDbEntity
  8
0
  6
CONTINUOUS
 62
               4
100
AcDbLine
 10
232.20857972410522
 20
116.53029193305511
 30
0.0
 11
232.20857972410522
 21
113.03029193505509
 31
0.0
  0
LINE
  5
267
100
AcDbEntity
  8
0
  6
CONTINUOUS
 62
               4
100
AcDbLine
 10
232.70857972410522
 20
116.53029193305511
 30
0.0
 11
232.70857972410522
 21
113.03029193505509
 31
0.0
  0
LINE
  5
268
100
AcDbEntity
  8
0
  6
CONTINUOUS
 62
               4
100
AcDbLine
 10
229.30857972410513
 20
113.03029193505509
 30
0.0
 11
229.30857972410513
 21
110.55736266212162
 31
0.0
  0
LINE
  5
269
100
AcDbEntity
  8
0
  6
CONTINUOUS
 62
               4
100
AcDbLine
 10
230.60857972410531
 20
113.03029193505509
 30
0.0
 11
230.60857972410531
 21
110.2073626621216
 31
0.0
  0
LINE
  5
26A
100
AcDbEntity
  8
0
  6
CONTINUOUS
 62
               4
100
AcDbLine
 10
229.70857972410522
 20
116.53029193305511
 30
0.0
 11
229.70857972410522
 21
113.03029193505509
 31
0.0
  0
LINE
  5
26B
100
AcDbEntity
  8
0
  6
CONTINUOUS
 62
               4
100
AcDbLine
 10
230.20857972410522
 20
116.53029193305511
 30
0.0
 11
230.20857972410522
 21
113.03029193505509
 31
0.0
  0
LINE
  5
26C
100
AcDbEntity
  8
0
  6
CONTINUOUS
 62
               4
100
AcDbLine
 10
231.80857972410513
 20
113.03029193505509
 30
0.0
 11
231.80857972410513
 21
109.8873626621216
 31
0.0
  0
LINE
  5
26D
100
AcDbEntity
  8
0
  6
CONTINUOUS
 62
               4
100
AcDbLine
 10
233.10857972410531
 20
113.03029193505509
 30
0.0
 11
233.10857972410531
 21
109.53736266212158
 31
0.0
  0
LINE
  5
26E
100
AcDbEntity
  8
0
  6
CONTINUOUS
 62
               4
100
AcDbLine
 10
229.70857972410522
 20
116.53029193305511
 30
0.0
 11
230.20857972410522
 21
116.53029193305511
 31
0.0
  0
LINE
  5
26F
100
AcDbEntity
  8
0
  6
CONTINUOUS
 62
               4
100
AcDbLine
 10
232.20857972410522
 20
116.53029193305511
 30
0.0
 11
232.70857972410522
 21
116.53029193305511
 31
0.0
  0
LINE
  5
270
100
AcDbEntity
  8
0
  6
PHANTOM
 62
             200
100
AcDbLine
 10
229.7085614135583
 20
85.537362662121623
 30
0.0
 11
232.7085614135583
 21
85.537362662121623
 31
0.0
  0
LINE
  5
271
100
AcDbEntity
  8
0
  6
PHANTOM
 62
             200
100
AcDbLine
 10
229.7085614135583
 20
83.537362662121623
 30
0.0
 11
232.7085614135583
 21
83.537362662121623
 31
0.0
  0
LINE
  5
272
100
AcDbEntity
  8
0
  6
PHANTOM
 62
             200
100
AcDbLine
 10
229.7085614135583
 20
85.537362662121623
 30
0.0
 11
229.7085614135583
 21
83.537362662121623
 31
0.0
  0
LINE
  5
273
100
AcDbEntity
  8
0
  6
PHANTOM
 62
             200
100
AcDbLine
 10
232.7085614135583
 20
85.537362662121623
 30
0.0
 11
232.7085614135583
 21
83.537362662121623
 31
0.0
  0
LINE
  5
274
100
AcDbEntity
  8
0
  6
CONTINUOUS
 62
               4
100
AcDbLine
 10
233.10857972410531
 20
108.50736266212161
 30
0.0
 11
233.10857972410531
 21
105.53736266212158
 31
0.0
  0
ARC
  5
275
100
AcDbEntity
  8
0
  6
CONTINUOUS
 62
               4
100
AcDbCircle
 10
235.70855683580749
 20
97.037358084370808
 30
0.0
 40
0.5000045777717621
100
AcDbArc
 50
0.0005245667992071
 51
89.9994754332008
  0
ARC
  5
276
100
AcDbEntity
  8
0
  6
CONTINUOUS
 62
               4
100
AcDbCircle
 10
226.70855073242706
 20
97.03737334325298
 30
0.0
 40
0.4999893189827007
100
AcDbArc
 50
89.998776006354774
 51
180.00122399364432
  0
ARC
  5
277
100
AcDbEntity
  8
0
  6
CONTINUOUS
 62
               4
100
AcDbCircle
 10
226.9385485962207
 20
97.037375479459328
 30
0.0
 40
0.4999871828265524
100
AcDbArc
 50
89.998531203634272
 51
180.00146879636483
  0
ARC
  5
278
100
AcDbEntity
  8
0
  6
CONTINUOUS
 62
               4
100
AcDbCircle
 10
235.4785589720791
 20
97.037360220642327
 30
0.0
 40
0.500002441485227
100
AcDbArc
 50
0.0002797715494944
 51
89.999720228450514
  0
ARC
  5
279
100
AcDbEntity
  8
0
  6
CONTINUOUS
 62
               4
100
AcDbCircle
 10
235.47735790744673
 20
80.730485358900083
 30
0.0
 40
0.5012049510586274
100
AcDbArc
 50
270.13758021931233
 51
359.86241978068648
  0
ARC
  5
27A
100
AcDbEntity
  8
0
  6
CONTINUOUS
 62
               4
100
AcDbCircle
 10
226.93974969746364
 20
80.730470136693597
 30
0.0
 40
0.5011896925741138
100
AcDbArc
 50
180.13584420715239
 51
269.86415579284636
  0
LINE
  5
27B
100
AcDbEntity
  8
0
  6
CONTINUOUS
 62
               4
100
AcDbLine
 10
227.45857972410522
 20
105.53736266212158
 30
0.0
 11
234.95857972410522
 21
105.53736266212158
 31
0.0
  0
LINE
  5
27C
100
AcDbEntity
  8
0
  6
CONTINUOUS
 62
               4
100
AcDbLine
 10
234.95857972410522
 20
105.53736266212158
 30
0.0
 11
234.95857972410522
 21
97.537362662121595
 31
0.0
  0
LINE
  5
27D
100
AcDbEntity
  8
0
  6
CONTINUOUS
 62
               4
100
AcDbLine
 10
233.95857972410522
 20
105.53736266212158
 30
0.0
 11
233.95857972410522
 21
89.537362662121623
 31
0.0
  0
LINE
  5
27E
100
AcDbEntity
  8
0
  6
CONTINUOUS
 62
               4
100
AcDbLine
 10
228.45857972410522
 20
104.03736266212159
 30
0.0
 11
233.95857972410522
 21
104.03736266212159
 31
0.0
  0
LINE
  5
27F
100
AcDbEntity
  8
0
  6
CONTINUOUS
 62
               4
100
AcDbLine
 10
227.45857972410522
 20
105.53736266212158
 30
0.0
 11
227.45857972410522
 21
97.537362662121595
 31
0.0
  0
LINE
  5
280
100
AcDbEntity
  8
0
  6
CONTINUOUS
 62
               4
100
AcDbLine
 10
228.45857972410522
 20
105.53736266212158
 30
0.0
 11
228.45857972410522
 21
89.537362662121623
 31
0.0
  0
LINE
  5
281
100
AcDbEntity
  8
0
  6
CONTINUOUS
 62
               4
100
AcDbLine
 10
233.95857972410522
 20
97.537362662121595
 30
0.0
 11
235.7085614135583
 21
97.537362662121595
 31
0.0
  0
LINE
  5
282
100
AcDbEntity
  8
0
  6
CONTINUOUS
 62
               4
100
AcDbLine
 10
228.45857972410522
 20
89.537362662121623
 30
0.0
 11
233.95857972410522
 21
89.537362662121623
 31
0.0
  0
LINE
  5
283
100
AcDbEntity
  8
0
  6
CONTINUOUS
 62
               4
100
AcDbLine
 10
235.7085614135583
 20
97.537362662121595
 30
0.0
 11
236.2085614135583
 21
97.537362662121595
 31
0.0
  0
LINE
  5
284
100
AcDbEntity
  8
0
  6
CONTINUOUS
 62
               4
100
AcDbLine
 10
226.93856141355832
 20
80.229281852788333
 30
0.0
 11
235.47856141355828
 21
80.229281852788333
 31
0.0
  0
LINE
  5
285
100
AcDbEntity
  8
0
  6
CONTINUOUS
 62
               4
100
AcDbLine
 10
226.43856141355832
 20
97.037362662121595
 30
0.0
 11
226.43856141355832
 21
80.729281852788361
 31
0.0
  0
LINE
  5
286
100
AcDbEntity
  8
0
  6
CONTINUOUS
 62
               4
100
AcDbLine
 10
235.97856141355828
 20
97.037362662121595
 30
0.0
 11
235.97856141355828
 21
80.729281852772786
 31
0.0
  0
LINE
  5
287
100
AcDbEntity
  8
0
  6
CONTINUOUS
 62
               4
100
AcDbLine
 10
226.7085614135583
 20
97.537362662121595
 30
0.0
 11
228.45857972410522
 21
97.537362662121595
 31
0.0
  0
LINE
  5
288
100
AcDbEntity
  8
0
  6
CONTINUOUS
 62
               4
100
AcDbLine
 10
226.2085614135583
 20
97.537362662121595
 30
0.0
 11
226.7085614135583
 21
97.537362662121595
 31
0.0
  0
LINE
  5
289
100
AcDbEntity
  8
0
  6
CONTINUOUS
 62
               4
100
AcDbLine
 10
236.20857972410522
 20
99.937362666391081
 30
0.0
 11
234.9585614135583
 21
99.937362666391081
 31
0.0
  0
LINE
  5
28A
100
AcDbEntity
  8
0
  6
CONTINUOUS
 62
               4
100
AcDbLine
 10
236.20857972410522
 20
100.5373626663911
 30
0.0
 11
234.95857972410522
 21
100.5373626663911
 31
0.0
  0
LINE
  5
28B
100
AcDbEntity
  8
0
  6
CONTINUOUS
 62
               4
100
AcDbLine
 10
236.20857972410522
 20
98.937362666391081
 30
0.0
 11
234.9585614135583
 21
98.937362666391081
 31
0.0
  0
LINE
  5
28C
100
AcDbEntity
  8
0
  6
CONTINUOUS
 62
               4
100
AcDbLine
 10
227.45857972410522
 20
100.43736266639108
 30
0.0
 11
226.70857972410522
 21
100.43736266639108
 31
0.0
  0
ARC
  5
28D
100
AcDbEntity
  8
0
  6
CONTINUOUS
 62
               4
100
AcDbCircle
 10
226.70857972410522
 20
99.937362666391081
 30
0.0
 40
0.5
100
AcDbArc
 50
89.999999999999815
 51
179.99999999999963
  0
ARC
  5
28E
100
AcDbEntity
  8
0
  6
CONTINUOUS
 62
               4
100
AcDbCircle
 10
235.41267487076334
 20
99.937457813049249
 30
0.0
 40
0.5999048608870732
100
AcDbArc
 50
359.99091272245295
 51
90.009087277546172
  0
LINE
  5
28F
100
AcDbEntity
  8
0
  6
CONTINUOUS
 62
               4
100
AcDbLine
 10
226.2085797531945
 20
100.5373626663911
 30
0.0
 11
227.45857972410522
 21
100.5373626663911
 31
0.0
  0
LINE
  5
290
100
AcDbEntity
  8
0
  6
CONTINUOUS
 62
               4
100
AcDbLine
 10
231.80857972410513
 20
108.85736266212163
 30
0.0
 11
231.80857972410513
 21
105.53736266212158
 31
0.0
  0
LINE
  5
291
100
AcDbEntity
  8
0
  6
CONTINUOUS
 62
               4
100
AcDbLine
 10
229.30857972410513
 20
109.52736266212159
 30
0.0
 11
229.30857972410513
 21
105.53736266212158
 31
0.0
  0
LINE
  5
292
100
AcDbEntity
  8
0
  6
CONTINUOUS
 62
               4
100
AcDbLine
 10
230.60857972410531
 20
109.17736266212162
 30
0.0
 11
230.60857972410531
 21
105.53736266212158
 31
0.0
  0
LINE
  5
293
100
AcDbEntity
  8
0
  6
CONTINUOUS
 62
             200
100
AcDbLine
 10
227.45857972410522
 20
110.0173626621216
 30
0.0
 11
234.95857972410522
 21
108.00736266212161
 31
0.0
  0
LINE
  5
294
100
AcDbEntity
  8
0
  6
CONTINUOUS
 62
               4
100
AcDbLine
 10
226.20857972410522
 20
78.037362662121737
 30
0.0
 11
236.20857972410522
 21
78.037362662121737
 31
0.0
  0
ARC
  5
295
100
AcDbEntity
  8
0
  6
CONTINUOUS
 62
               4
100
AcDbCircle
 10
226.70828287624113
 20
26.937659509985956
 30
0.0
 40
0.4997032403068001
100
AcDbArc
 50
89.965963537146934
 51
180.03403646285233
  0
LINE
  5
296
100
AcDbEntity
  8
0
  6
CONTINUOUS
 62
               4
100
AcDbLine
 10
226.20857972410522
 20
4.9373626621217497
 30
0.0
 11
226.20857972410522
 21
27.43736266212175
 31
0.0
  0
LINE
  5
297
100
AcDbEntity
  8
0
  6
CONTINUOUS
 62
               4
100
AcDbLine
 10
236.20857972410522
 20
4.9373626578523542
 30
0.0
 11
236.20857972410522
 21
27.43736266212175
 31
0.0
  0
ARC
  5
298
100
AcDbEntity
  8
0
  6
CONTINUOUS
 62
               4
100
AcDbCircle
 10
235.70860261217467
 20
26.937367239644509
 30
0.0
 40
0.4999954224983215
100
AcDbArc
 50
359.99947544974214
 51
90.000524550256955
  0
ARC
  5
299
100
AcDbEntity
  8
0
  6
CONTINUOUS
 62
               4
100
AcDbCircle
 10
226.70860871582545
 20
26.937351980948556
 30
0.0
 40
0.5000106812873828
100
AcDbArc
 50
90.001223946153672
 51
179.99877605384583
  0
LINE
  5
29A
100
AcDbEntity
  8
0
  6
CENTER
 62
               2
100
AcDbLine
 10
231.20857972410522
 20
106.79274358107853
 30
0.0
 11
231.20857972410522
 21
-1.318018256835046
 31
0.0
  0
LINE
  5
29B
100
AcDbEntity
  8
0
  6
PHANTOM
 62
             200
100
AcDbLine
 10
232.70859803465214
 20
19.937362662121863
 30
0.0
 11
229.70859803465214
 21
19.937362662121863
 31
0.0
  0
LINE
  5
29C
100
AcDbEntity
  8
0
  6
PHANTOM
 62
             200
100
AcDbLine
 10
232.70859803465214
 20
21.937362662121863
 30
0.0
 11
229.70859803465214
 21
21.937362662121863
 31
0.0
  0
LINE
  5
29D
100
AcDbEntity
  8
0
  6
PHANTOM
 62
             200
100
AcDbLine
 10
232.70859803465214
 20
19.937362662121863
 30
0.0
 11
232.70859803465214
 21
21.937362662121863
 31
0.0
  0
LINE
  5
29E
100
AcDbEntity
  8
0
  6
PHANTOM
 62
             200
100
AcDbLine
 10
229.70859803465214
 20
19.937362662121863
 30
0.0
 11
229.70859803465214
 21
21.937362662121863
 31
0.0
  0
LINE
  5
29F
100
AcDbEntity
  8
0
  6
CONTINUOUS
 62
               4
100
AcDbLine
 10
230.60857972410531
 20
-7.5555666108115815
 30
0.0
 11
229.30857972410536
 21
-7.5555666108115815
 31
0.0
  0
LINE
  5
2A0
100
AcDbEntity
  8
0
  6
CONTINUOUS
 62
             200
100
AcDbLine
 10
234.95857972410522
 20
-5.5826373378781113
 30
0.0
 11
227.45857972410522
 21
-3.5726373378781204
 31
0.0
  0
LINE
  5
2A1
100
AcDbEntity
  8
0
  6
CONTINUOUS
 62
             200
100
AcDbLine
 10
234.95857972410522
 20
-4.5426373378781477
 30
0.0
 11
227.45857972410522
 21
-2.5326373378781071
 31
0.0
  0
LINE
  5
2A2
100
AcDbEntity
  8
0
  6
CONTINUOUS
 62
               4
100
AcDbLine
 10
233.10857972410531
 20
-7.5555666108115815
 30
0.0
 11
231.80857972410536
 21
-7.5555666108115815
 31
0.0
  0
LINE
  5
2A3
100
AcDbEntity
  8
0
  6
CONTINUOUS
 62
               4
100
AcDbLine
 10
231.80857972410536
 20
-3.7026373378781159
 30
0.0
 11
231.80857972410536
 21
-0.0626373378781366
 31
0.0
  0
LINE
  5
2A4
100
AcDbEntity
  8
0
  6
CONTINUOUS
 62
               4
100
AcDbLine
 10
230.20857972410522
 20
-11.055566608811603
 30
0.0
 11
230.20857972410522
 21
-7.5555666108115815
 31
0.0
  0
LINE
  5
2A5
100
AcDbEntity
  8
0
  6
CONTINUOUS
 62
               4
100
AcDbLine
 10
229.70857972410522
 20
-11.055566608811603
 30
0.0
 11
229.70857972410522
 21
-7.5555666108115815
 31
0.0
  0
LINE
  5
2A6
100
AcDbEntity
  8
0
  6
CONTINUOUS
 62
               4
100
AcDbLine
 10
233.10857972410531
 20
-7.5555666108115815
 30
0.0
 11
233.10857972410531
 21
-5.0826373378781113
 31
0.0
  0
LINE
  5
2A7
100
AcDbEntity
  8
0
  6
CONTINUOUS
 62
               4
100
AcDbLine
 10
231.80857972410536
 20
-7.5555666108115815
 30
0.0
 11
231.80857972410536
 21
-4.7326373378780886
 31
0.0
  0
LINE
  5
2A8
100
AcDbEntity
  8
0
  6
CONTINUOUS
 62
               4
100
AcDbLine
 10
233.10857972410531
 20
-4.0526373378781386
 30
0.0
 11
233.10857972410531
 21
-0.0626373378781366
 31
0.0
  0
LINE
  5
2A9
100
AcDbEntity
  8
0
  6
CONTINUOUS
 62
               4
100
AcDbLine
 10
230.60857972410531
 20
-3.3826373378781227
 30
0.0
 11
230.60857972410531
 21
-0.0626373378781366
 31
0.0
  0
LINE
  5
2AA
100
AcDbEntity
  8
0
  6
CONTINUOUS
 62
               4
100
AcDbLine
 10
229.30857972410536
 20
-3.0326373378781
 30
0.0
 11
229.30857972410536
 21
-0.0626373378781366
 31
0.0
  0
LINE
  5
2AB
100
AcDbEntity
  8
0
  6
CONTINUOUS
 62
               4
100
AcDbLine
 10
232.70857972410522
 20
-11.055566608811603
 30
0.0
 11
232.70857972410522
 21
-7.5555666108115815
 31
0.0
  0
LINE
  5
2AC
100
AcDbEntity
  8
0
  6
CONTINUOUS
 62
               4
100
AcDbLine
 10
232.20857972410522
 20
-11.055566608811603
 30
0.0
 11
232.20857972410522
 21
-7.5555666108115815
 31
0.0
  0
LINE
  5
2AD
100
AcDbEntity
  8
0
  6
CONTINUOUS
 62
               4
100
AcDbLine
 10
230.60857972410531
 20
-7.5555666108115815
 30
0.0
 11
230.60857972410531
 21
-4.4126373378781523
 31
0.0
  0
LINE
  5
2AE
100
AcDbEntity
  8
0
  6
CONTINUOUS
 62
               4
100
AcDbLine
 10
229.30857972410536
 20
-7.5555666108115815
 30
0.0
 11
229.30857972410536
 21
-4.0626373378781295
 31
0.0
  0
ARC
  5
2AF
100
AcDbEntity
  8
0
  6
CONTINUOUS
 62
               4
100
AcDbCircle
 10
226.70860261240296
 20
8.4373672398726782
 30
0.0
 40
0.5000045777717621
100
AcDbArc
 50
180.00052456679882
 51
269.99947543320042
  0
ARC
  5
2B0
100
AcDbEntity
  8
0
  6
CONTINUOUS
 62
               4
100
AcDbCircle
 10
235.70860871578361
 20
8.4373519809905062
 30
0.0
 40
0.4999893189827007
100
AcDbArc
 50
269.99877600635432
 51
0.0012239936446972
  0
ARC
  5
2B1
100
AcDbEntity
  8
0
  6
CONTINUOUS
 62
               4
100
AcDbCircle
 10
235.47861085198997
 20
8.43734984478413
 30
0.0
 40
0.4999871828265524
100
AcDbArc
 50
269.99853120363389
 51
0.0014687963652481
  0
ARC
  5
2B2
100
AcDbEntity
  8
0
  6
CONTINUOUS
 62
               4
100
AcDbCircle
 10
226.93860047613134
 20
8.4373651036011594
 30
0.0
 40
0.500002441485227
100
AcDbArc
 50
180.00027977154909
 51
269.99972022845009
  0
ARC
  5
2B3
100
AcDbEntity
  8
0
  6
CONTINUOUS
 62
               4
100
AcDbCircle
 10
226.93980154076394
 20
24.744239965343404
 30
0.0
 40
0.5012049510586274
100
AcDbArc
 50
90.137580219312724
 51
179.86241978068688
  0
ARC
  5
2B4
100
AcDbEntity
  8
0
  6
CONTINUOUS
 62
               4
100
AcDbCircle
 10
235.4774097507468
 20
24.744255187549861
 30
0.0
 40
0.5011896925741138
100
AcDbArc
 50
0.1358442071527786
 51
89.864155792846745
  0
LINE
  5
2B5
100
AcDbEntity
  8
0
  6
CONTINUOUS
 62
               4
100
AcDbLine
 10
234.95857972410522
 20
-0.0626373378781366
 30
0.0
 11
227.45857972410522
 21
-0.0626373378781366
 31
0.0
  0
LINE
  5
2B6
100
AcDbEntity
  8
0
  6
CONTINUOUS
 62
               4
100
AcDbLine
 10
227.45857972410522
 20
-0.0626373378781366
 30
0.0
 11
227.45857972410522
 21
7.9373626621218634
 31
0.0
  0
LINE
  5
2B7
100
AcDbEntity
  8
0
  6
CONTINUOUS
 62
               4
100
AcDbLine
 10
228.45857972410522
 20
-0.0626373378781366
 30
0.0
 11
228.45857972410522
 21
15.937362662121863
 31
0.0
  0
LINE
  5
2B8
100
AcDbEntity
  8
0
  6
CONTINUOUS
 62
               4
100
AcDbLine
 10
233.95857972410522
 20
1.4373626621218634
 30
0.0
 11
228.45857972410522
 21
1.4373626621218634
 31
0.0
  0
LINE
  5
2B9
100
AcDbEntity
  8
0
  6
CONTINUOUS
 62
               4
100
AcDbLine
 10
234.95857972410522
 20
-0.0626373378781366
 30
0.0
 11
234.95857972410522
 21
7.9373626621218634
 31
0.0
  0
LINE
  5
2BA
100
AcDbEntity
  8
0
  6
CONTINUOUS
 62
               4
100
AcDbLine
 10
233.95857972410522
 20
-0.0626373378781366
 30
0.0
 11
233.95857972410522
 21
15.937362662121863
 31
0.0
  0
LINE
  5
2BB
100
AcDbEntity
  8
0
  6
CONTINUOUS
 62
               4
100
AcDbLine
 10
228.45857972410522
 20
7.9373626621218634
 30
0.0
 11
226.70859803465214
 21
7.9373626621218634
 31
0.0
  0
LINE
  5
2BC
100
AcDbEntity
  8
0
  6
CONTINUOUS
 62
               4
100
AcDbLine
 10
233.95857972410522
 20
15.937362662121863
 30
0.0
 11
228.45857972410522
 21
15.937362662121863
 31
0.0
  0
LINE
  5
2BD
100
AcDbEntity
  8
0
  6
CONTINUOUS
 62
               4
100
AcDbLine
 10
226.70859803465214
 20
7.9373626621218634
 30
0.0
 11
226.20859803465214
 21
7.9373626621218634
 31
0.0
  0
LINE
  5
2BE
100
AcDbEntity
  8
0
  6
CONTINUOUS
 62
               4
100
AcDbLine
 10
235.47859803465212
 20
25.245443471455182
 30
0.0
 11
226.93859803465216
 21
25.245443471455182
 31
0.0
  0
LINE
  5
2BF
100
AcDbEntity
  8
0
  6
CONTINUOUS
 62
               4
100
AcDbLine
 10
235.97859803465212
 20
8.4373626621218634
 30
0.0
 11
235.97859803465212
 21
24.745443471455125
 31
0.0
  0
LINE
  5
2C0
100
AcDbEntity
  8
0
  6
CONTINUOUS
 62
               4
100
AcDbLine
 10
226.43859803465216
 20
8.4373626621218634
 30
0.0
 11
226.43859803465216
 21
24.745443471470701
 31
0.0
  0
LINE
  5
2C1
100
AcDbEntity
  8
0
  6
CONTINUOUS
 62
               4
100
AcDbLine
 10
235.70859803465214
 20
7.9373626621218634
 30
0.0
 11
233.95857972410522
 21
7.9373626621218634
 31
0.0
  0
LINE
  5
2C2
100
AcDbEntity
  8
0
  6
CONTINUOUS
 62
               4
100
AcDbLine
 10
236.20859803465214
 20
7.9373626621218634
 30
0.0
 11
235.70859803465214
 21
7.9373626621218634
 31
0.0
  0
LINE
  5
2C3
100
AcDbEntity
  8
0
  6
CONTINUOUS
 62
               4
100
AcDbLine
 10
226.20857972410522
 20
5.5373626578523769
 30
0.0
 11
227.45859803465214
 21
5.5373626578523769
 31
0.0
  0
LINE
  5
2C4
100
AcDbEntity
  8
0
  6
CONTINUOUS
 62
               4
100
AcDbLine
 10
226.20857972410522
 20
4.9373626578523542
 30
0.0
 11
227.45857972410522
 21
4.9373626578523542
 31
0.0
  0
LINE
  5
2C5
100
AcDbEntity
  8
0
  6
CONTINUOUS
 62
               4
100
AcDbLine
 10
226.20857972410522
 20
6.5373626578523769
 30
0.0
 11
227.45859803465214
 21
6.5373626578523769
 31
0.0
  0
LINE
  5
2C6
100
AcDbEntity
  8
0
  6
CONTINUOUS
 62
               4
100
AcDbLine
 10
234.95857972410522
 20
5.0373626578523769
 30
0.0
 11
235.70857972410522
 21
5.0373626578523769
 31
0.0
  0
ARC
  5
2C7
100
AcDbEntity
  8
0
  6
CONTINUOUS
 62
               4
100
AcDbCircle
 10
235.70857972410522
 20
5.5373626578523769
 30
0.0
 40
0.5
100
AcDbArc
 50
269.99999999999937
 51
0.0
  0
ARC
  5
2C8
100
AcDbEntity
  8
0
  6
CONTINUOUS
 62
               4
100
AcDbCircle
 10
227.0044845774471
 20
5.5372675111942087
 30
0.0
 40
0.5999048608870732
100
AcDbArc
 50
179.99091272245337
 51
270.00908727754575
  0
LINE
  5
2C9
100
AcDbEntity
  8
0
  6
CONTINUOUS
 62
               4
100
AcDbLine
 10
236.20857969501617
 20
4.9373626578523542
 30
0.0
 11
234.95857972410522
 21
4.9373626578523542
 31
0.0
  0
LINE
  5
2CA
100
AcDbEntity
  8
0
  6
CONTINUOUS
 62
               4
100
AcDbLine
 10
232.70857972410522
 20
-11.055566608811603
 30
0.0
 11
232.20857972410522
 21
-11.055566608811603
 31
0.0
  0
LINE
  5
2CB
100
AcDbEntity
  8
0
  6
CONTINUOUS
 62
               4
100
AcDbLine
 10
230.20857972410522
 20
-11.055566608811603
 30
0.0
 11
229.70857972410522
 21
-11.055566608811603
 31
0.0
  0
LINE
  5
2CC
100
AcDbEntity
  8
0
  6
CONTINUOUS
 62
               4
100
AcDbLine
 10
236.20857972410522
 20
27.43736266212175
 30
0.0
 11
226.20857972410522
 21
27.43736266212175
 31
0.0
  0
LINE
  5
2CD
100
AcDbEntity
  8
0
  6
CONTINUOUS
 62
               4
100
AcDbLine
 10
-239.46750350823646
 20
78.037362662121737
 30
0.0
 11
-229.46750350823646
 21
78.037362662121737
 31
0.0
  0
LINE
  5
2CE
100
AcDbEntity
  8
0
  6
CONTINUOUS
 62
               7
100
AcDbLine
 10
-229.46750350823646
 20
27.437362662121743
 30
0.0
 11
-229.46750350823646
 21
78.037362662121737
 31
0.0
  0
LINE
  5
2CF
100
AcDbEntity
  8
0
  6
CONTINUOUS
 62
               7
100
AcDbLine
 10
-229.46750350823646
 20
64.837362662121734
 30
0.0
 11
-239.46750350823646
 21
64.837362662121734
 31
0.0
  0
LINE
  5
2D0
100
AcDbEntity
  8
0
  6
CENTER
 62
               2
100
AcDbLine
 10
-236.46750350823646
 20
72.73736266212174
 30
0.0
 11
-232.46750350823646
 21
72.73736266212174
 31
0.0
  0
CIRCLE
  5
2D1
100
AcDbEntity
  8
0
  6
CONTINUOUS
 62
               7
100
AcDbCircle
 10
-234.46750350823646
 20
72.73736266212174
 30
0.0
 40
0.75
  0
LINE
  5
2D2
100
AcDbEntity
  8
0
  6
CONTINUOUS
 62
               4
100
AcDbLine
 10
-239.46750350823646
 20
27.437362662121743
 30
0.0
 11
-229.46750350823646
 21
27.437362662121743
 31
0.0
  0
LINE
  5
2D3
100
AcDbEntity
  8
0
  6
CONTINUOUS
 62
               7
100
AcDbLine
 10
-239.46750350823646
 20
27.437362662121743
 30
0.0
 11
-239.46750350823646
 21
78.037362662121737
 31
0.0
  0
LINE
  5
2D4
100
AcDbEntity
  8
0
  6
CONTINUOUS
 62
               7
100
AcDbLine
 10
-229.46750350823646
 20
40.637362662121745
 30
0.0
 11
-239.46750350823646
 21
40.637362662121745
 31
0.0
  0
LINE
  5
2D5
100
AcDbEntity
  8
0
  6
CENTER
 62
               2
100
AcDbLine
 10
-236.46750350823646
 20
32.73736266212174
 30
0.0
 11
-232.46750350823646
 21
32.73736266212174
 31
0.0
  0
CIRCLE
  5
2D6
100
AcDbEntity
  8
0
  6
CONTINUOUS
 62
               7
100
AcDbCircle
 10
-234.46750350823646
 20
32.73736266212174
 30
0.0
 40
0.75
  0
LINE
  5
2D7
100
AcDbEntity
  8
0
  6
CENTER
 62
               2
100
AcDbLine
 10
-234.46750350823646
 20
101.23536266212173
 30
0.0
 11
-234.46750350823646
 21
4.2393626621217493
 31
0.0
  0
CIRCLE
  5
2D8
100
AcDbEntity
  8
0
  6
CONTINUOUS
 62
               2
100
AcDbCircle
 10
-234.46750350823646
 20
52.737362662121711
 30
0.0
 40
2.5
  0
CIRCLE
  5
2D9
100
AcDbEntity
  8
0
  6
CONTINUOUS
 62
               7
100
AcDbCircle
 10
-234.46750350823646
 20
52.737362662121711
 30
0.0
 40
2.1000000000000001
  0
LINE
  5
2DA
100
AcDbEntity
  8
0
  6
CENTER
 62
               2
100
AcDbLine
 10
-232.76750350823647
 20
61.137362662121717
 30
0.0
 11
-236.16750350823651
 21
61.137362662121717
 31
0.0
  0
CIRCLE
  5
2DB
100
AcDbEntity
  8
0
  6
CONTINUOUS
 62
               2
100
AcDbCircle
 10
-234.46835201897869
 20
61.130238194481137
 30
0.0
 40
1.5
  0
CIRCLE
  5
2DC
100
AcDbEntity
  8
0
  6
CONTINUOUS
 62
               7
100
AcDbCircle
 10
-234.46750350823646
 20
61.137362662121717
 30
0.0
 40
1.25
  0
CIRCLE
  5
2DD
100
AcDbEntity
  8
0
  6
CONTINUOUS
 62
               2
100
AcDbCircle
 10
-234.46750350823646
 20
44.337362662121734
 30
0.0
 40
1.5
  0
CIRCLE
  5
2DE
100
AcDbEntity
  8
0
  6
CONTINUOUS
 62
               7
100
AcDbCircle
 10
-234.46750350823646
 20
44.337362662121734
 30
0.0
 40
1.25
  0
LINE
  5
2DF
100
AcDbEntity
  8
0
  6
CENTER
 62
               2
100
AcDbLine
 10
-232.76750350823647
 20
44.337362662121734
 30
0.0
 11
-236.48049052122349
 21
44.337362662121734
 31
0.0
  0
CIRCLE
  5
2E0
100
AcDbEntity
  8
0
  6
CONTINUOUS
 62
               7
100
AcDbCircle
 10
-238.26835201897865
 20
61.038335928723285
 30
0.0
 40
0.9
  0
LINE
  5
2E1
100
AcDbEntity
  8
0
  6
CENTER
 62
               2
100
AcDbLine
 10
-238.26750350823647
 20
59.887362662121717
 30
0.0
 11
-238.26750350823647
 21
62.1873626621217
 31
0.0
  0
LINE
  5
2E2
100
AcDbEntity
  8
0
  6
CENTER
 62
               2
100
AcDbLine
 10
-237.1175035082365
 20
61.037362662121723
 30
0.0
 11
-239.41750350823651
 21
61.037362662121723
 31
0.0
  0
LINE
  5
2E3
100
AcDbEntity
  8
0
  6
CENTER
 62
               2
100
AcDbLine
 10
-229.51750350823647
 20
44.4373626621217
 30
0.0
 11
-231.81750350823648
 21
44.4373626621217
 31
0.0
  0
CIRCLE
  5
2E4
100
AcDbEntity
  8
0
  6
CONTINUOUS
 62
               7
100
AcDbCircle
 10
-230.66835201897868
 20
44.438335928723291
 30
0.0
 40
0.9
  0
LINE
  5
2E5
100
AcDbEntity
  8
0
  6
CENTER
 62
               2
100
AcDbLine
 10
-230.66750350823651
 20
43.287362662121723
 30
0.0
 11
-230.66750350823651
 21
45.587362662121734
 31
0.0
  0
LINE
  5
2E6
100
AcDbEntity
  8
0
  6
CENTER
 62
               2
100
AcDbLine
 10
-231.31663693632231
 20
52.737362662121726
 30
0.0
 11
-237.67550732612443
 21
52.73736266212174
 31
0.0
  0
LINE
  5
2E7
100
AcDbEntity
  8
0
  6
CONTINUOUS
 62
               4
100
AcDbLine
 10
-229.46750350823652
 20
100.53736266212168
 30
0.0
 11
-229.46750350823652
 21
78.037362662121737
 31
0.0
  0
LINE
  5
2E8
100
AcDbEntity
  8
0
  6
CONTINUOUS
 62
               4
100
AcDbLine
 10
-239.46750350823652
 20
100.53736266212168
 30
0.0
 11
-239.46750350823652
 21
78.037362662121737
 31
0.0
  0
LINE
  5
2E9
100
AcDbEntity
  8
0
  6
CONTINUOUS
 62
               4
100
AcDbLine
 10
-229.46750350823652
 20
100.53736266212168
 30
0.0
 11
-239.46750350823652
 21
100.53736266212168
 31
0.0
  0
LINE
  5
2EA
100
AcDbEntity
  8
0
  6
CONTINUOUS
 62
               4
100
AcDbLine
 10
-229.46750350823652
 20
98.937362662121714
 30
0.0
 11
-232.66750350823656
 21
98.937362662121714
 31
0.0
  0
LINE
  5
2EB
100
AcDbEntity
  8
0
  6
CONTINUOUS
 62
               4
100
AcDbLine
 10
-232.66750350823656
 20
100.43736266212171
 30
0.0
 11
-238.96750350823652
 21
100.43736266212171
 31
0.0
  0
LINE
  5
2EC
100
AcDbEntity
  8
0
  6
CONTINUOUS
 62
               4
100
AcDbLine
 10
-232.66750350823656
 20
100.43736266212171
 30
0.0
 11
-232.66750350823656
 21
98.937362662121714
 31
0.0
  0
ARC
  5
2ED
100
AcDbEntity
  8
0
  6
CONTINUOUS
 62
               4
100
AcDbCircle
 10
-238.96750350823652
 20
99.937362662121686
 30
0.0
 40
0.5
100
AcDbArc
 50
89.999999999999815
 51
179.99999999999963
  0
LINE
  5
2EE
100
AcDbEntity
  8
0
  6
CONTINUOUS
 62
               4
100
AcDbLine
 10
-229.46750350823652
 20
99.937362662121686
 30
0.0
 11
-232.66750350823651
 21
99.937362662121686
 31
0.0
  0
ARC
  5
2EF
100
AcDbEntity
  8
0
  6
CONTINUOUS
 62
               4
100
AcDbCircle
 10
-230.26340836157829
 20
99.937457808779854
 30
0.0
 40
0.5999048608870732
100
AcDbArc
 50
359.99091272245295
 51
90.009087277546172
  0
ARC
  5
2F0
100
AcDbEntity
  8
0
  6
CONTINUOUS
 62
               4
100
AcDbCircle
 10
-232.06459151347354
 20
99.938450667358708
 30
0.0
 40
0.5989129830170392
100
AcDbArc
 50
89.895914524772735
 51
180.10408547522667
  0
LINE
  5
2F1
100
AcDbEntity
  8
0
  6
CONTINUOUS
 62
               4
100
AcDbLine
 10
-239.46750350823652
 20
4.9373626621217994
 30
0.0
 11
-239.46750350823652
 21
27.437362662121743
 31
0.0
  0
LINE
  5
2F2
100
AcDbEntity
  8
0
  6
CONTINUOUS
 62
               4
100
AcDbLine
 10
-229.46750350823652
 20
4.9373626621217994
 30
0.0
 11
-229.46750350823652
 21
27.437362662121743
 31
0.0
  0
ARC
  5
2F3
100
AcDbEntity
  8
0
  6
CONTINUOUS
 62
               4
100
AcDbCircle
 10
-236.87041550299949
 20
5.5362746568847427
 30
0.0
 40
0.5989129830170392
100
AcDbArc
 50
269.89591452477231
 51
0.1040854752270701
  0
ARC
  5
2F4
100
AcDbEntity
  8
0
  6
CONTINUOUS
 62
               4
100
AcDbCircle
 10
-238.67159865489475
 20
5.5372675154636539
 30
0.0
 40
0.5999048608870732
100
AcDbArc
 50
179.99091272245337
 51
270.00908727754575
  0
LINE
  5
2F5
100
AcDbEntity
  8
0
  6
CONTINUOUS
 62
               4
100
AcDbLine
 10
-239.46750350823652
 20
5.5373626621218222
 30
0.0
 11
-236.26750350823653
 21
5.5373626621218222
 31
0.0
  0
ARC
  5
2F6
100
AcDbEntity
  8
0
  6
CONTINUOUS
 62
               4
100
AcDbCircle
 10
-229.96750350823652
 20
5.5373626621218222
 30
0.0
 40
0.5
100
AcDbArc
 50
269.99999999999937
 51
0.0
  0
LINE
  5
2F7
100
AcDbEntity
  8
0
  6
CONTINUOUS
 62
               4
100
AcDbLine
 10
-236.26750350823647
 20
5.0373626621217653
 30
0.0
 11
-236.26750350823647
 21
6.5373626621217653
 31
0.0
  0
LINE
  5
2F8
100
AcDbEntity
  8
0
  6
CONTINUOUS
 62
               4
100
AcDbLine
 10
-236.26750350823647
 20
5.0373626621217653
 30
0.0
 11
-229.96750350823652
 21
5.0373626621217653
 31
0.0
  0
LINE
  5
2F9
100
AcDbEntity
  8
0
  6
CONTINUOUS
 62
               4
100
AcDbLine
 10
-239.46750350823652
 20
6.5373626621217653
 30
0.0
 11
-236.26750350823647
 21
6.5373626621217653
 31
0.0
  0
LINE
  5
2FA
100
AcDbEntity
  8
0
  6
CONTINUOUS
 62
               4
100
AcDbLine
 10
-239.46750350823652
 20
4.9373626621217994
 30
0.0
 11
-229.46750350823652
 21
4.9373626621217994
 31
0.0
  0
LINE
  5
2FB
100
AcDbEntity
  8
0
  6
CONTINUOUS
 62
               7
100
AcDbLine
 10
-138.9743239026291
 20
72.037362662121765
 30
0.0
 11
-138.9743239026291
 21
78.037362662121765
 31
0.0
  0
LINE
  5
2FC
100
AcDbEntity
  8
0
  6
CONTINUOUS
 62
               4
100
AcDbLine
 10
-154.57432671915589
 20
78.037362662121708
 30
0.0
 11
-137.68947824395596
 21
78.03736266212168
 31
0.0
  0
LINE
  5
2FD
100
AcDbEntity
  8
0
  6
CONTINUOUS
 62
               7
100
AcDbLine
 10
-154.57432671915581
 20
27.437362662121743
 30
0.0
 11
-154.57432671915589
 21
78.037362662121765
 31
0.0
  0
LINE
  5
2FE
100
AcDbEntity
  8
0
  6
CONTINUOUS
 62
               7
100
AcDbLine
 10
-140.57432671915586
 20
27.437362662121792
 30
0.0
 11
-140.57432671915583
 21
78.037362662121751
 31
0.0
  0
LINE
  5
2FF
100
AcDbEntity
  8
0
  6
CONTINUOUS
 62
               7
100
AcDbLine
 10
-154.57432390262909
 20
64.837362662121734
 30
0.0
 11
-140.57432390262909
 21
64.837362662121762
 31
0.0
  0
LINE
  5
300
100
AcDbEntity
  8
0
  6
CONTINUOUS
 62
               7
100
AcDbLine
 10
-154.57432390262906
 20
40.637362662121774
 30
0.0
 11
-140.57432390262906
 21
40.637362662121802
 31
0.0
  0
LINE
  5
301
100
AcDbEntity
  8
0
  6
CONTINUOUS
 62
               7
100
AcDbLine
 10
-138.9743239026291
 20
72.037362662121765
 30
0.0
 11
-140.57432390262912
 21
70.437362662121757
 31
0.0
  0
LINE
  5
302
100
AcDbEntity
  8
0
  6
CONTINUOUS
 62
               7
100
AcDbLine
 10
-138.97432390262901
 20
33.437362662121771
 30
0.0
 11
-138.97432390262901
 21
27.437362662121771
 31
0.0
  0
LINE
  5
303
100
AcDbEntity
  8
0
  6
CONTINUOUS
 62
               4
100
AcDbLine
 10
-154.57432671915581
 20
27.437362662121743
 30
0.0
 11
-137.68947824395588
 21
27.437362662121799
 31
0.0
  0
LINE
  5
304
100
AcDbEntity
  8
0
  6
CONTINUOUS
 62
               7
100
AcDbLine
 10
-138.97432390262901
 20
33.437362662121771
 30
0.0
 11
-140.57432390262903
 21
35.03736266212178
 31
0.0
  0
LINE
  5
305
100
AcDbEntity
  8
0
  6
CENTER
 62
               2
100
AcDbLine
 10
-153.27432671915582
 20
48.237362662121726
 30
0.0
 11
-150.27432671915582
 21
48.237362662121733
 31
0.0
  0
LINE
  5
306
100
AcDbEntity
  8
0
  6
CENTER
 62
               2
100
AcDbLine
 10
-151.77432671915582
 20
46.737362662121733
 30
0.0
 11
-151.77432671915582
 21
49.737362662121733
 31
0.0
  0
CIRCLE
  5
307
100
AcDbEntity
  8
0
  6
CONTINUOUS
 62
               7
100
AcDbCircle
 10
-151.77432671915582
 20
48.237362662121733
 30
0.0
 40
1.0499999999999998
  0
LINE
  5
308
100
AcDbEntity
  8
0
  6
CENTER
 62
               2
100
AcDbLine
 10
-153.27432671915585
 20
57.237362662121726
 30
0.0
 11
-150.27432671915585
 21
57.237362662121733
 31
0.0
  0
LINE
  5
309
100
AcDbEntity
  8
0
  6
CENTER
 62
               2
100
AcDbLine
 10
-151.77432671915585
 20
55.737362662121733
 30
0.0
 11
-151.77432671915585
 21
58.737362662121733
 31
0.0
  0
CIRCLE
  5
30A
100
AcDbEntity
  8
0
  6
CONTINUOUS
 62
               7
100
AcDbCircle
 10
-151.77432671915585
 20
57.237362662121733
 30
0.0
 40
1.0499999999999998
  0
LINE
  5
30B
100
AcDbEntity
  8
0
  6
CONTINUOUS
 62
               7
100
AcDbLine
 10
-140.57432670818864
 20
42.836389395520172
 30
0.0
 11
-141.57432670818864
 21
42.836389395520172
 31
0.0
  0
LINE
  5
30C
100
AcDbEntity
  8
0
  6
CONTINUOUS
 62
               7
100
AcDbLine
 10
-140.57432670818864
 20
46.036389395520217
 30
0.0
 11
-141.57432670818864
 21
46.03638939552021
 31
0.0
  0
LINE
  5
30D
100
AcDbEntity
  8
0
  6
CONTINUOUS
 62
               7
100
AcDbLine
 10
-141.57432671915578
 20
46.03638939552021
 30
0.0
 11
-141.57432671915578
 21
42.836389395520172
 31
0.0
  0
LINE
  5
30E
100
AcDbEntity
  8
0
  6
CENTER
 62
               2
100
AcDbLine
 10
-152.53824628842335
 20
61.138335928723301
 30
0.0
 11
-167.98025778664584
 21
61.138335928723272
 31
0.0
  0
LINE
  5
30F
100
AcDbEntity
  8
0
  6
CENTER
 62
               2
100
AcDbLine
 10
-152.53824628842332
 20
44.336389395520214
 30
0.0
 11
-167.98025778664581
 21
44.336389395520186
 31
0.0
  0
ARC
  5
310
100
AcDbEntity
  8
0
  6
DASHED
 62
             200
100
AcDbCircle
 10
-166.07432671915586
 20
58.638335928723272
 30
0.0
 40
0.5
100
AcDbArc
 50
179.99999999999969
 51
269.99999999999949
  0
ARC
  5
311
100
AcDbEntity
  8
0
  6
DASHED
 62
             200
100
AcDbCircle
 10
-166.07432671915586
 20
63.638335928723258
 30
0.0
 40
0.5
100
AcDbArc
 50
89.999999999999901
 51
179.99999999999969
  0
LINE
  5
312
100
AcDbEntity
  8
0
  6
DASHED
 62
             200
100
AcDbLine
 10
-166.57432671915586
 20
58.638335928723272
 30
0.0
 11
-166.57432671915586
 21
63.638335928723258
 31
0.0
  0
LINE
  5
313
100
AcDbEntity
  8
0
  6
DASHED
 62
             200
100
AcDbLine
 10
-164.07432671915586
 20
58.138335928723279
 30
0.0
 11
-164.07432671915586
 21
64.138335928723265
 31
0.0
  0
LINE
  5
314
100
AcDbEntity
  8
0
  6
DASHED
 62
             200
100
AcDbLine
 10
-166.07432671915586
 20
58.138335928723272
 30
0.0
 11
-166.07432671915586
 21
64.138335928723265
 31
0.0
  0
LINE
  5
315
100
AcDbEntity
  8
0
  6
DASHED
 62
             200
100
AcDbLine
 10
-154.57432671915586
 20
64.138335928723279
 30
0.0
 11
-166.07432671915586
 21
64.138335928723265
 31
0.0
  0
LINE
  5
316
100
AcDbEntity
  8
0
  6
DASHED
 62
             200
100
AcDbLine
 10
-154.57432671915586
 20
58.138335928723293
 30
0.0
 11
-166.07432671915586
 21
58.138335928723272
 31
0.0
  0
LINE
  5
317
100
AcDbEntity
  8
0
  6
DASHED
 62
             200
100
AcDbLine
 10
-154.57432671915583
 20
47.336389395520214
 30
0.0
 11
-166.07432671915583
 21
47.336389395520193
 31
0.0
  0
LINE
  5
318
100
AcDbEntity
  8
0
  6
DASHED
 62
             200
100
AcDbLine
 10
-154.57432671915583
 20
41.336389395520214
 30
0.0
 11
-166.07432671915583
 21
41.336389395520193
 31
0.0
  0
LINE
  5
319
100
AcDbEntity
  8
0
  6
DASHED
 62
             200
100
AcDbLine
 10
-166.07432671915583
 20
47.336389395520193
 30
0.0
 11
-166.07432671915583
 21
41.336389395520193
 31
0.0
  0
LINE
  5
31A
100
AcDbEntity
  8
0
  6
DASHED
 62
             200
100
AcDbLine
 10
-164.07432671915583
 20
47.3363893955202
 30
0.0
 11
-164.07432671915583
 21
41.3363893955202
 31
0.0
  0
LINE
  5
31B
100
AcDbEntity
  8
0
  6
DASHED
 62
             200
100
AcDbLine
 10
-166.57432671915583
 20
46.836389395520193
 30
0.0
 11
-166.57432671915583
 21
41.836389395520193
 31
0.0
  0
ARC
  5
31C
100
AcDbEntity
  8
0
  6
DASHED
 62
             200
100
AcDbCircle
 10
-166.07432671915583
 20
41.836389395520193
 30
0.0
 40
0.5
100
AcDbArc
 50
179.99999999999969
 51
269.99999999999949
  0
ARC
  5
31D
100
AcDbEntity
  8
0
  6
DASHED
 62
             200
100
AcDbCircle
 10
-166.07432671915583
 20
46.836389395520193
 30
0.0
 40
0.5
100
AcDbArc
 50
89.999999999999901
 51
179.99999999999969
  0
LINE
  5
31E
100
AcDbEntity
  8
0
  6
CONTINUOUS
 62
               4
100
AcDbLine
 10
-132.86571710882768
 20
80.237067668033234
 30
0.0
 11
-137.47800475239924
 21
78.084285447544531
 31
0.0
  0
LINE
  5
31F
100
AcDbEntity
  8
0
  6
CONTINUOUS
 62
               4
100
AcDbLine
 10
-137.68947824395596
 20
78.03736266212151
 30
0.0
 11
-137.68947824395553
 21
97.538372751988206
 31
0.0
  0
LINE
  5
320
100
AcDbEntity
  8
0
  6
CONTINUOUS
 62
               4
100
AcDbLine
 10
-154.57432671915589
 20
78.037362662121765
 30
0.0
 11
-154.57432671915547
 21
99.937362662121743
 31
0.0
  0
LINE
  5
321
100
AcDbEntity
  8
0
  6
CONTINUOUS
 62
               4
100
AcDbLine
 10
-140.57432672715544
 20
99.937362662121529
 30
0.0
 11
-140.57432672715586
 21
78.037362662121566
 31
0.0
  0
LINE
  5
322
100
AcDbEntity
  8
0
  6
CENTER
 62
               2
100
AcDbLine
 10
-147.57432671915592
 20
101.22029464101195
 30
0.0
 11
-147.57432671915575
 21
4.2393626621217066
 31
0.0
  0
LINE
  5
323
100
AcDbEntity
  8
0
  6
CONTINUOUS
 62
               4
100
AcDbLine
 10
-132.57735703475549
 20
97.036352550254747
 30
0.0
 11
-132.57735703475569
 21
80.68887781212149
 31
0.0
  0
LINE
  5
324
100
AcDbEntity
  8
0
  6
CONTINUOUS
 62
               4
100
AcDbLine
 10
-117.07836714462229
 20
94.791595774641962
 30
0.0
 11
-113.57836714462218
 21
94.791595774641962
 31
0.0
  0
LINE
  5
325
100
AcDbEntity
  8
0
  6
CONTINUOUS
 62
               4
100
AcDbLine
 10
-117.07836714462229
 20
95.291595774641962
 30
0.0
 11
-113.57836714462218
 21
95.291595774641962
 31
0.0
  0
LINE
  5
326
100
AcDbEntity
  8
0
  6
CONTINUOUS
 62
               4
100
AcDbLine
 10
-113.57836714462218
 20
95.291595774641962
 30
0.0
 11
-113.57836714462218
 21
94.791595774641962
 31
0.0
  0
ARC
  5
327
100
AcDbEntity
  8
0
  6
CONTINUOUS
 62
               4
100
AcDbCircle
 10
-151.97323852488364
 20
99.938450667358552
 30
0.0
 40
0.5989129830170392
100
AcDbArc
 50
359.8959145247731
 51
90.104085475227023
  0
LINE
  5
328
100
AcDbEntity
  8
0
  6
CONTINUOUS
 62
               4
100
AcDbLine
 10
-150.8743265301207
 20
99.937362662121529
 30
0.0
 11
-150.8743265301207
 21
100.53736266212155
 31
0.0
  0
LINE
  5
329
100
AcDbEntity
  8
0
  6
CONTINUOUS
 62
               4
100
AcDbLine
 10
-117.0783671446224
 20
94.391908107321115
 30
0.0
 11
-117.07836714462218
 21
95.692918207587809
 31
0.0
  0
LINE
  5
32A
100
AcDbEntity
  8
0
  6
CONTINUOUS
 62
               4
100
AcDbLine
 10
-140.57432672715566
 20
97.53837275198822
 30
0.0
 11
-133.07937723648882
 21
97.538372751988163
 31
0.0
  0
LINE
  5
32B
100
AcDbEntity
  8
0
  6
CONTINUOUS
 62
               4
100
AcDbLine
 10
-124.58038734235555
 20
92.539382855854555
 30
0.0
 11
-124.58038734235555
 21
96.640392954521275
 31
0.0
  0
LINE
  5
32C
100
AcDbEntity
  8
0
  6
CONTINUOUS
 62
               4
100
AcDbLine
 10
-131.18442774262206
 20
98.641403054388121
 30
0.0
 11
-126.0793772404888
 21
99.539382851854697
 31
0.0
  0
LINE
  5
32D
100
AcDbEntity
  8
0
  6
CONTINUOUS
 62
               4
100
AcDbLine
 10
-124.58038734235556
 20
98.542413155454568
 30
0.0
 11
-124.58038734235556
 21
99.53938285185464
 31
0.0
  0
LINE
  5
32E
100
AcDbEntity
  8
0
  6
CONTINUOUS
 62
               4
100
AcDbLine
 10
-132.24503380262212
 20
97.439382853054695
 30
0.0
 11
-125.90260956382231
 21
98.556554569587973
 31
0.0
  0
LINE
  5
32F
100
AcDbEntity
  8
0
  6
CONTINUOUS
 62
               4
100
AcDbLine
 10
-133.58139743822215
 20
97.63736265092146
 30
0.0
 11
-139.2803873339555
 21
97.637362650921531
 31
0.0
  0
LINE
  5
330
100
AcDbEntity
  8
0
  6
CONTINUOUS
 62
               4
100
AcDbLine
 10
-124.58038734235555
 20
96.640392954521275
 30
0.0
 11
-124.87735703915558
 21
96.937362651321251
 31
0.0
  0
LINE
  5
331
100
AcDbEntity
  8
0
  6
CONTINUOUS
 62
               4
100
AcDbLine
 10
-125.57735703875568
 20
92.539382855854598
 30
0.0
 11
-125.57735703875568
 21
93.14039295652131
 31
0.0
  0
LINE
  5
332
100
AcDbEntity
  8
0
  6
CONTINUOUS
 62
               4
100
AcDbLine
 10
-125.57735703875568
 20
93.14039295652131
 30
0.0
 11
-130.57634693488893
 21
93.140392956521424
 31
0.0
  0
LINE
  5
333
100
AcDbEntity
  8
0
  6
CONTINUOUS
 62
               4
100
AcDbLine
 10
-130.57634693488893
 20
92.539382855854655
 30
0.0
 11
-130.57634693488893
 21
93.140392956521424
 31
0.0
  0
LINE
  5
334
100
AcDbEntity
  8
0
  6
CONTINUOUS
 62
               4
100
AcDbLine
 10
-131.07836713662226
 20
96.640392954521388
 30
0.0
 11
-130.78139743982223
 21
96.937362651321365
 31
0.0
  0
LINE
  5
335
100
AcDbEntity
  8
0
  6
CONTINUOUS
 62
               4
100
AcDbLine
 10
-131.18442774262206
 20
98.641403054388121
 30
0.0
 11
-140.27735703035563
 21
98.641403054388277
 31
0.0
  0
LINE
  5
336
100
AcDbEntity
  8
0
  6
CONTINUOUS
 62
               4
100
AcDbLine
 10
-139.2803873339555
 20
97.538372751988263
 30
0.0
 11
-139.2803873339555
 21
97.637362650921531
 31
0.0
  0
LINE
  5
337
100
AcDbEntity
  8
0
  6
CONTINUOUS
 62
               4
100
AcDbLine
 10
-120.01271057728894
 20
94.391908107321171
 30
0.0
 11
-124.58038734235555
 21
94.3919081073212
 31
0.0
  0
LINE
  5
338
100
AcDbEntity
  8
0
  6
CONTINUOUS
 62
             200
100
AcDbLine
 10
-121.25008431395548
 20
96.54140305558785
 30
0.0
 11
-119.51776108262237
 21
93.536352552254584
 31
0.0
  0
LINE
  5
339
100
AcDbEntity
  8
0
  6
CONTINUOUS
 62
               4
100
AcDbLine
 10
-120.76220552635567
 20
95.692918207587851
 30
0.0
 11
-124.58038734235555
 21
95.692918207587951
 31
0.0
  0
LINE
  5
33A
100
AcDbEntity
  8
0
  6
CONTINUOUS
 62
               4
100
AcDbLine
 10
-124.58038734235556
 20
99.53938285185464
 30
0.0
 11
-126.0793772404888
 21
99.539382851854697
 31
0.0
  0
LINE
  5
33B
100
AcDbEntity
  8
0
  6
CONTINUOUS
 62
               4
100
AcDbLine
 10
-124.58038734235556
 20
98.542413155454568
 30
0.0
 11
-125.98745804862229
 21
98.542413155454625
 31
0.0
  0
LINE
  5
33C
100
AcDbEntity
  8
0
  6
CONTINUOUS
 62
               4
100
AcDbLine
 10
-124.87735703915558
 20
96.937362651321251
 30
0.0
 11
-130.78139743982223
 21
96.937362651321365
 31
0.0
  0
LINE
  5
33D
100
AcDbEntity
  8
0
  6
CONTINUOUS
 62
               4
100
AcDbLine
 10
-124.58038734235555
 20
96.640392954521275
 30
0.0
 11
-132.17432673195543
 21
96.640392954521388
 31
0.0
  0
LINE
  5
33E
100
AcDbEntity
  8
0
  6
CONTINUOUS
 62
               4
100
AcDbLine
 10
-124.58038734235555
 20
95.940392954921293
 30
0.0
 11
-132.57735703475549
 21
95.940392954921464
 31
0.0
  0
LINE
  5
33F
100
AcDbEntity
  8
0
  6
CONTINUOUS
 62
               4
100
AcDbLine
 10
-124.58038734235555
 20
94.137362652921325
 30
0.0
 11
-132.57735703475549
 21
94.137362652921439
 31
0.0
  0
LINE
  5
340
100
AcDbEntity
  8
0
  6
CONTINUOUS
 62
               4
100
AcDbLine
 10
-132.57735703475572
 20
92.539382855854711
 30
0.0
 11
-130.57634693488893
 21
92.539382855854655
 31
0.0
  0
LINE
  5
341
100
AcDbEntity
  8
0
  6
CONTINUOUS
 62
               4
100
AcDbLine
 10
-125.57735703875568
 20
92.539382855854598
 30
0.0
 11
-124.58038734235555
 21
92.539382855854555
 31
0.0
  0
ARC
  5
342
100
AcDbEntity
  8
0
  6
CONTINUOUS
 62
               4
100
AcDbCircle
 10
-133.07399388623429
 20
97.041735900509451
 30
0.0
 40
0.4966660273328702
100
AcDbArc
 50
359.37896036356284
 51
90.621039636432727
  0
ARC
  5
343
100
AcDbEntity
  8
0
  6
CONTINUOUS
 62
               4
100
AcDbCircle
 10
-140.27489543543805
 20
98.341946791540252
 30
0.0
 40
0.2994663800970315
100
AcDbArc
 50
90.470973028463391
 51
180.87710076750488
  0
ARC
  5
344
100
AcDbEntity
  8
0
  6
CONTINUOUS
 62
               4
100
AcDbCircle
 10
-133.57441421301831
 20
97.142396987214084
 30
0.0
 40
0.4950149226876426
100
AcDbArc
 50
53.123124741163764
 51
90.80830412457756
  0
ARC
  5
345
100
AcDbEntity
  8
0
  6
CONTINUOUS
 62
               4
100
AcDbCircle
 10
-132.17443080077641
 20
97.042689893725907
 30
0.0
 40
0.4029269013737999
100
AcDbArc
 50
100.09177155739498
 51
179.89571641424951
  0
ARC
  5
346
100
AcDbEntity
  8
0
  6
CONTINUOUS
 62
               4
100
AcDbCircle
 10
-132.17349268780112
 20
97.044257301475767
 30
0.0
 40
0.403865208170398
100
AcDbArc
 50
180.11832473551368
 51
269.88167526448478
  0
LINE
  5
347
100
AcDbEntity
  8
0
  6
CONTINUOUS
 62
             200
100
AcDbLine
 10
-120.90361966768882
 20
96.541403055587907
 30
0.0
 11
-119.17129643635548
 21
93.543423259321173
 31
0.0
  0
LINE
  5
348
100
AcDbEntity
  8
0
  6
CONTINUOUS
 62
               4
100
AcDbLine
 10
-142.57432671515625
 20
98.9373626621217
 30
0.0
 11
-154.57432671115623
 21
98.937362662121458
 31
0.0
  0
LINE
  5
349
100
AcDbEntity
  8
0
  6
CONTINUOUS
 62
               4
100
AcDbLine
 10
-142.57432671515625
 20
100.53736266212175
 30
0.0
 11
-142.57432671515625
 21
98.9373626621217
 31
0.0
  0
LINE
  5
34A
100
AcDbEntity
  8
0
  6
CONTINUOUS
 62
               4
100
AcDbLine
 10
-141.0743267191562
 20
100.43736266212181
 30
0.0
 11
-142.57432671515625
 21
100.43736266212176
 31
0.0
  0
ARC
  5
34B
100
AcDbEntity
  8
0
  6
CONTINUOUS
 62
               4
100
AcDbCircle
 10
-141.0743267191562
 20
99.937362662121757
 30
0.0
 40
0.5
100
AcDbArc
 50
0.0000000000011704
 51
90.000000000000966
  0
LINE
  5
34C
100
AcDbEntity
  8
0
  6
CONTINUOUS
 62
               4
100
AcDbLine
 10
-141.37432680515616
 20
100.53736266212178
 30
0.0
 11
-153.77432662515628
 21
100.53736266212154
 31
0.0
  0
ARC
  5
34D
100
AcDbEntity
  8
0
  6
CONTINUOUS
 62
               4
100
AcDbCircle
 10
-154.07432671115635
 20
99.937362662121515
 30
0.0
 40
0.5
100
AcDbArc
 50
93.919585899651963
 51
180.00000000000077
  0
LINE
  5
34E
100
AcDbEntity
  8
0
  6
CONTINUOUS
 62
               4
100
AcDbLine
 10
-150.8743265301207
 20
99.937362662121586
 30
0.0
 11
-154.57432671115623
 21
99.937362662121515
 31
0.0
  0
ARC
  5
34F
100
AcDbEntity
  8
0
  6
CONTINUOUS
 62
               4
100
AcDbCircle
 10
-153.77541463028456
 20
99.938450667249796
 30
0.0
 40
0.598912923125741
100
AcDbArc
 50
89.8959145247739
 51
180.10408547522783
  0
ARC
  5
350
100
AcDbEntity
  8
0
  6
CONTINUOUS
 62
               4
100
AcDbCircle
 10
-141.37423165850754
 20
99.937457808770432
 30
0.0
 40
0.599904800896587
100
AcDbArc
 50
56.247417870395054
 51
90.009087277547337
  0
LINE
  5
351
100
AcDbEntity
  8
0
  6
CONTINUOUS
 62
               4
100
AcDbLine
 10
-117.0783671446224
 20
94.391908107321115
 30
0.0
 11
-119.66157659616687
 21
94.391908107321171
 31
0.0
  0
LINE
  5
352
100
AcDbEntity
  8
0
  6
CONTINUOUS
 62
               4
100
AcDbLine
 10
-117.07836714462218
 20
95.692918207587809
 30
0.0
 11
-120.41333950787754
 21
95.692918207587866
 31
0.0
  0
ARC
  5
353
100
AcDbEntity
  8
0
  6
CONTINUOUS
 62
               4
100
AcDbCircle
 10
-133.07706935759907
 20
80.689885122660627
 30
0.0
 40
0.4997133381008656
100
AcDbArc
 50
294.82621530980799
 51
359.88450442035537
  0
ARC
  5
354
100
AcDbEntity
  8
0
  6
CONTINUOUS
 62
               4
100
AcDbCircle
 10
-137.68947824395596
 20
78.53736266212151
 30
0.0
 40
0.5
100
AcDbArc
 50
269.99999999999949
 51
295.02078316106645
  0
LINE
  5
355
100
AcDbEntity
  8
0
  6
CONTINUOUS
 62
               4
100
AcDbLine
 10
-132.8657171088276
 20
25.237657656210196
 30
0.0
 11
-137.47800475239916
 21
27.390439876698935
 31
0.0
  0
LINE
  5
356
100
AcDbEntity
  8
0
  6
CONTINUOUS
 62
               4
100
AcDbLine
 10
-137.68947824395588
 20
27.437362662121956
 30
0.0
 11
-137.68947824395562
 21
7.9363525722552311
 31
0.0
  0
LINE
  5
357
100
AcDbEntity
  8
0
  6
CONTINUOUS
 62
               4
100
AcDbLine
 10
-154.57432671915581
 20
27.4373626621217
 30
0.0
 11
-154.57432671915544
 21
5.5373626621217227
 31
0.0
  0
LINE
  5
358
100
AcDbEntity
  8
0
  6
CONTINUOUS
 62
               4
100
AcDbLine
 10
-140.57432672715552
 20
5.5373626621219145
 30
0.0
 11
-140.57432672715578
 21
27.437362662121892
 31
0.0
  0
LINE
  5
359
100
AcDbEntity
  8
0
  6
CONTINUOUS
 62
               4
100
AcDbLine
 10
-117.07836714462226
 20
10.183129549601524
 30
0.0
 11
-113.57836714462204
 21
10.183129549601531
 31
0.0
  0
LINE
  5
35A
100
AcDbEntity
  8
0
  6
CONTINUOUS
 62
               4
100
AcDbLine
 10
-117.07836714462226
 20
10.683129549601524
 30
0.0
 11
-113.57836714462204
 21
10.683129549601531
 31
0.0
  0
LINE
  5
35B
100
AcDbEntity
  8
0
  6
CONTINUOUS
 62
               4
100
AcDbLine
 10
-132.57735703475558
 20
8.4383727739886822
 30
0.0
 11
-132.57735703475561
 21
24.78584751212194
 31
0.0
  0
ARC
  5
35C
100
AcDbEntity
  8
0
  6
CONTINUOUS
 62
               4
100
AcDbCircle
 10
-143.17541491342791
 20
5.5362746568849488
 30
0.0
 40
0.5989129830170392
100
AcDbArc
 50
179.89591452477288
 51
270.10408547522684
  0
LINE
  5
35D
100
AcDbEntity
  8
0
  6
CONTINUOUS
 62
               4
100
AcDbLine
 10
-144.27432690819089
 20
5.5373626621219714
 30
0.0
 11
-144.27432690819086
 21
4.9373626621219486
 31
0.0
  0
LINE
  5
35E
100
AcDbEntity
  8
0
  6
CONTINUOUS
 62
               4
100
AcDbLine
 10
-117.07836714462226
 20
11.082817216922372
 30
0.0
 11
-117.07836714462204
 21
9.7818071166556777
 31
0.0
  0
LINE
  5
35F
100
AcDbEntity
  8
0
  6
CONTINUOUS
 62
               4
100
AcDbLine
 10
-140.57432672715552
 20
7.9363525722552239
 30
0.0
 11
-133.07937723648891
 21
7.936352572255295
 31
0.0
  0
LINE
  5
360
100
AcDbEntity
  8
0
  6
CONTINUOUS
 62
               4
100
AcDbLine
 10
-124.58038734235541
 20
12.935342468388903
 30
0.0
 11
-124.58038734235564
 21
8.8343323697221692
 31
0.0
  0
LINE
  5
361
100
AcDbEntity
  8
0
  6
CONTINUOUS
 62
               4
100
AcDbLine
 10
-131.18442774262215
 20
6.8333222698553158
 30
0.0
 11
-126.07937724048885
 21
5.935342472388804
 31
0.0
  0
LINE
  5
362
100
AcDbEntity
  8
0
  6
CONTINUOUS
 62
               4
100
AcDbLine
 10
-124.58038734235539
 20
6.9323121687888758
 30
0.0
 11
-124.58038734235539
 21
5.935342472388804
 31
0.0
  0
LINE
  5
363
100
AcDbEntity
  8
0
  6
CONTINUOUS
 62
               4
100
AcDbLine
 10
-132.2450338026222
 20
8.0353424711887413
 30
0.0
 11
-125.90260956382214
 21
6.9181707546555273
 31
0.0
  0
LINE
  5
364
100
AcDbEntity
  8
0
  6
CONTINUOUS
 62
               4
100
AcDbLine
 10
-133.58139743822224
 20
7.8373626733220263
 30
0.0
 11
-139.28038733395559
 21
7.8373626733219623
 31
0.0
  0
LINE
  5
365
100
AcDbEntity
  8
0
  6
CONTINUOUS
 62
               4
100
AcDbLine
 10
-124.58038734235564
 20
8.8343323697221692
 30
0.0
 11
-124.87735703915544
 21
8.5373626729221925
 31
0.0
  0
LINE
  5
366
100
AcDbEntity
  8
0
  6
CONTINUOUS
 62
               4
100
AcDbLine
 10
-125.57735703875554
 20
12.935342468388903
 30
0.0
 11
-125.57735703875554
 21
12.33433236772219
 31
0.0
  0
LINE
  5
367
100
AcDbEntity
  8
0
  6
CONTINUOUS
 62
               4
100
AcDbLine
 10
-125.57735703875554
 20
12.33433236772219
 30
0.0
 11
-130.57634693488879
 21
12.334332367722013
 31
0.0
  0
LINE
  5
368
100
AcDbEntity
  8
0
  6
CONTINUOUS
 62
               4
100
AcDbLine
 10
-130.57634693488879
 20
12.935342468388839
 30
0.0
 11
-130.57634693488879
 21
12.334332367722013
 31
0.0
  0
LINE
  5
369
100
AcDbEntity
  8
0
  6
CONTINUOUS
 62
               4
100
AcDbLine
 10
-131.07836713662212
 20
8.8343323697220484
 30
0.0
 11
-130.78139743982231
 21
8.5373626729220717
 31
0.0
  0
LINE
  5
36A
100
AcDbEntity
  8
0
  6
CONTINUOUS
 62
               4
100
AcDbLine
 10
-131.18442774262215
 20
6.8333222698553158
 30
0.0
 11
-140.27735703035549
 21
6.8333222698551879
 31
0.0
  0
LINE
  5
36B
100
AcDbEntity
  8
0
  6
CONTINUOUS
 62
               4
100
AcDbLine
 10
-139.28038733395559
 20
7.9363525722552311
 30
0.0
 11
-139.28038733395559
 21
7.8373626733219623
 31
0.0
  0
LINE
  5
36C
100
AcDbEntity
  8
0
  6
CONTINUOUS
 62
               4
100
AcDbLine
 10
-120.0109636967193
 20
11.082817216922315
 30
0.0
 11
-124.58038734235541
 21
11.082817216922244
 31
0.0
  0
LINE
  5
36D
100
AcDbEntity
  8
0
  6
CONTINUOUS
 62
             200
100
AcDbLine
 10
-121.25008431395534
 20
8.9333222686556155
 30
0.0
 11
-119.51776108262223
 21
11.938372771988902
 31
0.0
  0
LINE
  5
36E
100
AcDbEntity
  8
0
  6
CONTINUOUS
 62
               4
100
AcDbLine
 10
-120.76220552635553
 20
9.7818071166556138
 30
0.0
 11
-124.58038734235541
 21
9.781807116655493
 31
0.0
  0
LINE
  5
36F
100
AcDbEntity
  8
0
  6
CONTINUOUS
 62
               4
100
AcDbLine
 10
-124.58038734235539
 20
5.935342472388804
 30
0.0
 11
-126.07937724048885
 21
5.935342472388804
 31
0.0
  0
LINE
  5
370
100
AcDbEntity
  8
0
  6
CONTINUOUS
 62
               4
100
AcDbLine
 10
-124.58038734235539
 20
6.9323121687888758
 30
0.0
 11
-125.98745804862212
 21
6.932312168788819
 31
0.0
  0
LINE
  5
371
100
AcDbEntity
  8
0
  6
CONTINUOUS
 62
               4
100
AcDbLine
 10
-124.87735703915544
 20
8.5373626729221925
 30
0.0
 11
-130.78139743982231
 21
8.5373626729220717
 31
0.0
  0
LINE
  5
372
100
AcDbEntity
  8
0
  6
CONTINUOUS
 62
               4
100
AcDbLine
 10
-124.58038734235564
 20
8.8343323697221692
 30
0.0
 11
-132.17432673195552
 21
8.8343323697220484
 31
0.0
  0
LINE
  5
373
100
AcDbEntity
  8
0
  6
CONTINUOUS
 62
               4
100
AcDbLine
 10
-124.58038734235541
 20
9.5343323693221507
 30
0.0
 11
-132.57735703475535
 21
9.5343323693219659
 31
0.0
  0
LINE
  5
374
100
AcDbEntity
  8
0
  6
CONTINUOUS
 62
               4
100
AcDbLine
 10
-124.58038734235541
 20
11.337362671322119
 30
0.0
 11
-132.57735703475535
 21
11.337362671321991
 31
0.0
  0
LINE
  5
375
100
AcDbEntity
  8
0
  6
CONTINUOUS
 62
               4
100
AcDbLine
 10
-132.57735703475558
 20
12.935342468388718
 30
0.0
 11
-130.57634693488879
 21
12.935342468388839
 31
0.0
  0
LINE
  5
376
100
AcDbEntity
  8
0
  6
CONTINUOUS
 62
               4
100
AcDbLine
 10
-125.57735703875554
 20
12.935342468388903
 30
0.0
 11
-124.58038734235541
 21
12.935342468388903
 31
0.0
  0
ARC
  5
377
100
AcDbEntity
  8
0
  6
CONTINUOUS
 62
               4
100
AcDbCircle
 10
-133.07399388623415
 20
8.4329894237340355
 30
0.0
 40
0.4966660273328702
100
AcDbArc
 50
269.37896036356653
 51
0.6210396364372088
  0
ARC
  5
378
100
AcDbEntity
  8
0
  6
CONTINUOUS
 62
               4
100
AcDbCircle
 10
-140.27489543543814
 20
7.1327785327032132
 30
0.0
 40
0.2994663800970315
100
AcDbArc
 50
179.12289923249432
 51
269.52902697153581
  0
ARC
  5
379
100
AcDbEntity
  8
0
  6
CONTINUOUS
 62
               4
100
AcDbCircle
 10
-133.5744142130184
 20
8.3323283370294021
 30
0.0
 40
0.4950149226876426
100
AcDbArc
 50
269.1916958754216
 51
306.87687525883535
  0
ARC
  5
37A
100
AcDbEntity
  8
0
  6
CONTINUOUS
 62
               4
100
AcDbCircle
 10
-132.17443080077649
 20
8.43203543051753
 30
0.0
 40
0.4029269013737999
100
AcDbArc
 50
180.10428358574964
 51
259.90822844260418
  0
ARC
  5
37B
100
AcDbEntity
  8
0
  6
CONTINUOUS
 62
               4
100
AcDbCircle
 10
-132.1734926878012
 20
8.4304680227677267
 30
0.0
 40
0.403865208170398
100
AcDbArc
 50
90.118324735514392
 51
179.88167526448549
  0
LINE
  5
37C
100
AcDbEntity
  8
0
  6
CONTINUOUS
 62
             200
100
AcDbLine
 10
-120.90361966768867
 20
8.9333222686555587
 30
0.0
 11
-119.17129643635533
 21
11.931302064922313
 31
0.0
  0
LINE
  5
37D
100
AcDbEntity
  8
0
  6
CONTINUOUS
 62
               4
100
AcDbLine
 10
-152.57432672315539
 20
6.5373626621217795
 30
0.0
 11
-140.5743267271553
 21
6.5373626621220282
 31
0.0
  0
LINE
  5
37E
100
AcDbEntity
  8
0
  6
CONTINUOUS
 62
               4
100
AcDbLine
 10
-152.57432672315537
 20
4.9373626621216999
 30
0.0
 11
-152.57432672315539
 21
6.5373626621217795
 31
0.0
  0
LINE
  5
37F
100
AcDbEntity
  8
0
  6
CONTINUOUS
 62
               4
100
AcDbLine
 10
-154.07432671915529
 20
5.037362662121609
 30
0.0
 11
-152.57432672315537
 21
5.0373626621216658
 31
0.0
  0
ARC
  5
380
100
AcDbEntity
  8
0
  6
CONTINUOUS
 62
               4
100
AcDbCircle
 10
-154.07432671915532
 20
5.5373626621216658
 30
0.0
 40
0.5
100
AcDbArc
 50
180.00000000000102
 51
270.0000000000008
  0
LINE
  5
381
100
AcDbEntity
  8
0
  6
CONTINUOUS
 62
               4
100
AcDbLine
 10
-153.77432663315534
 20
4.9373626621216431
 30
0.0
 11
-141.37432681315522
 21
4.9373626621219486
 31
0.0
  0
ARC
  5
382
100
AcDbEntity
  8
0
  6
CONTINUOUS
 62
               4
100
AcDbCircle
 10
-141.0743267271553
 20
5.5373626621219714
 30
0.0
 40
0.5
100
AcDbArc
 50
273.91958589965174
 51
0.0000000000013231
  0
LINE
  5
383
100
AcDbEntity
  8
0
  6
CONTINUOUS
 62
               4
100
AcDbLine
 10
-144.27432690819089
 20
5.5373626621219145
 30
0.0
 11
-140.5743267271553
 21
5.5373626621219714
 31
0.0
  0
ARC
  5
384
100
AcDbEntity
  8
0
  6
CONTINUOUS
 62
               4
100
AcDbCircle
 10
-141.37323880802705
 20
5.5362746569936903
 30
0.0
 40
0.598912923125741
100
AcDbArc
 50
269.89591452477367
 51
0.1040854752284441
  0
ARC
  5
385
100
AcDbEntity
  8
0
  6
CONTINUOUS
 62
               4
100
AcDbCircle
 10
-153.77442177980399
 20
5.5372675154729905
 30
0.0
 40
0.599904800896587
100
AcDbArc
 50
236.24741787039491
 51
270.00908727754722
  0
LINE
  5
386
100
AcDbEntity
  8
0
  6
CONTINUOUS
 62
               4
100
AcDbLine
 10
-117.07836714462226
 20
11.082817216922372
 30
0.0
 11
-119.66157659616673
 21
11.082817216922315
 31
0.0
  0
LINE
  5
387
100
AcDbEntity
  8
0
  6
CONTINUOUS
 62
               4
100
AcDbLine
 10
-117.07836714462204
 20
9.7818071166556777
 30
0.0
 11
-120.41574088008863
 21
9.7818071166556209
 31
0.0
  0
ARC
  5
388
100
AcDbEntity
  8
0
  6
CONTINUOUS
 62
               4
100
AcDbCircle
 10
-133.07706935759899
 20
24.784840201582803
 30
0.0
 40
0.4997133381008656
100
AcDbArc
 50
0.1154955796438425
 51
65.173784690191212
  0
ARC
  5
389
100
AcDbEntity
  8
0
  6
CONTINUOUS
 62
               4
100
AcDbCircle
 10
-137.68947824395588
 20
26.937362662121956
 30
0.0
 40
0.5
100
AcDbArc
 50
64.979216838932757
 51
89.999999999999702
  0
LINE
  5
38A
100
AcDbEntity
  8
0
  6
CONTINUOUS
 62
               4
100
AcDbLine
 10
-113.57836714462204
 20
10.683129549601531
 30
0.0
 11
-113.57836714462204
 21
10.183129549601531
 31
0.0
  0
LINE
  5
38B
100
AcDbEntity
  8
0
  6
CENTER
 62
               2
100
AcDbLine
 10
-157.07432671915586
 20
61.037362662121772
 30
0.0
 11
-152.07432671915586
 21
61.037362662121787
 31
0.0
  0
LINE
  5
38C
100
AcDbEntity
  8
0
  6
CENTER
 62
               2
100
AcDbLine
 10
-157.07432669401166
 20
44.437362662121757
 30
0.0
 11
-152.07432669401166
 21
44.437362662121757
 31
0.0
  0
LINE
  5
38D
100
AcDbEntity
  8
0
  6
CONTINUOUS
 62
               7
100
AcDbLine
 10
-56.681144297021774
 20
27.43736266212175
 30
0.0
 11
-56.681144297021774
 21
78.037362662121723
 31
0.0
  0
CIRCLE
  5
38E
100
AcDbEntity
  8
0
  6
CONTINUOUS
 62
               7
100
AcDbCircle
 10
-51.681144297021774
 20
75.73736266212174
 30
0.0
 40
0.7500000000000001
  0
CIRCLE
  5
38F
100
AcDbEntity
  8
0
  6
CONTINUOUS
 62
               7
100
AcDbCircle
 10
-51.681144297021774
 20
75.73736266212174
 30
0.0
 40
1.1000000000000001
  0
LINE
  5
390
100
AcDbEntity
  8
0
  6
CONTINUOUS
 62
               7
100
AcDbLine
 10
-56.681144297021774
 20
64.837362662121734
 30
0.0
 11
-46.681144297021774
 21
64.837362662121734
 31
0.0
  0
CIRCLE
  5
391
100
AcDbEntity
  8
0
  6
CONTINUOUS
 62
               7
100
AcDbCircle
 10
-51.681144297021774
 20
75.73736266212174
 30
0.0
 40
1.1500000000000001
  0
CIRCLE
  5
392
100
AcDbEntity
  8
0
  6
CONTINUOUS
 62
               7
100
AcDbCircle
 10
-51.681144297021774
 20
75.73736266212174
 30
0.0
 40
1.3000000000000012
  0
LINE
  5
393
100
AcDbEntity
  8
0
  6
CENTER
 62
               2
100
AcDbLine
 10
-49.981144297021729
 20
75.73736266212174
 30
0.0
 11
-53.381144297021706
 21
75.73736266212174
 31
0.0
  0
ARC
  5
394
100
AcDbEntity
  8
0
  6
CONTINUOUS
 62
               7
100
AcDbCircle
 10
-51.681144297021774
 20
74.037362662121737
 30
0.0
 40
3.6000000000000005
100
AcDbArc
 50
179.99999999999963
 51
0.0
  0
ARC
  5
395
100
AcDbEntity
  8
0
  6
CONTINUOUS
 62
               7
100
AcDbCircle
 10
-51.681144297021774
 20
74.037362662121737
 30
0.0
 40
2.0
100
AcDbArc
 50
179.99999999999963
 51
0.0
  0
LINE
  5
396
100
AcDbEntity
  8
0
  6
CONTINUOUS
 62
               7
100
AcDbLine
 10
-48.081144297021751
 20
74.037362662121737
 30
0.0
 11
-48.081144297021751
 21
78.037362662121737
 31
0.0
  0
LINE
  5
397
100
AcDbEntity
  8
0
  6
CONTINUOUS
 62
               7
100
AcDbLine
 10
-55.281144297021683
 20
74.037362662121737
 30
0.0
 11
-55.281144297021683
 21
78.037362662121737
 31
0.0
  0
LINE
  5
398
100
AcDbEntity
  8
0
  6
CONTINUOUS
 62
               7
100
AcDbLine
 10
-49.681144297021774
 20
74.037362662121737
 30
0.0
 11
-49.681144297021774
 21
78.037362662121737
 31
0.0
  0
LINE
  5
399
100
AcDbEntity
  8
0
  6
CONTINUOUS
 62
               7
100
AcDbLine
 10
-53.681144297021774
 20
74.037362662121737
 30
0.0
 11
-53.681144297021774
 21
78.037362662121737
 31
0.0
  0
LINE
  5
39A
100
AcDbEntity
  8
0
  6
CONTINUOUS
 62
               7
100
AcDbLine
 10
-46.681144297021774
 20
78.037362662121737
 30
0.0
 11
-56.681144297021774
 21
78.037362662121737
 31
0.0
  0
LINE
  5
39B
100
AcDbEntity
  8
0
  6
CONTINUOUS
 62
               7
100
AcDbLine
 10
-46.681144297021774
 20
27.43736266212175
 30
0.0
 11
-46.681144297021774
 21
78.037362662121723
 31
0.0
  0
LINE
  5
39C
100
AcDbEntity
  8
0
  6
CONTINUOUS
 62
               7
100
AcDbLine
 10
-56.681144297021774
 20
27.43736266212175
 30
0.0
 11
-46.681144297021774
 21
27.43736266212175
 31
0.0
  0
LINE
  5
39D
100
AcDbEntity
  8
0
  6
CONTINUOUS
 62
               7
100
AcDbLine
 10
-49.681144297021774
 20
31.43736266212175
 30
0.0
 11
-49.681144297021774
 21
27.43736266212175
 31
0.0
  0
LINE
  5
39E
100
AcDbEntity
  8
0
  6
CONTINUOUS
 62
               7
100
AcDbLine
 10
-53.681144297021774
 20
31.43736266212175
 30
0.0
 11
-53.681144297021774
 21
27.43736266212175
 31
0.0
  0
LINE
  5
39F
100
AcDbEntity
  8
0
  6
CONTINUOUS
 62
               7
100
AcDbLine
 10
-48.081144297021751
 20
31.43736266212175
 30
0.0
 11
-48.081144297021751
 21
27.43736266212175
 31
0.0
  0
LINE
  5
3A0
100
AcDbEntity
  8
0
  6
CONTINUOUS
 62
               7
100
AcDbLine
 10
-55.281144297021683
 20
31.43736266212175
 30
0.0
 11
-55.281144297021683
 21
27.43736266212175
 31
0.0
  0
ARC
  5
3A1
100
AcDbEntity
  8
0
  6
CONTINUOUS
 62
               7
100
AcDbCircle
 10
-51.681144297021774
 20
31.43736266212175
 30
0.0
 40
2.0
100
AcDbArc
 50
0.0
 51
179.99999999999963
  0
ARC
  5
3A2
100
AcDbEntity
  8
0
  6
CONTINUOUS
 62
               7
100
AcDbCircle
 10
-51.681144297021774
 20
31.43736266212175
 30
0.0
 40
3.6000000000000005
100
AcDbArc
 50
0.0
 51
179.99999999999963
  0
LINE
  5
3A3
100
AcDbEntity
  8
0
  6
CENTER
 62
               2
100
AcDbLine
 10
-53.381144297021706
 20
29.737362662121747
 30
0.0
 11
-49.981144297021729
 21
29.737362662121747
 31
0.0
  0
CIRCLE
  5
3A4
100
AcDbEntity
  8
0
  6
CONTINUOUS
 62
               7
100
AcDbCircle
 10
-51.681144297021774
 20
29.737362662121747
 30
0.0
 40
1.3000000000000012
  0
CIRCLE
  5
3A5
100
AcDbEntity
  8
0
  6
CONTINUOUS
 62
               7
100
AcDbCircle
 10
-51.681144297021774
 20
29.737362662121747
 30
0.0
 40
1.1500000000000001
  0
CIRCLE
  5
3A6
100
AcDbEntity
  8
0
  6
CONTINUOUS
 62
               7
100
AcDbCircle
 10
-51.681144297021774
 20
29.737362662121747
 30
0.0
 40
1.1000000000000001
  0
CIRCLE
  5
3A7
100
AcDbEntity
  8
0
  6
CONTINUOUS
 62
               7
100
AcDbCircle
 10
-51.681144297021774
 20
29.737362662121747
 30
0.0
 40
0.7500000000000001
  0
LINE
  5
3A8
100
AcDbEntity
  8
0
  6
CENTER
 62
               2
100
AcDbLine
 10
-51.681144297021774
 20
101.2353626621217
 30
0.0
 11
-51.681144297021774
 21
4.2393626621217564
 31
0.0
  0
LINE
  5
3A9
100
AcDbEntity
  8
0
  6
CENTER
 62
               2
100
AcDbLine
 10
-48.789144297021721
 20
47.837362662121734
 30
0.0
 11
-54.509144297021749
 21
47.837362662121734
 31
0.0
  0
CIRCLE
  5
3AA
100
AcDbEntity
  8
0
  6
CONTINUOUS
 62
               2
100
AcDbCircle
 10
-51.681147348779632
 20
47.837365713879535
 30
0.0
 40
2.5
  0
CIRCLE
  5
3AB
100
AcDbEntity
  8
0
  6
CONTINUOUS
 62
               7
100
AcDbCircle
 10
-51.681147348779632
 20
47.837365713879535
 30
0.0
 40
2.1000000000000001
  0
LINE
  5
3AC
100
AcDbEntity
  8
0
  6
CENTER
 62
               2
100
AcDbLine
 10
-57.208036908401141
 20
44.437362662121757
 30
0.0
 11
-53.464630680061418
 21
44.437362662121757
 31
0.0
  0
LINE
  5
3AD
100
AcDbEntity
  8
0
  6
CONTINUOUS
 62
               7
100
AcDbLine
 10
-55.481144297021729
 20
42.837362662121734
 30
0.0
 11
-56.681144297021774
 21
42.837362662121734
 31
0.0
  0
LINE
  5
3AE
100
AcDbEntity
  8
0
  6
CONTINUOUS
 62
               7
100
AcDbLine
 10
-55.481144297021729
 20
46.037362662121751
 30
0.0
 11
-56.681144297021774
 21
46.037362662121751
 31
0.0
  0
CIRCLE
  5
3AF
100
AcDbEntity
  8
0
  6
CONTINUOUS
 62
               7
100
AcDbCircle
 10
-55.481144297021729
 20
44.437362662121757
 30
0.0
 40
0.8500000000000002
  0
LINE
  5
3B0
100
AcDbEntity
  8
0
  6
CENTER
 62
               2
100
AcDbLine
 10
-55.481144297021729
 20
42.48736266212174
 30
0.0
 11
-55.481144297021729
 21
46.387362662121745
 31
0.0
  0
ARC
  5
3B1
100
AcDbEntity
  8
0
  6
CONTINUOUS
 62
               7
100
AcDbCircle
 10
-55.481144297021729
 20
44.437362662121757
 30
0.0
 40
1.6000000000000003
100
AcDbArc
 50
270.00000000000023
 51
89.999999999999801
  0
LINE
  5
3B2
100
AcDbEntity
  8
0
  6
CENTER
 62
               2
100
AcDbLine
 10
-49.831144297021751
 20
61.03736266212178
 30
0.0
 11
-45.931144297021774
 21
61.03736266212178
 31
0.0
  0
LINE
  5
3B3
100
AcDbEntity
  8
0
  6
CENTER
 62
               2
100
AcDbLine
 10
-48.869144297021762
 20
57.637362662121745
 30
0.0
 11
-54.589144297021676
 21
57.637362662121745
 31
0.0
  0
CIRCLE
  5
3B4
100
AcDbEntity
  8
0
  6
CONTINUOUS
 62
               2
100
AcDbCircle
 10
-51.681147348779518
 20
57.637365713879547
 30
0.0
 40
2.5
  0
CIRCLE
  5
3B5
100
AcDbEntity
  8
0
  6
CONTINUOUS
 62
               7
100
AcDbCircle
 10
-51.681147348779518
 20
57.637365713879547
 30
0.0
 40
2.1000000000000001
  0
CIRCLE
  5
3B6
100
AcDbEntity
  8
0
  6
CONTINUOUS
 62
               7
100
AcDbCircle
 10
-47.881144297021706
 20
61.03736266212178
 30
0.0
 40
0.8500000000000002
  0
LINE
  5
3B7
100
AcDbEntity
  8
0
  6
CONTINUOUS
 62
               7
100
AcDbLine
 10
-47.881144297021706
 20
62.637362662121802
 30
0.0
 11
-46.681144297021774
 21
62.637362662121802
 31
0.0
  0
LINE
  5
3B8
100
AcDbEntity
  8
0
  6
CONTINUOUS
 62
               7
100
AcDbLine
 10
-47.881144297021706
 20
59.437362662121757
 30
0.0
 11
-46.681144297021774
 21
59.437362662121757
 31
0.0
  0
ARC
  5
3B9
100
AcDbEntity
  8
0
  6
CONTINUOUS
 62
               7
100
AcDbCircle
 10
-47.881144297021706
 20
61.03736266212178
 30
0.0
 40
1.6000000000000003
100
AcDbArc
 50
89.999999999999815
 51
269.99999999999937
  0
LINE
  5
3BA
100
AcDbEntity
  8
0
  6
CENTER
 62
               2
100
AcDbLine
 10
-47.881144297021706
 20
59.087362662121734
 30
0.0
 11
-47.881144297021706
 21
62.987362662121768
 31
0.0
  0
LINE
  5
3BB
100
AcDbEntity
  8
0
  6
CONTINUOUS
 62
               7
100
AcDbLine
 10
-56.681144297021774
 20
40.637362662121738
 30
0.0
 11
-46.681144297021774
 21
40.637362662121738
 31
0.0
  0
ARC
  5
3BC
100
AcDbEntity
  8
0
  6
CONTINUOUS
 62
               4
100
AcDbCircle
 10
-56.180847272815754
 20
78.537659686327814
 30
0.0
 40
0.5002971123771115
100
AcDbArc
 50
180.03401625554557
 51
269.96598374445358
  0
ARC
  5
3BD
100
AcDbEntity
  8
0
  6
CONTINUOUS
 62
               4
100
AcDbCircle
 10
-47.180847449157682
 20
78.537065814257531
 30
0.0
 40
0.4997032403068002
100
AcDbArc
 50
269.96596353714654
 51
0.0340364628527164
  0
LINE
  5
3BE
100
AcDbEntity
  8
0
  6
CONTINUOUS
 62
               4
100
AcDbLine
 10
-56.681144297021774
 20
100.53736266212177
 30
0.0
 11
-56.681144297021774
 21
78.037362662121737
 31
0.0
  0
LINE
  5
3BF
100
AcDbEntity
  8
0
  6
CONTINUOUS
 62
               4
100
AcDbLine
 10
-46.681144297021774
 20
100.53736266212177
 30
0.0
 11
-46.681144297021774
 21
78.037362662121737
 31
0.0
  0
LINE
  5
3C0
100
AcDbEntity
  8
0
  6
CONTINUOUS
 62
               4
100
AcDbLine
 10
-48.931144297021774
 20
97.539362662121803
 30
0.0
 11
-47.181144297021774
 21
97.539362662121803
 31
0.0
  0
ARC
  5
3C1
100
AcDbEntity
  8
0
  6
CONTINUOUS
 62
               4
100
AcDbCircle
 10
-47.41114521257623
 20
97.039361746567536
 30
0.0
 40
0.5000009155550945
100
AcDbArc
 50
0.0001049145970977
 51
89.999895085402713
  0
ARC
  5
3C2
100
AcDbEntity
  8
0
  6
CONTINUOUS
 62
               4
100
AcDbCircle
 10
-47.181139719499242
 20
97.039367239644392
 30
0.0
 40
0.4999954224983215
100
AcDbArc
 50
359.99947544974214
 51
90.000524550256856
  0
LINE
  5
3C3
100
AcDbEntity
  8
0
  6
CONTINUOUS
 62
               4
100
AcDbLine
 10
-51.981144297021842
 20
96.289362662121803
 30
0.0
 11
-51.981144297021842
 21
94.189362662121781
 31
0.0
  0
LINE
  5
3C4
100
AcDbEntity
  8
0
  6
CONTINUOUS
 62
               4
100
AcDbLine
 10
-47.831144297021865
 20
96.039362662121803
 30
0.0
 11
-47.831144297021865
 21
94.039362662121803
 31
0.0
  0
LINE
  5
3C5
100
AcDbEntity
  8
0
  6
CONTINUOUS
 62
               4
100
AcDbLine
 10
-48.831144297021865
 20
96.039362662121803
 30
0.0
 11
-47.831144297021865
 21
96.039362662121803
 31
0.0
  0
CIRCLE
  5
3C6
100
AcDbEntity
  8
0
  6
CONTINUOUS
 62
               4
100
AcDbCircle
 10
-50.431144297021774
 20
95.139347403332707
 30
0.0
 40
0.8499675393104553
  0
LINE
  5
3C7
100
AcDbEntity
  8
0
  6
CONTINUOUS
 62
               4
100
AcDbLine
 10
-49.481144297021842
 20
96.289362662121803
 30
0.0
 11
-49.481144297021842
 21
94.189362662121781
 31
0.0
  0
LINE
  5
3C8
100
AcDbEntity
  8
0
  6
CONTINUOUS
 62
               4
100
AcDbLine
 10
-48.931144297021774
 20
94.139362662121769
 30
0.0
 11
-47.931144297021774
 21
94.139362662121769
 31
0.0
  0
LINE
  5
3C9
100
AcDbEntity
  8
0
  6
CONTINUOUS
 62
               4
100
AcDbLine
 10
-48.831144297021865
 20
94.039362662121803
 30
0.0
 11
-47.831144297021865
 21
94.039362662121803
 31
0.0
  0
LINE
  5
3CA
100
AcDbEntity
  8
0
  6
CONTINUOUS
 62
               4
100
AcDbLine
 10
-51.38114429702182
 20
96.289362662121803
 30
0.0
 11
-51.38114429702182
 21
94.189362662121781
 31
0.0
  0
LINE
  5
3CB
100
AcDbEntity
  8
0
  6
CONTINUOUS
 62
               4
100
AcDbLine
 10
-50.931144297021774
 20
94.189362662121781
 30
0.0
 11
-50.931144297021774
 21
93.889362662121769
 31
0.0
  0
LINE
  5
3CC
100
AcDbEntity
  8
0
  6
CONTINUOUS
 62
               4
100
AcDbLine
 10
-49.931144297021774
 20
94.189362662121781
 30
0.0
 11
-49.931144297021774
 21
93.889362662121769
 31
0.0
  0
LINE
  5
3CD
100
AcDbEntity
  8
0
  6
CONTINUOUS
 62
               4
100
AcDbLine
 10
-50.931144297021774
 20
93.889362662121769
 30
0.0
 11
-49.931144297021774
 21
93.889362662121769
 31
0.0
  0
LINE
  5
3CE
100
AcDbEntity
  8
0
  6
CONTINUOUS
 62
               4
100
AcDbLine
 10
-51.38114429702182
 20
94.189362662121781
 30
0.0
 11
-49.481144297021842
 21
94.189362662121781
 31
0.0
  0
LINE
  5
3CF
100
AcDbEntity
  8
0
  6
CONTINUOUS
 62
               4
100
AcDbLine
 10
-48.931144297021774
 20
95.939362662121781
 30
0.0
 11
-47.931144297021774
 21
95.939362662121781
 31
0.0
  0
LINE
  5
3D0
100
AcDbEntity
  8
0
  6
CONTINUOUS
 62
               4
100
AcDbLine
 10
-47.931144297021774
 20
94.139362662121769
 30
0.0
 11
-47.931144297021774
 21
95.939362662121781
 31
0.0
  0
LINE
  5
3D1
100
AcDbEntity
  8
0
  6
CONTINUOUS
 62
               4
100
AcDbLine
 10
-51.38114429702182
 20
96.089362662121758
 30
0.0
 11
-49.481144297021842
 21
96.089362662121758
 31
0.0
  0
LINE
  5
3D2
100
AcDbEntity
  8
0
  6
CONTINUOUS
 62
               4
100
AcDbLine
 10
-51.38114429702182
 20
96.289362662121803
 30
0.0
 11
-49.481144297021842
 21
96.289362662121803
 31
0.0
  0
LINE
  5
3D3
100
AcDbEntity
  8
0
  6
CONTINUOUS
 62
               4
100
AcDbLine
 10
-48.831144297021865
 20
94.039362662121803
 30
0.0
 11
-48.831144297021865
 21
92.539362662121803
 31
0.0
  0
LINE
  5
3D4
100
AcDbEntity
  8
0
  6
CONTINUOUS
 62
               4
100
AcDbLine
 10
-48.931144297021774
 20
94.139362662121769
 30
0.0
 11
-48.931144297021774
 21
92.639362662121769
 31
0.0
  0
LINE
  5
3D5
100
AcDbEntity
  8
0
  6
CONTINUOUS
 62
               4
100
AcDbLine
 10
-48.831144297021865
 20
97.539362662121803
 30
0.0
 11
-48.831144297021865
 21
96.039362662121803
 31
0.0
  0
LINE
  5
3D6
100
AcDbEntity
  8
0
  6
CONTINUOUS
 62
               4
100
AcDbLine
 10
-48.971144297021851
 20
96.639362662121769
 30
0.0
 11
-49.271144297021806
 21
96.939362662121781
 31
0.0
  0
LINE
  5
3D7
100
AcDbEntity
  8
0
  6
CONTINUOUS
 62
               4
100
AcDbLine
 10
-48.931144297021774
 20
99.539382851854626
 30
0.0
 11
-48.931144297021774
 21
95.939362662121781
 31
0.0
  0
LINE
  5
3D8
100
AcDbEntity
  8
0
  6
CONTINUOUS
 62
               4
100
AcDbLine
 10
-53.431144297021774
 20
93.889362662121769
 30
0.0
 11
-52.431144297021774
 21
93.889362662121769
 31
0.0
  0
LINE
  5
3D9
100
AcDbEntity
  8
0
  6
CONTINUOUS
 62
               4
100
AcDbLine
 10
-52.431144297021774
 20
94.189362662121781
 30
0.0
 11
-52.431144297021774
 21
93.889362662121769
 31
0.0
  0
LINE
  5
3DA
100
AcDbEntity
  8
0
  6
CONTINUOUS
 62
               4
100
AcDbLine
 10
-54.431144297021774
 20
99.539382851854626
 30
0.0
 11
-54.431144297021774
 21
95.939362662121781
 31
0.0
  0
LINE
  5
3DB
100
AcDbEntity
  8
0
  6
CONTINUOUS
 62
               4
100
AcDbLine
 10
-53.88114429702182
 20
96.289362662121803
 30
0.0
 11
-53.88114429702182
 21
94.189362662121781
 31
0.0
  0
LINE
  5
3DC
100
AcDbEntity
  8
0
  6
CONTINUOUS
 62
               4
100
AcDbLine
 10
-54.531144297021797
 20
97.539362662121803
 30
0.0
 11
-54.531144297021797
 21
96.039362662121803
 31
0.0
  0
LINE
  5
3DD
100
AcDbEntity
  8
0
  6
CONTINUOUS
 62
               4
100
AcDbLine
 10
-56.181144297021774
 20
97.539362662121803
 30
0.0
 11
-54.431144297021774
 21
97.539362662121803
 31
0.0
  0
ARC
  5
3DE
100
AcDbEntity
  8
0
  6
CONTINUOUS
 62
               4
100
AcDbCircle
 10
-55.951143381467546
 20
97.039361746567536
 30
0.0
 40
0.5000009155550945
100
AcDbArc
 50
90.000104914596918
 51
179.99989508540253
  0
LINE
  5
3DF
100
AcDbEntity
  8
0
  6
CONTINUOUS
 62
               4
100
AcDbLine
 10
-54.431144297021774
 20
96.599362662121806
 30
0.0
 11
-54.101144297021847
 21
96.939362662121781
 31
0.0
  0
LINE
  5
3E0
100
AcDbEntity
  8
0
  6
CONTINUOUS
 62
               4
100
AcDbLine
 10
-55.431144297021774
 20
94.139362662121769
 30
0.0
 11
-55.431144297021774
 21
95.939362662121781
 31
0.0
  0
LINE
  5
3E1
100
AcDbEntity
  8
0
  6
CONTINUOUS
 62
               4
100
AcDbLine
 10
-55.531144297021797
 20
96.039362662121803
 30
0.0
 11
-55.531144297021797
 21
94.039362662121803
 31
0.0
  0
LINE
  5
3E2
100
AcDbEntity
  8
0
  6
CONTINUOUS
 62
               4
100
AcDbLine
 10
-55.531144297021797
 20
96.039362662121803
 30
0.0
 11
-54.531144297021797
 21
96.039362662121803
 31
0.0
  0
LINE
  5
3E3
100
AcDbEntity
  8
0
  6
CONTINUOUS
 62
               4
100
AcDbLine
 10
-55.431144297021774
 20
95.939362662121781
 30
0.0
 11
-54.431144297021774
 21
95.939362662121781
 31
0.0
  0
LINE
  5
3E4
100
AcDbEntity
  8
0
  6
CONTINUOUS
 62
               4
100
AcDbLine
 10
-55.431144297021774
 20
94.139362662121769
 30
0.0
 11
-54.431144297021774
 21
94.139362662121769
 31
0.0
  0
LINE
  5
3E5
100
AcDbEntity
  8
0
  6
CONTINUOUS
 62
               4
100
AcDbLine
 10
-55.531144297021797
 20
94.039362662121803
 30
0.0
 11
-54.531144297021797
 21
94.039362662121803
 31
0.0
  0
LINE
  5
3E6
100
AcDbEntity
  8
0
  6
CONTINUOUS
 62
               4
100
AcDbLine
 10
-54.531144297021797
 20
94.039362662121803
 30
0.0
 11
-54.531144297021797
 21
92.539362662121803
 31
0.0
  0
LINE
  5
3E7
100
AcDbEntity
  8
0
  6
CONTINUOUS
 62
               4
100
AcDbLine
 10
-54.431144297021774
 20
94.139362662121769
 30
0.0
 11
-54.431144297021774
 21
92.639362662121769
 31
0.0
  0
ARC
  5
3E8
100
AcDbEntity
  8
0
  6
CONTINUOUS
 62
               4
100
AcDbCircle
 10
-56.18113361584858
 20
97.039351980948496
 30
0.0
 40
0.5000106812873828
100
AcDbArc
 50
90.001223946153175
 51
179.9987760538454
  0
LINE
  5
3E9
100
AcDbEntity
  8
0
  6
CONTINUOUS
 62
               4
100
AcDbLine
 10
-53.88114429702182
 20
96.289362662121803
 30
0.0
 11
-51.981144297021842
 21
96.289362662121803
 31
0.0
  0
LINE
  5
3EA
100
AcDbEntity
  8
0
  6
CONTINUOUS
 62
               4
100
AcDbLine
 10
-53.88114429702182
 20
96.089362662121758
 30
0.0
 11
-51.981144297021842
 21
96.089362662121758
 31
0.0
  0
CIRCLE
  5
3EB
100
AcDbEntity
  8
0
  6
CONTINUOUS
 62
               4
100
AcDbCircle
 10
-52.931144297021774
 20
95.139347403332707
 30
0.0
 40
0.8499675393104553
  0
LINE
  5
3EC
100
AcDbEntity
  8
0
  6
CONTINUOUS
 62
               4
100
AcDbLine
 10
-53.88114429702182
 20
94.189362662121781
 30
0.0
 11
-51.981144297021842
 21
94.189362662121781
 31
0.0
  0
LINE
  5
3ED
100
AcDbEntity
  8
0
  6
CONTINUOUS
 62
               4
100
AcDbLine
 10
-54.431144297021774
 20
92.639362662121769
 30
0.0
 11
-48.931144297021774
 21
92.639362662121769
 31
0.0
  0
LINE
  5
3EE
100
AcDbEntity
  8
0
  6
CONTINUOUS
 62
               4
100
AcDbLine
 10
-54.531144297021797
 20
92.539362662121803
 30
0.0
 11
-48.831144297021865
 21
92.539362662121803
 31
0.0
  0
LINE
  5
3EF
100
AcDbEntity
  8
0
  6
CONTINUOUS
 62
               4
100
AcDbLine
 10
-54.431144297021774
 20
97.639362662121769
 30
0.0
 11
-48.931144297021774
 21
97.639362662121769
 31
0.0
  0
LINE
  5
3F0
100
AcDbEntity
  8
0
  6
CONTINUOUS
 62
               4
100
AcDbLine
 10
-54.401144297021801
 20
96.639362662121769
 30
0.0
 11
-48.971144297021851
 21
96.639362662121769
 31
0.0
  0
LINE
  5
3F1
100
AcDbEntity
  8
0
  6
CONTINUOUS
 62
               4
100
AcDbLine
 10
-54.101144297021847
 20
96.939362662121781
 30
0.0
 11
-49.271144297021806
 21
96.939362662121781
 31
0.0
  0
ARC
  5
3F2
100
AcDbEntity
  8
0
  6
CONTINUOUS
 62
               4
100
AcDbCircle
 10
-55.949946872532109
 20
80.731576498088273
 30
0.0
 40
0.5011988548874781
100
AcDbArc
 50
180.13688665515463
 51
269.86311334484435
  0
LINE
  5
3F3
100
AcDbEntity
  8
0
  6
CONTINUOUS
 62
               4
100
AcDbLine
 10
-56.45114429702187
 20
97.039362662121803
 30
0.0
 11
-56.45114429702187
 21
80.730379073598968
 31
0.0
  0
ARC
  5
3F4
100
AcDbEntity
  8
0
  6
CONTINUOUS
 62
               4
100
AcDbCircle
 10
-47.412341721511666
 20
80.731576498088273
 30
0.0
 40
0.5011988548874781
100
AcDbArc
 50
270.1368866551544
 51
359.86311334484418
  0
LINE
  5
3F5
100
AcDbEntity
  8
0
  6
CONTINUOUS
 62
               4
100
AcDbLine
 10
-46.911144297021792
 20
97.039362662121803
 30
0.0
 11
-46.911144297021792
 21
80.730379073598968
 31
0.0
  0
LINE
  5
3F6
100
AcDbEntity
  8
0
  6
CONTINUOUS
 62
               4
100
AcDbLine
 10
-55.95114429702187
 20
80.23037907359857
 30
0.0
 11
-47.411144297021792
 21
80.23037907359857
 31
0.0
  0
LINE
  5
3F7
100
AcDbEntity
  8
0
  6
PHANTOM
 62
             200
100
AcDbLine
 10
-53.181144297021774
 20
85.537362662121737
 30
0.0
 11
-53.181144297021774
 21
83.537362662121737
 31
0.0
  0
LINE
  5
3F8
100
AcDbEntity
  8
0
  6
PHANTOM
 62
             200
100
AcDbLine
 10
-50.181144297021774
 20
85.537362662121737
 30
0.0
 11
-50.181144297021774
 21
83.537362662121737
 31
0.0
  0
LINE
  5
3F9
100
AcDbEntity
  8
0
  6
PHANTOM
 62
             200
100
AcDbLine
 10
-53.181144297021774
 20
83.537362662121737
 30
0.0
 11
-50.181144297021774
 21
83.537362662121737
 31
0.0
  0
LINE
  5
3FA
100
AcDbEntity
  8
0
  6
PHANTOM
 62
             200
100
AcDbLine
 10
-53.181144297021774
 20
85.537362662121737
 30
0.0
 11
-50.181144297021774
 21
85.537362662121737
 31
0.0
  0
LINE
  5
3FB
100
AcDbEntity
  8
0
  6
CONTINUOUS
 62
               4
100
AcDbLine
 10
-46.681144297021774
 20
100.53736266212177
 30
0.0
 11
-56.681144297021774
 21
100.53736266212177
 31
0.0
  0
LINE
  5
3FC
100
AcDbEntity
  8
0
  6
CONTINUOUS
 62
               4
100
AcDbLine
 10
-46.681144297021774
 20
98.937362662121771
 30
0.0
 11
-48.931144297021774
 21
98.937362662121771
 31
0.0
  0
LINE
  5
3FD
100
AcDbEntity
  8
0
  6
CONTINUOUS
 62
               4
100
AcDbLine
 10
-49.88114429702182
 20
100.43736266212177
 30
0.0
 11
-56.181144297021774
 21
100.43736266212177
 31
0.0
  0
LINE
  5
3FE
100
AcDbEntity
  8
0
  6
CONTINUOUS
 62
               4
100
AcDbLine
 10
-49.88114429702182
 20
100.43736266212177
 30
0.0
 11
-49.88114429702182
 21
99.539382851854626
 31
0.0
  0
ARC
  5
3FF
100
AcDbEntity
  8
0
  6
CONTINUOUS
 62
               4
100
AcDbCircle
 10
-56.181144297021774
 20
99.937362662121771
 30
0.0
 40
0.5
100
AcDbArc
 50
89.999999999999815
 51
179.99999999999963
  0
LINE
  5
400
100
AcDbEntity
  8
0
  6
CONTINUOUS
 62
               4
100
AcDbLine
 10
-46.681144297021774
 20
99.937362662121771
 30
0.0
 11
-49.88114429702182
 21
99.937362662121771
 31
0.0
  0
ARC
  5
401
100
AcDbEntity
  8
0
  6
CONTINUOUS
 62
               4
100
AcDbCircle
 10
-47.477049150363655
 20
99.937457808779939
 30
0.0
 40
0.5999048608870732
100
AcDbArc
 50
359.99091272245295
 51
90.009087277546172
  0
ARC
  5
402
100
AcDbEntity
  8
0
  6
CONTINUOUS
 62
               4
100
AcDbCircle
 10
-49.278232302258857
 20
99.938450667358794
 30
0.0
 40
0.5989129830170392
100
AcDbArc
 50
89.895914524772735
 51
180.10408547522667
  0
LINE
  5
403
100
AcDbEntity
  8
0
  6
CONTINUOUS
 62
               4
100
AcDbLine
 10
-53.431144297021774
 20
93.889362662121769
 30
0.0
 11
-53.431144297021774
 21
94.189362662121781
 31
0.0
  0
LINE
  5
404
100
AcDbEntity
  8
0
  6
CONTINUOUS
 62
               4
100
AcDbLine
 10
-54.431144297021774
 20
99.539382851854626
 30
0.0
 11
-48.931144297021774
 21
99.539382851854626
 31
0.0
  0
LINE
  5
405
100
AcDbEntity
  8
0
  6
CONTINUOUS
 62
               4
100
AcDbLine
 10
-54.431144297021774
 20
98.542413155454554
 30
0.0
 11
-48.931144297021774
 21
98.542413155454554
 31
0.0
  0
ARC
  5
406
100
AcDbEntity
  8
0
  6
CONTINUOUS
 62
               4
100
AcDbCircle
 10
-47.181441321228021
 20
26.93706563791568
 30
0.0
 40
0.5002971123771115
100
AcDbArc
 50
0.034016255545966
 51
89.965983744453979
  0
ARC
  5
407
100
AcDbEntity
  8
0
  6
CONTINUOUS
 62
               4
100
AcDbCircle
 10
-56.181441144886094
 20
26.937659509985963
 30
0.0
 40
0.4997032403068002
100
AcDbArc
 50
89.965963537146934
 51
180.03403646285233
  0
LINE
  5
408
100
AcDbEntity
  8
0
  6
CONTINUOUS
 62
               4
100
AcDbLine
 10
-46.681144297021774
 20
4.9373626621217568
 30
0.0
 11
-46.681144297021774
 21
27.437362662121757
 31
0.0
  0
LINE
  5
409
100
AcDbEntity
  8
0
  6
CONTINUOUS
 62
               4
100
AcDbLine
 10
-56.681144297021774
 20
4.9373626621217568
 30
0.0
 11
-56.681144297021774
 21
27.437362662121757
 31
0.0
  0
LINE
  5
40A
100
AcDbEntity
  8
0
  6
CONTINUOUS
 62
               4
100
AcDbLine
 10
-54.431144297021774
 20
7.9353626621216904
 30
0.0
 11
-56.181144297021774
 21
7.9353626621216904
 31
0.0
  0
ARC
  5
40B
100
AcDbEntity
  8
0
  6
CONTINUOUS
 62
               4
100
AcDbCircle
 10
-55.951143381467546
 20
8.4353635776759575
 30
0.0
 40
0.5000009155550945
100
AcDbArc
 50
180.00010491459673
 51
269.99989508540227
  0
ARC
  5
40C
100
AcDbEntity
  8
0
  6
CONTINUOUS
 62
               4
100
AcDbCircle
 10
-56.181148874544533
 20
8.4353580845991019
 30
0.0
 40
0.4999954224983215
100
AcDbArc
 50
179.99947544974253
 51
270.00052455025644
  0
LINE
  5
40D
100
AcDbEntity
  8
0
  6
CONTINUOUS
 62
               4
100
AcDbLine
 10
-51.38114429702182
 20
9.1853626621216904
 30
0.0
 11
-51.38114429702182
 21
11.285362662121713
 31
0.0
  0
LINE
  5
40E
100
AcDbEntity
  8
0
  6
CONTINUOUS
 62
               4
100
AcDbLine
 10
-55.53114429702191
 20
9.4353626621216904
 30
0.0
 11
-55.53114429702191
 21
11.43536266212169
 31
0.0
  0
LINE
  5
40F
100
AcDbEntity
  8
0
  6
CONTINUOUS
 62
               4
100
AcDbLine
 10
-54.531144297021797
 20
9.4353626621216904
 30
0.0
 11
-55.53114429702191
 21
9.4353626621216904
 31
0.0
  0
CIRCLE
  5
410
100
AcDbEntity
  8
0
  6
CONTINUOUS
 62
               4
100
AcDbCircle
 10
-52.931144297021774
 20
10.335377920910787
 30
0.0
 40
0.8499675393104553
  0
LINE
  5
411
100
AcDbEntity
  8
0
  6
CONTINUOUS
 62
               4
100
AcDbLine
 10
-53.88114429702182
 20
9.1853626621216904
 30
0.0
 11
-53.88114429702182
 21
11.285362662121713
 31
0.0
  0
LINE
  5
412
100
AcDbEntity
  8
0
  6
CONTINUOUS
 62
               4
100
AcDbLine
 10
-54.431144297021774
 20
11.335362662121724
 30
0.0
 11
-55.431144297021774
 21
11.335362662121724
 31
0.0
  0
LINE
  5
413
100
AcDbEntity
  8
0
  6
CONTINUOUS
 62
               4
100
AcDbLine
 10
-54.531144297021797
 20
11.43536266212169
 30
0.0
 11
-55.53114429702191
 21
11.43536266212169
 31
0.0
  0
LINE
  5
414
100
AcDbEntity
  8
0
  6
CONTINUOUS
 62
               4
100
AcDbLine
 10
-51.981144297021842
 20
9.1853626621216904
 30
0.0
 11
-51.981144297021842
 21
11.285362662121713
 31
0.0
  0
LINE
  5
415
100
AcDbEntity
  8
0
  6
CONTINUOUS
 62
               4
100
AcDbLine
 10
-52.431144297021774
 20
11.285362662121713
 30
0.0
 11
-52.431144297021774
 21
11.585362662121724
 31
0.0
  0
LINE
  5
416
100
AcDbEntity
  8
0
  6
CONTINUOUS
 62
               4
100
AcDbLine
 10
-53.431144297021774
 20
11.285362662121713
 30
0.0
 11
-53.431144297021774
 21
11.585362662121724
 31
0.0
  0
LINE
  5
417
100
AcDbEntity
  8
0
  6
CONTINUOUS
 62
               4
100
AcDbLine
 10
-52.431144297021774
 20
11.585362662121724
 30
0.0
 11
-53.431144297021774
 21
11.585362662121724
 31
0.0
  0
LINE
  5
418
100
AcDbEntity
  8
0
  6
CONTINUOUS
 62
               4
100
AcDbLine
 10
-51.981144297021842
 20
11.285362662121713
 30
0.0
 11
-53.88114429702182
 21
11.285362662121713
 31
0.0
  0
LINE
  5
419
100
AcDbEntity
  8
0
  6
CONTINUOUS
 62
               4
100
AcDbLine
 10
-54.431144297021774
 20
9.5353626621217131
 30
0.0
 11
-55.431144297021774
 21
9.5353626621217131
 31
0.0
  0
LINE
  5
41A
100
AcDbEntity
  8
0
  6
CONTINUOUS
 62
               4
100
AcDbLine
 10
-55.431144297021774
 20
11.335362662121724
 30
0.0
 11
-55.431144297021774
 21
9.5353626621217131
 31
0.0
  0
LINE
  5
41B
100
AcDbEntity
  8
0
  6
CONTINUOUS
 62
               4
100
AcDbLine
 10
-51.981144297021842
 20
9.3853626621217359
 30
0.0
 11
-53.88114429702182
 21
9.3853626621217359
 31
0.0
  0
LINE
  5
41C
100
AcDbEntity
  8
0
  6
CONTINUOUS
 62
               4
100
AcDbLine
 10
-51.981144297021842
 20
9.1853626621216904
 30
0.0
 11
-53.88114429702182
 21
9.1853626621216904
 31
0.0
  0
LINE
  5
41D
100
AcDbEntity
  8
0
  6
CONTINUOUS
 62
               4
100
AcDbLine
 10
-54.531144297021797
 20
11.43536266212169
 30
0.0
 11
-54.531144297021797
 21
12.93536266212169
 31
0.0
  0
LINE
  5
41E
100
AcDbEntity
  8
0
  6
CONTINUOUS
 62
               4
100
AcDbLine
 10
-54.431144297021774
 20
11.335362662121724
 30
0.0
 11
-54.431144297021774
 21
12.835362662121724
 31
0.0
  0
LINE
  5
41F
100
AcDbEntity
  8
0
  6
CONTINUOUS
 62
               4
100
AcDbLine
 10
-54.531144297021797
 20
7.9353626621216904
 30
0.0
 11
-54.531144297021797
 21
9.4353626621216904
 31
0.0
  0
LINE
  5
420
100
AcDbEntity
  8
0
  6
CONTINUOUS
 62
               4
100
AcDbLine
 10
-54.39114429702181
 20
8.8353626621217245
 30
0.0
 11
-54.091144297021856
 21
8.5353626621217131
 31
0.0
  0
LINE
  5
421
100
AcDbEntity
  8
0
  6
CONTINUOUS
 62
               4
100
AcDbLine
 10
-54.431144297021774
 20
5.9353424723888679
 30
0.0
 11
-54.431144297021774
 21
9.5353626621217131
 31
0.0
  0
LINE
  5
422
100
AcDbEntity
  8
0
  6
CONTINUOUS
 62
               4
100
AcDbLine
 10
-49.931144297021774
 20
11.585362662121724
 30
0.0
 11
-50.931144297021774
 21
11.585362662121724
 31
0.0
  0
LINE
  5
423
100
AcDbEntity
  8
0
  6
CONTINUOUS
 62
               4
100
AcDbLine
 10
-50.931144297021774
 20
11.285362662121713
 30
0.0
 11
-50.931144297021774
 21
11.585362662121724
 31
0.0
  0
LINE
  5
424
100
AcDbEntity
  8
0
  6
CONTINUOUS
 62
               4
100
AcDbLine
 10
-48.931144297021774
 20
5.9353424723888679
 30
0.0
 11
-48.931144297021774
 21
9.5353626621217131
 31
0.0
  0
LINE
  5
425
100
AcDbEntity
  8
0
  6
CONTINUOUS
 62
               4
100
AcDbLine
 10
-49.481144297021842
 20
9.1853626621216904
 30
0.0
 11
-49.481144297021842
 21
11.285362662121713
 31
0.0
  0
LINE
  5
426
100
AcDbEntity
  8
0
  6
CONTINUOUS
 62
               4
100
AcDbLine
 10
-48.831144297021865
 20
7.9353626621216904
 30
0.0
 11
-48.831144297021865
 21
9.4353626621216904
 31
0.0
  0
LINE
  5
427
100
AcDbEntity
  8
0
  6
CONTINUOUS
 62
               4
100
AcDbLine
 10
-47.181144297021774
 20
7.9353626621216904
 30
0.0
 11
-48.931144297021774
 21
7.9353626621216904
 31
0.0
  0
ARC
  5
428
100
AcDbEntity
  8
0
  6
CONTINUOUS
 62
               4
100
AcDbCircle
 10
-47.41114521257623
 20
8.4353635776759575
 30
0.0
 40
0.5000009155550945
100
AcDbArc
 50
270.00010491459648
 51
359.99989508540216
  0
LINE
  5
429
100
AcDbEntity
  8
0
  6
CONTINUOUS
 62
               4
100
AcDbLine
 10
-48.931144297021774
 20
8.8753626621216881
 30
0.0
 11
-49.261144297021815
 21
8.5353626621217131
 31
0.0
  0
LINE
  5
42A
100
AcDbEntity
  8
0
  6
CONTINUOUS
 62
               4
100
AcDbLine
 10
-47.931144297021774
 20
11.335362662121724
 30
0.0
 11
-47.931144297021774
 21
9.5353626621217131
 31
0.0
  0
LINE
  5
42B
100
AcDbEntity
  8
0
  6
CONTINUOUS
 62
               4
100
AcDbLine
 10
-47.831144297021865
 20
9.4353626621216904
 30
0.0
 11
-47.831144297021865
 21
11.43536266212169
 31
0.0
  0
LINE
  5
42C
100
AcDbEntity
  8
0
  6
CONTINUOUS
 62
               4
100
AcDbLine
 10
-47.831144297021865
 20
9.4353626621216904
 30
0.0
 11
-48.831144297021865
 21
9.4353626621216904
 31
0.0
  0
LINE
  5
42D
100
AcDbEntity
  8
0
  6
CONTINUOUS
 62
               4
100
AcDbLine
 10
-47.931144297021774
 20
9.5353626621217131
 30
0.0
 11
-48.931144297021774
 21
9.5353626621217131
 31
0.0
  0
LINE
  5
42E
100
AcDbEntity
  8
0
  6
CONTINUOUS
 62
               4
100
AcDbLine
 10
-47.931144297021774
 20
11.335362662121724
 30
0.0
 11
-48.931144297021774
 21
11.335362662121724
 31
0.0
  0
LINE
  5
42F
100
AcDbEntity
  8
0
  6
CONTINUOUS
 62
               4
100
AcDbLine
 10
-47.831144297021865
 20
11.43536266212169
 30
0.0
 11
-48.831144297021865
 21
11.43536266212169
 31
0.0
  0
LINE
  5
430
100
AcDbEntity
  8
0
  6
CONTINUOUS
 62
               4
100
AcDbLine
 10
-48.831144297021865
 20
11.43536266212169
 30
0.0
 11
-48.831144297021865
 21
12.93536266212169
 31
0.0
  0
LINE
  5
431
100
AcDbEntity
  8
0
  6
CONTINUOUS
 62
               4
100
AcDbLine
 10
-48.931144297021774
 20
11.335362662121724
 30
0.0
 11
-48.931144297021774
 21
12.835362662121724
 31
0.0
  0
ARC
  5
432
100
AcDbEntity
  8
0
  6
CONTINUOUS
 62
               4
100
AcDbCircle
 10
-47.181154978195082
 20
8.435373343294998
 30
0.0
 40
0.5000106812873828
100
AcDbArc
 50
270.00122394615283
 51
359.99877605384501
  0
LINE
  5
433
100
AcDbEntity
  8
0
  6
CONTINUOUS
 62
               4
100
AcDbLine
 10
-49.481144297021842
 20
9.1853626621216904
 30
0.0
 11
-51.38114429702182
 21
9.1853626621216904
 31
0.0
  0
LINE
  5
434
100
AcDbEntity
  8
0
  6
CONTINUOUS
 62
               4
100
AcDbLine
 10
-49.481144297021842
 20
9.3853626621217359
 30
0.0
 11
-51.38114429702182
 21
9.3853626621217359
 31
0.0
  0
CIRCLE
  5
435
100
AcDbEntity
  8
0
  6
CONTINUOUS
 62
               4
100
AcDbCircle
 10
-50.431144297021774
 20
10.335377920910787
 30
0.0
 40
0.8499675393104553
  0
LINE
  5
436
100
AcDbEntity
  8
0
  6
CONTINUOUS
 62
               4
100
AcDbLine
 10
-49.481144297021842
 20
11.285362662121713
 30
0.0
 11
-51.38114429702182
 21
11.285362662121713
 31
0.0
  0
LINE
  5
437
100
AcDbEntity
  8
0
  6
CONTINUOUS
 62
               4
100
AcDbLine
 10
-48.931144297021774
 20
12.835362662121724
 30
0.0
 11
-54.431144297021774
 21
12.835362662121724
 31
0.0
  0
LINE
  5
438
100
AcDbEntity
  8
0
  6
CONTINUOUS
 62
               4
100
AcDbLine
 10
-48.831144297021865
 20
12.93536266212169
 30
0.0
 11
-54.531144297021797
 21
12.93536266212169
 31
0.0
  0
LINE
  5
439
100
AcDbEntity
  8
0
  6
CONTINUOUS
 62
               4
100
AcDbLine
 10
-48.931144297021774
 20
7.8353626621217245
 30
0.0
 11
-54.431144297021774
 21
7.8353626621217245
 31
0.0
  0
LINE
  5
43A
100
AcDbEntity
  8
0
  6
CONTINUOUS
 62
               4
100
AcDbLine
 10
-48.96114429702186
 20
8.8353626621217245
 30
0.0
 11
-54.39114429702181
 21
8.8353626621217245
 31
0.0
  0
LINE
  5
43B
100
AcDbEntity
  8
0
  6
CONTINUOUS
 62
               4
100
AcDbLine
 10
-49.261144297021815
 20
8.5353626621217131
 30
0.0
 11
-54.091144297021856
 21
8.5353626621217131
 31
0.0
  0
ARC
  5
43C
100
AcDbEntity
  8
0
  6
CONTINUOUS
 62
               4
100
AcDbCircle
 10
-47.412341721511666
 20
24.74314882615522
 30
0.0
 40
0.5011988548874781
100
AcDbArc
 50
0.1368866551550224
 51
89.863113344844777
  0
LINE
  5
43D
100
AcDbEntity
  8
0
  6
CONTINUOUS
 62
               4
100
AcDbLine
 10
-46.911144297021792
 20
8.4353626621216904
 30
0.0
 11
-46.911144297021792
 21
24.744346250644526
 31
0.0
  0
ARC
  5
43E
100
AcDbEntity
  8
0
  6
CONTINUOUS
 62
               4
100
AcDbCircle
 10
-55.949946872532109
 20
24.74314882615522
 30
0.0
 40
0.5011988548874781
100
AcDbArc
 50
90.136886655154825
 51
179.86311334484458
  0
LINE
  5
43F
100
AcDbEntity
  8
0
  6
CONTINUOUS
 62
               4
100
AcDbLine
 10
-56.451144297021983
 20
8.4353626621216904
 30
0.0
 11
-56.451144297021983
 21
24.744346250644526
 31
0.0
  0
LINE
  5
440
100
AcDbEntity
  8
0
  6
CONTINUOUS
 62
               4
100
AcDbLine
 10
-47.411144297021792
 20
25.244346250644924
 30
0.0
 11
-55.951144297021983
 21
25.244346250644924
 31
0.0
  0
LINE
  5
441
100
AcDbEntity
  8
0
  6
PHANTOM
 62
             200
100
AcDbLine
 10
-50.181144297021774
 20
19.937362662121757
 30
0.0
 11
-50.181144297021774
 21
21.937362662121757
 31
0.0
  0
LINE
  5
442
100
AcDbEntity
  8
0
  6
PHANTOM
 62
             200
100
AcDbLine
 10
-53.181144297021774
 20
19.937362662121757
 30
0.0
 11
-53.181144297021774
 21
21.937362662121757
 31
0.0
  0
LINE
  5
443
100
AcDbEntity
  8
0
  6
PHANTOM
 62
             200
100
AcDbLine
 10
-50.181144297021774
 20
21.937362662121757
 30
0.0
 11
-53.181144297021774
 21
21.937362662121757
 31
0.0
  0
LINE
  5
444
100
AcDbEntity
  8
0
  6
PHANTOM
 62
             200
100
AcDbLine
 10
-50.181144297021774
 20
19.937362662121757
 30
0.0
 11
-53.181144297021774
 21
19.937362662121757
 31
0.0
  0
LINE
  5
445
100
AcDbEntity
  8
0
  6
CONTINUOUS
 62
               4
100
AcDbLine
 10
-56.681144297021774
 20
4.9373626621217568
 30
0.0
 11
-46.681144297021774
 21
4.9373626621217568
 31
0.0
  0
LINE
  5
446
100
AcDbEntity
  8
0
  6
CONTINUOUS
 62
               4
100
AcDbLine
 10
-56.681144297021774
 20
6.5373626621217227
 30
0.0
 11
-54.431144297021774
 21
6.5373626621217227
 31
0.0
  0
LINE
  5
447
100
AcDbEntity
  8
0
  6
CONTINUOUS
 62
               4
100
AcDbLine
 10
-53.481144297021842
 20
5.0373626621217227
 30
0.0
 11
-47.181144297021774
 21
5.0373626621217227
 31
0.0
  0
LINE
  5
448
100
AcDbEntity
  8
0
  6
CONTINUOUS
 62
               4
100
AcDbLine
 10
-53.481144297021842
 20
5.0373626621217227
 30
0.0
 11
-53.481144297021842
 21
5.9353424723888679
 31
0.0
  0
ARC
  5
449
100
AcDbEntity
  8
0
  6
CONTINUOUS
 62
               4
100
AcDbCircle
 10
-47.181144297021774
 20
5.5373626621217227
 30
0.0
 40
0.5
100
AcDbArc
 50
269.99999999999937
 51
0.0
  0
LINE
  5
44A
100
AcDbEntity
  8
0
  6
CONTINUOUS
 62
               4
100
AcDbLine
 10
-56.681144297021774
 20
5.5373626621217227
 30
0.0
 11
-53.481144297021842
 21
5.5373626621217227
 31
0.0
  0
ARC
  5
44B
100
AcDbEntity
  8
0
  6
CONTINUOUS
 62
               4
100
AcDbCircle
 10
-55.885239443680121
 20
5.5372675154635544
 30
0.0
 40
0.5999048608870732
100
AcDbArc
 50
179.99091272245337
 51
270.00908727754575
  0
ARC
  5
44C
100
AcDbEntity
  8
0
  6
CONTINUOUS
 62
               4
100
AcDbCircle
 10
-54.084056291784805
 20
5.5362746568847001
 30
0.0
 40
0.5989129830170392
100
AcDbArc
 50
269.89591452477231
 51
0.1040854752270701
  0
LINE
  5
44D
100
AcDbEntity
  8
0
  6
CONTINUOUS
 62
               4
100
AcDbLine
 10
-49.931144297021774
 20
11.585362662121724
 30
0.0
 11
-49.931144297021774
 21
11.285362662121713
 31
0.0
  0
LINE
  5
44E
100
AcDbEntity
  8
0
  6
CONTINUOUS
 62
               4
100
AcDbLine
 10
-48.931144297021774
 20
5.9353424723888679
 30
0.0
 11
-54.431144297021774
 21
5.9353424723888679
 31
0.0
  0
LINE
  5
44F
100
AcDbEntity
  8
0
  6
CONTINUOUS
 62
               4
100
AcDbLine
 10
-48.931144297021774
 20
6.9323121687889397
 30
0.0
 11
-54.431144297021774
 21
6.9323121687889397
 31
0.0
  0
LINE
  5
450
100
AcDbEntity
  8
0
  6
CONTINUOUS
 62
               4
100
AcDbLine
 10
-56.681144297021774
 20
27.437362662121757
 30
0.0
 11
-46.681144297021774
 21
27.437362662121757
 31
0.0
  0
ENDSEC
  0
SECTION
  2
OBJECTS
  0
DICTIONARY
  5
19
100
AcDbDictionary
  3
ACAD_GROUP
350
1A
  3
ACAD_MLINESTYLE
350
1B
  0
DICTIONARY
  5
1A
102
{ACAD_REACTORS
330
19
102
}
100
AcDbDictionary
  0
DICTIONARY
  5
1B
102
{ACAD_REACTORS
330
19
102
}
100
AcDbDictionary
  3
STANDARD
350
1C
  0
MLINESTYLE
  5
1C
102
{ACAD_REACTORS
330
1B
102
}
100
AcDbMlineStyle
  2
Standard
 70
               0
  3

 62
               0
 51
90.0
 52
90.0
 71
               2
 49
0.5
 62
             256
  6
ByLayer
 49
-0.5
 62
             256
  6
ByLayer
  0
ENDSEC
  0
EOF
