  0
SECTION
  2
HEADER
  9
$ACADVER
  1
AC1012
  9
$DWGCODEPAGE
  3
dos932
  9
$INSBASE
 10
0.0
 20
0.0
 30
0.0
  9
$EXTMIN
 10
-281.25
 20
-195.0
 30
0.0
  9
$EXTMAX
 10
285.6319057062413
 20
195.5
 30
0.0
  9
$LIMMIN
 10
-281.25
 20
-195.0
  9
$LIMMAX
 10
285.6319057062413
 20
195.5
  9
$ORTHOMODE
 70
               0
  9
$REGENMODE
 70
               1
  9
$FILLMODE
 70
               1
  9
$QTEXTMODE
 70
               0
  9
$MIRRTEXT
 70
               1
  9
$DRAGMODE
 70
               2
  9
$LTSCALE
 40
1.0
  9
$OSMODE
 70
               0
  9
$ATTMODE
 70
               1
  9
$TEXTSIZE
 40
3.2000000476837158
  9
$TRACEWID
 40
0.05
  9
$TEXTSTYLE
  7
MX_NOTE_STANDARD
  9
$CLAYER
  8
0
  9
$CELTYPE
  6
CONTINUOUS
  9
$CECOLOR
 62
             256
  9
$CELTSCALE
 40
1.0
  9
$DELOBJ
 70
               1
  9
$DISPSILH
 70
               0
  9
$DIMSCALE
 40
1.0
  9
$DIMASZ
 40
2.5
  9
$DIMEXO
 40
1.5
  9
$DIMDLI
 40
3.75
  9
$DIMRND
 40
0.0
  9
$DIMDLE
 40
0.0
  9
$DIMEXE
 40
1.5
  9
$DIMTP
 40
0.0
  9
$DIMTM
 40
0.0
  9
$DIMTXT
 40
3.2000000476837158
  9
$DIMCEN
 40
2.5
  9
$DIMTSZ
 40
0.0
  9
$DIMTOL
 70
               0
  9
$DIMLIM
 70
               0
  9
$DIMTIH
 70
               0
  9
$DIMTOH
 70
               0
  9
$DIMSE1
 70
               0
  9
$DIMSE2
 70
               0
  9
$DIMTAD
 70
               1
  9
$DIMZIN
 70
               8
  9
$DIMBLK
  1

  9
$DIMASO
 70
               1
  9
$DIMSHO
 70
               1
  9
$DIMPOST
  1

  9
$DIMAPOST
  1

  9
$DIMALT
 70
               0
  9
$DIMALTD
 70
               4
  9
$DIMALTF
 40
0.03937007874016
  9
$DIMLFAC
 40
1.0
  9
$DIMTOFL
 70
               1
  9
$DIMTVP
 40
0.0
  9
$DIMTIX
 70
               0
  9
$DIMSOXD
 70
               0
  9
$DIMSAH
 70
               0
  9
$DIMBLK1
  1

  9
$DIMBLK2
  1

  9
$DIMSTYLE
  2
MXDIMSTYLE
  9
$DIMCLRD
 70
               0
  9
$DIMCLRE
 70
               0
  9
$DIMCLRT
 70
               0
  9
$DIMTFAC
 40
1.0
  9
$DIMGAP
 40
1.0
  9
$DIMJUST
 70
               0
  9
$DIMSD1
 70
               0
  9
$DIMSD2
 70
               0
  9
$DIMTOLJ
 70
               1
  9
$DIMTZIN
 70
               0
  9
$DIMALTZ
 70
               0
  9
$DIMALTTZ
 70
               0
  9
$DIMFIT
 70
               3
  9
$DIMUPT
 70
               1
  9
$DIMUNIT
 70
               2
  9
$DIMDEC
 70
               4
  9
$DIMTDEC
 70
               4
  9
$DIMALTU
 70
               2
  9
$DIMALTTD
 70
               4
  9
$DIMTXSTY
  7
MX_NOTE_STANDARD
  9
$DIMAUNIT
 70
               0
  9
$LUNITS
 70
               2
  9
$LUPREC
 70
               4
  9
$SKETCHINC
 40
0.1
  9
$FILLETRAD
 40
0.0
  9
$AUNITS
 70
               0
  9
$AUPREC
 70
               0
  9
$MENU
  1
acad
  9
$ELEVATION
 40
0.0
  9
$PELEVATION
 40
0.0
  9
$THICKNESS
 40
0.0
  9
$LIMCHECK
 70
               0
  9
$BLIPMODE
 70
               1
  9
$CHAMFERA
 40
0.0
  9
$CHAMFERB
 40
0.0
  9
$CHAMFERC
 40
0.0
  9
$CHAMFERD
 40
0.0
  9
$SKPOLY
 70
               0
  9
$TDCREATE
 40
2453378.356597222
  9
$TDUPDATE
 40
2453378.356597222
  9
$TDINDWG
 40
0.0000000000
  9
$TDUSRTIMER
 40
0.0000000000
  9
$USRTIMER
 70
               1
  9
$ANGBASE
 50
0.0
  9
$ANGDIR
 70
               0
  9
$PDMODE
 70
               0
  9
$PDSIZE
 40
0.0
  9
$PLINEWID
 40
0.0
  9
$COORDS
 70
               1
  9
$SPLFRAME
 70
               0
  9
$SPLINETYPE
 70
               6
  9
$SPLINESEGS
 70
               8
  9
$ATTDIA
 70
               0
  9
$ATTREQ
 70
               1
  9
$HANDLING
 70
               1
  9
$HANDSEED
  5
45C
  9
$SURFTAB1
 70
               6
  9
$SURFTAB2
 70
               6
  9
$SURFTYPE
 70
               6
  9
$SURFU
 70
               6
  9
$SURFV
 70
               6
  9
$UCSNAME
  2

  9
$UCSORG
 10
0.0
 20
0.0
 30
0.0
  9
$UCSXDIR
 10
1.0
 20
0.0
 30
0.0
  9
$UCSYDIR
 10
0.0
 20
1.0
 30
0.0
  9
$PUCSNAME
  2

  9
$PUCSORG
 10
0.0
 20
0.0
 30
0.0
  9
$PUCSXDIR
 10
1.0
 20
0.0
 30
0.0
  9
$PUCSYDIR
 10
0.0
 20
1.0
 30
0.0
  9
$USERI1
 70
               0
  9
$USERI2
 70
               0
  9
$USERI3
 70
               0
  9
$USERI4
 70
               0
  9
$USERI5
 70
               0
  9
$USERR1
 40
0.0
  9
$USERR2
 40
0.0
  9
$USERR3
 40
0.0
  9
$USERR4
 40
0.0
  9
$USERR5
 40
0.0
  9
$WORLDVIEW
 70
               1
  9
$SHADEDGE
 70
               3
  9
$SHADEDIF
 70
              70
  9
$TILEMODE
 70
               1
  9
$MAXACTVP
 70
              16
  9
$PINSBASE
 10
0.0
 20
0.0
 30
0.0
  9
$PLIMCHECK
 70
               0
  9
$PEXTMIN
 10
1.0000000000000000E+20
 20
1.0000000000000000E+20
 30
1.0000000000000000E+20
  9
$PEXTMAX
 10
-1.0000000000000000E+20
 20
-1.0000000000000000E+20
 30
-1.0000000000000000E+20
  9
$PLIMMIN
 10
0.0
 20
0.0
  9
$PLIMMAX
 10
12.0
 20
9.0
  9
$UNITMODE
 70
               0
  9
$VISRETAIN
 70
               0
  9
$PLINEGEN
 70
               1
  9
$PSLTSCALE
 70
               0
  9
$TREEDEPTH
 70
            3020
  9
$PICKSTYLE
 70
               1
  9
$CMLSTYLE
  2
Standard
  9
$CMLJUST
 70
               0
  9
$CMLSCALE
 40
1.0
  9
$SAVEIMAGES
 70
               0
  0
ENDSEC
  0
SECTION
  2
CLASSES
  0
CLASS
  1
LWPOLYLINE
  2
AcDbPolyline
  3
"AutoCAD"
 90
        0
280
               0
281
               1
  0
CLASS
  1
IMAGE
  2
AcDbRasterImage
  3
ISM
 90
      127
280
               0
281
               1
  0
CLASS
  1
OLE2FRAME
  2
AcDbOle2Frame
  3
""
 90
        0
280
               0
281
               1
  0
CLASS
  1
HATCH
  2
AcDbHatch
  3
"ACAD_SEDONA"
 90
        0
280
               0
281
               1
  0
CLASS
  1
DICTIONARYVAR
  2
AcDbDictionaryVar
  3
"AutoCAD"
 90
        0
280
               0
281
               0
  0
CLASS
  1
RASTERVARIABLES
  2
AcDbRasterVariables
  3
ISM
 90
        0
280
               0
281
               0
  0
CLASS
  1
IMAGEDEF
  2
AcDbRasterImageDef
  3
ISM
 90
        0
280
               0
281
               0
  0
CLASS
  1
IMAGEDEF_REACTOR
  2
AcDbRasterImageDefReactor
  3
ISM
 90
        1
280
               0
281
               0
  0
CLASS
  1
IDBUFFER
  2
AcDbIdBuffer
  3
"Acad"
 90
        0
280
               0
281
               0
  0
CLASS
  1
SPATIAL_FILTER
  2
AcDbSpatialFilter
  3
"Acad"
 90
        0
280
               0
281
               0
  0
CLASS
  1
XRECORD
  2
AcDbXrecord
  3
"<Built In>"
 90
        0
280
               0
281
               0
  0
CLASS
  1
SORTENTSTABLE
  2
AcDbSortentsTable
  3
"AutoCAD"
 90
        0
280
               0
281
               0
  0
CLASS
  1
LAYER_INDEX
  2
AcDbLayerIndex
  3
"Acad"
 90
        0
280
               0
281
               0
  0
CLASS
  1
SPATIAL_INDEX
  2
AcDbSpatialIndex
  3
"Acad"
 90
        0
280
               0
281
               0
  0
CLASS
  1
OBJECT_PTR
  2
CAseDLPNTableRecord
  3
"ASE-LPNTableRecord"
 90
        1
280
               0
281
               0
  0
CLASS
  1
LAYOUT
  2
AcDbLayout
  3
"AutoCAD 2000"
 90
        1
280
               0
281
               0
  0
CLASS
  1
PLOTSETTINGS
  2
AcDbPlotSettings
  3
"AutoCAD 2000"
 90
        1
280
               0
281
               0
  0
CLASS
  1
ACDBDICTIONARYWDFLT
  2
AcDbDictionaryWithDefault
  3
"AutoCAD 2000"
 90
        1
280
               0
281
               0
  0
CLASS
  1
ACDBPLACEHOLDER
  2
AcDbPlaceHolder
  3
"AutoCAD 2000"
 90
        1
280
               0
281
               0
  0
ENDSEC
  0
SECTION
  2
TABLES
  0
TABLE
  2
VPORT
  5
7
100
AcDbSymbolTable
 70
               1
  0
VPORT
  5
15
100
AcDbSymbolTableRecord
100
AcDbViewportTableRecord
  2
*ACTIVE
 70
               0
 10
0.0
 20
0.0
 11
1.0
 21
1.0
 12
2.1909528531206206
 22
0.25
 13
0.0
 23
0.0
 14
1.0
 24
1.0
 15
0.0
 25
0.0
 16
0.0
 26
0.0
 36
1.0
 17
0.0
 27
0.0
 37
0.0
 40
394.40500000000003
 41
1.7320508075688772
 42
50.0
 43
0.0
 44
0.0
 50
0.0
 51
0.0
 71
               0
 72
             100
 73
               1
 74
               1
 75
               0
 76
               0
 77
               0
 78
               0
  0
ENDTAB
  0
TABLE
  2
LTYPE
  5
4
100
AcDbSymbolTable
 70
               6
  0
LTYPE
  5
11
100
AcDbSymbolTableRecord
100
AcDbLinetypeTableRecord
  2
BYBLOCK
 70
              64
  3

 72
              65
 73
               0
 40
0.0
  0
LTYPE
  5
12
100
AcDbSymbolTableRecord
100
AcDbLinetypeTableRecord
  2
BYLAYER
 70
              64
  3

 72
              65
 73
               0
 40
0.0
  0
LTYPE
  5
13
100
AcDbSymbolTableRecord
100
AcDbLinetypeTableRecord
  2
CONTINUOUS
 70
              64
  3
Solid line
 72
              65
 73
               0
 40
0.0
  0
LTYPE
  5
3F
100
AcDbSymbolTableRecord
100
AcDbLinetypeTableRecord
  2
CENTER
 70
              64
  3
Center ____ _ ____ _ ____ _ ____ _ ____ _ ____
 72
              65
 73
               4
 40
26.0
 49
20.0
 74
               0
 49
-2.0
 74
               0
 49
2.0
 74
               0
 49
-2.0
 74
               0
  0
LTYPE
  5
B2
100
AcDbSymbolTableRecord
100
AcDbLinetypeTableRecord
  2
DASHED
 70
              64
  3
Dashed __ __ __ __ __ __ __ __ __ __ __ __ __ _
 72
              65
 73
               2
 40
4.0
 49
2.0
 74
               0
 49
-2.0
 74
               0
  0
LTYPE
  5
DA
100
AcDbSymbolTableRecord
100
AcDbLinetypeTableRecord
  2
PHANTOM
 70
              64
  3
Phantom ______  __  __  ______  __  __  ______
 72
              65
 73
               6
 40
30.0
 49
20.0
 74
               0
 49
-2.0
 74
               0
 49
2.0
 74
               0
 49
-2.0
 74
               0
 49
2.0
 74
               0
 49
-2.0
 74
               0
  0
ENDTAB
  0
TABLE
  2
LAYER
  5
2
100
AcDbSymbolTable
 70
               2
  0
LAYER
  5
14
100
AcDbSymbolTableRecord
100
AcDbLayerTableRecord
  2
0
 70
               0
 62
               7
  6
CONTINUOUS
  0
LAYER
  5
1D
100
AcDbSymbolTableRecord
100
AcDbLayerTableRecord
  2
DEFPOINTS
 70
               0
 62
               7
  6
CONTINUOUS
  0
ENDTAB
  0
TABLE
  2
STYLE
  5
3
100
AcDbSymbolTable
 70
               1
  0
STYLE
  5
17
100
AcDbSymbolTableRecord
100
AcDbTextStyleTableRecord
  2
MX_NOTE_STANDARD
 70
               0
 40
0.0
 41
1.0
 50
0.0
 71
               0
 42
3.2000000476837158
  3
txt.shx
  4
extfont.shx
  0
ENDTAB
  0
TABLE
  2
VIEW
  5
5
100
AcDbSymbolTable
 70
               0
  0
ENDTAB
  0
TABLE
  2
UCS
  5
6
100
AcDbSymbolTable
 70
               0
  0
ENDTAB
  0
TABLE
  2
APPID
  5
8
100
AcDbSymbolTable
 70
               1
  0
APPID
  5
16
100
AcDbSymbolTableRecord
100
AcDbRegAppTableRecord
  2
ACAD
 70
               0
  0
ENDTAB
  0
TABLE
  2
DIMSTYLE
  5
9
100
AcDbSymbolTable
 70
               1
  0
DIMSTYLE
105
18
100
AcDbSymbolTableRecord
100
AcDbDimStyleTableRecord
  2
MXDIMSTYLE
 70
               0
  3

  4

  5

  6

  7

 40
1.0
 41
2.5
 42
1.5
 43
3.75
 44
1.5
 45
0.0
 46
0.0
 47
0.0
 48
0.0
 71
               0
 72
               0
 73
               0
 74
               0
 75
               0
 76
               0
 77
               1
 78
               8
140
3.2000000476837158
141
2.5
142
0.0
143
0.03937007874016
144
1.0
145
0.0
146
1.0
147
1.0
170
               0
171
               4
172
               1
173
               0
174
               0
175
               0
176
               0
177
               0
178
               0
270
               2
271
               4
272
               4
273
               2
274
               4
275
               0
280
               0
281
               0
282
               0
283
               1
284
               0
285
               0
286
               0
287
               3
288
               1
340
17
  0
ENDTAB
  0
TABLE
  2
BLOCK_RECORD
  5
1
100
AcDbSymbolTable
 70
               0
  0
BLOCK_RECORD
  5
A
100
AcDbSymbolTableRecord
100
AcDbBlockTableRecord
  2
*MODEL_SPACE
  0
BLOCK_RECORD
  5
B
100
AcDbSymbolTableRecord
100
AcDbBlockTableRecord
  2
*PAPER_SPACE
  0
ENDTAB
  0
ENDSEC
  0
SECTION
  2
BLOCKS
  0
BLOCK
  5
D
100
AcDbEntity
  8
0
100
AcDbBlockBegin
  2
*MODEL_SPACE
 70
               0
 10
0.0
 20
0.0
 30
0.0
  3
*MODEL_SPACE
  1

  0
ENDBLK
  5
E
100
AcDbEntity
  8
0
100
AcDbBlockEnd
  0
BLOCK
  5
F
100
AcDbEntity
 67
               1
  8
0
100
AcDbBlockBegin
  2
*PAPER_SPACE
 70
               0
 10
0.0
 20
0.0
 30
0.0
  3
*PAPER_SPACE
  1

  0
ENDBLK
  5
10
100
AcDbEntity
 67
               1
  8
0
100
AcDbBlockEnd
  0
ENDSEC
  0
SECTION
  2
ENTITIES
  0
MTEXT
  5
1E
100
AcDbEntity
  8
0
  6
CONTINUOUS
 62
               7
100
AcDbMText
 10
-268.26144588680285
 20
160.5
 30
0.0
 40
6.3000001907348633
 41
0.0
 71
               4
 72
               1
  1
\W1.084;\A1;MODEL:JC10F7-PL
  0
LINE
  5
1F
100
AcDbEntity
  8
0
  6
CONTINUOUS
 62
               7
100
AcDbLine
 10
-281.25
 20
-195.0
 30
0.0
 11
282.099853515625
 21
-195.0
 31
0.0
  0
LINE
  5
20
100
AcDbEntity
  8
0
  6
CONTINUOUS
 62
               7
100
AcDbLine
 10
-281.25
 20
195.5
 30
0.0
 11
-281.25
 21
-195.0
 31
0.0
  0
LINE
  5
21
100
AcDbEntity
  8
0
  6
CONTINUOUS
 62
               7
100
AcDbLine
 10
-281.25
 20
195.5
 30
0.0
 11
282.099853515625
 21
195.5
 31
0.0
  0
LINE
  5
22
100
AcDbEntity
  8
0
  6
CONTINUOUS
 62
               7
100
AcDbLine
 10
282.099853515625
 20
195.5
 30
0.0
 11
282.099853515625
 21
-195.0
 31
0.0
  0
LINE
  5
23
100
AcDbEntity
  8
0
  6
CONTINUOUS
 62
               7
100
AcDbLine
 10
162.0999755859375
 20
195.5
 30
0.0
 11
162.0999755859375
 21
175.5
 31
0.0
  0
LINE
  5
24
100
AcDbEntity
  8
0
  6
CONTINUOUS
 62
               7
100
AcDbLine
 10
162.0999755859375
 20
175.5
 30
0.0
 11
282.099853515625
 21
175.5
 31
0.0
  0
MTEXT
  5
25
100
AcDbEntity
  8
0
  6
CONTINUOUS
 62
               7
100
AcDbMText
 10
198.27702406779611
 20
185.5
 30
0.0
 40
6.3000001907348633
 41
0.0
 71
               4
 72
               1
  1
\W1.311;\A1;Ver. 1.0
  0
MTEXT
  5
26
100
AcDbEntity
  8
0
  6
CONTINUOUS
 62
               7
100
AcDbMText
 10
170.28099805280428
 20
-185.0
 30
0.0
 40
9.0
 41
0.0
 71
               4
 72
               1
  1
\W1.121;\A1;KOGANEI CORP.
  0
LINE
  5
27
100
AcDbEntity
  8
0
  6
CONTINUOUS
 62
               7
100
AcDbLine
 10
162.0999755859375
 20
-175.0
 30
0.0
 11
282.099853515625
 21
-175.0
 31
0.0
  0
LINE
  5
28
100
AcDbEntity
  8
0
  6
CONTINUOUS
 62
               7
100
AcDbLine
 10
162.0999755859375
 20
-175.0
 30
0.0
 11
162.0999755859375
 21
-195.0
 31
0.0
  0
LINE
  5
29
100
AcDbEntity
  8
0
  6
CONTINUOUS
 62
               7
100
AcDbLine
 10
-161.25
 20
195.5
 30
0.0
 11
-161.25
 21
175.5
 31
0.0
  0
LINE
  5
2A
100
AcDbEntity
  8
0
  6
CONTINUOUS
 62
               7
100
AcDbLine
 10
-281.25
 20
175.5
 30
0.0
 11
-161.25
 21
175.5
 31
0.0
  0
MTEXT
  5
2B
100
AcDbEntity
  8
0
  6
CONTINUOUS
 62
               7
100
AcDbMText
 10
-257.88333446177035
 20
185.5
 30
0.0
 40
6.3000001907348633
 41
0.0
 71
               4
 72
               1
  1
\W1.111;\A1;JC･JE SERIES
  0
LINE
  5
2C
100
AcDbEntity
  8
0
  6
CONTINUOUS
 62
               7
100
AcDbLine
 10
-281.25
 20
-38.799999999999983
 30
0.0
 11
282.099853515625
 21
-38.799999999999983
 31
0.0
  0
LINE
  5
2D
100
AcDbEntity
  8
0
  6
CONTINUOUS
 62
               7
100
AcDbLine
 10
0.4249267578125
 20
-38.799999999999983
 30
0.0
 11
0.4249267578125
 21
195.5
 31
0.0
  0
MTEXT
  5
2E
100
AcDbEntity
  8
0
  6
CONTINUOUS
 62
               7
100
AcDbMText
 10
13.413480871009668
 20
160.5
 30
0.0
 40
6.3000001907348633
 41
0.0
 71
               4
 72
               1
  1
\W1.084;\A1;MODEL:JC10F7-PS
  0
MTEXT
  5
2F
100
AcDbEntity
  8
0
  6
CONTINUOUS
 62
               7
100
AcDbMText
 10
-268.26144588680285
 20
-53.799999999999983
 30
0.0
 40
6.3000001907348633
 41
0.0
 71
               4
 72
               1
  1
\W1.084;\A1;MODEL:JC10F7-GL
  0
MTEXT
  5
30
100
AcDbEntity
  8
0
  6
CONTINUOUS
 62
               7
100
AcDbMText
 10
51.180191007819936
 20
150.5
 30
0.0
 40
6.3000001907348633
 41
0.0
 71
               4
 72
               1
  1
\W1.053;\A1;JC10LF7-PS
  0
MTEXT
  5
31
100
AcDbEntity
  8
0
  6
CONTINUOUS
 62
               7
100
AcDbMText
 10
51.180191007819936
 20
140.5
 30
0.0
 40
6.3000001907348633
 41
0.0
 71
               4
 72
               1
  1
\W1.053;\A1;JC10SF7-PS
  0
MTEXT
  5
32
100
AcDbEntity
  8
0
  6
CONTINUOUS
 62
               7
100
AcDbMText
 10
-230.49473574999257
 20
150.5
 30
0.0
 40
6.3000001907348633
 41
0.0
 71
               4
 72
               1
  1
\W1.053;\A1;JC10LF7-PL
  0
MTEXT
  5
33
100
AcDbEntity
  8
0
  6
CONTINUOUS
 62
               7
100
AcDbMText
 10
-230.49473574999257
 20
140.5
 30
0.0
 40
6.3000001907348633
 41
0.0
 71
               4
 72
               1
  1
\W1.053;\A1;JC10SF7-PL
  0
LINE
  5
34
100
AcDbEntity
  8
0
  6
CONTINUOUS
 62
               4
100
AcDbLine
 10
-136.225628841419
 20
-82.919303666296059
 30
0.0
 11
-146.225628841419
 21
-82.919303666296059
 31
0.0
  0
LINE
  5
35
100
AcDbEntity
  8
0
  6
CONTINUOUS
 62
               4
100
AcDbLine
 10
-136.225628841419
 20
-84.519303666296025
 30
0.0
 11
-139.42562884141904
 21
-84.519303666296025
 31
0.0
  0
LINE
  5
36
100
AcDbEntity
  8
0
  6
CONTINUOUS
 62
               4
100
AcDbLine
 10
-139.42562884141904
 20
-83.019303666296025
 30
0.0
 11
-145.725628841419
 21
-83.019303666296025
 31
0.0
  0
LINE
  5
37
100
AcDbEntity
  8
0
  6
CONTINUOUS
 62
               4
100
AcDbLine
 10
-139.42562884141904
 20
-83.019303666296025
 30
0.0
 11
-139.42562884141904
 21
-84.519303666296025
 31
0.0
  0
ARC
  5
38
100
AcDbEntity
  8
0
  6
CONTINUOUS
 62
               4
100
AcDbCircle
 10
-145.725628841419
 20
-83.519303666296082
 30
0.0
 40
0.5
100
AcDbArc
 50
89.999999999999815
 51
179.99999999999963
  0
LINE
  5
39
100
AcDbEntity
  8
0
  6
CONTINUOUS
 62
               4
100
AcDbLine
 10
-136.225628841419
 20
-83.519303666296082
 30
0.0
 11
-139.42562884141898
 21
-83.519303666296082
 31
0.0
  0
ARC
  5
3A
100
AcDbEntity
  8
0
  6
CONTINUOUS
 62
               4
100
AcDbCircle
 10
-137.02153369476076
 20
-83.519208519637914
 30
0.0
 40
0.5999048608870732
100
AcDbArc
 50
359.99091272245295
 51
90.009087277546172
  0
ARC
  5
3B
100
AcDbEntity
  8
0
  6
CONTINUOUS
 62
               4
100
AcDbCircle
 10
-138.82271684665602
 20
-83.518215661059003
 30
0.0
 40
0.5989129830170392
100
AcDbArc
 50
89.895914524772735
 51
180.10408547522667
  0
LINE
  5
3C
100
AcDbEntity
  8
0
  6
CONTINUOUS
 62
               4
100
AcDbLine
 10
-146.225628841419
 20
-82.919303666296059
 30
0.0
 11
-146.225628841419
 21
-105.419303666296
 31
0.0
  0
LINE
  5
3D
100
AcDbEntity
  8
0
  6
CONTINUOUS
 62
               4
100
AcDbLine
 10
-136.225628841419
 20
-82.919303666296059
 30
0.0
 11
-136.225628841419
 21
-105.419303666296
 31
0.0
  0
LINE
  5
3E
100
AcDbEntity
  8
0
  6
CONTINUOUS
 62
               7
100
AcDbLine
 10
-136.225628841419
 20
-152.81930366629604
 30
0.0
 11
-146.225628841419
 21
-152.81930366629604
 31
0.0
  0
LINE
  5
40
100
AcDbEntity
  8
0
  6
CENTER
 62
               2
100
AcDbLine
 10
-138.05111754028633
 20
-131.71930366629601
 30
0.0
 11
-144.34969965200645
 21
-131.71930366629601
 31
0.0
  0
LINE
  5
41
100
AcDbEntity
  8
0
  6
CENTER
 62
               2
100
AcDbLine
 10
-137.42562884141904
 20
-141.169303666296
 30
0.0
 11
-137.42562884141904
 21
-138.86930366629599
 31
0.0
  0
CIRCLE
  5
42
100
AcDbEntity
  8
0
  6
CONTINUOUS
 62
               7
100
AcDbCircle
 10
-137.42647735216121
 20
-140.01833039969443
 30
0.0
 40
0.9
  0
LINE
  5
43
100
AcDbEntity
  8
0
  6
CENTER
 62
               2
100
AcDbLine
 10
-136.27562884141901
 20
-140.01930366629603
 30
0.0
 11
-138.57562884141902
 21
-140.01930366629603
 31
0.0
  0
LINE
  5
44
100
AcDbEntity
  8
0
  6
CENTER
 62
               2
100
AcDbLine
 10
-143.87562884141903
 20
-123.41930366629606
 30
0.0
 11
-146.17562884141904
 21
-123.41930366629606
 31
0.0
  0
LINE
  5
45
100
AcDbEntity
  8
0
  6
CENTER
 62
               2
100
AcDbLine
 10
-145.02562884141901
 20
-124.56930366629604
 30
0.0
 11
-145.02562884141901
 21
-122.26930366629608
 31
0.0
  0
CIRCLE
  5
46
100
AcDbEntity
  8
0
  6
CONTINUOUS
 62
               7
100
AcDbCircle
 10
-145.02647735216118
 20
-123.41833039969447
 30
0.0
 40
0.9
  0
LINE
  5
47
100
AcDbEntity
  8
0
  6
CENTER
 62
               2
100
AcDbLine
 10
-139.52562884141901
 20
-140.11930366629599
 30
0.0
 11
-143.23861585440602
 21
-140.11930366629599
 31
0.0
  0
CIRCLE
  5
48
100
AcDbEntity
  8
0
  6
CONTINUOUS
 62
               7
100
AcDbCircle
 10
-141.225628841419
 20
-140.11930366629599
 30
0.0
 40
1.25
  0
CIRCLE
  5
49
100
AcDbEntity
  8
0
  6
CONTINUOUS
 62
               2
100
AcDbCircle
 10
-141.225628841419
 20
-140.11930366629599
 30
0.0
 40
1.5
  0
CIRCLE
  5
4A
100
AcDbEntity
  8
0
  6
CONTINUOUS
 62
               7
100
AcDbCircle
 10
-141.225628841419
 20
-123.31930366629604
 30
0.0
 40
1.25
  0
CIRCLE
  5
4B
100
AcDbEntity
  8
0
  6
CONTINUOUS
 62
               2
100
AcDbCircle
 10
-141.22647735216123
 20
-123.32642813393659
 30
0.0
 40
1.5
  0
LINE
  5
4C
100
AcDbEntity
  8
0
  6
CENTER
 62
               2
100
AcDbLine
 10
-139.52562884141901
 20
-123.31930366629604
 30
0.0
 11
-142.92562884141904
 21
-123.31930366629604
 31
0.0
  0
CIRCLE
  5
4D
100
AcDbEntity
  8
0
  6
CONTINUOUS
 62
               7
100
AcDbCircle
 10
-141.225628841419
 20
-131.71930366629601
 30
0.0
 40
2.1000000000000001
  0
CIRCLE
  5
4E
100
AcDbEntity
  8
0
  6
CONTINUOUS
 62
               2
100
AcDbCircle
 10
-141.225628841419
 20
-131.71930366629601
 30
0.0
 40
2.5
  0
CIRCLE
  5
4F
100
AcDbEntity
  8
0
  6
CONTINUOUS
 62
               7
100
AcDbCircle
 10
-141.225628841419
 20
-160.71930366629601
 30
0.0
 40
0.75
  0
LINE
  5
50
100
AcDbEntity
  8
0
  6
CENTER
 62
               2
100
AcDbLine
 10
-143.225628841419
 20
-160.71930366629601
 30
0.0
 11
-139.225628841419
 21
-160.71930366629601
 31
0.0
  0
LINE
  5
51
100
AcDbEntity
  8
0
  6
CONTINUOUS
 62
               7
100
AcDbLine
 10
-136.225628841419
 20
-144.81930366629604
 30
0.0
 11
-146.225628841419
 21
-144.81930366629604
 31
0.0
  0
LINE
  5
52
100
AcDbEntity
  8
0
  6
CONTINUOUS
 62
               7
100
AcDbLine
 10
-146.225628841419
 20
-166.01930366629603
 30
0.0
 11
-146.225628841419
 21
-105.419303666296
 31
0.0
  0
LINE
  5
53
100
AcDbEntity
  8
0
  6
CONTINUOUS
 62
               4
100
AcDbLine
 10
-146.225628841419
 20
-166.01930366629603
 30
0.0
 11
-136.225628841419
 21
-166.01930366629603
 31
0.0
  0
CIRCLE
  5
54
100
AcDbEntity
  8
0
  6
CONTINUOUS
 62
               7
100
AcDbCircle
 10
-141.225628841419
 20
-110.71930366629601
 30
0.0
 40
0.75
  0
LINE
  5
55
100
AcDbEntity
  8
0
  6
CENTER
 62
               2
100
AcDbLine
 10
-143.225628841419
 20
-110.71930366629601
 30
0.0
 11
-139.225628841419
 21
-110.71930366629601
 31
0.0
  0
LINE
  5
56
100
AcDbEntity
  8
0
  6
CONTINUOUS
 62
               7
100
AcDbLine
 10
-136.225628841419
 20
-118.61930366629599
 30
0.0
 11
-146.225628841419
 21
-118.61930366629599
 31
0.0
  0
LINE
  5
57
100
AcDbEntity
  8
0
  6
CONTINUOUS
 62
               7
100
AcDbLine
 10
-136.225628841419
 20
-166.01930366629603
 30
0.0
 11
-136.225628841419
 21
-105.419303666296
 31
0.0
  0
LINE
  5
58
100
AcDbEntity
  8
0
  6
CONTINUOUS
 62
               4
100
AcDbLine
 10
-146.225628841419
 20
-105.419303666296
 30
0.0
 11
-136.225628841419
 21
-105.419303666296
 31
0.0
  0
LINE
  5
59
100
AcDbEntity
  8
0
  6
CONTINUOUS
 62
               4
100
AcDbLine
 10
-136.225628841419
 20
-188.51930366629597
 30
0.0
 11
-136.225628841419
 21
-166.01930366629603
 31
0.0
  0
LINE
  5
5A
100
AcDbEntity
  8
0
  6
CONTINUOUS
 62
               4
100
AcDbLine
 10
-146.225628841419
 20
-188.51930366629597
 30
0.0
 11
-146.225628841419
 21
-166.01930366629603
 31
0.0
  0
ARC
  5
5B
100
AcDbEntity
  8
0
  6
CONTINUOUS
 62
               4
100
AcDbCircle
 10
-143.62854083618197
 20
-187.92039167153303
 30
0.0
 40
0.5989129830170392
100
AcDbArc
 50
269.89591452477231
 51
0.1040854752270701
  0
ARC
  5
5C
100
AcDbEntity
  8
0
  6
CONTINUOUS
 62
               4
100
AcDbCircle
 10
-145.42972398807723
 20
-187.91939881295411
 30
0.0
 40
0.5999048608870732
100
AcDbArc
 50
179.99091272245337
 51
270.00908727754575
  0
LINE
  5
5D
100
AcDbEntity
  8
0
  6
CONTINUOUS
 62
               4
100
AcDbLine
 10
-146.225628841419
 20
-187.91930366629595
 30
0.0
 11
-143.02562884141901
 21
-187.91930366629595
 31
0.0
  0
ARC
  5
5E
100
AcDbEntity
  8
0
  6
CONTINUOUS
 62
               4
100
AcDbCircle
 10
-136.725628841419
 20
-187.91930366629595
 30
0.0
 40
0.5
100
AcDbArc
 50
269.99999999999937
 51
0.0
  0
LINE
  5
5F
100
AcDbEntity
  8
0
  6
CONTINUOUS
 62
               4
100
AcDbLine
 10
-143.02562884141895
 20
-188.41930366629595
 30
0.0
 11
-143.02562884141895
 21
-186.91930366629595
 31
0.0
  0
LINE
  5
60
100
AcDbEntity
  8
0
  6
CONTINUOUS
 62
               4
100
AcDbLine
 10
-143.02562884141895
 20
-188.41930366629595
 30
0.0
 11
-136.725628841419
 21
-188.41930366629595
 31
0.0
  0
LINE
  5
61
100
AcDbEntity
  8
0
  6
CONTINUOUS
 62
               4
100
AcDbLine
 10
-146.225628841419
 20
-186.91930366629595
 30
0.0
 11
-143.02562884141895
 21
-186.91930366629595
 31
0.0
  0
LINE
  5
62
100
AcDbEntity
  8
0
  6
CONTINUOUS
 62
               4
100
AcDbLine
 10
-146.225628841419
 20
-188.51930366629597
 30
0.0
 11
-136.225628841419
 21
-188.51930366629597
 31
0.0
  0
LINE
  5
63
100
AcDbEntity
  8
0
  6
CENTER
 62
               2
100
AcDbLine
 10
-141.225628841419
 20
-82.221303666296023
 30
0.0
 11
-141.225628841419
 21
-189.21730366629595
 31
0.0
  0
LINE
  5
64
100
AcDbEntity
  8
0
  6
CONTINUOUS
 62
               4
100
AcDbLine
 10
-61.332452052338454
 20
-166.01930366629603
 30
0.0
 11
-44.33244923581168
 21
-166.01930366629614
 31
0.0
  0
LINE
  5
65
100
AcDbEntity
  8
0
  6
CONTINUOUS
 62
               4
100
AcDbLine
 10
-31.535548113134098
 20
-181.26730366629641
 30
0.0
 11
-31.535548113134098
 21
-180.76730366629641
 31
0.0
  0
LINE
  5
66
100
AcDbEntity
  8
0
  6
CONTINUOUS
 62
               4
100
AcDbLine
 10
-35.035548113134098
 20
-180.76730366629619
 30
0.0
 11
-31.535548113134098
 21
-180.76730366629641
 31
0.0
  0
LINE
  5
67
100
AcDbEntity
  8
0
  6
CONTINUOUS
 62
               4
100
AcDbLine
 10
-35.035548113134212
 20
-181.26730366629619
 30
0.0
 11
-31.535548113134098
 21
-181.26730366629641
 31
0.0
  0
ARC
  5
68
100
AcDbEntity
  8
0
  6
CONTINUOUS
 62
               4
100
AcDbCircle
 10
-48.015356905680278
 20
-187.91939881295417
 30
0.0
 40
0.5999048608870732
100
AcDbArc
 50
269.9909127224534
 51
303.56005066674095
  0
ARC
  5
69
100
AcDbEntity
  8
0
  6
CONTINUOUS
 62
               4
100
AcDbCircle
 10
-47.83245205233851
 20
-187.919303666296
 30
0.0
 40
0.5
100
AcDbArc
 50
294.73039869686102
 51
0.0000000000004071
  0
ARC
  5
6A
100
AcDbEntity
  8
0
  6
CONTINUOUS
 62
               4
100
AcDbCircle
 10
-60.832452052338397
 20
-187.91930366629612
 30
0.0
 40
0.5
100
AcDbArc
 50
180.0
 51
269.99999999999983
  0
LINE
  5
6B
100
AcDbEntity
  8
0
  6
CONTINUOUS
 62
               4
100
AcDbLine
 10
-60.832452052338397
 20
-188.41930366629612
 30
0.0
 11
-59.33245205233851
 21
-188.41930366629612
 31
0.0
  0
LINE
  5
6C
100
AcDbEntity
  8
0
  6
CONTINUOUS
 62
               4
100
AcDbLine
 10
-47.332452052338454
 20
-186.91930366629612
 30
0.0
 11
-59.332454868865227
 21
-186.91930366629623
 31
0.0
  0
LINE
  5
6D
100
AcDbEntity
  8
0
  6
CONTINUOUS
 62
               4
100
AcDbLine
 10
-59.332454868865227
 20
-188.51930366629614
 30
0.0
 11
-59.332454868865227
 21
-186.91930366629623
 31
0.0
  0
LINE
  5
6E
100
AcDbEntity
  8
0
  6
CONTINUOUS
 62
               4
100
AcDbLine
 10
-47.33245205233851
 20
-187.91930366629612
 30
0.0
 11
-51.032452052338442
 21
-187.91930366629612
 31
0.0
  0
ARC
  5
6F
100
AcDbEntity
  8
0
  6
CONTINUOUS
 62
               4
100
AcDbCircle
 10
-48.015356905680278
 20
-187.91939881295417
 30
0.0
 40
0.5999048608870732
100
AcDbArc
 50
303.56005066674174
 51
0.0090872775466285
  0
ARC
  5
70
100
AcDbEntity
  8
0
  6
CONTINUOUS
 62
               4
100
AcDbCircle
 10
-49.81654005757548
 20
-187.92039167153297
 30
0.0
 40
0.5989129830170392
100
AcDbArc
 50
179.89591452477302
 51
270.1040854752269
  0
LINE
  5
71
100
AcDbEntity
  8
0
  6
CONTINUOUS
 62
               4
100
AcDbLine
 10
-48.015356905680221
 20
-188.51930366629603
 30
0.0
 11
-59.332454868865227
 21
-188.51930366629614
 31
0.0
  0
LINE
  5
72
100
AcDbEntity
  8
0
  6
CONTINUOUS
 62
               4
100
AcDbLine
 10
-51.032452052338442
 20
-187.91930366629612
 30
0.0
 11
-51.032452052338442
 21
-188.51930366629603
 31
0.0
  0
LINE
  5
73
100
AcDbEntity
  8
0
  6
CONTINUOUS
 62
               4
100
AcDbLine
 10
-41.732449235811885
 20
-183.51730366629607
 30
0.0
 11
-41.732449235811657
 21
-167.55130366629606
 31
0.0
  0
LINE
  5
74
100
AcDbEntity
  8
0
  6
CONTINUOUS
 62
               4
100
AcDbLine
 10
-40.532449235811725
 20
-181.66730366629605
 30
0.0
 11
-39.05554811313408
 21
-181.66730366629605
 31
0.0
  0
LINE
  5
75
100
AcDbEntity
  8
0
  6
CONTINUOUS
 62
               4
100
AcDbLine
 10
-40.532449235811725
 20
-180.3673036662961
 30
0.0
 11
-38.30554811313408
 21
-180.3673036662961
 31
0.0
  0
LINE
  5
76
100
AcDbEntity
  8
0
  6
CONTINUOUS
 62
               4
100
AcDbLine
 10
-47.332449235811907
 20
-184.51730366629607
 30
0.0
 11
-42.232449235811885
 21
-184.51730366629607
 31
0.0
  0
ARC
  5
77
100
AcDbEntity
  8
0
  6
CONTINUOUS
 62
               4
100
AcDbCircle
 10
-42.232411711806492
 20
-184.01734119030147
 30
0.0
 40
0.4999624774027422
100
AcDbArc
 50
269.99569974299999
 51
0.0043002569986451
  0
ARC
  5
78
100
AcDbEntity
  8
0
  6
CONTINUOUS
 62
               4
100
AcDbCircle
 10
-42.232913680329659
 20
-167.55043089101235
 30
0.0
 40
0.5004652055472239
100
AcDbArc
 50
359.90008023532044
 51
64.87883575679551
  0
LINE
  5
79
100
AcDbEntity
  8
0
  6
CONTINUOUS
 62
               4
100
AcDbLine
 10
-41.732449235811885
 20
-184.01730366629607
 30
0.0
 11
-41.732449235811885
 21
-183.51730366629607
 31
0.0
  0
LINE
  5
7A
100
AcDbEntity
  8
0
  6
CONTINUOUS
 62
             200
100
AcDbLine
 10
-39.401548113134083
 20
-182.26730366629607
 30
0.0
 11
-37.957548113134123
 21
-179.76730366629607
 31
0.0
  0
LINE
  5
7B
100
AcDbEntity
  8
0
  6
CONTINUOUS
 62
               4
100
AcDbLine
 10
-37.80554811313408
 20
-180.3673036662961
 30
0.0
 11
-35.035548113134098
 21
-180.36730366629621
 31
0.0
  0
LINE
  5
7C
100
AcDbEntity
  8
0
  6
CONTINUOUS
 62
               4
100
AcDbLine
 10
-38.55554811313408
 20
-181.66730366629605
 30
0.0
 11
-35.035548113134098
 21
-181.66730366629616
 31
0.0
  0
LINE
  5
7D
100
AcDbEntity
  8
0
  6
CONTINUOUS
 62
             200
100
AcDbLine
 10
-38.901548113134083
 20
-182.26730366629607
 30
0.0
 11
-37.457548113134123
 21
-179.76730366629607
 31
0.0
  0
LINE
  5
7E
100
AcDbEntity
  8
0
  6
CONTINUOUS
 62
               4
100
AcDbLine
 10
-35.035548113134098
 20
-181.66648628348361
 30
0.0
 11
-35.035548113134098
 21
-180.36648628348365
 31
0.0
  0
LINE
  5
7F
100
AcDbEntity
  8
0
  6
CONTINUOUS
 62
               4
100
AcDbLine
 10
-41.732449235811657
 20
-178.51730366629607
 30
0.0
 11
-41.032449235811725
 21
-178.51730366629607
 31
0.0
  0
LINE
  5
80
100
AcDbEntity
  8
0
  6
CONTINUOUS
 62
               4
100
AcDbLine
 10
-40.532449235811725
 20
-179.01730366629607
 30
0.0
 11
-40.532449235811725
 21
-183.01730366629607
 31
0.0
  0
LINE
  5
81
100
AcDbEntity
  8
0
  6
CONTINUOUS
 62
               4
100
AcDbLine
 10
-41.732449235811885
 20
-183.51730366629607
 30
0.0
 11
-41.032449235811953
 21
-183.51730366629607
 31
0.0
  0
ARC
  5
82
100
AcDbEntity
  8
0
  6
CONTINUOUS
 62
               4
100
AcDbCircle
 10
-41.032449235811725
 20
-179.01730366629607
 30
0.0
 40
0.5
100
AcDbArc
 50
359.99999999999881
 51
89.999999999999389
  0
ARC
  5
83
100
AcDbEntity
  8
0
  6
CONTINUOUS
 62
               4
100
AcDbCircle
 10
-41.032449235811725
 20
-183.01730366629607
 30
0.0
 40
0.5
100
AcDbArc
 50
269.99999999999898
 51
359.99999999999881
  0
LINE
  5
84
100
AcDbEntity
  8
0
  6
CONTINUOUS
 62
               4
100
AcDbLine
 10
-47.33245205233851
 20
-166.01930366629614
 30
0.0
 11
-47.332452052338738
 21
-187.91930366122841
 31
0.0
  0
LINE
  5
85
100
AcDbEntity
  8
0
  6
CONTINUOUS
 62
               4
100
AcDbLine
 10
-61.332452052338567
 20
-187.919303666296
 30
0.0
 11
-61.332452052338454
 21
-166.01930366629603
 31
0.0
  0
LINE
  5
86
100
AcDbEntity
  8
0
  6
CONTINUOUS
 62
               4
100
AcDbLine
 10
-44.33244923581168
 20
-166.01930366629614
 30
0.0
 11
-44.332449235811907
 21
-184.51730366629607
 31
0.0
  0
LINE
  5
87
100
AcDbEntity
  8
0
  6
CONTINUOUS
 62
               4
100
AcDbLine
 10
-44.33244923581168
 20
-166.01930366629614
 30
0.0
 11
-42.020449235811668
 21
-167.09730366629611
 31
0.0
  0
LINE
  5
88
100
AcDbEntity
  8
0
  6
CONTINUOUS
 62
               4
100
AcDbLine
 10
-61.332452052338454
 20
-105.41930366629595
 30
0.0
 11
-44.33244923581168
 21
-105.41930366629595
 31
0.0
  0
LINE
  5
89
100
AcDbEntity
  8
0
  6
CONTINUOUS
 62
               4
100
AcDbLine
 10
-31.535545296607268
 20
-90.171303666295785
 30
0.0
 11
-31.535545296607268
 21
-90.671303666295785
 31
0.0
  0
LINE
  5
8A
100
AcDbEntity
  8
0
  6
CONTINUOUS
 62
               4
100
AcDbLine
 10
-35.035548113134098
 20
-90.671303666296012
 30
0.0
 11
-31.535548113134098
 21
-90.671303666295785
 31
0.0
  0
LINE
  5
8B
100
AcDbEntity
  8
0
  6
CONTINUOUS
 62
               4
100
AcDbLine
 10
-35.035548113134212
 20
-90.171303666296012
 30
0.0
 11
-31.535548113134098
 21
-90.171303666295785
 31
0.0
  0
ARC
  5
8C
100
AcDbEntity
  8
0
  6
CONTINUOUS
 62
               4
100
AcDbCircle
 10
-60.649547198996629
 20
-83.5192085196378
 30
0.0
 40
0.5999048608870732
100
AcDbArc
 50
89.99091272245343
 51
123.56005066674096
  0
ARC
  5
8D
100
AcDbEntity
  8
0
  6
CONTINUOUS
 62
               4
100
AcDbCircle
 10
-60.832452052338397
 20
-83.519303666295968
 30
0.0
 40
0.5
100
AcDbArc
 50
114.73039869686018
 51
179.99999999999963
  0
ARC
  5
8E
100
AcDbEntity
  8
0
  6
CONTINUOUS
 62
               4
100
AcDbCircle
 10
-47.832452052338397
 20
-83.519303666295968
 30
0.0
 40
0.5
100
AcDbArc
 50
0.0
 51
89.999999999999815
  0
LINE
  5
8F
100
AcDbEntity
  8
0
  6
CONTINUOUS
 62
               4
100
AcDbLine
 10
-47.832452052338397
 20
-83.019303666295968
 30
0.0
 11
-49.332452052338397
 21
-83.019303666295968
 31
0.0
  0
LINE
  5
90
100
AcDbEntity
  8
0
  6
CONTINUOUS
 62
               4
100
AcDbLine
 10
-61.332452052338454
 20
-84.519303666295855
 30
0.0
 11
-49.33244923581168
 21
-84.519303666295855
 31
0.0
  0
LINE
  5
91
100
AcDbEntity
  8
0
  6
CONTINUOUS
 62
               4
100
AcDbLine
 10
-49.33244923581168
 20
-82.919303666295946
 30
0.0
 11
-49.33244923581168
 21
-84.519303666295855
 31
0.0
  0
LINE
  5
92
100
AcDbEntity
  8
0
  6
CONTINUOUS
 62
               4
100
AcDbLine
 10
-61.332452052338397
 20
-83.519303666295855
 30
0.0
 11
-57.632452052338465
 21
-83.519303666295855
 31
0.0
  0
ARC
  5
93
100
AcDbEntity
  8
0
  6
CONTINUOUS
 62
               4
100
AcDbCircle
 10
-60.649547198996629
 20
-83.5192085196378
 30
0.0
 40
0.5999048608870732
100
AcDbArc
 50
123.56005066674096
 51
180.00908727754583
  0
ARC
  5
94
100
AcDbEntity
  8
0
  6
CONTINUOUS
 62
               4
100
AcDbCircle
 10
-58.848364047101427
 20
-83.518215661059003
 30
0.0
 40
0.5989129830170392
100
AcDbArc
 50
359.89591452477293
 51
90.104085475226867
  0
LINE
  5
95
100
AcDbEntity
  8
0
  6
CONTINUOUS
 62
               4
100
AcDbLine
 10
-60.649547198996686
 20
-82.919303666295946
 30
0.0
 11
-49.33244923581168
 21
-82.919303666295946
 31
0.0
  0
LINE
  5
96
100
AcDbEntity
  8
0
  6
CONTINUOUS
 62
               4
100
AcDbLine
 10
-57.632452052338465
 20
-83.519303666295855
 30
0.0
 11
-57.632452052338465
 21
-82.919303666295946
 31
0.0
  0
LINE
  5
97
100
AcDbEntity
  8
0
  6
CONTINUOUS
 62
               4
100
AcDbLine
 10
-41.732449235811657
 20
-87.921303666296012
 30
0.0
 11
-41.732449235811657
 21
-103.88730366629602
 31
0.0
  0
LINE
  5
98
100
AcDbEntity
  8
0
  6
CONTINUOUS
 62
               4
100
AcDbLine
 10
-40.532449235811725
 20
-89.771303666296035
 30
0.0
 11
-39.05554811313408
 21
-89.771303666296035
 31
0.0
  0
LINE
  5
99
100
AcDbEntity
  8
0
  6
CONTINUOUS
 62
               4
100
AcDbLine
 10
-40.532449235811725
 20
-91.071303666295989
 30
0.0
 11
-38.30554811313408
 21
-91.071303666295989
 31
0.0
  0
LINE
  5
9A
100
AcDbEntity
  8
0
  6
CONTINUOUS
 62
               4
100
AcDbLine
 10
-47.33244923581168
 20
-86.921303666296012
 30
0.0
 11
-42.232449235811657
 21
-86.921303666296012
 31
0.0
  0
ARC
  5
9B
100
AcDbEntity
  8
0
  6
CONTINUOUS
 62
               4
100
AcDbCircle
 10
-42.232411711806265
 20
-87.421266142290619
 30
0.0
 40
0.4999624774027422
100
AcDbArc
 50
359.99569974300096
 51
90.004300256998803
  0
ARC
  5
9C
100
AcDbEntity
  8
0
  6
CONTINUOUS
 62
               4
100
AcDbCircle
 10
-42.232913680329659
 20
-103.88817644157973
 30
0.0
 40
0.5004652055472239
100
AcDbArc
 50
295.12116424320402
 51
0.0999197646782735
  0
LINE
  5
9D
100
AcDbEntity
  8
0
  6
CONTINUOUS
 62
               4
100
AcDbLine
 10
-41.732449235811657
 20
-87.421303666296012
 30
0.0
 11
-41.732449235811657
 21
-87.921303666296012
 31
0.0
  0
LINE
  5
9E
100
AcDbEntity
  8
0
  6
CONTINUOUS
 62
             200
100
AcDbLine
 10
-39.401548113134083
 20
-89.171303666296012
 30
0.0
 11
-37.957548113134123
 21
-91.671303666296012
 31
0.0
  0
LINE
  5
9F
100
AcDbEntity
  8
0
  6
CONTINUOUS
 62
               4
100
AcDbLine
 10
-37.80554811313408
 20
-91.071303666295989
 30
0.0
 11
-35.035548113134098
 21
-91.071303666295989
 31
0.0
  0
LINE
  5
A0
100
AcDbEntity
  8
0
  6
CONTINUOUS
 62
               4
100
AcDbLine
 10
-38.55554811313408
 20
-89.771303666296035
 30
0.0
 11
-35.035548113134098
 21
-89.771303666296035
 31
0.0
  0
LINE
  5
A1
100
AcDbEntity
  8
0
  6
CONTINUOUS
 62
             200
100
AcDbLine
 10
-38.901548113134083
 20
-89.171303666296012
 30
0.0
 11
-37.457548113134123
 21
-91.671303666296012
 31
0.0
  0
LINE
  5
A2
100
AcDbEntity
  8
0
  6
CONTINUOUS
 62
               4
100
AcDbLine
 10
-35.035548113134098
 20
-89.772121049108591
 30
0.0
 11
-35.035548113134098
 21
-91.072121049108546
 31
0.0
  0
LINE
  5
A3
100
AcDbEntity
  8
0
  6
CONTINUOUS
 62
               4
100
AcDbLine
 10
-41.732449235811657
 20
-92.921303666296012
 30
0.0
 11
-41.032449235811725
 21
-92.921303666296012
 31
0.0
  0
LINE
  5
A4
100
AcDbEntity
  8
0
  6
CONTINUOUS
 62
               4
100
AcDbLine
 10
-40.532449235811725
 20
-92.421303666296012
 30
0.0
 11
-40.532449235811725
 21
-88.421303666296012
 31
0.0
  0
LINE
  5
A5
100
AcDbEntity
  8
0
  6
CONTINUOUS
 62
               4
100
AcDbLine
 10
-41.732449235811657
 20
-87.921303666296012
 30
0.0
 11
-41.032449235811725
 21
-87.921303666296012
 31
0.0
  0
ARC
  5
A6
100
AcDbEntity
  8
0
  6
CONTINUOUS
 62
               4
100
AcDbCircle
 10
-41.032449235811725
 20
-92.421303666296012
 30
0.0
 40
0.5
100
AcDbArc
 50
270.00000000000023
 51
0.0
  0
ARC
  5
A7
100
AcDbEntity
  8
0
  6
CONTINUOUS
 62
               4
100
AcDbCircle
 10
-41.032449235811725
 20
-88.421303666296012
 30
0.0
 40
0.5
100
AcDbArc
 50
0.0
 51
89.999999999999815
  0
LINE
  5
A8
100
AcDbEntity
  8
0
  6
CONTINUOUS
 62
               4
100
AcDbLine
 10
-47.33245205233851
 20
-105.41930366629595
 30
0.0
 11
-47.33245205233851
 21
-83.519303671363673
 31
0.0
  0
LINE
  5
A9
100
AcDbEntity
  8
0
  6
CONTINUOUS
 62
               4
100
AcDbLine
 10
-61.332452052338454
 20
-83.519303666295968
 30
0.0
 11
-61.332452052338454
 21
-105.41930366629595
 31
0.0
  0
LINE
  5
AA
100
AcDbEntity
  8
0
  6
CONTINUOUS
 62
               4
100
AcDbLine
 10
-44.33244923581168
 20
-105.41930366629595
 30
0.0
 11
-44.33244923581168
 21
-86.921303666296012
 31
0.0
  0
LINE
  5
AB
100
AcDbEntity
  8
0
  6
CONTINUOUS
 62
               4
100
AcDbLine
 10
-44.33244923581168
 20
-105.41930366629595
 30
0.0
 11
-42.020449235811668
 21
-104.34130366629597
 31
0.0
  0
LINE
  5
AC
100
AcDbEntity
  8
0
  6
CONTINUOUS
 62
               7
100
AcDbLine
 10
-61.332452052338454
 20
-166.01930366629597
 30
0.0
 11
-61.332452052338454
 21
-105.41930366629595
 31
0.0
  0
LINE
  5
AD
100
AcDbEntity
  8
0
  6
CONTINUOUS
 62
               7
100
AcDbLine
 10
-47.33245205233851
 20
-166.01930366629597
 30
0.0
 11
-47.33245205233851
 21
-105.419303666296
 31
0.0
  0
LINE
  5
AE
100
AcDbEntity
  8
0
  6
CENTER
 62
               2
100
AcDbLine
 10
-54.33245205233851
 20
-82.236371687405722
 30
0.0
 11
-54.33245205233851
 21
-189.20223564518619
 31
0.0
  0
LINE
  5
AF
100
AcDbEntity
  8
0
  6
CONTINUOUS
 62
               7
100
AcDbLine
 10
-61.33244923581168
 20
-152.81930366629592
 30
0.0
 11
-47.33244923581168
 21
-152.81930366629592
 31
0.0
  0
LINE
  5
B0
100
AcDbEntity
  8
0
  6
CONTINUOUS
 62
               7
100
AcDbLine
 10
-45.732449235811657
 20
-160.01930366629597
 30
0.0
 11
-47.33244923581168
 21
-158.41930366629595
 31
0.0
  0
LINE
  5
B1
100
AcDbEntity
  8
0
  6
CONTINUOUS
 62
               7
100
AcDbLine
 10
-45.732449235811657
 20
-160.01930366629597
 30
0.0
 11
-45.732449235811657
 21
-166.01930366629597
 31
0.0
  0
ARC
  5
B3
100
AcDbEntity
  8
0
  6
DASHED
 62
             200
100
AcDbCircle
 10
-72.832452052338454
 20
-137.62027693289753
 30
0.0
 40
0.5
100
AcDbArc
 50
89.999999999999815
 51
179.99999999999963
  0
ARC
  5
B4
100
AcDbEntity
  8
0
  6
DASHED
 62
             200
100
AcDbCircle
 10
-72.832452052338454
 20
-142.62027693289753
 30
0.0
 40
0.5
100
AcDbArc
 50
179.99999999999963
 51
269.99999999999937
  0
LINE
  5
B5
100
AcDbEntity
  8
0
  6
DASHED
 62
             200
100
AcDbLine
 10
-73.332452052338454
 20
-137.62027693289753
 30
0.0
 11
-73.332452052338454
 21
-142.62027693289753
 31
0.0
  0
LINE
  5
B6
100
AcDbEntity
  8
0
  6
DASHED
 62
             200
100
AcDbLine
 10
-70.832452052338454
 20
-137.12027693289753
 30
0.0
 11
-70.832452052338454
 21
-143.12027693289753
 31
0.0
  0
LINE
  5
B7
100
AcDbEntity
  8
0
  6
DASHED
 62
             200
100
AcDbLine
 10
-72.832452052338454
 20
-137.12027693289753
 30
0.0
 11
-72.832452052338454
 21
-143.12027693289753
 31
0.0
  0
LINE
  5
B8
100
AcDbEntity
  8
0
  6
DASHED
 62
             200
100
AcDbLine
 10
-61.332452052338454
 20
-143.12027693289753
 30
0.0
 11
-72.832452052338454
 21
-143.12027693289753
 31
0.0
  0
LINE
  5
B9
100
AcDbEntity
  8
0
  6
DASHED
 62
             200
100
AcDbLine
 10
-61.332452052338454
 20
-137.12027693289753
 30
0.0
 11
-72.832452052338454
 21
-137.12027693289753
 31
0.0
  0
LINE
  5
BA
100
AcDbEntity
  8
0
  6
DASHED
 62
             200
100
AcDbLine
 10
-61.332452052338454
 20
-126.31833039969445
 30
0.0
 11
-72.832452052338454
 21
-126.31833039969445
 31
0.0
  0
LINE
  5
BB
100
AcDbEntity
  8
0
  6
DASHED
 62
             200
100
AcDbLine
 10
-61.332452052338454
 20
-120.31833039969445
 30
0.0
 11
-72.832452052338454
 21
-120.31833039969445
 31
0.0
  0
LINE
  5
BC
100
AcDbEntity
  8
0
  6
DASHED
 62
             200
100
AcDbLine
 10
-72.832452052338454
 20
-126.31833039969445
 30
0.0
 11
-72.832452052338454
 21
-120.31833039969445
 31
0.0
  0
LINE
  5
BD
100
AcDbEntity
  8
0
  6
DASHED
 62
             200
100
AcDbLine
 10
-70.832452052338454
 20
-126.31833039969445
 30
0.0
 11
-70.832452052338454
 21
-120.31833039969445
 31
0.0
  0
LINE
  5
BE
100
AcDbEntity
  8
0
  6
DASHED
 62
             200
100
AcDbLine
 10
-73.332452052338454
 20
-125.81833039969445
 30
0.0
 11
-73.332452052338454
 21
-120.81833039969445
 31
0.0
  0
ARC
  5
BF
100
AcDbEntity
  8
0
  6
DASHED
 62
             200
100
AcDbCircle
 10
-72.832452052338454
 20
-120.81833039969445
 30
0.0
 40
0.5
100
AcDbArc
 50
89.999999999999815
 51
179.99999999999963
  0
ARC
  5
C0
100
AcDbEntity
  8
0
  6
DASHED
 62
             200
100
AcDbCircle
 10
-72.832452052338454
 20
-125.81833039969445
 30
0.0
 40
0.5
100
AcDbArc
 50
179.99999999999963
 51
269.99999999999937
  0
LINE
  5
C1
100
AcDbEntity
  8
0
  6
CENTER
 62
               2
100
AcDbLine
 10
-59.296371621605942
 20
-140.12027693289753
 30
0.0
 11
-74.738383119828427
 21
-140.12027693289753
 31
0.0
  0
LINE
  5
C2
100
AcDbEntity
  8
0
  6
CENTER
 62
               2
100
AcDbLine
 10
-59.296371621605942
 20
-123.31833039969445
 30
0.0
 11
-74.738383119828427
 21
-123.31833039969445
 31
0.0
  0
LINE
  5
C3
100
AcDbEntity
  8
0
  6
CONTINUOUS
 62
               7
100
AcDbLine
 10
-48.332452052338454
 20
-138.42027693289754
 30
0.0
 11
-48.332452052338454
 21
-141.62027693289758
 31
0.0
  0
LINE
  5
C4
100
AcDbEntity
  8
0
  6
CONTINUOUS
 62
               7
100
AcDbLine
 10
-47.332452041371141
 20
-138.42027693289754
 30
0.0
 11
-48.332452041371198
 21
-138.42027693289754
 31
0.0
  0
LINE
  5
C5
100
AcDbEntity
  8
0
  6
CONTINUOUS
 62
               7
100
AcDbLine
 10
-47.332452041371141
 20
-141.62027693289758
 30
0.0
 11
-48.332452041371198
 21
-141.62027693289758
 31
0.0
  0
CIRCLE
  5
C6
100
AcDbEntity
  8
0
  6
CONTINUOUS
 62
               7
100
AcDbCircle
 10
-58.532452052338442
 20
-127.21930366629601
 30
0.0
 40
1.0499999999999998
  0
LINE
  5
C7
100
AcDbEntity
  8
0
  6
CENTER
 62
               2
100
AcDbLine
 10
-58.532452052338442
 20
-128.71930366629601
 30
0.0
 11
-58.532452052338442
 21
-125.71930366629601
 31
0.0
  0
LINE
  5
C8
100
AcDbEntity
  8
0
  6
CENTER
 62
               2
100
AcDbLine
 10
-60.032452052338442
 20
-127.21930366629601
 30
0.0
 11
-57.032452052338442
 21
-127.21930366629601
 31
0.0
  0
CIRCLE
  5
C9
100
AcDbEntity
  8
0
  6
CONTINUOUS
 62
               7
100
AcDbCircle
 10
-58.532452052338442
 20
-136.21930366629601
 30
0.0
 40
1.0499999999999998
  0
LINE
  5
CA
100
AcDbEntity
  8
0
  6
CENTER
 62
               2
100
AcDbLine
 10
-58.532452052338442
 20
-137.71930366629601
 30
0.0
 11
-58.532452052338442
 21
-134.71930366629601
 31
0.0
  0
LINE
  5
CB
100
AcDbEntity
  8
0
  6
CENTER
 62
               2
100
AcDbLine
 10
-60.032452052338442
 20
-136.21930366629601
 30
0.0
 11
-57.032452052338442
 21
-136.21930366629601
 31
0.0
  0
LINE
  5
CC
100
AcDbEntity
  8
0
  6
CONTINUOUS
 62
               7
100
AcDbLine
 10
-45.732449235811657
 20
-111.419303666296
 30
0.0
 11
-47.33244923581168
 21
-113.01930366629597
 31
0.0
  0
LINE
  5
CD
100
AcDbEntity
  8
0
  6
CONTINUOUS
 62
               7
100
AcDbLine
 10
-61.33244923581168
 20
-144.81930366629592
 30
0.0
 11
-47.33244923581168
 21
-144.81930366629592
 31
0.0
  0
LINE
  5
CE
100
AcDbEntity
  8
0
  6
CONTINUOUS
 62
               7
100
AcDbLine
 10
-61.33244923581168
 20
-118.61930366629599
 30
0.0
 11
-47.33244923581168
 21
-118.61930366629599
 31
0.0
  0
LINE
  5
CF
100
AcDbEntity
  8
0
  6
CONTINUOUS
 62
               7
100
AcDbLine
 10
-45.732449235811657
 20
-111.419303666296
 30
0.0
 11
-45.732449235811657
 21
-105.419303666296
 31
0.0
  0
LINE
  5
D0
100
AcDbEntity
  8
0
  6
CENTER
 62
               2
100
AcDbLine
 10
-63.83245205233851
 20
-123.419303666296
 30
0.0
 11
-58.83245205233851
 21
-123.419303666296
 31
0.0
  0
LINE
  5
D1
100
AcDbEntity
  8
0
  6
CENTER
 62
               2
100
AcDbLine
 10
-63.83245205233851
 20
-140.01930366629603
 30
0.0
 11
-58.83245205233851
 21
-140.01930366629603
 31
0.0
  0
LINE
  5
D2
100
AcDbEntity
  8
0
  6
CONTINUOUS
 62
               7
100
AcDbLine
 10
36.560730369795635
 20
-166.01930366629597
 30
0.0
 11
46.560730369795635
 21
-166.01930366629597
 31
0.0
  0
LINE
  5
D3
100
AcDbEntity
  8
0
  6
CONTINUOUS
 62
               4
100
AcDbLine
 10
37.498730369795624
 20
-167.09730366202643
 30
0.0
 11
45.622730369795647
 21
-167.09730366202643
 31
0.0
  0
LINE
  5
D4
100
AcDbEntity
  8
0
  6
CONTINUOUS
 62
               4
100
AcDbLine
 10
37.060730369795635
 20
-184.51930366629597
 30
0.0
 11
46.060730369795635
 21
-184.51930366629597
 31
0.0
  0
LINE
  5
D5
100
AcDbEntity
  8
0
  6
CONTINUOUS
 62
               4
100
AcDbLine
 10
36.560730369795635
 20
-186.91930366629595
 30
0.0
 11
39.760730369795681
 21
-186.91930366629595
 31
0.0
  0
LINE
  5
D6
100
AcDbEntity
  8
0
  6
CONTINUOUS
 62
               4
100
AcDbLine
 10
36.560730369795635
 20
-188.51930366629597
 30
0.0
 11
46.560730369795635
 21
-188.51930366629597
 31
0.0
  0
LINE
  5
D7
100
AcDbEntity
  8
0
  6
CONTINUOUS
 62
               4
100
AcDbLine
 10
36.560730369795635
 20
-187.91930366629595
 30
0.0
 11
39.760730369795681
 21
-187.91930366629595
 31
0.0
  0
LINE
  5
D8
100
AcDbEntity
  8
0
  6
CONTINUOUS
 62
               4
100
AcDbLine
 10
46.560730369795635
 20
-166.01930366629597
 30
0.0
 11
36.560730369795635
 21
-166.01930366629597
 31
0.0
  0
ARC
  5
D9
100
AcDbEntity
  8
0
  6
CONTINUOUS
 62
               4
100
AcDbCircle
 10
46.060433345589502
 20
-166.5196006905021
 30
0.0
 40
0.5002971123771115
100
AcDbArc
 50
0.034016255545966
 51
89.965983744453979
  0
LINE
  5
DB
100
AcDbEntity
  8
0
  6
PHANTOM
 62
               4
100
AcDbLine
 10
43.060748680342556
 20
-173.51930366202646
 30
0.0
 11
43.060748680342556
 21
-171.51930366202646
 31
0.0
  0
LINE
  5
DC
100
AcDbEntity
  8
0
  6
PHANTOM
 62
               4
100
AcDbLine
 10
40.060748680342556
 20
-173.51930366202646
 30
0.0
 11
40.060748680342556
 21
-171.51930366202646
 31
0.0
  0
LINE
  5
DD
100
AcDbEntity
  8
0
  6
PHANTOM
 62
               4
100
AcDbLine
 10
43.060748680342556
 20
-171.51930366202646
 30
0.0
 11
40.060748680342556
 21
-171.51930366202646
 31
0.0
  0
LINE
  5
DE
100
AcDbEntity
  8
0
  6
PHANTOM
 62
               4
100
AcDbLine
 10
43.060748680342556
 20
-173.51930366202646
 30
0.0
 11
40.060748680342556
 21
-173.51930366202646
 31
0.0
  0
LINE
  5
DF
100
AcDbEntity
  8
0
  6
CONTINUOUS
 62
               4
100
AcDbLine
 10
39.760730369795681
 20
-188.41930366629595
 30
0.0
 11
46.060730369795635
 21
-188.41930366629595
 31
0.0
  0
LINE
  5
E0
100
AcDbEntity
  8
0
  6
CONTINUOUS
 62
               4
100
AcDbLine
 10
39.760730369795681
 20
-188.41930366629595
 30
0.0
 11
39.760730369795681
 21
-186.91930366629595
 31
0.0
  0
ARC
  5
E1
100
AcDbEntity
  8
0
  6
CONTINUOUS
 62
               4
100
AcDbCircle
 10
46.060730369795635
 20
-187.91930366629595
 30
0.0
 40
0.5
100
AcDbArc
 50
269.99999999999937
 51
0.0
  0
CIRCLE
  5
E2
100
AcDbEntity
  8
0
  6
CONTINUOUS
 62
               4
100
AcDbCircle
 10
40.310136497725296
 20
-181.01930366629597
 30
0.0
 40
0.25
  0
CIRCLE
  5
E3
100
AcDbEntity
  8
0
  6
CONTINUOUS
 62
               4
100
AcDbCircle
 10
42.810136497725296
 20
-181.01930366629597
 30
0.0
 40
0.25
  0
LINE
  5
E4
100
AcDbEntity
  8
0
  6
CONTINUOUS
 62
               4
100
AcDbLine
 10
46.122730369795647
 20
-184.01930366629597
 30
0.0
 11
46.122730369795647
 21
-167.59730366202643
 31
0.0
  0
ARC
  5
E5
100
AcDbEntity
  8
0
  6
CONTINUOUS
 62
               4
100
AcDbCircle
 10
45.622712425137763
 20
-184.01928572163797
 30
0.0
 40
0.5000179449799356
100
AcDbArc
 50
270.00205623253072
 51
359.99794376746769
  0
ARC
  5
E6
100
AcDbEntity
  8
0
  6
CONTINUOUS
 62
               4
100
AcDbCircle
 10
46.060433345589502
 20
-184.01900664208983
 30
0.0
 40
0.5002971123771114
100
AcDbArc
 50
270.03401625554523
 51
359.96598374445318
  0
ARC
  5
E7
100
AcDbEntity
  8
0
  6
CONTINUOUS
 62
               4
100
AcDbCircle
 10
45.622943930586473
 20
-167.59709010123566
 30
0.0
 40
0.4997864848369056
100
AcDbArc
 50
359.97551728042708
 51
90.024482719571907
  0
ARC
  5
E8
100
AcDbEntity
  8
0
  6
CONTINUOUS
 62
               4
100
AcDbCircle
 10
40.310730369795635
 20
-181.01930366629597
 30
0.0
 40
2.0000000881710065
100
AcDbArc
 50
89.999999999999815
 51
269.99999999999937
  0
ARC
  5
E9
100
AcDbEntity
  8
0
  6
CONTINUOUS
 62
               4
100
AcDbCircle
 10
42.810730369795635
 20
-181.01930366629597
 30
0.0
 40
2.0000000881710065
100
AcDbArc
 50
269.99999999999937
 51
89.999999999999801
  0
LINE
  5
EA
100
AcDbEntity
  8
0
  6
CONTINUOUS
 62
               4
100
AcDbLine
 10
40.310730369795635
 20
-183.01930366629597
 30
0.0
 11
42.810730369795635
 21
-183.01930366629597
 31
0.0
  0
LINE
  5
EB
100
AcDbEntity
  8
0
  6
CONTINUOUS
 62
               4
100
AcDbLine
 10
40.310730369795635
 20
-179.01930366629597
 30
0.0
 11
42.810730369795635
 21
-179.01930366629597
 31
0.0
  0
CIRCLE
  5
EC
100
AcDbEntity
  8
0
  6
CONTINUOUS
 62
               4
100
AcDbCircle
 10
40.310136497725296
 20
-181.01930366629597
 30
0.0
 40
0.7250000000000001
  0
CIRCLE
  5
ED
100
AcDbEntity
  8
0
  6
CONTINUOUS
 62
               4
100
AcDbCircle
 10
42.810136497725296
 20
-181.01930366629597
 30
0.0
 40
0.7250000000000001
  0
ARC
  5
EE
100
AcDbEntity
  8
0
  6
CONTINUOUS
 62
               4
100
AcDbCircle
 10
39.157818375032718
 20
-187.92039167153291
 30
0.0
 40
0.5989129830170392
100
AcDbArc
 50
269.89591452477231
 51
0.1040854752270701
  0
LINE
  5
EF
100
AcDbEntity
  8
0
  6
CONTINUOUS
 62
               4
100
AcDbLine
 10
46.560730369795635
 20
-188.51930366629597
 30
0.0
 11
46.560730369795635
 21
-166.01930366629597
 31
0.0
  0
ARC
  5
F0
100
AcDbEntity
  8
0
  6
CONTINUOUS
 62
               4
100
AcDbCircle
 10
37.060433521931429
 20
-166.51900681843176
 30
0.0
 40
0.4997032403068001
100
AcDbArc
 50
89.965963537146934
 51
180.03403646285233
  0
LINE
  5
F1
100
AcDbEntity
  8
0
  6
CONTINUOUS
 62
               4
100
AcDbLine
 10
36.998730369795624
 20
-184.01930366629597
 30
0.0
 11
36.998730369795624
 21
-167.59730366202643
 31
0.0
  0
ARC
  5
F2
100
AcDbEntity
  8
0
  6
CONTINUOUS
 62
               4
100
AcDbCircle
 10
37.060433521931429
 20
-184.01960051416017
 30
0.0
 40
0.4997032403068001
100
AcDbArc
 50
179.96596353714693
 51
270.03403646285233
  0
ARC
  5
F3
100
AcDbEntity
  8
0
  6
CONTINUOUS
 62
               4
100
AcDbCircle
 10
37.498154773753356
 20
-184.01987926233824
 30
0.0
 40
0.499424735650256
100
AcDbArc
 50
179.93396556302844
 51
270.06603443697037
  0
ARC
  5
F4
100
AcDbEntity
  8
0
  6
CONTINUOUS
 62
               4
100
AcDbCircle
 10
37.497922993261966
 20
-167.59649628549278
 30
0.0
 40
0.4991932763770037
100
AcDbArc
 50
89.907331908866567
 51
180.09266809113299
  0
ARC
  5
F5
100
AcDbEntity
  8
0
  6
CONTINUOUS
 62
               4
100
AcDbCircle
 10
37.356635223137516
 20
-187.91939881295411
 30
0.0
 40
0.5999048608870732
100
AcDbArc
 50
179.99091272245337
 51
270.00908727754575
  0
LINE
  5
F6
100
AcDbEntity
  8
0
  6
CONTINUOUS
 62
               4
100
AcDbLine
 10
36.560730369795635
 20
-188.51930366629597
 30
0.0
 11
36.560730369795635
 21
-166.01930366629597
 31
0.0
  0
LINE
  5
F7
100
AcDbEntity
  8
0
  6
CONTINUOUS
 62
               7
100
AcDbLine
 10
46.560730369795635
 20
-105.41930366629595
 30
0.0
 11
36.560730369795635
 21
-105.41930366629595
 31
0.0
  0
LINE
  5
F8
100
AcDbEntity
  8
0
  6
CONTINUOUS
 62
               4
100
AcDbLine
 10
45.622730369795647
 20
-104.34130367056548
 30
0.0
 11
37.498730369795624
 21
-104.34130367056548
 31
0.0
  0
LINE
  5
F9
100
AcDbEntity
  8
0
  6
CONTINUOUS
 62
               4
100
AcDbLine
 10
46.060730369795635
 20
-86.919303666295946
 30
0.0
 11
37.060730369795635
 21
-86.919303666295946
 31
0.0
  0
LINE
  5
FA
100
AcDbEntity
  8
0
  6
CONTINUOUS
 62
               4
100
AcDbLine
 10
46.560730369795635
 20
-84.519303666295968
 30
0.0
 11
43.36073036979559
 21
-84.519303666295968
 31
0.0
  0
LINE
  5
FB
100
AcDbEntity
  8
0
  6
CONTINUOUS
 62
               4
100
AcDbLine
 10
46.560730369795635
 20
-82.919303666295946
 30
0.0
 11
36.560730369795635
 21
-82.919303666295946
 31
0.0
  0
LINE
  5
FC
100
AcDbEntity
  8
0
  6
CONTINUOUS
 62
               4
100
AcDbLine
 10
46.560730369795635
 20
-83.519303666295968
 30
0.0
 11
43.36073036979559
 21
-83.519303666295968
 31
0.0
  0
LINE
  5
FD
100
AcDbEntity
  8
0
  6
CONTINUOUS
 62
               4
100
AcDbLine
 10
36.560730369795635
 20
-105.41930366629595
 30
0.0
 11
46.560730369795635
 21
-105.41930366629595
 31
0.0
  0
ARC
  5
FE
100
AcDbEntity
  8
0
  6
CONTINUOUS
 62
               4
100
AcDbCircle
 10
37.061027394001769
 20
-104.91900664208981
 30
0.0
 40
0.5002971123771115
100
AcDbArc
 50
180.03401625554557
 51
269.96598374445358
  0
LINE
  5
FF
100
AcDbEntity
  8
0
  6
PHANTOM
 62
               4
100
AcDbLine
 10
40.060712059248715
 20
-97.919303670565455
 30
0.0
 11
40.060712059248715
 21
-99.919303670565455
 31
0.0
  0
LINE
  5
100
100
AcDbEntity
  8
0
  6
PHANTOM
 62
               4
100
AcDbLine
 10
43.060712059248715
 20
-97.919303670565455
 30
0.0
 11
43.060712059248715
 21
-99.919303670565455
 31
0.0
  0
LINE
  5
101
100
AcDbEntity
  8
0
  6
PHANTOM
 62
               4
100
AcDbLine
 10
40.060712059248715
 20
-99.919303670565455
 30
0.0
 11
43.060712059248715
 21
-99.919303670565455
 31
0.0
  0
LINE
  5
102
100
AcDbEntity
  8
0
  6
PHANTOM
 62
               4
100
AcDbLine
 10
40.060712059248715
 20
-97.919303670565455
 30
0.0
 11
43.060712059248715
 21
-97.919303670565455
 31
0.0
  0
LINE
  5
103
100
AcDbEntity
  8
0
  6
CONTINUOUS
 62
               4
100
AcDbLine
 10
43.36073036979559
 20
-83.019303666295968
 30
0.0
 11
37.060730369795635
 21
-83.019303666295968
 31
0.0
  0
LINE
  5
104
100
AcDbEntity
  8
0
  6
CONTINUOUS
 62
               4
100
AcDbLine
 10
43.36073036979559
 20
-83.019303666295968
 30
0.0
 11
43.36073036979559
 21
-84.519303666295968
 31
0.0
  0
ARC
  5
105
100
AcDbEntity
  8
0
  6
CONTINUOUS
 62
               4
100
AcDbCircle
 10
37.060730369795635
 20
-83.519303666295968
 30
0.0
 40
0.5
100
AcDbArc
 50
89.999999999999815
 51
179.99999999999963
  0
CIRCLE
  5
106
100
AcDbEntity
  8
0
  6
CONTINUOUS
 62
               4
100
AcDbCircle
 10
42.811324241865975
 20
-90.419303666295946
 30
0.0
 40
0.25
  0
CIRCLE
  5
107
100
AcDbEntity
  8
0
  6
CONTINUOUS
 62
               4
100
AcDbCircle
 10
40.311324241865975
 20
-90.419303666295946
 30
0.0
 40
0.25
  0
LINE
  5
108
100
AcDbEntity
  8
0
  6
CONTINUOUS
 62
               4
100
AcDbLine
 10
36.998730369795624
 20
-87.419303666295946
 30
0.0
 11
36.998730369795624
 21
-103.84130367056548
 31
0.0
  0
ARC
  5
109
100
AcDbEntity
  8
0
  6
CONTINUOUS
 62
               4
100
AcDbCircle
 10
37.498748314453508
 20
-87.419321610953943
 30
0.0
 40
0.5000179449799356
100
AcDbArc
 50
90.002056232531103
 51
179.99794376746806
  0
ARC
  5
10A
100
AcDbEntity
  8
0
  6
CONTINUOUS
 62
               4
100
AcDbCircle
 10
37.061027394001769
 20
-87.419600690502079
 30
0.0
 40
0.5002971123771114
100
AcDbArc
 50
90.034016255545609
 51
179.96598374445358
  0
ARC
  5
10B
100
AcDbEntity
  8
0
  6
CONTINUOUS
 62
               4
100
AcDbCircle
 10
37.498516809004798
 20
-103.84151723135625
 30
0.0
 40
0.4997864848369056
100
AcDbArc
 50
179.97551728042748
 51
270.02448271957149
  0
ARC
  5
10C
100
AcDbEntity
  8
0
  6
CONTINUOUS
 62
               4
100
AcDbCircle
 10
42.810730369795635
 20
-90.419303666295946
 30
0.0
 40
2.0000000881710065
100
AcDbArc
 50
269.99999999999937
 51
89.999999999999801
  0
ARC
  5
10D
100
AcDbEntity
  8
0
  6
CONTINUOUS
 62
               4
100
AcDbCircle
 10
40.310730369795635
 20
-90.419303666295946
 30
0.0
 40
2.0000000881710065
100
AcDbArc
 50
89.999999999999815
 51
269.99999999999937
  0
LINE
  5
10E
100
AcDbEntity
  8
0
  6
CONTINUOUS
 62
               4
100
AcDbLine
 10
42.810730369795635
 20
-88.419303666295946
 30
0.0
 11
40.310730369795635
 21
-88.419303666295946
 31
0.0
  0
LINE
  5
10F
100
AcDbEntity
  8
0
  6
CONTINUOUS
 62
               4
100
AcDbLine
 10
42.810730369795635
 20
-92.419303666295946
 30
0.0
 11
40.310730369795635
 21
-92.419303666295946
 31
0.0
  0
CIRCLE
  5
110
100
AcDbEntity
  8
0
  6
CONTINUOUS
 62
               4
100
AcDbCircle
 10
42.811324241865975
 20
-90.419303666295946
 30
0.0
 40
0.7250000000000001
  0
CIRCLE
  5
111
100
AcDbEntity
  8
0
  6
CONTINUOUS
 62
               4
100
AcDbCircle
 10
40.311324241865975
 20
-90.419303666295946
 30
0.0
 40
0.7250000000000001
  0
ARC
  5
112
100
AcDbEntity
  8
0
  6
CONTINUOUS
 62
               4
100
AcDbCircle
 10
43.963642364558552
 20
-83.518215661059003
 30
0.0
 40
0.5989129830170392
100
AcDbArc
 50
89.895914524772735
 51
180.10408547522667
  0
LINE
  5
113
100
AcDbEntity
  8
0
  6
CONTINUOUS
 62
               4
100
AcDbLine
 10
36.560730369795635
 20
-82.919303666295946
 30
0.0
 11
36.560730369795635
 21
-105.41930366629595
 31
0.0
  0
ARC
  5
114
100
AcDbEntity
  8
0
  6
CONTINUOUS
 62
               4
100
AcDbCircle
 10
46.061027217659841
 20
-104.91960051416015
 30
0.0
 40
0.4997032403068001
100
AcDbArc
 50
269.96596353714654
 51
0.0340364628527164
  0
LINE
  5
115
100
AcDbEntity
  8
0
  6
CONTINUOUS
 62
               4
100
AcDbLine
 10
46.122730369795647
 20
-87.419303666295946
 30
0.0
 11
46.122730369795647
 21
-103.84130367056548
 31
0.0
  0
ARC
  5
116
100
AcDbEntity
  8
0
  6
CONTINUOUS
 62
               4
100
AcDbCircle
 10
46.061027217659841
 20
-87.41900681843174
 30
0.0
 40
0.4997032403068001
100
AcDbArc
 50
359.96596353714654
 51
90.034036462852711
  0
ARC
  5
117
100
AcDbEntity
  8
0
  6
CONTINUOUS
 62
               4
100
AcDbCircle
 10
45.623305965837915
 20
-87.418728070253678
 30
0.0
 40
0.499424735650256
100
AcDbArc
 50
359.93396556302804
 51
90.066034436970796
  0
ARC
  5
118
100
AcDbEntity
  8
0
  6
CONTINUOUS
 62
               4
100
AcDbCircle
 10
45.623537746329305
 20
-103.84211104709914
 30
0.0
 40
0.4991932763770037
100
AcDbArc
 50
269.90733190886618
 51
0.0926680911333844
  0
ARC
  5
119
100
AcDbEntity
  8
0
  6
CONTINUOUS
 62
               4
100
AcDbCircle
 10
45.764825516453755
 20
-83.5192085196378
 30
0.0
 40
0.5999048608870732
100
AcDbArc
 50
359.99091272245295
 51
90.009087277546172
  0
LINE
  5
11A
100
AcDbEntity
  8
0
  6
CONTINUOUS
 62
               4
100
AcDbLine
 10
46.560730369795635
 20
-82.919303666295946
 30
0.0
 11
46.560730369795635
 21
-105.41930366629595
 31
0.0
  0
LINE
  5
11B
100
AcDbEntity
  8
0
  6
CONTINUOUS
 62
               7
100
AcDbLine
 10
36.560730369795635
 20
-166.01930366629597
 30
0.0
 11
36.560730369795635
 21
-105.419303666296
 31
0.0
  0
LINE
  5
11C
100
AcDbEntity
  8
0
  6
CONTINUOUS
 62
               7
100
AcDbLine
 10
46.560730369795635
 20
-166.01930366629597
 30
0.0
 11
46.560730369795635
 21
-105.419303666296
 31
0.0
  0
LINE
  5
11D
100
AcDbEntity
  8
0
  6
CENTER
 62
               2
100
AcDbLine
 10
41.560730369795635
 20
-82.221303666296023
 30
0.0
 11
41.560730369795635
 21
-189.21730366629595
 31
0.0
  0
CIRCLE
  5
11E
100
AcDbEntity
  8
0
  6
CONTINUOUS
 62
               7
100
AcDbCircle
 10
41.560730369795635
 20
-163.71930366629596
 30
0.0
 40
0.7500000000000001
  0
CIRCLE
  5
11F
100
AcDbEntity
  8
0
  6
CONTINUOUS
 62
               7
100
AcDbCircle
 10
41.560730369795635
 20
-163.71930366629596
 30
0.0
 40
1.1000000000000001
  0
CIRCLE
  5
120
100
AcDbEntity
  8
0
  6
CONTINUOUS
 62
               7
100
AcDbCircle
 10
41.560730369795635
 20
-163.71930366629596
 30
0.0
 40
1.1500000000000001
  0
CIRCLE
  5
121
100
AcDbEntity
  8
0
  6
CONTINUOUS
 62
               7
100
AcDbCircle
 10
41.560730369795635
 20
-163.71930366629596
 30
0.0
 40
1.3000000000000012
  0
LINE
  5
122
100
AcDbEntity
  8
0
  6
CENTER
 62
               2
100
AcDbLine
 10
39.860730369795704
 20
-163.71930366629596
 30
0.0
 11
43.260730369795681
 21
-163.71930366629596
 31
0.0
  0
ARC
  5
123
100
AcDbEntity
  8
0
  6
CONTINUOUS
 62
               7
100
AcDbCircle
 10
41.560730369795635
 20
-162.01930366629597
 30
0.0
 40
3.6000000000000005
100
AcDbArc
 50
0.0
 51
179.99999999999963
  0
ARC
  5
124
100
AcDbEntity
  8
0
  6
CONTINUOUS
 62
               7
100
AcDbCircle
 10
41.560730369795635
 20
-162.01930366629597
 30
0.0
 40
2.0
100
AcDbArc
 50
0.0
 51
179.99999999999963
  0
LINE
  5
125
100
AcDbEntity
  8
0
  6
CONTINUOUS
 62
               7
100
AcDbLine
 10
37.960730369795613
 20
-162.01930366629597
 30
0.0
 11
37.960730369795613
 21
-166.01930366629597
 31
0.0
  0
LINE
  5
126
100
AcDbEntity
  8
0
  6
CONTINUOUS
 62
               7
100
AcDbLine
 10
45.160730369795658
 20
-162.01930366629597
 30
0.0
 11
45.160730369795658
 21
-166.01930366629597
 31
0.0
  0
LINE
  5
127
100
AcDbEntity
  8
0
  6
CONTINUOUS
 62
               7
100
AcDbLine
 10
39.560730369795635
 20
-162.01930366629597
 30
0.0
 11
39.560730369795635
 21
-166.01930366629597
 31
0.0
  0
LINE
  5
128
100
AcDbEntity
  8
0
  6
CONTINUOUS
 62
               7
100
AcDbLine
 10
43.560730369795635
 20
-162.01930366629597
 30
0.0
 11
43.560730369795635
 21
-166.01930366629597
 31
0.0
  0
LINE
  5
129
100
AcDbEntity
  8
0
  6
CENTER
 62
               2
100
AcDbLine
 10
45.360730369795704
 20
-125.36930366629605
 30
0.0
 11
45.360730369795704
 21
-121.46930366629596
 31
0.0
  0
ARC
  5
12A
100
AcDbEntity
  8
0
  6
CONTINUOUS
 62
               7
100
AcDbCircle
 10
45.360730369795704
 20
-123.419303666296
 30
0.0
 40
1.6000000000000003
100
AcDbArc
 50
89.999999999999815
 51
269.99999999999937
  0
LINE
  5
12B
100
AcDbEntity
  8
0
  6
CONTINUOUS
 62
               7
100
AcDbLine
 10
45.360730369795704
 20
-125.01930366629603
 30
0.0
 11
46.560730369795635
 21
-125.01930366629603
 31
0.0
  0
LINE
  5
12C
100
AcDbEntity
  8
0
  6
CONTINUOUS
 62
               7
100
AcDbLine
 10
45.360730369795704
 20
-121.81930366629598
 30
0.0
 11
46.560730369795635
 21
-121.81930366629598
 31
0.0
  0
CIRCLE
  5
12D
100
AcDbEntity
  8
0
  6
CONTINUOUS
 62
               7
100
AcDbCircle
 10
45.360730369795704
 20
-123.419303666296
 30
0.0
 40
0.8500000000000002
  0
CIRCLE
  5
12E
100
AcDbEntity
  8
0
  6
CONTINUOUS
 62
               7
100
AcDbCircle
 10
41.560727318037891
 20
-126.81930061453824
 30
0.0
 40
2.1000000000000001
  0
CIRCLE
  5
12F
100
AcDbEntity
  8
0
  6
CONTINUOUS
 62
               2
100
AcDbCircle
 10
41.560727318037891
 20
-126.81930061453824
 30
0.0
 40
2.5
  0
LINE
  5
130
100
AcDbEntity
  8
0
  6
CENTER
 62
               2
100
AcDbLine
 10
44.372730369795647
 20
-126.81930366629598
 30
0.0
 11
38.65273036979562
 21
-126.81930366629598
 31
0.0
  0
LINE
  5
131
100
AcDbEntity
  8
0
  6
CENTER
 62
               2
100
AcDbLine
 10
43.410730369795658
 20
-123.419303666296
 30
0.0
 11
47.310730369795749
 21
-123.419303666296
 31
0.0
  0
ARC
  5
132
100
AcDbEntity
  8
0
  6
CONTINUOUS
 62
               7
100
AcDbCircle
 10
37.760730369795681
 20
-140.01930366629603
 30
0.0
 40
1.6000000000000003
100
AcDbArc
 50
270.00000000000023
 51
89.999999999999801
  0
LINE
  5
133
100
AcDbEntity
  8
0
  6
CENTER
 62
               2
100
AcDbLine
 10
37.760730369795681
 20
-141.96930366629601
 30
0.0
 11
37.760730369795681
 21
-138.06930366629604
 31
0.0
  0
CIRCLE
  5
134
100
AcDbEntity
  8
0
  6
CONTINUOUS
 62
               7
100
AcDbCircle
 10
37.760730369795681
 20
-140.01930366629603
 30
0.0
 40
0.8500000000000002
  0
LINE
  5
135
100
AcDbEntity
  8
0
  6
CONTINUOUS
 62
               7
100
AcDbLine
 10
37.760730369795681
 20
-138.419303666296
 30
0.0
 11
36.560730369795635
 21
-138.419303666296
 31
0.0
  0
LINE
  5
136
100
AcDbEntity
  8
0
  6
CONTINUOUS
 62
               7
100
AcDbLine
 10
37.760730369795681
 20
-141.61930366629605
 30
0.0
 11
36.560730369795635
 21
-141.61930366629605
 31
0.0
  0
LINE
  5
137
100
AcDbEntity
  8
0
  6
CENTER
 62
               2
100
AcDbLine
 10
36.033837758416269
 20
-140.01930366629603
 30
0.0
 11
39.777243986755877
 21
-140.01930366629603
 31
0.0
  0
CIRCLE
  5
138
100
AcDbEntity
  8
0
  6
CONTINUOUS
 62
               7
100
AcDbCircle
 10
41.560727318037891
 20
-136.61930061453819
 30
0.0
 40
2.1000000000000001
  0
CIRCLE
  5
139
100
AcDbEntity
  8
0
  6
CONTINUOUS
 62
               2
100
AcDbCircle
 10
41.560727318037891
 20
-136.61930061453819
 30
0.0
 40
2.5
  0
LINE
  5
13A
100
AcDbEntity
  8
0
  6
CENTER
 62
               2
100
AcDbLine
 10
44.452730369795688
 20
-136.61930366629599
 30
0.0
 11
38.732730369795661
 21
-136.61930366629599
 31
0.0
  0
LINE
  5
13B
100
AcDbEntity
  8
0
  6
CONTINUOUS
 62
               7
100
AcDbLine
 10
39.560730369795635
 20
-109.419303666296
 30
0.0
 11
39.560730369795635
 21
-105.419303666296
 31
0.0
  0
LINE
  5
13C
100
AcDbEntity
  8
0
  6
CONTINUOUS
 62
               7
100
AcDbLine
 10
43.560730369795635
 20
-109.419303666296
 30
0.0
 11
43.560730369795635
 21
-105.419303666296
 31
0.0
  0
LINE
  5
13D
100
AcDbEntity
  8
0
  6
CONTINUOUS
 62
               7
100
AcDbLine
 10
37.960730369795613
 20
-109.419303666296
 30
0.0
 11
37.960730369795613
 21
-105.419303666296
 31
0.0
  0
LINE
  5
13E
100
AcDbEntity
  8
0
  6
CONTINUOUS
 62
               7
100
AcDbLine
 10
45.160730369795658
 20
-109.419303666296
 30
0.0
 11
45.160730369795658
 21
-105.419303666296
 31
0.0
  0
ARC
  5
13F
100
AcDbEntity
  8
0
  6
CONTINUOUS
 62
               7
100
AcDbCircle
 10
41.560730369795635
 20
-109.419303666296
 30
0.0
 40
2.0
100
AcDbArc
 50
179.99999999999963
 51
0.0
  0
ARC
  5
140
100
AcDbEntity
  8
0
  6
CONTINUOUS
 62
               7
100
AcDbCircle
 10
41.560730369795635
 20
-109.419303666296
 30
0.0
 40
3.6000000000000005
100
AcDbArc
 50
179.99999999999963
 51
0.0
  0
LINE
  5
141
100
AcDbEntity
  8
0
  6
CENTER
 62
               2
100
AcDbLine
 10
43.260730369795681
 20
-107.71930366629601
 30
0.0
 11
39.860730369795704
 21
-107.71930366629601
 31
0.0
  0
CIRCLE
  5
142
100
AcDbEntity
  8
0
  6
CONTINUOUS
 62
               7
100
AcDbCircle
 10
41.560730369795635
 20
-107.71930366629601
 30
0.0
 40
1.3000000000000012
  0
CIRCLE
  5
143
100
AcDbEntity
  8
0
  6
CONTINUOUS
 62
               7
100
AcDbCircle
 10
41.560730369795635
 20
-107.71930366629601
 30
0.0
 40
1.1500000000000001
  0
LINE
  5
144
100
AcDbEntity
  8
0
  6
CONTINUOUS
 62
               7
100
AcDbLine
 10
36.560730369795635
 20
-118.61930366629599
 30
0.0
 11
46.560730369795635
 21
-118.61930366629599
 31
0.0
  0
CIRCLE
  5
145
100
AcDbEntity
  8
0
  6
CONTINUOUS
 62
               7
100
AcDbCircle
 10
41.560730369795635
 20
-107.71930366629601
 30
0.0
 40
1.1000000000000001
  0
CIRCLE
  5
146
100
AcDbEntity
  8
0
  6
CONTINUOUS
 62
               7
100
AcDbCircle
 10
41.560730369795635
 20
-107.71930366629601
 30
0.0
 40
0.7500000000000001
  0
LINE
  5
147
100
AcDbEntity
  8
0
  6
CONTINUOUS
 62
               7
100
AcDbLine
 10
36.560730369795635
 20
-144.81930366629592
 30
0.0
 11
46.560730369795635
 21
-144.81930366629592
 31
0.0
  0
LINE
  5
148
100
AcDbEntity
  8
0
  6
CONTINUOUS
 62
               7
100
AcDbLine
 10
36.560730369795635
 20
-152.81930366629592
 30
0.0
 11
46.560730369795635
 21
-152.81930366629592
 31
0.0
  0
LINE
  5
149
100
AcDbEntity
  8
0
  6
CONTINUOUS
 62
             200
100
AcDbLine
 10
44.672220512890647
 20
111.01736266212168
 30
0.0
 11
52.172220512890647
 21
109.00736266212166
 31
0.0
  0
LINE
  5
14A
100
AcDbEntity
  8
0
  6
CONTINUOUS
 62
               4
100
AcDbLine
 10
47.82222051289051
 20
110.17736266212168
 30
0.0
 11
47.82222051289051
 21
106.53736266212167
 31
0.0
  0
LINE
  5
14B
100
AcDbEntity
  8
0
  6
CONTINUOUS
 62
               4
100
AcDbLine
 10
46.522220512890556
 20
110.52736266212167
 30
0.0
 11
46.522220512890556
 21
106.53736266212167
 31
0.0
  0
LINE
  5
14C
100
AcDbEntity
  8
0
  6
CONTINUOUS
 62
               4
100
AcDbLine
 10
49.022220512890556
 20
109.85736266212169
 30
0.0
 11
49.022220512890556
 21
106.53736266212167
 31
0.0
  0
LINE
  5
14D
100
AcDbEntity
  8
0
  6
CONTINUOUS
 62
               4
100
AcDbLine
 10
43.422220512890647
 20
-4.0626373378781864
 30
0.0
 11
43.422220512890647
 21
18.437362662121757
 31
0.0
  0
LINE
  5
14E
100
AcDbEntity
  8
0
  6
CONTINUOUS
 62
               4
100
AcDbLine
 10
53.422220512890647
 20
-4.0626373378781864
 30
0.0
 11
53.422220512890647
 21
18.437362662121757
 31
0.0
  0
ARC
  5
14F
100
AcDbEntity
  8
0
  6
CONTINUOUS
 62
               4
100
AcDbCircle
 10
46.01930851812773
 20
-3.463725343115243
 30
0.0
 40
0.5989129830170392
100
AcDbArc
 50
269.89591452477231
 51
0.1040854752270701
  0
ARC
  5
150
100
AcDbEntity
  8
0
  6
CONTINUOUS
 62
               4
100
AcDbCircle
 10
44.218125366232528
 20
-3.4627324845363319
 30
0.0
 40
0.5999048608870732
100
AcDbArc
 50
179.99091272245337
 51
270.00908727754575
  0
LINE
  5
151
100
AcDbEntity
  8
0
  6
CONTINUOUS
 62
               4
100
AcDbLine
 10
43.422220512890647
 20
-3.4626373378781636
 30
0.0
 11
46.622220512890692
 21
-3.4626373378781636
 31
0.0
  0
ARC
  5
152
100
AcDbEntity
  8
0
  6
CONTINUOUS
 62
               4
100
AcDbCircle
 10
52.922220512890647
 20
-3.4626373378781636
 30
0.0
 40
0.5
100
AcDbArc
 50
269.99999999999937
 51
0.0
  0
LINE
  5
153
100
AcDbEntity
  8
0
  6
CONTINUOUS
 62
               4
100
AcDbLine
 10
46.622220512890692
 20
-3.9626373378781636
 30
0.0
 11
46.622220512890692
 21
-2.4626373378781636
 31
0.0
  0
LINE
  5
154
100
AcDbEntity
  8
0
  6
CONTINUOUS
 62
               4
100
AcDbLine
 10
46.622220512890692
 20
-3.9626373378781636
 30
0.0
 11
52.922220512890647
 21
-3.9626373378781636
 31
0.0
  0
LINE
  5
155
100
AcDbEntity
  8
0
  6
CONTINUOUS
 62
               4
100
AcDbLine
 10
43.422220512890647
 20
-2.4626373378781636
 30
0.0
 11
46.622220512890692
 21
-2.4626373378781636
 31
0.0
  0
LINE
  5
156
100
AcDbEntity
  8
0
  6
CONTINUOUS
 62
               4
100
AcDbLine
 10
43.422220512890647
 20
-4.0626373378781864
 30
0.0
 11
53.422220512890647
 21
-4.0626373378781864
 31
0.0
  0
LINE
  5
157
100
AcDbEntity
  8
0
  6
CONTINUOUS
 62
               4
100
AcDbLine
 10
46.522220512890783
 20
-12.0326373378781
 30
0.0
 11
46.522220512890783
 21
-9.0626373378780727
 31
0.0
  0
LINE
  5
158
100
AcDbEntity
  8
0
  6
CONTINUOUS
 62
               4
100
AcDbLine
 10
47.822220512890738
 20
-12.382637337878123
 30
0.0
 11
47.822220512890738
 21
-9.0626373378780727
 31
0.0
  0
LINE
  5
159
100
AcDbEntity
  8
0
  6
CONTINUOUS
 62
               4
100
AcDbLine
 10
50.322220512890738
 20
-13.052637337878082
 30
0.0
 11
50.322220512890738
 21
-9.0626373378780727
 31
0.0
  0
LINE
  5
15A
100
AcDbEntity
  8
0
  6
CONTINUOUS
 62
               4
100
AcDbLine
 10
49.022220512890783
 20
-12.702637337878116
 30
0.0
 11
49.022220512890783
 21
-9.0626373378780727
 31
0.0
  0
LINE
  5
15B
100
AcDbEntity
  8
0
  6
CONTINUOUS
 62
               4
100
AcDbLine
 10
47.822220512890738
 20
-16.555566610811582
 30
0.0
 11
46.522220512890783
 21
-16.555566610811582
 31
0.0
  0
LINE
  5
15C
100
AcDbEntity
  8
0
  6
CONTINUOUS
 62
             200
100
AcDbLine
 10
52.172220512890647
 20
-14.582637337878111
 30
0.0
 11
44.672220512890647
 21
-12.57263733787812
 31
0.0
  0
LINE
  5
15D
100
AcDbEntity
  8
0
  6
CONTINUOUS
 62
             200
100
AcDbLine
 10
52.172220512890647
 20
-13.542637337878091
 30
0.0
 11
44.672220512890647
 21
-11.5326373378781
 31
0.0
  0
LINE
  5
15E
100
AcDbEntity
  8
0
  6
CONTINUOUS
 62
               4
100
AcDbLine
 10
50.322220512890738
 20
-16.555566610811582
 30
0.0
 11
49.022220512890783
 21
-16.555566610811582
 31
0.0
  0
LINE
  5
15F
100
AcDbEntity
  8
0
  6
CONTINUOUS
 62
               4
100
AcDbLine
 10
47.422220512890647
 20
-20.055566608811603
 30
0.0
 11
47.422220512890647
 21
-16.555566610811582
 31
0.0
  0
LINE
  5
160
100
AcDbEntity
  8
0
  6
CONTINUOUS
 62
               4
100
AcDbLine
 10
46.922220512890647
 20
-20.055566608811603
 30
0.0
 11
46.922220512890647
 21
-16.555566610811582
 31
0.0
  0
LINE
  5
161
100
AcDbEntity
  8
0
  6
CONTINUOUS
 62
               4
100
AcDbLine
 10
50.322220512890738
 20
-16.555566610811582
 30
0.0
 11
50.322220512890738
 21
-14.082637337878111
 31
0.0
  0
LINE
  5
162
100
AcDbEntity
  8
0
  6
CONTINUOUS
 62
               4
100
AcDbLine
 10
49.022220512890783
 20
-16.555566610811582
 30
0.0
 11
49.022220512890783
 21
-13.732637337878145
 31
0.0
  0
LINE
  5
163
100
AcDbEntity
  8
0
  6
CONTINUOUS
 62
               4
100
AcDbLine
 10
49.922220512890647
 20
-20.055566608811603
 30
0.0
 11
49.922220512890647
 21
-16.555566610811582
 31
0.0
  0
LINE
  5
164
100
AcDbEntity
  8
0
  6
CONTINUOUS
 62
               4
100
AcDbLine
 10
49.422220512890647
 20
-20.055566608811603
 30
0.0
 11
49.422220512890647
 21
-16.555566610811582
 31
0.0
  0
LINE
  5
165
100
AcDbEntity
  8
0
  6
CONTINUOUS
 62
               4
100
AcDbLine
 10
47.822220512890738
 20
-16.555566610811582
 30
0.0
 11
47.822220512890738
 21
-13.412637337878095
 31
0.0
  0
LINE
  5
166
100
AcDbEntity
  8
0
  6
CONTINUOUS
 62
               4
100
AcDbLine
 10
46.522220512890783
 20
-16.555566610811582
 30
0.0
 11
46.522220512890783
 21
-13.062637337878073
 31
0.0
  0
LINE
  5
167
100
AcDbEntity
  8
0
  6
CONTINUOUS
 62
               4
100
AcDbLine
 10
49.922220512890647
 20
-20.055566608811603
 30
0.0
 11
49.422220512890647
 21
-20.055566608811603
 31
0.0
  0
LINE
  5
168
100
AcDbEntity
  8
0
  6
CONTINUOUS
 62
               4
100
AcDbLine
 10
47.422220512890647
 20
-20.055566608811603
 30
0.0
 11
46.922220512890647
 21
-20.055566608811603
 31
0.0
  0
LINE
  5
169
100
AcDbEntity
  8
0
  6
CONTINUOUS
 62
               4
100
AcDbLine
 10
52.172220512890647
 20
-9.0626373378780727
 30
0.0
 11
52.172220512890647
 21
-4.0626373378781864
 31
0.0
  0
LINE
  5
16A
100
AcDbEntity
  8
0
  6
CONTINUOUS
 62
               4
100
AcDbLine
 10
52.172220512890647
 20
-9.0626373378780727
 30
0.0
 11
44.672220512890647
 21
-9.0626373378780727
 31
0.0
  0
LINE
  5
16B
100
AcDbEntity
  8
0
  6
CONTINUOUS
 62
               4
100
AcDbLine
 10
44.672220512890647
 20
-9.0626373378780727
 30
0.0
 11
44.672220512890647
 21
-4.0626373378781864
 31
0.0
  0
LINE
  5
16C
100
AcDbEntity
  8
0
  6
CONTINUOUS
 62
               4
100
AcDbLine
 10
44.672220512890647
 20
-8.062637333878115
 30
0.0
 11
52.172220512890647
 21
-8.062637333878115
 31
0.0
  0
LINE
  5
16D
100
AcDbEntity
  8
0
  6
CONTINUOUS
 62
               4
100
AcDbLine
 10
53.422220512890647
 20
101.53736266212178
 30
0.0
 11
53.422220512890647
 21
79.037362662121808
 31
0.0
  0
LINE
  5
16E
100
AcDbEntity
  8
0
  6
CONTINUOUS
 62
               4
100
AcDbLine
 10
43.422220512890647
 20
101.53736266212178
 30
0.0
 11
43.422220512890647
 21
79.037362662121808
 31
0.0
  0
ARC
  5
16F
100
AcDbEntity
  8
0
  6
CONTINUOUS
 62
               4
100
AcDbCircle
 10
50.825132507653564
 20
100.93845066735878
 30
0.0
 40
0.5989129830170392
100
AcDbArc
 50
89.895914524772735
 51
180.10408547522667
  0
ARC
  5
170
100
AcDbEntity
  8
0
  6
CONTINUOUS
 62
               4
100
AcDbCircle
 10
52.626315659548766
 20
100.93745780877993
 30
0.0
 40
0.5999048608870732
100
AcDbArc
 50
359.99091272245295
 51
90.009087277546172
  0
LINE
  5
171
100
AcDbEntity
  8
0
  6
CONTINUOUS
 62
               4
100
AcDbLine
 10
53.422220512890647
 20
100.93736266212176
 30
0.0
 11
50.222220512890601
 21
100.93736266212176
 31
0.0
  0
ARC
  5
172
100
AcDbEntity
  8
0
  6
CONTINUOUS
 62
               4
100
AcDbCircle
 10
43.922220512890647
 20
100.93736266212176
 30
0.0
 40
0.5
100
AcDbArc
 50
89.999999999999815
 51
179.99999999999963
  0
LINE
  5
173
100
AcDbEntity
  8
0
  6
CONTINUOUS
 62
               4
100
AcDbLine
 10
50.222220512890601
 20
101.43736266212176
 30
0.0
 11
50.222220512890601
 21
99.937362662121757
 31
0.0
  0
LINE
  5
174
100
AcDbEntity
  8
0
  6
CONTINUOUS
 62
               4
100
AcDbLine
 10
50.222220512890601
 20
101.43736266212176
 30
0.0
 11
43.922220512890647
 21
101.43736266212176
 31
0.0
  0
LINE
  5
175
100
AcDbEntity
  8
0
  6
CONTINUOUS
 62
               4
100
AcDbLine
 10
53.422220512890647
 20
99.937362662121757
 30
0.0
 11
50.222220512890601
 21
99.937362662121757
 31
0.0
  0
LINE
  5
176
100
AcDbEntity
  8
0
  6
CONTINUOUS
 62
               4
100
AcDbLine
 10
53.422220512890647
 20
101.53736266212178
 30
0.0
 11
43.422220512890647
 21
101.53736266212178
 31
0.0
  0
LINE
  5
177
100
AcDbEntity
  8
0
  6
CONTINUOUS
 62
               4
100
AcDbLine
 10
50.32222051289051
 20
109.50736266212166
 30
0.0
 11
50.32222051289051
 21
106.53736266212167
 31
0.0
  0
LINE
  5
178
100
AcDbEntity
  8
0
  6
CONTINUOUS
 62
               4
100
AcDbLine
 10
44.672220512890647
 20
106.53736266212167
 30
0.0
 11
44.672220512890647
 21
101.53736266212178
 31
0.0
  0
LINE
  5
179
100
AcDbEntity
  8
0
  6
CONTINUOUS
 62
               4
100
AcDbLine
 10
44.672220512890647
 20
106.53736266212167
 30
0.0
 11
52.172220512890647
 21
106.53736266212167
 31
0.0
  0
LINE
  5
17A
100
AcDbEntity
  8
0
  6
CONTINUOUS
 62
               4
100
AcDbLine
 10
52.172220512890647
 20
106.53736266212167
 30
0.0
 11
52.172220512890647
 21
101.53736266212178
 31
0.0
  0
LINE
  5
17B
100
AcDbEntity
  8
0
  6
CONTINUOUS
 62
               4
100
AcDbLine
 10
52.172220512890647
 20
105.53736265812165
 30
0.0
 11
44.672220512890647
 21
105.53736265812165
 31
0.0
  0
LINE
  5
17C
100
AcDbEntity
  8
0
  6
CONTINUOUS
 62
               7
100
AcDbLine
 10
53.422220512890647
 20
31.637362662121745
 30
0.0
 11
43.422220512890647
 21
31.637362662121745
 31
0.0
  0
LINE
  5
17D
100
AcDbEntity
  8
0
  6
CENTER
 62
               2
100
AcDbLine
 10
51.596731814023371
 20
52.737362662121768
 30
0.0
 11
45.298149702303192
 21
52.737362662121768
 31
0.0
  0
LINE
  5
17E
100
AcDbEntity
  8
0
  6
CENTER
 62
               2
100
AcDbLine
 10
52.222220512890601
 20
43.28736266212178
 30
0.0
 11
52.222220512890601
 21
45.587362662121791
 31
0.0
  0
CIRCLE
  5
17F
100
AcDbEntity
  8
0
  6
CONTINUOUS
 62
               7
100
AcDbCircle
 10
52.221372002148485
 20
44.438335928723347
 30
0.0
 40
0.9
  0
LINE
  5
180
100
AcDbEntity
  8
0
  6
CENTER
 62
               2
100
AcDbLine
 10
53.372220512890692
 20
44.437362662121757
 30
0.0
 11
51.072220512890624
 21
44.437362662121757
 31
0.0
  0
LINE
  5
181
100
AcDbEntity
  8
0
  6
CENTER
 62
               2
100
AcDbLine
 10
45.772220512890556
 20
61.037362662121723
 30
0.0
 11
43.472220512890601
 21
61.037362662121723
 31
0.0
  0
LINE
  5
182
100
AcDbEntity
  8
0
  6
CENTER
 62
               2
100
AcDbLine
 10
44.622220512890692
 20
59.887362662121745
 30
0.0
 11
44.622220512890692
 21
62.1873626621217
 31
0.0
  0
CIRCLE
  5
183
100
AcDbEntity
  8
0
  6
CONTINUOUS
 62
               7
100
AcDbCircle
 10
44.621372002148462
 20
61.038335928723313
 30
0.0
 40
0.9
  0
LINE
  5
184
100
AcDbEntity
  8
0
  6
CENTER
 62
               2
100
AcDbLine
 10
50.122220512890692
 20
44.337362662121791
 30
0.0
 11
46.409233499903678
 21
44.337362662121791
 31
0.0
  0
CIRCLE
  5
185
100
AcDbEntity
  8
0
  6
CONTINUOUS
 62
               7
100
AcDbCircle
 10
48.422220512890647
 20
44.337362662121791
 30
0.0
 40
1.25
  0
CIRCLE
  5
186
100
AcDbEntity
  8
0
  6
CONTINUOUS
 62
               2
100
AcDbCircle
 10
48.422220512890647
 20
44.337362662121791
 30
0.0
 40
1.5
  0
CIRCLE
  5
187
100
AcDbEntity
  8
0
  6
CONTINUOUS
 62
               7
100
AcDbCircle
 10
48.422220512890647
 20
61.137362662121745
 30
0.0
 40
1.25
  0
CIRCLE
  5
188
100
AcDbEntity
  8
0
  6
CONTINUOUS
 62
               2
100
AcDbCircle
 10
48.421372002148416
 20
61.130238194481194
 30
0.0
 40
1.5
  0
LINE
  5
189
100
AcDbEntity
  8
0
  6
CENTER
 62
               2
100
AcDbLine
 10
50.122220512890692
 20
61.137362662121745
 30
0.0
 11
46.722220512890601
 21
61.137362662121745
 31
0.0
  0
CIRCLE
  5
18A
100
AcDbEntity
  8
0
  6
CONTINUOUS
 62
               7
100
AcDbCircle
 10
48.422220512890647
 20
52.737362662121768
 30
0.0
 40
2.1000000000000001
  0
CIRCLE
  5
18B
100
AcDbEntity
  8
0
  6
CONTINUOUS
 62
               2
100
AcDbCircle
 10
48.422220512890647
 20
52.737362662121768
 30
0.0
 40
2.5
  0
LINE
  5
18C
100
AcDbEntity
  8
0
  6
CENTER
 62
               2
100
AcDbLine
 10
48.422220512890647
 20
107.92791768147831
 30
0.0
 11
48.422220512890647
 21
-10.318018256834989
 31
0.0
  0
CIRCLE
  5
18D
100
AcDbEntity
  8
0
  6
CONTINUOUS
 62
               7
100
AcDbCircle
 10
48.422220512890647
 20
23.737362662121768
 30
0.0
 40
0.75
  0
LINE
  5
18E
100
AcDbEntity
  8
0
  6
CENTER
 62
               2
100
AcDbLine
 10
46.422220512890647
 20
23.737362662121768
 30
0.0
 11
50.422220512890647
 21
23.737362662121768
 31
0.0
  0
LINE
  5
18F
100
AcDbEntity
  8
0
  6
CONTINUOUS
 62
               7
100
AcDbLine
 10
53.422220512890647
 20
39.637362662121745
 30
0.0
 11
43.422220512890647
 21
39.637362662121745
 31
0.0
  0
LINE
  5
190
100
AcDbEntity
  8
0
  6
CONTINUOUS
 62
               7
100
AcDbLine
 10
43.422220512890647
 20
18.437362662121757
 30
0.0
 11
43.422220512890647
 21
79.03736266212178
 31
0.0
  0
LINE
  5
191
100
AcDbEntity
  8
0
  6
CONTINUOUS
 62
               7
100
AcDbLine
 10
43.422220512890647
 20
18.437362662121757
 30
0.0
 11
53.422220512890647
 21
18.437362662121757
 31
0.0
  0
CIRCLE
  5
192
100
AcDbEntity
  8
0
  6
CONTINUOUS
 62
               7
100
AcDbCircle
 10
48.422220512890647
 20
73.737362662121768
 30
0.0
 40
0.75
  0
LINE
  5
193
100
AcDbEntity
  8
0
  6
CENTER
 62
               2
100
AcDbLine
 10
46.422220512890647
 20
73.737362662121768
 30
0.0
 11
50.422220512890647
 21
73.737362662121768
 31
0.0
  0
LINE
  5
194
100
AcDbEntity
  8
0
  6
CONTINUOUS
 62
               7
100
AcDbLine
 10
53.422220512890647
 20
65.837362662121791
 30
0.0
 11
43.422220512890647
 21
65.837362662121791
 31
0.0
  0
LINE
  5
195
100
AcDbEntity
  8
0
  6
CONTINUOUS
 62
               7
100
AcDbLine
 10
53.422220512890647
 20
18.437362662121757
 30
0.0
 11
53.422220512890647
 21
79.03736266212178
 31
0.0
  0
LINE
  5
196
100
AcDbEntity
  8
0
  6
CONTINUOUS
 62
               7
100
AcDbLine
 10
43.422220512890647
 20
79.03736266212178
 30
0.0
 11
53.422220512890647
 21
79.03736266212178
 31
0.0
  0
LINE
  5
197
100
AcDbEntity
  8
0
  6
CONTINUOUS
 62
               4
100
AcDbLine
 10
49.022220512890556
 20
114.03029193505515
 30
0.0
 11
50.32222051289051
 21
114.03029193505515
 31
0.0
  0
LINE
  5
198
100
AcDbEntity
  8
0
  6
CONTINUOUS
 62
             200
100
AcDbLine
 10
44.672220512890647
 20
112.05736266212168
 30
0.0
 11
52.172220512890647
 21
110.04736266212169
 31
0.0
  0
LINE
  5
199
100
AcDbEntity
  8
0
  6
CONTINUOUS
 62
               4
100
AcDbLine
 10
46.522220512890556
 20
114.03029193505515
 30
0.0
 11
47.82222051289051
 21
114.03029193505515
 31
0.0
  0
LINE
  5
19A
100
AcDbEntity
  8
0
  6
CONTINUOUS
 62
               4
100
AcDbLine
 10
49.422220512890647
 20
117.53029193305517
 30
0.0
 11
49.422220512890647
 21
114.03029193505515
 31
0.0
  0
LINE
  5
19B
100
AcDbEntity
  8
0
  6
CONTINUOUS
 62
               4
100
AcDbLine
 10
49.922220512890647
 20
117.53029193305517
 30
0.0
 11
49.922220512890647
 21
114.03029193505515
 31
0.0
  0
LINE
  5
19C
100
AcDbEntity
  8
0
  6
CONTINUOUS
 62
               4
100
AcDbLine
 10
46.522220512890556
 20
114.03029193505515
 30
0.0
 11
46.522220512890556
 21
111.55736266212168
 31
0.0
  0
LINE
  5
19D
100
AcDbEntity
  8
0
  6
CONTINUOUS
 62
               4
100
AcDbLine
 10
47.82222051289051
 20
114.03029193505515
 30
0.0
 11
47.82222051289051
 21
111.20736266212168
 31
0.0
  0
LINE
  5
19E
100
AcDbEntity
  8
0
  6
CONTINUOUS
 62
               4
100
AcDbLine
 10
46.922220512890647
 20
117.53029193305517
 30
0.0
 11
46.922220512890647
 21
114.03029193505515
 31
0.0
  0
LINE
  5
19F
100
AcDbEntity
  8
0
  6
CONTINUOUS
 62
               4
100
AcDbLine
 10
47.422220512890647
 20
117.53029193305517
 30
0.0
 11
47.422220512890647
 21
114.03029193505515
 31
0.0
  0
LINE
  5
1A0
100
AcDbEntity
  8
0
  6
CONTINUOUS
 62
               4
100
AcDbLine
 10
49.022220512890556
 20
114.03029193505515
 30
0.0
 11
49.022220512890556
 21
110.88736266212169
 31
0.0
  0
LINE
  5
1A1
100
AcDbEntity
  8
0
  6
CONTINUOUS
 62
               4
100
AcDbLine
 10
50.32222051289051
 20
114.03029193505515
 30
0.0
 11
50.32222051289051
 21
110.53736266212167
 31
0.0
  0
LINE
  5
1A2
100
AcDbEntity
  8
0
  6
CONTINUOUS
 62
               4
100
AcDbLine
 10
46.922220512890647
 20
117.53029193305517
 30
0.0
 11
47.422220512890647
 21
117.53029193305517
 31
0.0
  0
LINE
  5
1A3
100
AcDbEntity
  8
0
  6
CONTINUOUS
 62
               4
100
AcDbLine
 10
49.422220512890647
 20
117.53029193305517
 30
0.0
 11
49.922220512890647
 21
117.53029193305517
 31
0.0
  0
LINE
  5
1A4
100
AcDbEntity
  8
0
  6
CONTINUOUS
 62
               4
100
AcDbLine
 10
148.46691244597122
 20
110.35554447812174
 30
0.0
 11
148.46691244597122
 21
106.53736266212175
 31
0.0
  0
LINE
  5
1A5
100
AcDbEntity
  8
0
  6
CONTINUOUS
 62
               4
100
AcDbLine
 10
147.16590234570452
 20
111.10503942718842
 30
0.0
 11
147.16590234570452
 21
106.53736266212175
 31
0.0
  0
LINE
  5
1A6
100
AcDbEntity
  8
0
  6
CONTINUOUS
 62
               4
100
AcDbLine
 10
128.31539730197125
 20
18.437362662121814
 30
0.0
 11
145.32044780130451
 21
18.437362662121814
 31
0.0
  0
LINE
  5
1A7
100
AcDbEntity
  8
0
  6
CONTINUOUS
 62
               4
100
AcDbLine
 10
147.56893264850447
 20
-20.057586826544764
 30
0.0
 11
148.06388214317116
 21
-20.057586826544764
 31
0.0
  0
LINE
  5
1A8
100
AcDbEntity
  8
0
  6
CONTINUOUS
 62
               4
100
AcDbLine
 10
139.61539730197131
 20
-4.0626373378781864
 30
0.0
 11
139.61539730197131
 21
-3.4626373378782773
 31
0.0
  0
LINE
  5
1A9
100
AcDbEntity
  8
0
  6
CONTINUOUS
 62
               4
100
AcDbLine
 10
139.61539730197131
 20
-3.4626373378782773
 30
0.0
 11
142.31539729797129
 21
-3.4626373378782773
 31
0.0
  0
LINE
  5
1AA
100
AcDbEntity
  8
0
  6
CONTINUOUS
 62
               4
100
AcDbLine
 10
128.81539730597132
 20
-3.9626373378782773
 30
0.0
 11
130.31539730197125
 21
-3.9626373378782773
 31
0.0
  0
LINE
  5
1AB
100
AcDbEntity
  8
0
  6
CONTINUOUS
 62
               4
100
AcDbLine
 10
129.11539739197127
 20
-4.0626373378781864
 30
0.0
 11
141.51539721197133
 21
-4.0626373378781864
 31
0.0
  0
ARC
  5
1AC
100
AcDbEntity
  8
0
  6
CONTINUOUS
 62
               4
100
AcDbCircle
 10
129.11530224532265
 20
-3.4627324845268959
 30
0.0
 40
0.5999048008965869
100
AcDbArc
 50
236.24741787039349
 51
270.00908727754575
  0
ARC
  5
1AD
100
AcDbEntity
  8
0
  6
CONTINUOUS
 62
               4
100
AcDbCircle
 10
141.5164852170995
 20
-3.4637253430064447
 30
0.0
 40
0.5989129231257409
100
AcDbArc
 50
269.89591452477231
 51
0.1040854752270701
  0
ARC
  5
1AE
100
AcDbEntity
  8
0
  6
CONTINUOUS
 62
               4
100
AcDbCircle
 10
141.81539729797129
 20
-3.4626373378782773
 30
0.0
 40
0.5
100
AcDbArc
 50
273.91958589965037
 51
0.0
  0
ARC
  5
1AF
100
AcDbEntity
  8
0
  6
CONTINUOUS
 62
               4
100
AcDbCircle
 10
128.81539730597132
 20
-3.4626373378782773
 30
0.0
 40
0.5
100
AcDbArc
 50
179.99999999999963
 51
269.99999999999937
  0
LINE
  5
1B0
100
AcDbEntity
  8
0
  6
CONTINUOUS
 62
               4
100
AcDbLine
 10
130.31539730197125
 20
-4.0626373378781864
 30
0.0
 11
130.31539730197125
 21
-2.4626373378782773
 31
0.0
  0
LINE
  5
1B1
100
AcDbEntity
  8
0
  6
CONTINUOUS
 62
               4
100
AcDbLine
 10
130.31539730197125
 20
-2.4626373378782773
 30
0.0
 11
142.31539729797129
 21
-2.4626373378782773
 31
0.0
  0
LINE
  5
1B2
100
AcDbEntity
  8
0
  6
CONTINUOUS
 62
               4
100
AcDbLine
 10
142.31539729797117
 20
-1.0626373378780727
 30
0.0
 11
149.81741749570455
 21
-1.0626373378780727
 31
0.0
  0
LINE
  5
1B3
100
AcDbEntity
  8
0
  6
CONTINUOUS
 62
               4
100
AcDbLine
 10
150.31943769743788
 20
-0.5676878432113881
 30
0.0
 11
150.31943769743788
 21
15.786857601988686
 31
0.0
  0
LINE
  5
1B4
100
AcDbEntity
  8
0
  6
CONTINUOUS
 62
               4
100
AcDbLine
 10
145.32044780130451
 20
-9.0626373378780727
 30
0.0
 11
149.41438719290448
 21
-9.0626373378780727
 31
0.0
  0
LINE
  5
1B5
100
AcDbEntity
  8
0
  6
CONTINUOUS
 62
               4
100
AcDbLine
 10
146.91842759837112
 20
-9.0626373378780727
 30
0.0
 11
146.91842759837112
 21
-1.0626373378780727
 31
0.0
  0
LINE
  5
1B6
100
AcDbEntity
  8
0
  6
CONTINUOUS
 62
               4
100
AcDbLine
 10
148.7143871933045
 20
-9.0626373378780727
 30
0.0
 11
148.7143871933045
 21
-1.0626373378780727
 31
0.0
  0
LINE
  5
1B7
100
AcDbEntity
  8
0
  6
CONTINUOUS
 62
               4
100
AcDbLine
 10
152.31337709023779
 20
-9.0626373378780727
 30
0.0
 11
152.31337709023779
 21
-7.5676878392114304
 31
0.0
  0
LINE
  5
1B8
100
AcDbEntity
  8
0
  6
CONTINUOUS
 62
               4
100
AcDbLine
 10
151.41539729277116
 20
-2.4626373370780357
 30
0.0
 11
152.31337709023779
 21
-7.5676878392114304
 31
0.0
  0
LINE
  5
1B9
100
AcDbEntity
  8
0
  6
CONTINUOUS
 62
               4
100
AcDbLine
 10
151.31640739383789
 20
-9.0626373378780727
 30
0.0
 11
151.31640739383789
 21
-7.6571009576875895
 31
0.0
  0
LINE
  5
1BA
100
AcDbEntity
  8
0
  6
CONTINUOUS
 62
               4
100
AcDbLine
 10
151.31640739383789
 20
-9.0626373378780727
 30
0.0
 11
152.31337709023779
 21
-9.0626373378780727
 31
0.0
  0
LINE
  5
1BB
100
AcDbEntity
  8
0
  6
CONTINUOUS
 62
               4
100
AcDbLine
 10
150.21337709143785
 20
-1.3949605700114489
 30
0.0
 11
151.31640739383789
 21
-7.6571009576875895
 31
0.0
  0
LINE
  5
1BC
100
AcDbEntity
  8
0
  6
CONTINUOUS
 62
               4
100
AcDbLine
 10
150.41842759637115
 20
-0.0656676414780577
 30
0.0
 11
150.41842759637115
 21
5.6333222542552903
 31
0.0
  0
LINE
  5
1BD
100
AcDbEntity
  8
0
  6
CONTINUOUS
 62
               4
100
AcDbLine
 10
149.41438719290448
 20
-9.0626373378780727
 30
0.0
 11
149.41438719290448
 21
-1.4656676406781344
 31
0.0
  0
LINE
  5
1BE
100
AcDbEntity
  8
0
  6
CONTINUOUS
 62
               4
100
AcDbLine
 10
149.71842759677116
 20
-8.7585969340113934
 30
0.0
 11
149.71842759677116
 21
-2.8656676398780974
 31
0.0
  0
LINE
  5
1BF
100
AcDbEntity
  8
0
  6
CONTINUOUS
 62
               4
100
AcDbLine
 10
149.41438719290448
 20
-9.0626373378780727
 30
0.0
 11
149.71842759677116
 21
-8.7585969340113934
 31
0.0
  0
LINE
  5
1C0
100
AcDbEntity
  8
0
  6
CONTINUOUS
 62
               4
100
AcDbLine
 10
145.32044780130451
 20
-8.062637333878115
 30
0.0
 11
145.8153972959712
 21
-8.062637333878115
 31
0.0
  0
LINE
  5
1C1
100
AcDbEntity
  8
0
  6
CONTINUOUS
 62
               4
100
AcDbLine
 10
145.32044780130451
 20
-3.0636474377447485
 30
0.0
 11
145.8153972959712
 21
-3.0636474377447485
 31
0.0
  0
LINE
  5
1C2
100
AcDbEntity
  8
0
  6
CONTINUOUS
 62
               4
100
AcDbLine
 10
149.41438719290448
 20
-2.5616272360114181
 30
0.0
 11
149.71842759677116
 21
-2.8656676398780974
 31
0.0
  0
LINE
  5
1C3
100
AcDbEntity
  8
0
  6
CONTINUOUS
 62
               4
100
AcDbLine
 10
151.41539729277116
 20
-2.4626373370780357
 30
0.0
 11
151.41539729277116
 21
6.6373626577219511
 31
0.0
  0
LINE
  5
1C4
100
AcDbEntity
  8
0
  6
CONTINUOUS
 62
               4
100
AcDbLine
 10
150.41842759637115
 20
6.9343323545219846
 30
0.0
 11
151.11842759597113
 21
6.9343323545219846
 31
0.0
  0
LINE
  5
1C5
100
AcDbEntity
  8
0
  6
CONTINUOUS
 62
               4
100
AcDbLine
 10
150.31943769743788
 20
5.6333222542552903
 30
0.0
 11
150.41842759637115
 21
5.6333222542552903
 31
0.0
  0
LINE
  5
1C6
100
AcDbEntity
  8
0
  6
CONTINUOUS
 62
               4
100
AcDbLine
 10
150.31943769743788
 20
6.835342455588659
 30
0.0
 11
150.41842759637115
 21
6.9343323545219846
 31
0.0
  0
LINE
  5
1C7
100
AcDbEntity
  8
0
  6
CONTINUOUS
 62
               4
100
AcDbLine
 10
147.16590234570452
 20
-13.630314102944794
 30
0.0
 11
147.16590234570452
 21
-9.0626373378780727
 31
0.0
  0
LINE
  5
1C8
100
AcDbEntity
  8
0
  6
CONTINUOUS
 62
               4
100
AcDbLine
 10
148.46691244597122
 20
-16.557586828544743
 30
0.0
 11
148.46691244597122
 21
-13.227283800144733
 31
0.0
  0
LINE
  5
1C9
100
AcDbEntity
  8
0
  6
CONTINUOUS
 62
               4
100
AcDbLine
 10
147.16590234570452
 20
-16.557586828544743
 30
0.0
 11
147.16590234570452
 21
-13.976778749211462
 31
0.0
  0
LINE
  5
1CA
100
AcDbEntity
  8
0
  6
CONTINUOUS
 62
               4
100
AcDbLine
 10
147.16590234570452
 20
-16.557586828544743
 30
0.0
 11
148.46691244597122
 21
-16.557586828544743
 31
0.0
  0
LINE
  5
1CB
100
AcDbEntity
  8
0
  6
CONTINUOUS
 62
               4
100
AcDbLine
 10
147.56893264850447
 20
-20.057586826544764
 30
0.0
 11
147.56893264850447
 21
-16.557586828544743
 31
0.0
  0
LINE
  5
1CC
100
AcDbEntity
  8
0
  6
CONTINUOUS
 62
               4
100
AcDbLine
 10
148.06388214317116
 20
-20.057586826544764
 30
0.0
 11
148.06388214317116
 21
-16.557586828544743
 31
0.0
  0
LINE
  5
1CD
100
AcDbEntity
  8
0
  6
CONTINUOUS
 62
             200
100
AcDbLine
 10
149.31539729397122
 20
-12.732334305478162
 30
0.0
 11
146.31741749770453
 21
-14.464657536811387
 31
0.0
  0
LINE
  5
1CE
100
AcDbEntity
  8
0
  6
CONTINUOUS
 62
             200
100
AcDbLine
 10
149.31539729397122
 20
-12.385869659211494
 30
0.0
 11
146.31741749770453
 21
-14.118192890544833
 31
0.0
  0
LINE
  5
1CF
100
AcDbEntity
  8
0
  6
CONTINUOUS
 62
               4
100
AcDbLine
 10
148.46691244597122
 20
-12.880819153878065
 30
0.0
 11
148.46691244597122
 21
-9.0626373378780727
 31
0.0
  0
LINE
  5
1D0
100
AcDbEntity
  8
0
  6
CONTINUOUS
 62
               4
100
AcDbLine
 10
145.32044780130451
 20
-9.0626373378780727
 30
0.0
 11
145.32044780130451
 21
-8.062637333878115
 31
0.0
  0
LINE
  5
1D1
100
AcDbEntity
  8
0
  6
CONTINUOUS
 62
               4
100
AcDbLine
 10
145.32044780130451
 20
-3.0636474377447485
 30
0.0
 11
145.32044780130451
 21
-1.0626373378780727
 31
0.0
  0
LINE
  5
1D2
100
AcDbEntity
  8
0
  6
CONTINUOUS
 62
               4
100
AcDbLine
 10
145.8153972959712
 20
-8.062637333878115
 30
0.0
 11
145.8153972959712
 21
-3.0636474377447485
 31
0.0
  0
ARC
  5
1D3
100
AcDbEntity
  8
0
  6
CONTINUOUS
 62
               4
100
AcDbCircle
 10
149.81343035954029
 20
15.787878164630172
 30
0.0
 40
0.5060324378497572
100
AcDbArc
 50
0.570672169885155
 51
64.502510209939487
  0
ARC
  5
1D4
100
AcDbEntity
  8
0
  6
CONTINUOUS
 62
               4
100
AcDbCircle
 10
149.81923142124987
 20
-0.5624064698616849
 30
0.0
 40
0.5002341568128574
100
AcDbArc
 50
269.79223628684531
 51
359.39507124653568
  0
ARC
  5
1D5
100
AcDbEntity
  8
0
  6
CONTINUOUS
 62
               4
100
AcDbCircle
 10
151.11329342006303
 20
6.6322284818137405
 30
0.0
 40
0.3021474965435785
100
AcDbArc
 50
0.9736329845118463
 51
89.026367015487978
  0
ARC
  5
1D6
100
AcDbEntity
  8
0
  6
CONTINUOUS
 62
               4
100
AcDbCircle
 10
149.915384242838
 20
-0.0629696885225712
 30
0.0
 40
0.5030505883944908
100
AcDbArc
 50
323.43739164534645
 51
359.69271070880933
  0
ARC
  5
1D7
100
AcDbEntity
  8
0
  6
CONTINUOUS
 62
               4
100
AcDbCircle
 10
149.81731842466917
 20
-1.4691440975717569
 30
0.0
 40
0.4029462287748787
100
AcDbArc
 50
10.608827982274413
 51
179.50566908284432
  0
LINE
  5
1D8
100
AcDbEntity
  8
0
  6
CONTINUOUS
 62
               4
100
AcDbLine
 10
145.32044780130451
 20
18.437362662121927
 30
0.0
 11
145.32044780130451
 21
-1.0626373378780727
 31
0.0
  0
LINE
  5
1D9
100
AcDbEntity
  8
0
  6
CONTINUOUS
 62
               4
100
AcDbLine
 10
128.31539730197125
 20
-3.4626373378781636
 30
0.0
 11
128.31539730197125
 21
18.437362662121814
 31
0.0
  0
LINE
  5
1DA
100
AcDbEntity
  8
0
  6
CONTINUOUS
 62
               4
100
AcDbLine
 10
142.31539730197125
 20
18.437362662121814
 30
0.0
 11
142.31539730197125
 21
-3.4626373328104592
 31
0.0
  0
LINE
  5
1DB
100
AcDbEntity
  8
0
  6
CONTINUOUS
 62
               4
100
AcDbLine
 10
128.31539730197125
 20
79.037362662121836
 30
0.0
 11
145.32044780130451
 21
79.037362662121836
 31
0.0
  0
LINE
  5
1DC
100
AcDbEntity
  8
0
  6
CONTINUOUS
 62
               4
100
AcDbLine
 10
131.01539730197118
 20
101.53736266212186
 30
0.0
 11
131.01539730197118
 21
100.9373626621219
 31
0.0
  0
LINE
  5
1DD
100
AcDbEntity
  8
0
  6
CONTINUOUS
 62
               4
100
AcDbLine
 10
131.01539730197118
 20
100.9373626621219
 30
0.0
 11
128.3153973059712
 21
100.9373626621219
 31
0.0
  0
LINE
  5
1DE
100
AcDbEntity
  8
0
  6
CONTINUOUS
 62
               4
100
AcDbLine
 10
141.81539729797117
 20
101.4373626621219
 30
0.0
 11
140.31539730197125
 21
101.4373626621219
 31
0.0
  0
LINE
  5
1DF
100
AcDbEntity
  8
0
  6
CONTINUOUS
 62
               4
100
AcDbLine
 10
141.51539721197122
 20
101.53736266212186
 30
0.0
 11
129.11539739197116
 21
101.53736266212186
 31
0.0
  0
ARC
  5
1E0
100
AcDbEntity
  8
0
  6
CONTINUOUS
 62
               4
100
AcDbCircle
 10
141.51549235861984
 20
100.93745780877052
 30
0.0
 40
0.5999048008965869
100
AcDbArc
 50
56.247417870393882
 51
90.009087277546172
  0
ARC
  5
1E1
100
AcDbEntity
  8
0
  6
CONTINUOUS
 62
               4
100
AcDbCircle
 10
129.11430938684299
 20
100.93845066725007
 30
0.0
 40
0.5989129231257409
100
AcDbArc
 50
89.895914524772735
 51
180.10408547522667
  0
ARC
  5
1E2
100
AcDbEntity
  8
0
  6
CONTINUOUS
 62
               4
100
AcDbCircle
 10
128.8153973059712
 20
100.9373626621219
 30
0.0
 40
0.5
100
AcDbArc
 50
93.919585899650798
 51
179.99999999999963
  0
ARC
  5
1E3
100
AcDbEntity
  8
0
  6
CONTINUOUS
 62
               4
100
AcDbCircle
 10
141.81539729797117
 20
100.9373626621219
 30
0.0
 40
0.5
100
AcDbArc
 50
0.0
 51
89.999999999999815
  0
LINE
  5
1E4
100
AcDbEntity
  8
0
  6
CONTINUOUS
 62
               4
100
AcDbLine
 10
140.31539730197125
 20
101.53736266212186
 30
0.0
 11
140.31539730197125
 21
99.937362662121899
 31
0.0
  0
LINE
  5
1E5
100
AcDbEntity
  8
0
  6
CONTINUOUS
 62
               4
100
AcDbLine
 10
140.31539730197125
 20
99.937362662121899
 30
0.0
 11
128.3153973059712
 21
99.937362662121899
 31
0.0
  0
LINE
  5
1E6
100
AcDbEntity
  8
0
  6
CONTINUOUS
 62
               4
100
AcDbLine
 10
142.31539729797117
 20
98.537362662121751
 30
0.0
 11
149.81741749570455
 21
98.537362662121751
 31
0.0
  0
LINE
  5
1E7
100
AcDbEntity
  8
0
  6
CONTINUOUS
 62
               4
100
AcDbLine
 10
150.31943769743788
 20
98.042413167455067
 30
0.0
 11
150.31943769743788
 21
81.687867722254936
 31
0.0
  0
LINE
  5
1E8
100
AcDbEntity
  8
0
  6
CONTINUOUS
 62
               4
100
AcDbLine
 10
145.32044780130451
 20
106.53736266212175
 30
0.0
 11
149.41438719290448
 21
106.53736266212175
 31
0.0
  0
LINE
  5
1E9
100
AcDbEntity
  8
0
  6
CONTINUOUS
 62
               4
100
AcDbLine
 10
146.91842759837112
 20
106.53736266212175
 30
0.0
 11
146.91842759837112
 21
98.537362662121751
 31
0.0
  0
LINE
  5
1EA
100
AcDbEntity
  8
0
  6
CONTINUOUS
 62
               4
100
AcDbLine
 10
148.7143871933045
 20
106.53736266212175
 30
0.0
 11
148.7143871933045
 21
98.537362662121751
 31
0.0
  0
LINE
  5
1EB
100
AcDbEntity
  8
0
  6
CONTINUOUS
 62
               4
100
AcDbLine
 10
152.31337709023779
 20
106.53736266212175
 30
0.0
 11
152.31337709023779
 21
105.04241316345505
 31
0.0
  0
LINE
  5
1EC
100
AcDbEntity
  8
0
  6
CONTINUOUS
 62
               4
100
AcDbLine
 10
151.41539729277116
 20
99.937362661321714
 30
0.0
 11
152.31337709023779
 21
105.04241316345505
 31
0.0
  0
LINE
  5
1ED
100
AcDbEntity
  8
0
  6
CONTINUOUS
 62
               4
100
AcDbLine
 10
151.31640739383789
 20
106.53736266212175
 30
0.0
 11
151.31640739383789
 21
105.13182628193124
 31
0.0
  0
LINE
  5
1EE
100
AcDbEntity
  8
0
  6
CONTINUOUS
 62
               4
100
AcDbLine
 10
151.31640739383789
 20
106.53736266212175
 30
0.0
 11
152.31337709023779
 21
106.53736266212175
 31
0.0
  0
LINE
  5
1EF
100
AcDbEntity
  8
0
  6
CONTINUOUS
 62
               4
100
AcDbLine
 10
150.21337709143785
 20
98.86968589425507
 30
0.0
 11
151.31640739383789
 21
105.13182628193124
 31
0.0
  0
LINE
  5
1F0
100
AcDbEntity
  8
0
  6
CONTINUOUS
 62
               4
100
AcDbLine
 10
150.41842759637115
 20
97.540392965721736
 30
0.0
 11
150.41842759637115
 21
91.84140306998836
 31
0.0
  0
LINE
  5
1F1
100
AcDbEntity
  8
0
  6
CONTINUOUS
 62
               4
100
AcDbLine
 10
149.41438719290448
 20
106.53736266212175
 30
0.0
 11
149.41438719290448
 21
98.940392964921756
 31
0.0
  0
LINE
  5
1F2
100
AcDbEntity
  8
0
  6
CONTINUOUS
 62
               4
100
AcDbLine
 10
149.71842759677116
 20
106.23332225825507
 30
0.0
 11
149.71842759677116
 21
100.34039296412172
 31
0.0
  0
LINE
  5
1F3
100
AcDbEntity
  8
0
  6
CONTINUOUS
 62
               4
100
AcDbLine
 10
149.41438719290448
 20
106.53736266212175
 30
0.0
 11
149.71842759677116
 21
106.23332225825507
 31
0.0
  0
LINE
  5
1F4
100
AcDbEntity
  8
0
  6
CONTINUOUS
 62
               4
100
AcDbLine
 10
145.32044780130451
 20
105.53736265812174
 30
0.0
 11
145.8153972959712
 21
105.53736265812174
 31
0.0
  0
LINE
  5
1F5
100
AcDbEntity
  8
0
  6
CONTINUOUS
 62
               4
100
AcDbLine
 10
145.32044780130451
 20
100.53837276198837
 30
0.0
 11
145.8153972959712
 21
100.53837276198837
 31
0.0
  0
LINE
  5
1F6
100
AcDbEntity
  8
0
  6
CONTINUOUS
 62
               4
100
AcDbLine
 10
149.41438719290448
 20
100.0363525602551
 30
0.0
 11
149.71842759677116
 21
100.34039296412172
 31
0.0
  0
LINE
  5
1F7
100
AcDbEntity
  8
0
  6
CONTINUOUS
 62
               4
100
AcDbLine
 10
151.41539729277116
 20
99.937362661321714
 30
0.0
 11
151.41539729277116
 21
90.837362666521699
 31
0.0
  0
LINE
  5
1F8
100
AcDbEntity
  8
0
  6
CONTINUOUS
 62
               4
100
AcDbLine
 10
150.41842759637115
 20
90.540392969721665
 30
0.0
 11
151.11842759597113
 21
90.540392969721665
 31
0.0
  0
LINE
  5
1F9
100
AcDbEntity
  8
0
  6
CONTINUOUS
 62
               4
100
AcDbLine
 10
150.31943769743788
 20
91.84140306998836
 30
0.0
 11
150.41842759637115
 21
91.84140306998836
 31
0.0
  0
LINE
  5
1FA
100
AcDbEntity
  8
0
  6
CONTINUOUS
 62
               4
100
AcDbLine
 10
150.31943769743788
 20
90.639382868654991
 30
0.0
 11
150.41842759637115
 21
90.540392969721665
 31
0.0
  0
LINE
  5
1FB
100
AcDbEntity
  8
0
  6
CONTINUOUS
 62
               4
100
AcDbLine
 10
145.32044780130451
 20
106.53736266212175
 30
0.0
 11
145.32044780130451
 21
105.53736265812174
 31
0.0
  0
LINE
  5
1FC
100
AcDbEntity
  8
0
  6
CONTINUOUS
 62
               4
100
AcDbLine
 10
145.32044780130451
 20
100.53837276198837
 30
0.0
 11
145.32044780130451
 21
98.537362662121751
 31
0.0
  0
LINE
  5
1FD
100
AcDbEntity
  8
0
  6
CONTINUOUS
 62
               4
100
AcDbLine
 10
145.8153972959712
 20
105.53736265812174
 30
0.0
 11
145.8153972959712
 21
100.53837276198837
 31
0.0
  0
ARC
  5
1FE
100
AcDbEntity
  8
0
  6
CONTINUOUS
 62
               4
100
AcDbCircle
 10
149.81343035954029
 20
81.686847159613478
 30
0.0
 40
0.5060324378497572
100
AcDbArc
 50
295.49748979005915
 51
359.429327830114
  0
ARC
  5
1FF
100
AcDbEntity
  8
0
  6
CONTINUOUS
 62
               4
100
AcDbCircle
 10
149.81923142124987
 20
98.037131794105363
 30
0.0
 40
0.5002341568128574
100
AcDbArc
 50
0.6049287534634878
 51
90.207763713153867
  0
ARC
  5
200
100
AcDbEntity
  8
0
  6
CONTINUOUS
 62
               4
100
AcDbCircle
 10
151.11329342006303
 20
90.84249684242991
 30
0.0
 40
0.3021474965435785
100
AcDbArc
 50
270.97363298451126
 51
359.02636701548732
  0
ARC
  5
201
100
AcDbEntity
  8
0
  6
CONTINUOUS
 62
               4
100
AcDbCircle
 10
149.915384242838
 20
97.53769501276625
 30
0.0
 40
0.5030505883944908
100
AcDbArc
 50
0.3072892911898554
 51
36.562608354652731
  0
ARC
  5
202
100
AcDbEntity
  8
0
  6
CONTINUOUS
 62
               4
100
AcDbCircle
 10
149.81731842466917
 20
98.943869421815435
 30
0.0
 40
0.4029462287748787
100
AcDbArc
 50
180.49433091715488
 51
349.39117201772478
  0
LINE
  5
203
100
AcDbEntity
  8
0
  6
CONTINUOUS
 62
               4
100
AcDbLine
 10
145.32044780130451
 20
79.037362662121836
 30
0.0
 11
145.32044780130451
 21
98.537362662121751
 31
0.0
  0
LINE
  5
204
100
AcDbEntity
  8
0
  6
CONTINUOUS
 62
               4
100
AcDbLine
 10
128.31539730197125
 20
100.93736266212184
 30
0.0
 11
128.31539730197125
 21
79.037362662121836
 31
0.0
  0
LINE
  5
205
100
AcDbEntity
  8
0
  6
CONTINUOUS
 62
               4
100
AcDbLine
 10
142.31539730197125
 20
79.037362662121836
 30
0.0
 11
142.31539730197125
 21
100.93736265705411
 31
0.0
  0
LINE
  5
206
100
AcDbEntity
  8
0
  6
CONTINUOUS
 62
               7
100
AcDbLine
 10
128.31539730197125
 20
18.437362662121814
 30
0.0
 11
128.31539730197125
 21
79.037362662121836
 31
0.0
  0
LINE
  5
207
100
AcDbEntity
  8
0
  6
CONTINUOUS
 62
               7
100
AcDbLine
 10
142.31539730197125
 20
18.437362662121814
 30
0.0
 11
142.31539730197125
 21
79.03736266212178
 31
0.0
  0
LINE
  5
208
100
AcDbEntity
  8
0
  6
CENTER
 62
               2
100
AcDbLine
 10
135.31539730197125
 20
102.22029464101209
 30
0.0
 11
135.31539730197125
 21
-4.7455693167684387
 31
0.0
  0
LINE
  5
209
100
AcDbEntity
  8
0
  6
CONTINUOUS
 62
               7
100
AcDbLine
 10
128.31540011849796
 20
31.637362662121859
 30
0.0
 11
142.31540011849796
 21
31.637362662121859
 31
0.0
  0
LINE
  5
20A
100
AcDbEntity
  8
0
  6
CONTINUOUS
 62
               7
100
AcDbLine
 10
143.91540011849798
 20
24.437362662121814
 30
0.0
 11
142.31540011849796
 21
26.037362662121836
 31
0.0
  0
LINE
  5
20B
100
AcDbEntity
  8
0
  6
CONTINUOUS
 62
               7
100
AcDbLine
 10
143.91540011849798
 20
24.437362662121814
 30
0.0
 11
143.91540011849798
 21
18.437362662121814
 31
0.0
  0
ARC
  5
20C
100
AcDbEntity
  8
0
  6
DASHED
 62
             200
100
AcDbCircle
 10
116.81539730197125
 20
46.836389395520257
 30
0.0
 40
0.5
100
AcDbArc
 50
89.999999999999815
 51
179.99999999999963
  0
ARC
  5
20D
100
AcDbEntity
  8
0
  6
DASHED
 62
             200
100
AcDbCircle
 10
116.81539730197125
 20
41.836389395520257
 30
0.0
 40
0.5
100
AcDbArc
 50
179.99999999999963
 51
269.99999999999937
  0
LINE
  5
20E
100
AcDbEntity
  8
0
  6
DASHED
 62
             200
100
AcDbLine
 10
116.31539730197125
 20
46.836389395520257
 30
0.0
 11
116.31539730197125
 21
41.836389395520257
 31
0.0
  0
LINE
  5
20F
100
AcDbEntity
  8
0
  6
DASHED
 62
             200
100
AcDbLine
 10
118.81539730197125
 20
47.336389395520257
 30
0.0
 11
118.81539730197125
 21
41.336389395520257
 31
0.0
  0
LINE
  5
210
100
AcDbEntity
  8
0
  6
DASHED
 62
             200
100
AcDbLine
 10
116.81539730197125
 20
47.336389395520257
 30
0.0
 11
116.81539730197125
 21
41.336389395520257
 31
0.0
  0
LINE
  5
211
100
AcDbEntity
  8
0
  6
DASHED
 62
             200
100
AcDbLine
 10
128.31539730197125
 20
41.336389395520257
 30
0.0
 11
116.81539730197125
 21
41.336389395520257
 31
0.0
  0
LINE
  5
212
100
AcDbEntity
  8
0
  6
DASHED
 62
             200
100
AcDbLine
 10
128.31539730197125
 20
47.336389395520257
 30
0.0
 11
116.81539730197125
 21
47.336389395520257
 31
0.0
  0
LINE
  5
213
100
AcDbEntity
  8
0
  6
DASHED
 62
             200
100
AcDbLine
 10
128.31539730197125
 20
58.138335928723336
 30
0.0
 11
116.81539730197125
 21
58.138335928723336
 31
0.0
  0
LINE
  5
214
100
AcDbEntity
  8
0
  6
DASHED
 62
             200
100
AcDbLine
 10
128.31539730197125
 20
64.138335928723336
 30
0.0
 11
116.81539730197125
 21
64.138335928723336
 31
0.0
  0
LINE
  5
215
100
AcDbEntity
  8
0
  6
DASHED
 62
             200
100
AcDbLine
 10
116.81539730197125
 20
58.138335928723336
 30
0.0
 11
116.81539730197125
 21
64.138335928723336
 31
0.0
  0
LINE
  5
216
100
AcDbEntity
  8
0
  6
DASHED
 62
             200
100
AcDbLine
 10
118.81539730197125
 20
58.138335928723336
 30
0.0
 11
118.81539730197125
 21
64.138335928723336
 31
0.0
  0
LINE
  5
217
100
AcDbEntity
  8
0
  6
DASHED
 62
             200
100
AcDbLine
 10
116.31539730197125
 20
58.638335928723336
 30
0.0
 11
116.31539730197125
 21
63.638335928723336
 31
0.0
  0
ARC
  5
218
100
AcDbEntity
  8
0
  6
DASHED
 62
             200
100
AcDbCircle
 10
116.81539730197125
 20
63.638335928723336
 30
0.0
 40
0.5
100
AcDbArc
 50
89.999999999999815
 51
179.99999999999963
  0
ARC
  5
219
100
AcDbEntity
  8
0
  6
DASHED
 62
             200
100
AcDbCircle
 10
116.81539730197125
 20
58.638335928723336
 30
0.0
 40
0.5
100
AcDbArc
 50
179.99999999999963
 51
269.99999999999937
  0
LINE
  5
21A
100
AcDbEntity
  8
0
  6
CENTER
 62
               2
100
AcDbLine
 10
130.3514777327037
 20
44.336389395520257
 30
0.0
 11
114.90946623448127
 21
44.336389395520257
 31
0.0
  0
LINE
  5
21B
100
AcDbEntity
  8
0
  6
CENTER
 62
               2
100
AcDbLine
 10
130.3514777327037
 20
61.138335928723336
 30
0.0
 11
114.90946623448127
 21
61.138335928723336
 31
0.0
  0
LINE
  5
21C
100
AcDbEntity
  8
0
  6
CONTINUOUS
 62
               7
100
AcDbLine
 10
141.31539730197125
 20
46.036389395520246
 30
0.0
 11
141.31539730197125
 21
42.8363893955202
 31
0.0
  0
LINE
  5
21D
100
AcDbEntity
  8
0
  6
CONTINUOUS
 62
               7
100
AcDbLine
 10
142.31539731293839
 20
46.036389395520246
 30
0.0
 11
141.31539731293839
 21
46.036389395520246
 31
0.0
  0
LINE
  5
21E
100
AcDbEntity
  8
0
  6
CONTINUOUS
 62
               7
100
AcDbLine
 10
142.31539731293839
 20
42.8363893955202
 30
0.0
 11
141.31539731293839
 21
42.8363893955202
 31
0.0
  0
CIRCLE
  5
21F
100
AcDbEntity
  8
0
  6
CONTINUOUS
 62
               7
100
AcDbCircle
 10
131.1153973019712
 20
57.237362662121768
 30
0.0
 40
1.0499999999999998
  0
LINE
  5
220
100
AcDbEntity
  8
0
  6
CENTER
 62
               2
100
AcDbLine
 10
131.1153973019712
 20
55.737362662121768
 30
0.0
 11
131.1153973019712
 21
58.737362662121768
 31
0.0
  0
LINE
  5
221
100
AcDbEntity
  8
0
  6
CENTER
 62
               2
100
AcDbLine
 10
129.6153973019712
 20
57.237362662121768
 30
0.0
 11
132.6153973019712
 21
57.237362662121768
 31
0.0
  0
CIRCLE
  5
222
100
AcDbEntity
  8
0
  6
CONTINUOUS
 62
               7
100
AcDbCircle
 10
131.1153973019712
 20
48.237362662121768
 30
0.0
 40
1.0499999999999998
  0
LINE
  5
223
100
AcDbEntity
  8
0
  6
CENTER
 62
               2
100
AcDbLine
 10
131.1153973019712
 20
46.737362662121768
 30
0.0
 11
131.1153973019712
 21
49.737362662121768
 31
0.0
  0
LINE
  5
224
100
AcDbEntity
  8
0
  6
CENTER
 62
               2
100
AcDbLine
 10
129.6153973019712
 20
48.237362662121768
 30
0.0
 11
132.6153973019712
 21
48.237362662121768
 31
0.0
  0
LINE
  5
225
100
AcDbEntity
  8
0
  6
CONTINUOUS
 62
               7
100
AcDbLine
 10
143.91540011849798
 20
73.03736266212178
 30
0.0
 11
142.31540011849796
 21
71.437362662121814
 31
0.0
  0
LINE
  5
226
100
AcDbEntity
  8
0
  6
CONTINUOUS
 62
               7
100
AcDbLine
 10
128.31540011849796
 20
39.637362662121859
 30
0.0
 11
142.31540011849796
 21
39.637362662121859
 31
0.0
  0
LINE
  5
227
100
AcDbEntity
  8
0
  6
CONTINUOUS
 62
               7
100
AcDbLine
 10
128.31540011849796
 20
65.837362662121791
 30
0.0
 11
142.31540011849796
 21
65.837362662121791
 31
0.0
  0
LINE
  5
228
100
AcDbEntity
  8
0
  6
CONTINUOUS
 62
               7
100
AcDbLine
 10
143.91540011849798
 20
73.03736266212178
 30
0.0
 11
143.91540011849798
 21
79.03736266212178
 31
0.0
  0
LINE
  5
229
100
AcDbEntity
  8
0
  6
CONTINUOUS
 62
               4
100
AcDbLine
 10
147.56893264850447
 20
117.53231215078841
 30
0.0
 11
148.06388214317116
 21
117.53231215078841
 31
0.0
  0
LINE
  5
22A
100
AcDbEntity
  8
0
  6
CONTINUOUS
 62
               4
100
AcDbLine
 10
148.46691244597122
 20
114.03231215278839
 30
0.0
 11
148.46691244597122
 21
110.70200912438841
 31
0.0
  0
LINE
  5
22B
100
AcDbEntity
  8
0
  6
CONTINUOUS
 62
               4
100
AcDbLine
 10
147.16590234570452
 20
114.03231215278839
 30
0.0
 11
147.16590234570452
 21
111.45150407345508
 31
0.0
  0
LINE
  5
22C
100
AcDbEntity
  8
0
  6
CONTINUOUS
 62
               4
100
AcDbLine
 10
147.16590234570452
 20
114.03231215278839
 30
0.0
 11
148.46691244597122
 21
114.03231215278839
 31
0.0
  0
LINE
  5
22D
100
AcDbEntity
  8
0
  6
CONTINUOUS
 62
               4
100
AcDbLine
 10
147.56893264850447
 20
117.53231215078841
 30
0.0
 11
147.56893264850447
 21
114.03231215278839
 31
0.0
  0
LINE
  5
22E
100
AcDbEntity
  8
0
  6
CONTINUOUS
 62
               4
100
AcDbLine
 10
148.06388214317116
 20
117.53231215078841
 30
0.0
 11
148.06388214317116
 21
114.03231215278839
 31
0.0
  0
LINE
  5
22F
100
AcDbEntity
  8
0
  6
CONTINUOUS
 62
             200
100
AcDbLine
 10
149.31539729397122
 20
110.20705962972178
 30
0.0
 11
146.31741749770453
 21
111.93938286105507
 31
0.0
  0
LINE
  5
230
100
AcDbEntity
  8
0
  6
CONTINUOUS
 62
             200
100
AcDbLine
 10
149.31539729397122
 20
109.86059498345512
 30
0.0
 11
146.31741749770453
 21
111.59291821478845
 31
0.0
  0
ARC
  5
231
100
AcDbEntity
  8
0
  6
CONTINUOUS
 62
               4
100
AcDbCircle
 10
145.32044780130451
 20
79.537362662121751
 30
0.0
 40
0.4999999999999147
100
AcDbArc
 50
269.99999999999937
 51
295.49748979006006
  0
LINE
  5
232
100
AcDbEntity
  8
0
  6
CONTINUOUS
 62
               4
100
AcDbLine
 10
150.03126292885122
 20
81.23010018381224
 30
0.0
 11
145.53568357772679
 21
79.086060589726969
 31
0.0
  0
ARC
  5
233
100
AcDbEntity
  8
0
  6
CONTINUOUS
 62
               4
100
AcDbCircle
 10
145.32044780130451
 20
17.937362662122013
 30
0.0
 40
0.4999999999999147
100
AcDbArc
 50
64.502510209938976
 51
89.999999999999815
  0
LINE
  5
234
100
AcDbEntity
  8
0
  6
CONTINUOUS
 62
               4
100
AcDbLine
 10
150.03126292885122
 20
16.244625140431395
 30
0.0
 11
145.53568357772679
 21
18.388664734516787
 31
0.0
  0
LINE
  5
235
100
AcDbEntity
  8
0
  6
CENTER
 62
               2
100
AcDbLine
 10
125.81539730197125
 20
61.03736266212178
 30
0.0
 11
130.81539730197125
 21
61.03736266212178
 31
0.0
  0
LINE
  5
236
100
AcDbEntity
  8
0
  6
CENTER
 62
               2
100
AcDbLine
 10
125.81539730197125
 20
44.437362662121757
 30
0.0
 11
130.81539730197125
 21
44.437362662121757
 31
0.0
  0
LINE
  5
237
100
AcDbEntity
  8
0
  6
CONTINUOUS
 62
             200
100
AcDbLine
 10
227.45857972410528
 20
111.01736266212168
 30
0.0
 11
234.95857972410528
 21
109.00736266212166
 31
0.0
  0
LINE
  5
238
100
AcDbEntity
  8
0
  6
CONTINUOUS
 62
               4
100
AcDbLine
 10
230.60857972410525
 20
110.17736266212168
 30
0.0
 11
230.60857972410525
 21
106.53736266212167
 31
0.0
  0
LINE
  5
239
100
AcDbEntity
  8
0
  6
CONTINUOUS
 62
               4
100
AcDbLine
 10
229.30857972410519
 20
110.52736266212167
 30
0.0
 11
229.30857972410519
 21
106.53736266212167
 31
0.0
  0
LINE
  5
23A
100
AcDbEntity
  8
0
  6
CONTINUOUS
 62
               4
100
AcDbLine
 10
231.80857972410519
 20
109.85736266212169
 30
0.0
 11
231.80857972410519
 21
106.53736266212167
 31
0.0
  0
LINE
  5
23B
100
AcDbEntity
  8
0
  6
CONTINUOUS
 62
               7
100
AcDbLine
 10
226.20857972410528
 20
18.437362662121814
 30
0.0
 11
236.20857972410528
 21
18.437362662121814
 31
0.0
  0
LINE
  5
23C
100
AcDbEntity
  8
0
  6
CONTINUOUS
 62
               4
100
AcDbLine
 10
230.20857972410528
 20
-20.055566608811546
 30
0.0
 11
229.70857972410528
 21
-20.055566608811546
 31
0.0
  0
LINE
  5
23D
100
AcDbEntity
  8
0
  6
CONTINUOUS
 62
               4
100
AcDbLine
 10
232.70857972410528
 20
-20.055566608811546
 30
0.0
 11
232.20857972410528
 21
-20.055566608811546
 31
0.0
  0
ARC
  5
23E
100
AcDbEntity
  8
0
  6
CONTINUOUS
 62
               4
100
AcDbCircle
 10
226.70828287624107
 20
17.93765950998602
 30
0.0
 40
0.4997032403068001
100
AcDbArc
 50
89.965963537146934
 51
180.03403646285233
  0
LINE
  5
23F
100
AcDbEntity
  8
0
  6
CONTINUOUS
 62
               4
100
AcDbLine
 10
236.20857972410528
 20
18.437362662121814
 30
0.0
 11
226.20857972410528
 21
18.437362662121814
 31
0.0
  0
LINE
  5
240
100
AcDbEntity
  8
0
  6
CONTINUOUS
 62
               4
100
AcDbLine
 10
226.20857972410528
 20
-4.0626373378781864
 30
0.0
 11
226.20857972410528
 21
18.437362662121814
 31
0.0
  0
LINE
  5
241
100
AcDbEntity
  8
0
  6
CONTINUOUS
 62
               4
100
AcDbLine
 10
236.20857969501611
 20
-4.0626373421475819
 30
0.0
 11
234.95857972410528
 21
-4.0626373421475819
 31
0.0
  0
ARC
  5
242
100
AcDbEntity
  8
0
  6
CONTINUOUS
 62
               4
100
AcDbCircle
 10
227.00448457744716
 20
-3.4627324888057274
 30
0.0
 40
0.5999048608870732
100
AcDbArc
 50
179.99091272245337
 51
270.00908727754575
  0
ARC
  5
243
100
AcDbEntity
  8
0
  6
CONTINUOUS
 62
               4
100
AcDbCircle
 10
235.70857972410528
 20
-3.4626373421475591
 30
0.0
 40
0.5
100
AcDbArc
 50
269.99999999999937
 51
0.0
  0
LINE
  5
244
100
AcDbEntity
  8
0
  6
CONTINUOUS
 62
               4
100
AcDbLine
 10
234.95857972410528
 20
-3.9626373421475591
 30
0.0
 11
235.70857972410528
 21
-3.9626373421475591
 31
0.0
  0
LINE
  5
245
100
AcDbEntity
  8
0
  6
CONTINUOUS
 62
               4
100
AcDbLine
 10
226.20857972410528
 20
-2.4626373421475591
 30
0.0
 11
227.4585980346522
 21
-2.4626373421475591
 31
0.0
  0
LINE
  5
246
100
AcDbEntity
  8
0
  6
CONTINUOUS
 62
               4
100
AcDbLine
 10
226.20857972410528
 20
-4.0626373421475819
 30
0.0
 11
227.45857972410528
 21
-4.0626373421475819
 31
0.0
  0
LINE
  5
247
100
AcDbEntity
  8
0
  6
CONTINUOUS
 62
               4
100
AcDbLine
 10
226.20857972410528
 20
-3.4626373421475591
 30
0.0
 11
227.4585980346522
 21
-3.4626373421475591
 31
0.0
  0
LINE
  5
248
100
AcDbEntity
  8
0
  6
CONTINUOUS
 62
               4
100
AcDbLine
 10
236.20857972410528
 20
-4.0626373421475819
 30
0.0
 11
236.20857972410528
 21
18.437362662121814
 31
0.0
  0
LINE
  5
249
100
AcDbEntity
  8
0
  6
CONTINUOUS
 62
               4
100
AcDbLine
 10
236.2085980346522
 20
-1.0626373378780727
 30
0.0
 11
235.7085980346522
 21
-1.0626373378780727
 31
0.0
  0
LINE
  5
24A
100
AcDbEntity
  8
0
  6
CONTINUOUS
 62
               4
100
AcDbLine
 10
235.7085980346522
 20
-1.0626373378780727
 30
0.0
 11
233.95857972410528
 21
-1.0626373378780727
 31
0.0
  0
LINE
  5
24B
100
AcDbEntity
  8
0
  6
CONTINUOUS
 62
               4
100
AcDbLine
 10
226.43859803465222
 20
-0.5626373378780727
 30
0.0
 11
226.43859803465222
 21
15.745443471470765
 31
0.0
  0
LINE
  5
24C
100
AcDbEntity
  8
0
  6
CONTINUOUS
 62
               4
100
AcDbLine
 10
235.97859803465218
 20
-0.5626373378780727
 30
0.0
 11
235.97859803465218
 21
15.745443471455189
 31
0.0
  0
LINE
  5
24D
100
AcDbEntity
  8
0
  6
CONTINUOUS
 62
               4
100
AcDbLine
 10
235.47859803465218
 20
16.245443471455246
 30
0.0
 11
226.93859803465222
 21
16.245443471455246
 31
0.0
  0
LINE
  5
24E
100
AcDbEntity
  8
0
  6
CONTINUOUS
 62
               4
100
AcDbLine
 10
226.7085980346522
 20
-1.0626373378780727
 30
0.0
 11
226.2085980346522
 21
-1.0626373378780727
 31
0.0
  0
LINE
  5
24F
100
AcDbEntity
  8
0
  6
CONTINUOUS
 62
               4
100
AcDbLine
 10
233.95857972410528
 20
6.9373626621219273
 30
0.0
 11
228.45857972410528
 21
6.9373626621219273
 31
0.0
  0
LINE
  5
250
100
AcDbEntity
  8
0
  6
CONTINUOUS
 62
               4
100
AcDbLine
 10
228.45857972410528
 20
-1.0626373378780727
 30
0.0
 11
226.7085980346522
 21
-1.0626373378780727
 31
0.0
  0
LINE
  5
251
100
AcDbEntity
  8
0
  6
CONTINUOUS
 62
               4
100
AcDbLine
 10
233.95857972410528
 20
-9.0626373378780727
 30
0.0
 11
233.95857972410528
 21
6.9373626621219273
 31
0.0
  0
LINE
  5
252
100
AcDbEntity
  8
0
  6
CONTINUOUS
 62
               4
100
AcDbLine
 10
234.95857972410528
 20
-9.0626373378780727
 30
0.0
 11
234.95857972410528
 21
-1.0626373378780727
 31
0.0
  0
LINE
  5
253
100
AcDbEntity
  8
0
  6
CONTINUOUS
 62
               4
100
AcDbLine
 10
233.95857972410528
 20
-7.5626373378780727
 30
0.0
 11
228.45857972410528
 21
-7.5626373378780727
 31
0.0
  0
LINE
  5
254
100
AcDbEntity
  8
0
  6
CONTINUOUS
 62
               4
100
AcDbLine
 10
228.45857972410528
 20
-9.0626373378780727
 30
0.0
 11
228.45857972410528
 21
6.9373626621219273
 31
0.0
  0
LINE
  5
255
100
AcDbEntity
  8
0
  6
CONTINUOUS
 62
               4
100
AcDbLine
 10
227.45857972410528
 20
-9.0626373378780727
 30
0.0
 11
227.45857972410528
 21
-1.0626373378780727
 31
0.0
  0
LINE
  5
256
100
AcDbEntity
  8
0
  6
CONTINUOUS
 62
               4
100
AcDbLine
 10
234.95857972410528
 20
-9.0626373378780727
 30
0.0
 11
227.45857972410528
 21
-9.0626373378780727
 31
0.0
  0
ARC
  5
257
100
AcDbEntity
  8
0
  6
CONTINUOUS
 62
               4
100
AcDbCircle
 10
235.47740975074686
 20
15.744255187549925
 30
0.0
 40
0.5011896925741138
100
AcDbArc
 50
0.1358442071527786
 51
89.864155792846745
  0
ARC
  5
258
100
AcDbEntity
  8
0
  6
CONTINUOUS
 62
               4
100
AcDbCircle
 10
226.93980154076388
 20
15.744239965343468
 30
0.0
 40
0.5012049510586274
100
AcDbArc
 50
90.137580219312724
 51
179.86241978068688
  0
ARC
  5
259
100
AcDbEntity
  8
0
  6
CONTINUOUS
 62
               4
100
AcDbCircle
 10
226.9386004761314
 20
-0.5626348963987766
 30
0.0
 40
0.500002441485227
100
AcDbArc
 50
180.00027977154909
 51
269.99972022845009
  0
ARC
  5
25A
100
AcDbEntity
  8
0
  6
CONTINUOUS
 62
               4
100
AcDbCircle
 10
235.47861085198991
 20
-0.5626501552158061
 30
0.0
 40
0.4999871828265524
100
AcDbArc
 50
269.99853120363389
 51
0.0014687963652481
  0
ARC
  5
25B
100
AcDbEntity
  8
0
  6
CONTINUOUS
 62
               4
100
AcDbCircle
 10
235.70860871578355
 20
-0.5626480190094299
 30
0.0
 40
0.4999893189827007
100
AcDbArc
 50
269.99877600635432
 51
0.0012239936446972
  0
ARC
  5
25C
100
AcDbEntity
  8
0
  6
CONTINUOUS
 62
               4
100
AcDbCircle
 10
226.70860261240301
 20
-0.5626327601272578
 30
0.0
 40
0.5000045777717621
100
AcDbArc
 50
180.00052456679882
 51
269.99947543320042
  0
ARC
  5
25D
100
AcDbEntity
  8
0
  6
CONTINUOUS
 62
               4
100
AcDbCircle
 10
235.70860261217473
 20
17.937367239644573
 30
0.0
 40
0.4999954224983215
100
AcDbArc
 50
359.99947544974214
 51
90.000524550256955
  0
ARC
  5
25E
100
AcDbEntity
  8
0
  6
CONTINUOUS
 62
               4
100
AcDbCircle
 10
226.70860871582551
 20
17.93735198094862
 30
0.0
 40
0.5000106812873828
100
AcDbArc
 50
90.001223946153672
 51
179.99877605384583
  0
LINE
  5
25F
100
AcDbEntity
  8
0
  6
CONTINUOUS
 62
               4
100
AcDbLine
 10
229.3085797241053
 20
-16.555566610811525
 30
0.0
 11
229.3085797241053
 21
-13.062637337878073
 31
0.0
  0
LINE
  5
260
100
AcDbEntity
  8
0
  6
CONTINUOUS
 62
               4
100
AcDbLine
 10
230.60857972410537
 20
-16.555566610811525
 30
0.0
 11
230.60857972410537
 21
-13.412637337878095
 31
0.0
  0
LINE
  5
261
100
AcDbEntity
  8
0
  6
CONTINUOUS
 62
               4
100
AcDbLine
 10
232.20857972410528
 20
-20.055566608811546
 30
0.0
 11
232.20857972410528
 21
-16.555566610811525
 31
0.0
  0
LINE
  5
262
100
AcDbEntity
  8
0
  6
CONTINUOUS
 62
               4
100
AcDbLine
 10
232.70857972410528
 20
-20.055566608811546
 30
0.0
 11
232.70857972410528
 21
-16.555566610811525
 31
0.0
  0
LINE
  5
263
100
AcDbEntity
  8
0
  6
CONTINUOUS
 62
               4
100
AcDbLine
 10
229.3085797241053
 20
-12.032637337878043
 30
0.0
 11
229.3085797241053
 21
-9.0626373378780727
 31
0.0
  0
LINE
  5
264
100
AcDbEntity
  8
0
  6
CONTINUOUS
 62
               4
100
AcDbLine
 10
230.60857972410537
 20
-12.382637337878066
 30
0.0
 11
230.60857972410537
 21
-9.0626373378780727
 31
0.0
  0
LINE
  5
265
100
AcDbEntity
  8
0
  6
CONTINUOUS
 62
               4
100
AcDbLine
 10
233.10857972410537
 20
-13.052637337878082
 30
0.0
 11
233.10857972410537
 21
-9.0626373378780727
 31
0.0
  0
LINE
  5
266
100
AcDbEntity
  8
0
  6
CONTINUOUS
 62
               4
100
AcDbLine
 10
231.8085797241053
 20
-16.555566610811525
 30
0.0
 11
231.8085797241053
 21
-13.732637337878032
 31
0.0
  0
LINE
  5
267
100
AcDbEntity
  8
0
  6
CONTINUOUS
 62
               4
100
AcDbLine
 10
233.10857972410537
 20
-16.555566610811525
 30
0.0
 11
233.10857972410537
 21
-14.082637337878054
 31
0.0
  0
LINE
  5
268
100
AcDbEntity
  8
0
  6
CONTINUOUS
 62
               4
100
AcDbLine
 10
229.70857972410528
 20
-20.055566608811546
 30
0.0
 11
229.70857972410528
 21
-16.555566610811525
 31
0.0
  0
LINE
  5
269
100
AcDbEntity
  8
0
  6
CONTINUOUS
 62
               4
100
AcDbLine
 10
230.20857972410528
 20
-20.055566608811546
 30
0.0
 11
230.20857972410528
 21
-16.555566610811525
 31
0.0
  0
LINE
  5
26A
100
AcDbEntity
  8
0
  6
CONTINUOUS
 62
               4
100
AcDbLine
 10
231.8085797241053
 20
-12.702637337878059
 30
0.0
 11
231.8085797241053
 21
-9.0626373378780727
 31
0.0
  0
LINE
  5
26B
100
AcDbEntity
  8
0
  6
CONTINUOUS
 62
               4
100
AcDbLine
 10
233.10857972410537
 20
-16.555566610811525
 30
0.0
 11
231.8085797241053
 21
-16.555566610811525
 31
0.0
  0
LINE
  5
26C
100
AcDbEntity
  8
0
  6
CONTINUOUS
 62
             200
100
AcDbLine
 10
234.95857972410528
 20
-13.542637337878091
 30
0.0
 11
227.45857972410528
 21
-11.532637337878043
 31
0.0
  0
LINE
  5
26D
100
AcDbEntity
  8
0
  6
CONTINUOUS
 62
             200
100
AcDbLine
 10
234.95857972410528
 20
-14.582637337878054
 30
0.0
 11
227.45857972410528
 21
-12.572637337878064
 31
0.0
  0
LINE
  5
26E
100
AcDbEntity
  8
0
  6
CONTINUOUS
 62
               4
100
AcDbLine
 10
230.60857972410537
 20
-16.555566610811525
 30
0.0
 11
229.3085797241053
 21
-16.555566610811525
 31
0.0
  0
LINE
  5
26F
100
AcDbEntity
  8
0
  6
PHANTOM
 62
             200
100
AcDbLine
 10
229.7085980346522
 20
10.937362662121927
 30
0.0
 11
229.7085980346522
 21
12.937362662121927
 31
0.0
  0
LINE
  5
270
100
AcDbEntity
  8
0
  6
PHANTOM
 62
             200
100
AcDbLine
 10
232.7085980346522
 20
10.937362662121927
 30
0.0
 11
232.7085980346522
 21
12.937362662121927
 31
0.0
  0
LINE
  5
271
100
AcDbEntity
  8
0
  6
PHANTOM
 62
             200
100
AcDbLine
 10
232.7085980346522
 20
12.937362662121927
 30
0.0
 11
229.7085980346522
 21
12.937362662121927
 31
0.0
  0
LINE
  5
272
100
AcDbEntity
  8
0
  6
PHANTOM
 62
             200
100
AcDbLine
 10
232.7085980346522
 20
10.937362662121927
 30
0.0
 11
229.7085980346522
 21
10.937362662121927
 31
0.0
  0
LINE
  5
273
100
AcDbEntity
  8
0
  6
CONTINUOUS
 62
               7
100
AcDbLine
 10
236.20857972410528
 20
79.037362662121808
 30
0.0
 11
226.20857972410528
 21
79.037362662121808
 31
0.0
  0
ARC
  5
274
100
AcDbEntity
  8
0
  6
CONTINUOUS
 62
               4
100
AcDbCircle
 10
235.70887657196948
 20
79.537065814257602
 30
0.0
 40
0.4997032403068001
100
AcDbArc
 50
269.96596353714654
 51
0.0340364628527164
  0
LINE
  5
275
100
AcDbEntity
  8
0
  6
CONTINUOUS
 62
               4
100
AcDbLine
 10
226.20857972410528
 20
79.037362662121808
 30
0.0
 11
236.20857972410528
 21
79.037362662121808
 31
0.0
  0
LINE
  5
276
100
AcDbEntity
  8
0
  6
CONTINUOUS
 62
               4
100
AcDbLine
 10
236.20857972410528
 20
101.53736266212181
 30
0.0
 11
236.20857972410528
 21
79.037362662121808
 31
0.0
  0
LINE
  5
277
100
AcDbEntity
  8
0
  6
CONTINUOUS
 62
               4
100
AcDbLine
 10
226.20857975319444
 20
101.53736266639118
 30
0.0
 11
227.45857972410528
 21
101.53736266639118
 31
0.0
  0
ARC
  5
278
100
AcDbEntity
  8
0
  6
CONTINUOUS
 62
               4
100
AcDbCircle
 10
235.4126748707634
 20
100.93745781304932
 30
0.0
 40
0.5999048608870732
100
AcDbArc
 50
359.99091272245295
 51
90.009087277546172
  0
ARC
  5
279
100
AcDbEntity
  8
0
  6
CONTINUOUS
 62
               4
100
AcDbCircle
 10
226.70857972410528
 20
100.93736266639115
 30
0.0
 40
0.5
100
AcDbArc
 50
89.999999999999815
 51
179.99999999999963
  0
LINE
  5
27A
100
AcDbEntity
  8
0
  6
CONTINUOUS
 62
               4
100
AcDbLine
 10
227.45857972410528
 20
101.43736266639115
 30
0.0
 11
226.70857972410528
 21
101.43736266639115
 31
0.0
  0
LINE
  5
27B
100
AcDbEntity
  8
0
  6
CONTINUOUS
 62
               4
100
AcDbLine
 10
236.20857972410528
 20
99.937362666391152
 30
0.0
 11
234.95856141355836
 21
99.937362666391152
 31
0.0
  0
LINE
  5
27C
100
AcDbEntity
  8
0
  6
CONTINUOUS
 62
               4
100
AcDbLine
 10
236.20857972410528
 20
101.53736266639118
 30
0.0
 11
234.95857972410528
 21
101.53736266639118
 31
0.0
  0
LINE
  5
27D
100
AcDbEntity
  8
0
  6
CONTINUOUS
 62
               4
100
AcDbLine
 10
236.20857972410528
 20
100.93736266639115
 30
0.0
 11
234.95856141355836
 21
100.93736266639115
 31
0.0
  0
LINE
  5
27E
100
AcDbEntity
  8
0
  6
CONTINUOUS
 62
               4
100
AcDbLine
 10
226.20857972410528
 20
101.53736266639118
 30
0.0
 11
226.20857972410528
 21
79.037362662121808
 31
0.0
  0
LINE
  5
27F
100
AcDbEntity
  8
0
  6
CONTINUOUS
 62
               4
100
AcDbLine
 10
226.20856141355836
 20
98.537362662121666
 30
0.0
 11
226.70856141355836
 21
98.537362662121666
 31
0.0
  0
LINE
  5
280
100
AcDbEntity
  8
0
  6
CONTINUOUS
 62
               4
100
AcDbLine
 10
226.70856141355836
 20
98.537362662121666
 30
0.0
 11
228.45857972410528
 21
98.537362662121666
 31
0.0
  0
LINE
  5
281
100
AcDbEntity
  8
0
  6
CONTINUOUS
 62
               4
100
AcDbLine
 10
235.97856141355834
 20
98.037362662121666
 30
0.0
 11
235.97856141355834
 21
81.729281852772857
 31
0.0
  0
LINE
  5
282
100
AcDbEntity
  8
0
  6
CONTINUOUS
 62
               4
100
AcDbLine
 10
226.43856141355838
 20
98.037362662121666
 30
0.0
 11
226.43856141355838
 21
81.729281852788432
 31
0.0
  0
LINE
  5
283
100
AcDbEntity
  8
0
  6
CONTINUOUS
 62
               4
100
AcDbLine
 10
226.93856141355838
 20
81.229281852788404
 30
0.0
 11
235.47856141355834
 21
81.229281852788404
 31
0.0
  0
LINE
  5
284
100
AcDbEntity
  8
0
  6
CONTINUOUS
 62
               4
100
AcDbLine
 10
235.70856141355836
 20
98.537362662121666
 30
0.0
 11
236.20856141355836
 21
98.537362662121666
 31
0.0
  0
LINE
  5
285
100
AcDbEntity
  8
0
  6
CONTINUOUS
 62
               4
100
AcDbLine
 10
228.45857972410528
 20
90.537362662121694
 30
0.0
 11
233.95857972410528
 21
90.537362662121694
 31
0.0
  0
LINE
  5
286
100
AcDbEntity
  8
0
  6
CONTINUOUS
 62
               4
100
AcDbLine
 10
233.95857972410528
 20
98.537362662121666
 30
0.0
 11
235.70856141355836
 21
98.537362662121666
 31
0.0
  0
LINE
  5
287
100
AcDbEntity
  8
0
  6
CONTINUOUS
 62
               4
100
AcDbLine
 10
228.45857972410528
 20
106.53736266212167
 30
0.0
 11
228.45857972410528
 21
90.537362662121694
 31
0.0
  0
LINE
  5
288
100
AcDbEntity
  8
0
  6
CONTINUOUS
 62
               4
100
AcDbLine
 10
227.45857972410528
 20
106.53736266212167
 30
0.0
 11
227.45857972410528
 21
98.537362662121666
 31
0.0
  0
LINE
  5
289
100
AcDbEntity
  8
0
  6
CONTINUOUS
 62
               4
100
AcDbLine
 10
228.45857972410528
 20
105.03736266212167
 30
0.0
 11
233.95857972410528
 21
105.03736266212167
 31
0.0
  0
LINE
  5
28A
100
AcDbEntity
  8
0
  6
CONTINUOUS
 62
               4
100
AcDbLine
 10
233.95857972410528
 20
106.53736266212167
 30
0.0
 11
233.95857972410528
 21
90.537362662121694
 31
0.0
  0
LINE
  5
28B
100
AcDbEntity
  8
0
  6
CONTINUOUS
 62
               4
100
AcDbLine
 10
234.95857972410528
 20
106.53736266212167
 30
0.0
 11
234.95857972410528
 21
98.537362662121666
 31
0.0
  0
LINE
  5
28C
100
AcDbEntity
  8
0
  6
CONTINUOUS
 62
               4
100
AcDbLine
 10
227.45857972410528
 20
106.53736266212167
 30
0.0
 11
234.95857972410528
 21
106.53736266212167
 31
0.0
  0
ARC
  5
28D
100
AcDbEntity
  8
0
  6
CONTINUOUS
 62
               4
100
AcDbCircle
 10
226.9397496974637
 20
81.730470136693668
 30
0.0
 40
0.5011896925741138
100
AcDbArc
 50
180.13584420715239
 51
269.86415579284636
  0
ARC
  5
28E
100
AcDbEntity
  8
0
  6
CONTINUOUS
 62
               4
100
AcDbCircle
 10
235.47735790744667
 20
81.730485358900154
 30
0.0
 40
0.5012049510586274
100
AcDbArc
 50
270.13758021931233
 51
359.86241978068648
  0
ARC
  5
28F
100
AcDbEntity
  8
0
  6
CONTINUOUS
 62
               4
100
AcDbCircle
 10
235.47855897207916
 20
98.037360220642398
 30
0.0
 40
0.500002441485227
100
AcDbArc
 50
0.0002797715494944
 51
89.999720228450514
  0
ARC
  5
290
100
AcDbEntity
  8
0
  6
CONTINUOUS
 62
               4
100
AcDbCircle
 10
226.93854859622064
 20
98.037375479459399
 30
0.0
 40
0.4999871828265524
100
AcDbArc
 50
89.998531203634272
 51
180.00146879636483
  0
ARC
  5
291
100
AcDbEntity
  8
0
  6
CONTINUOUS
 62
               4
100
AcDbCircle
 10
226.708550732427
 20
98.037373343253051
 30
0.0
 40
0.4999893189827007
100
AcDbArc
 50
89.998776006354774
 51
180.00122399364432
  0
ARC
  5
292
100
AcDbEntity
  8
0
  6
CONTINUOUS
 62
               4
100
AcDbCircle
 10
235.70855683580754
 20
98.037358084370879
 30
0.0
 40
0.5000045777717621
100
AcDbArc
 50
0.0005245667992071
 51
89.9994754332008
  0
ARC
  5
293
100
AcDbEntity
  8
0
  6
CONTINUOUS
 62
               4
100
AcDbCircle
 10
226.70855683603583
 20
79.537358084599049
 30
0.0
 40
0.4999954224983215
100
AcDbArc
 50
179.99947544974256
 51
270.00052455025656
  0
ARC
  5
294
100
AcDbEntity
  8
0
  6
CONTINUOUS
 62
               4
100
AcDbCircle
 10
235.70855073238505
 20
79.537373343294973
 30
0.0
 40
0.5000106812873828
100
AcDbArc
 50
270.00122394615329
 51
359.9987760538454
  0
LINE
  5
295
100
AcDbEntity
  8
0
  6
CONTINUOUS
 62
               4
100
AcDbLine
 10
233.10857972410525
 20
109.50736266212166
 30
0.0
 11
233.10857972410525
 21
106.53736266212167
 31
0.0
  0
LINE
  5
296
100
AcDbEntity
  8
0
  6
PHANTOM
 62
             200
100
AcDbLine
 10
232.70856141355836
 20
86.537362662121694
 30
0.0
 11
232.70856141355836
 21
84.537362662121694
 31
0.0
  0
LINE
  5
297
100
AcDbEntity
  8
0
  6
PHANTOM
 62
             200
100
AcDbLine
 10
229.70856141355836
 20
86.537362662121694
 30
0.0
 11
229.70856141355836
 21
84.537362662121694
 31
0.0
  0
LINE
  5
298
100
AcDbEntity
  8
0
  6
PHANTOM
 62
             200
100
AcDbLine
 10
229.70856141355836
 20
84.537362662121694
 30
0.0
 11
232.70856141355836
 21
84.537362662121694
 31
0.0
  0
LINE
  5
299
100
AcDbEntity
  8
0
  6
PHANTOM
 62
             200
100
AcDbLine
 10
229.70856141355836
 20
86.537362662121694
 30
0.0
 11
232.70856141355836
 21
86.537362662121694
 31
0.0
  0
LINE
  5
29A
100
AcDbEntity
  8
0
  6
CONTINUOUS
 62
               7
100
AcDbLine
 10
226.20857972410528
 20
18.437362662121814
 30
0.0
 11
226.20857972410528
 21
79.03736266212178
 31
0.0
  0
LINE
  5
29B
100
AcDbEntity
  8
0
  6
CONTINUOUS
 62
               7
100
AcDbLine
 10
236.20857972410528
 20
18.437362662121814
 30
0.0
 11
236.20857972410528
 21
79.03736266212178
 31
0.0
  0
LINE
  5
29C
100
AcDbEntity
  8
0
  6
CENTER
 62
               2
100
AcDbLine
 10
231.20857972410528
 20
107.92791768147831
 30
0.0
 11
231.20857972410528
 21
-10.318018256834989
 31
0.0
  0
CIRCLE
  5
29D
100
AcDbEntity
  8
0
  6
CONTINUOUS
 62
               7
100
AcDbCircle
 10
231.20857972410528
 20
20.737362662121825
 30
0.0
 40
0.7500000000000001
  0
CIRCLE
  5
29E
100
AcDbEntity
  8
0
  6
CONTINUOUS
 62
               7
100
AcDbCircle
 10
231.20857972410528
 20
20.737362662121825
 30
0.0
 40
1.1000000000000001
  0
CIRCLE
  5
29F
100
AcDbEntity
  8
0
  6
CONTINUOUS
 62
               7
100
AcDbCircle
 10
231.20857972410528
 20
20.737362662121825
 30
0.0
 40
1.1500000000000001
  0
CIRCLE
  5
2A0
100
AcDbEntity
  8
0
  6
CONTINUOUS
 62
               7
100
AcDbCircle
 10
231.20857972410528
 20
20.737362662121825
 30
0.0
 40
1.3000000000000012
  0
LINE
  5
2A1
100
AcDbEntity
  8
0
  6
CENTER
 62
               2
100
AcDbLine
 10
229.50857972410535
 20
20.737362662121825
 30
0.0
 11
232.90857972410532
 21
20.737362662121825
 31
0.0
  0
ARC
  5
2A2
100
AcDbEntity
  8
0
  6
CONTINUOUS
 62
               7
100
AcDbCircle
 10
231.20857972410528
 20
22.437362662121814
 30
0.0
 40
3.6000000000000005
100
AcDbArc
 50
0.0
 51
179.99999999999963
  0
ARC
  5
2A3
100
AcDbEntity
  8
0
  6
CONTINUOUS
 62
               7
100
AcDbCircle
 10
231.20857972410528
 20
22.437362662121814
 30
0.0
 40
2.0
100
AcDbArc
 50
0.0
 51
179.99999999999963
  0
LINE
  5
2A4
100
AcDbEntity
  8
0
  6
CONTINUOUS
 62
               7
100
AcDbLine
 10
227.60857972410525
 20
22.437362662121814
 30
0.0
 11
227.60857972410525
 21
18.437362662121814
 31
0.0
  0
LINE
  5
2A5
100
AcDbEntity
  8
0
  6
CONTINUOUS
 62
               7
100
AcDbLine
 10
234.8085797241053
 20
22.437362662121814
 30
0.0
 11
234.8085797241053
 21
18.437362662121814
 31
0.0
  0
LINE
  5
2A6
100
AcDbEntity
  8
0
  6
CONTINUOUS
 62
               7
100
AcDbLine
 10
229.20857972410528
 20
22.437362662121814
 30
0.0
 11
229.20857972410528
 21
18.437362662121814
 31
0.0
  0
LINE
  5
2A7
100
AcDbEntity
  8
0
  6
CONTINUOUS
 62
               7
100
AcDbLine
 10
233.20857972410528
 20
22.437362662121814
 30
0.0
 11
233.20857972410528
 21
18.437362662121814
 31
0.0
  0
LINE
  5
2A8
100
AcDbEntity
  8
0
  6
CENTER
 62
               2
100
AcDbLine
 10
235.00857972410535
 20
59.087362662121734
 30
0.0
 11
235.00857972410535
 21
62.987362662121825
 31
0.0
  0
ARC
  5
2A9
100
AcDbEntity
  8
0
  6
CONTINUOUS
 62
               7
100
AcDbCircle
 10
235.00857972410535
 20
61.03736266212178
 30
0.0
 40
1.6000000000000003
100
AcDbArc
 50
89.999999999999815
 51
269.99999999999937
  0
LINE
  5
2AA
100
AcDbEntity
  8
0
  6
CONTINUOUS
 62
               7
100
AcDbLine
 10
235.00857972410535
 20
59.437362662121757
 30
0.0
 11
236.20857972410528
 21
59.437362662121757
 31
0.0
  0
LINE
  5
2AB
100
AcDbEntity
  8
0
  6
CONTINUOUS
 62
               7
100
AcDbLine
 10
235.00857972410535
 20
62.637362662121802
 30
0.0
 11
236.20857972410528
 21
62.637362662121802
 31
0.0
  0
CIRCLE
  5
2AC
100
AcDbEntity
  8
0
  6
CONTINUOUS
 62
               7
100
AcDbCircle
 10
235.00857972410535
 20
61.03736266212178
 30
0.0
 40
0.8500000000000002
  0
CIRCLE
  5
2AD
100
AcDbEntity
  8
0
  6
CONTINUOUS
 62
               7
100
AcDbCircle
 10
231.20857667234753
 20
57.637365713879547
 30
0.0
 40
2.1000000000000001
  0
CIRCLE
  5
2AE
100
AcDbEntity
  8
0
  6
CONTINUOUS
 62
               2
100
AcDbCircle
 10
231.20857667234753
 20
57.637365713879547
 30
0.0
 40
2.5
  0
LINE
  5
2AF
100
AcDbEntity
  8
0
  6
CENTER
 62
               2
100
AcDbLine
 10
234.02057972410529
 20
57.637362662121802
 30
0.0
 11
228.30057972410526
 21
57.637362662121802
 31
0.0
  0
LINE
  5
2B0
100
AcDbEntity
  8
0
  6
CENTER
 62
               2
100
AcDbLine
 10
233.0585797241053
 20
61.03736266212178
 30
0.0
 11
236.95857972410539
 21
61.03736266212178
 31
0.0
  0
ARC
  5
2B1
100
AcDbEntity
  8
0
  6
CONTINUOUS
 62
               7
100
AcDbCircle
 10
227.40857972410532
 20
44.437362662121757
 30
0.0
 40
1.6000000000000003
100
AcDbArc
 50
270.00000000000023
 51
89.999999999999801
  0
LINE
  5
2B2
100
AcDbEntity
  8
0
  6
CENTER
 62
               2
100
AcDbLine
 10
227.40857972410532
 20
42.487362662121768
 30
0.0
 11
227.40857972410532
 21
46.387362662121745
 31
0.0
  0
CIRCLE
  5
2B3
100
AcDbEntity
  8
0
  6
CONTINUOUS
 62
               7
100
AcDbCircle
 10
227.40857972410532
 20
44.437362662121757
 30
0.0
 40
0.8500000000000002
  0
LINE
  5
2B4
100
AcDbEntity
  8
0
  6
CONTINUOUS
 62
               7
100
AcDbLine
 10
227.40857972410532
 20
46.03736266212178
 30
0.0
 11
226.20857972410528
 21
46.03736266212178
 31
0.0
  0
LINE
  5
2B5
100
AcDbEntity
  8
0
  6
CONTINUOUS
 62
               7
100
AcDbLine
 10
227.40857972410532
 20
42.837362662121734
 30
0.0
 11
226.20857972410528
 21
42.837362662121734
 31
0.0
  0
LINE
  5
2B6
100
AcDbEntity
  8
0
  6
CENTER
 62
               2
100
AcDbLine
 10
225.68168711272591
 20
44.437362662121757
 30
0.0
 11
229.42509334106552
 21
44.437362662121757
 31
0.0
  0
CIRCLE
  5
2B7
100
AcDbEntity
  8
0
  6
CONTINUOUS
 62
               7
100
AcDbCircle
 10
231.20857667234753
 20
47.837365713879592
 30
0.0
 40
2.1000000000000001
  0
CIRCLE
  5
2B8
100
AcDbEntity
  8
0
  6
CONTINUOUS
 62
               2
100
AcDbCircle
 10
231.20857667234753
 20
47.837365713879592
 30
0.0
 40
2.5
  0
LINE
  5
2B9
100
AcDbEntity
  8
0
  6
CENTER
 62
               2
100
AcDbLine
 10
234.10057972410533
 20
47.837362662121791
 30
0.0
 11
228.3805797241053
 21
47.837362662121791
 31
0.0
  0
LINE
  5
2BA
100
AcDbEntity
  8
0
  6
CONTINUOUS
 62
               7
100
AcDbLine
 10
229.20857972410528
 20
75.03736266212178
 30
0.0
 11
229.20857972410528
 21
79.03736266212178
 31
0.0
  0
LINE
  5
2BB
100
AcDbEntity
  8
0
  6
CONTINUOUS
 62
               7
100
AcDbLine
 10
233.20857972410528
 20
75.03736266212178
 30
0.0
 11
233.20857972410528
 21
79.03736266212178
 31
0.0
  0
LINE
  5
2BC
100
AcDbEntity
  8
0
  6
CONTINUOUS
 62
               7
100
AcDbLine
 10
227.60857972410525
 20
75.03736266212178
 30
0.0
 11
227.60857972410525
 21
79.03736266212178
 31
0.0
  0
LINE
  5
2BD
100
AcDbEntity
  8
0
  6
CONTINUOUS
 62
               7
100
AcDbLine
 10
234.8085797241053
 20
75.03736266212178
 30
0.0
 11
234.8085797241053
 21
79.03736266212178
 31
0.0
  0
ARC
  5
2BE
100
AcDbEntity
  8
0
  6
CONTINUOUS
 62
               7
100
AcDbCircle
 10
231.20857972410528
 20
75.03736266212178
 30
0.0
 40
2.0
100
AcDbArc
 50
179.99999999999963
 51
0.0
  0
ARC
  5
2BF
100
AcDbEntity
  8
0
  6
CONTINUOUS
 62
               7
100
AcDbCircle
 10
231.20857972410528
 20
75.03736266212178
 30
0.0
 40
3.6000000000000005
100
AcDbArc
 50
179.99999999999963
 51
0.0
  0
LINE
  5
2C0
100
AcDbEntity
  8
0
  6
CENTER
 62
               2
100
AcDbLine
 10
232.90857972410532
 20
76.737362662121768
 30
0.0
 11
229.50857972410535
 21
76.737362662121768
 31
0.0
  0
CIRCLE
  5
2C1
100
AcDbEntity
  8
0
  6
CONTINUOUS
 62
               7
100
AcDbCircle
 10
231.20857972410528
 20
76.737362662121768
 30
0.0
 40
1.3000000000000012
  0
CIRCLE
  5
2C2
100
AcDbEntity
  8
0
  6
CONTINUOUS
 62
               7
100
AcDbCircle
 10
231.20857972410528
 20
76.737362662121768
 30
0.0
 40
1.1500000000000001
  0
LINE
  5
2C3
100
AcDbEntity
  8
0
  6
CONTINUOUS
 62
               7
100
AcDbLine
 10
226.20857972410528
 20
65.837362662121791
 30
0.0
 11
236.20857972410528
 21
65.837362662121791
 31
0.0
  0
CIRCLE
  5
2C4
100
AcDbEntity
  8
0
  6
CONTINUOUS
 62
               7
100
AcDbCircle
 10
231.20857972410528
 20
76.737362662121768
 30
0.0
 40
1.1000000000000001
  0
CIRCLE
  5
2C5
100
AcDbEntity
  8
0
  6
CONTINUOUS
 62
               7
100
AcDbCircle
 10
231.20857972410528
 20
76.737362662121768
 30
0.0
 40
0.7500000000000001
  0
LINE
  5
2C6
100
AcDbEntity
  8
0
  6
CONTINUOUS
 62
               7
100
AcDbLine
 10
226.20857972410528
 20
39.637362662121859
 30
0.0
 11
236.20857972410528
 21
39.637362662121859
 31
0.0
  0
LINE
  5
2C7
100
AcDbEntity
  8
0
  6
CONTINUOUS
 62
               7
100
AcDbLine
 10
226.20857972410528
 20
31.637362662121859
 30
0.0
 11
236.20857972410528
 21
31.637362662121859
 31
0.0
  0
LINE
  5
2C8
100
AcDbEntity
  8
0
  6
CONTINUOUS
 62
               4
100
AcDbLine
 10
232.20857972410528
 20
117.53029193305517
 30
0.0
 11
232.70857972410528
 21
117.53029193305517
 31
0.0
  0
LINE
  5
2C9
100
AcDbEntity
  8
0
  6
CONTINUOUS
 62
               4
100
AcDbLine
 10
229.70857972410528
 20
117.53029193305517
 30
0.0
 11
230.20857972410528
 21
117.53029193305517
 31
0.0
  0
LINE
  5
2CA
100
AcDbEntity
  8
0
  6
CONTINUOUS
 62
               4
100
AcDbLine
 10
233.10857972410525
 20
114.03029193505515
 30
0.0
 11
233.10857972410525
 21
110.53736266212167
 31
0.0
  0
LINE
  5
2CB
100
AcDbEntity
  8
0
  6
CONTINUOUS
 62
               4
100
AcDbLine
 10
231.80857972410519
 20
114.03029193505515
 30
0.0
 11
231.80857972410519
 21
110.88736266212169
 31
0.0
  0
LINE
  5
2CC
100
AcDbEntity
  8
0
  6
CONTINUOUS
 62
               4
100
AcDbLine
 10
230.20857972410528
 20
117.53029193305517
 30
0.0
 11
230.20857972410528
 21
114.03029193505515
 31
0.0
  0
LINE
  5
2CD
100
AcDbEntity
  8
0
  6
CONTINUOUS
 62
               4
100
AcDbLine
 10
229.70857972410528
 20
117.53029193305517
 30
0.0
 11
229.70857972410528
 21
114.03029193505515
 31
0.0
  0
LINE
  5
2CE
100
AcDbEntity
  8
0
  6
CONTINUOUS
 62
               4
100
AcDbLine
 10
230.60857972410525
 20
114.03029193505515
 30
0.0
 11
230.60857972410525
 21
111.20736266212168
 31
0.0
  0
LINE
  5
2CF
100
AcDbEntity
  8
0
  6
CONTINUOUS
 62
               4
100
AcDbLine
 10
229.30857972410519
 20
114.03029193505515
 30
0.0
 11
229.30857972410519
 21
111.55736266212168
 31
0.0
  0
LINE
  5
2D0
100
AcDbEntity
  8
0
  6
CONTINUOUS
 62
               4
100
AcDbLine
 10
232.70857972410528
 20
117.53029193305517
 30
0.0
 11
232.70857972410528
 21
114.03029193505515
 31
0.0
  0
LINE
  5
2D1
100
AcDbEntity
  8
0
  6
CONTINUOUS
 62
               4
100
AcDbLine
 10
232.20857972410528
 20
117.53029193305517
 30
0.0
 11
232.20857972410528
 21
114.03029193505515
 31
0.0
  0
LINE
  5
2D2
100
AcDbEntity
  8
0
  6
CONTINUOUS
 62
               4
100
AcDbLine
 10
229.30857972410519
 20
114.03029193505515
 30
0.0
 11
230.60857972410525
 21
114.03029193505515
 31
0.0
  0
LINE
  5
2D3
100
AcDbEntity
  8
0
  6
CONTINUOUS
 62
             200
100
AcDbLine
 10
227.45857972410528
 20
112.05736266212168
 30
0.0
 11
234.95857972410528
 21
110.04736266212169
 31
0.0
  0
LINE
  5
2D4
100
AcDbEntity
  8
0
  6
CONTINUOUS
 62
               4
100
AcDbLine
 10
231.80857972410519
 20
114.03029193505515
 30
0.0
 11
233.10857972410525
 21
114.03029193505515
 31
0.0
  0
LINE
  5
2D5
100
AcDbEntity
  8
0
  6
CONTINUOUS
 62
               4
100
AcDbLine
 10
-239.46750350823646
 20
-4.0626373378781864
 30
0.0
 11
-229.46750350823646
 21
-4.0626373378781864
 31
0.0
  0
LINE
  5
2D6
100
AcDbEntity
  8
0
  6
CONTINUOUS
 62
               4
100
AcDbLine
 10
-239.46750350823646
 20
-2.4626373378782205
 30
0.0
 11
-236.26750350823642
 21
-2.4626373378782205
 31
0.0
  0
LINE
  5
2D7
100
AcDbEntity
  8
0
  6
CONTINUOUS
 62
               4
100
AcDbLine
 10
-236.26750350823642
 20
-3.9626373378782205
 30
0.0
 11
-229.96750350823646
 21
-3.9626373378782205
 31
0.0
  0
LINE
  5
2D8
100
AcDbEntity
  8
0
  6
CONTINUOUS
 62
               4
100
AcDbLine
 10
-236.26750350823642
 20
-3.9626373378782205
 30
0.0
 11
-236.26750350823642
 21
-2.4626373378782205
 31
0.0
  0
ARC
  5
2D9
100
AcDbEntity
  8
0
  6
CONTINUOUS
 62
               4
100
AcDbCircle
 10
-229.96750350823646
 20
-3.4626373378781636
 30
0.0
 40
0.5
100
AcDbArc
 50
269.99999999999937
 51
0.0
  0
LINE
  5
2DA
100
AcDbEntity
  8
0
  6
CONTINUOUS
 62
               4
100
AcDbLine
 10
-239.46750350823646
 20
-3.4626373378781636
 30
0.0
 11
-236.26750350823647
 21
-3.4626373378781636
 31
0.0
  0
ARC
  5
2DB
100
AcDbEntity
  8
0
  6
CONTINUOUS
 62
               4
100
AcDbCircle
 10
-238.67159865489469
 20
-3.4627324845363319
 30
0.0
 40
0.5999048608870732
100
AcDbArc
 50
179.99091272245337
 51
270.00908727754575
  0
ARC
  5
2DC
100
AcDbEntity
  8
0
  6
CONTINUOUS
 62
               4
100
AcDbCircle
 10
-236.87041550299944
 20
-3.463725343115243
 30
0.0
 40
0.5989129830170392
100
AcDbArc
 50
269.89591452477231
 51
0.1040854752270701
  0
LINE
  5
2DD
100
AcDbEntity
  8
0
  6
CONTINUOUS
 62
               4
100
AcDbLine
 10
-239.46750350823646
 20
-4.0626373378781864
 30
0.0
 11
-239.46750350823646
 21
18.437362662121757
 31
0.0
  0
LINE
  5
2DE
100
AcDbEntity
  8
0
  6
CONTINUOUS
 62
               4
100
AcDbLine
 10
-229.46750350823646
 20
-4.0626373378781864
 30
0.0
 11
-229.46750350823646
 21
18.437362662121757
 31
0.0
  0
LINE
  5
2DF
100
AcDbEntity
  8
0
  6
CONTINUOUS
 62
               4
100
AcDbLine
 10
-239.46750350823646
 20
79.03736266212178
 30
0.0
 11
-229.46750350823646
 21
79.03736266212178
 31
0.0
  0
LINE
  5
2E0
100
AcDbEntity
  8
0
  6
CONTINUOUS
 62
               7
100
AcDbLine
 10
-229.46750350823646
 20
18.437362662121757
 30
0.0
 11
-229.46750350823646
 21
79.03736266212178
 31
0.0
  0
LINE
  5
2E1
100
AcDbEntity
  8
0
  6
CONTINUOUS
 62
               7
100
AcDbLine
 10
-229.46750350823646
 20
65.837362662121791
 30
0.0
 11
-239.46750350823646
 21
65.837362662121791
 31
0.0
  0
LINE
  5
2E2
100
AcDbEntity
  8
0
  6
CENTER
 62
               2
100
AcDbLine
 10
-236.46750350823646
 20
73.737362662121768
 30
0.0
 11
-232.46750350823646
 21
73.737362662121768
 31
0.0
  0
CIRCLE
  5
2E3
100
AcDbEntity
  8
0
  6
CONTINUOUS
 62
               7
100
AcDbCircle
 10
-234.46750350823646
 20
73.737362662121768
 30
0.0
 40
0.75
  0
LINE
  5
2E4
100
AcDbEntity
  8
0
  6
CONTINUOUS
 62
               4
100
AcDbLine
 10
-239.46750350823646
 20
18.437362662121757
 30
0.0
 11
-229.46750350823646
 21
18.437362662121757
 31
0.0
  0
LINE
  5
2E5
100
AcDbEntity
  8
0
  6
CONTINUOUS
 62
               7
100
AcDbLine
 10
-239.46750350823646
 20
18.437362662121757
 30
0.0
 11
-239.46750350823646
 21
79.03736266212178
 31
0.0
  0
LINE
  5
2E6
100
AcDbEntity
  8
0
  6
CONTINUOUS
 62
               7
100
AcDbLine
 10
-229.46750350823646
 20
39.637362662121745
 30
0.0
 11
-239.46750350823646
 21
39.637362662121745
 31
0.0
  0
LINE
  5
2E7
100
AcDbEntity
  8
0
  6
CENTER
 62
               2
100
AcDbLine
 10
-236.46750350823646
 20
23.737362662121768
 30
0.0
 11
-232.46750350823646
 21
23.737362662121768
 31
0.0
  0
CIRCLE
  5
2E8
100
AcDbEntity
  8
0
  6
CONTINUOUS
 62
               7
100
AcDbCircle
 10
-234.46750350823646
 20
23.737362662121768
 30
0.0
 40
0.75
  0
LINE
  5
2E9
100
AcDbEntity
  8
0
  6
CENTER
 62
               2
100
AcDbLine
 10
-234.46750350823646
 20
102.23536266212176
 30
0.0
 11
-234.46750350823646
 21
-4.7606373378782223
 31
0.0
  0
CIRCLE
  5
2EA
100
AcDbEntity
  8
0
  6
CONTINUOUS
 62
               2
100
AcDbCircle
 10
-234.46750350823646
 20
52.737362662121768
 30
0.0
 40
2.5
  0
CIRCLE
  5
2EB
100
AcDbEntity
  8
0
  6
CONTINUOUS
 62
               7
100
AcDbCircle
 10
-234.46750350823646
 20
52.737362662121768
 30
0.0
 40
2.1000000000000001
  0
LINE
  5
2EC
100
AcDbEntity
  8
0
  6
CENTER
 62
               2
100
AcDbLine
 10
-232.76750350823647
 20
61.137362662121745
 30
0.0
 11
-236.16750350823651
 21
61.137362662121745
 31
0.0
  0
CIRCLE
  5
2ED
100
AcDbEntity
  8
0
  6
CONTINUOUS
 62
               2
100
AcDbCircle
 10
-234.46835201897869
 20
61.130238194481194
 30
0.0
 40
1.5
  0
CIRCLE
  5
2EE
100
AcDbEntity
  8
0
  6
CONTINUOUS
 62
               7
100
AcDbCircle
 10
-234.46750350823646
 20
61.137362662121745
 30
0.0
 40
1.25
  0
CIRCLE
  5
2EF
100
AcDbEntity
  8
0
  6
CONTINUOUS
 62
               2
100
AcDbCircle
 10
-234.46750350823646
 20
44.337362662121791
 30
0.0
 40
1.5
  0
CIRCLE
  5
2F0
100
AcDbEntity
  8
0
  6
CONTINUOUS
 62
               7
100
AcDbCircle
 10
-234.46750350823646
 20
44.337362662121791
 30
0.0
 40
1.25
  0
LINE
  5
2F1
100
AcDbEntity
  8
0
  6
CENTER
 62
               2
100
AcDbLine
 10
-232.76750350823647
 20
44.337362662121791
 30
0.0
 11
-236.48049052122349
 21
44.337362662121791
 31
0.0
  0
CIRCLE
  5
2F2
100
AcDbEntity
  8
0
  6
CONTINUOUS
 62
               7
100
AcDbCircle
 10
-238.26835201897865
 20
61.038335928723313
 30
0.0
 40
0.9
  0
LINE
  5
2F3
100
AcDbEntity
  8
0
  6
CENTER
 62
               2
100
AcDbLine
 10
-238.26750350823647
 20
59.887362662121745
 30
0.0
 11
-238.26750350823647
 21
62.1873626621217
 31
0.0
  0
LINE
  5
2F4
100
AcDbEntity
  8
0
  6
CENTER
 62
               2
100
AcDbLine
 10
-237.1175035082365
 20
61.037362662121723
 30
0.0
 11
-239.41750350823651
 21
61.037362662121723
 31
0.0
  0
LINE
  5
2F5
100
AcDbEntity
  8
0
  6
CENTER
 62
               2
100
AcDbLine
 10
-229.51750350823647
 20
44.437362662121757
 30
0.0
 11
-231.81750350823648
 21
44.437362662121757
 31
0.0
  0
CIRCLE
  5
2F6
100
AcDbEntity
  8
0
  6
CONTINUOUS
 62
               7
100
AcDbCircle
 10
-230.66835201897868
 20
44.438335928723347
 30
0.0
 40
0.9
  0
LINE
  5
2F7
100
AcDbEntity
  8
0
  6
CENTER
 62
               2
100
AcDbLine
 10
-230.66750350823651
 20
43.28736266212178
 30
0.0
 11
-230.66750350823651
 21
45.587362662121791
 31
0.0
  0
LINE
  5
2F8
100
AcDbEntity
  8
0
  6
CENTER
 62
               2
100
AcDbLine
 10
-231.29299220710379
 20
52.737362662121768
 30
0.0
 11
-237.59157431882392
 21
52.737362662121768
 31
0.0
  0
LINE
  5
2F9
100
AcDbEntity
  8
0
  6
CONTINUOUS
 62
               7
100
AcDbLine
 10
-229.46750350823646
 20
31.637362662121745
 30
0.0
 11
-239.46750350823646
 21
31.637362662121745
 31
0.0
  0
LINE
  5
2FA
100
AcDbEntity
  8
0
  6
CONTINUOUS
 62
               4
100
AcDbLine
 10
-229.46750350823646
 20
101.53736266212172
 30
0.0
 11
-229.46750350823646
 21
79.03736266212178
 31
0.0
  0
LINE
  5
2FB
100
AcDbEntity
  8
0
  6
CONTINUOUS
 62
               4
100
AcDbLine
 10
-239.46750350823646
 20
101.53736266212172
 30
0.0
 11
-239.46750350823646
 21
79.03736266212178
 31
0.0
  0
ARC
  5
2FC
100
AcDbEntity
  8
0
  6
CONTINUOUS
 62
               4
100
AcDbCircle
 10
-232.06459151347349
 20
100.93845066735875
 30
0.0
 40
0.5989129830170392
100
AcDbArc
 50
89.895914524772735
 51
180.10408547522667
  0
ARC
  5
2FD
100
AcDbEntity
  8
0
  6
CONTINUOUS
 62
               4
100
AcDbCircle
 10
-230.26340836157823
 20
100.9374578087799
 30
0.0
 40
0.5999048608870732
100
AcDbArc
 50
359.99091272245295
 51
90.009087277546172
  0
LINE
  5
2FE
100
AcDbEntity
  8
0
  6
CONTINUOUS
 62
               4
100
AcDbLine
 10
-229.46750350823646
 20
100.93736266212173
 30
0.0
 11
-232.66750350823645
 21
100.93736266212173
 31
0.0
  0
ARC
  5
2FF
100
AcDbEntity
  8
0
  6
CONTINUOUS
 62
               4
100
AcDbCircle
 10
-238.96750350823646
 20
100.93736266212173
 30
0.0
 40
0.5
100
AcDbArc
 50
89.999999999999815
 51
179.99999999999963
  0
LINE
  5
300
100
AcDbEntity
  8
0
  6
CONTINUOUS
 62
               4
100
AcDbLine
 10
-232.66750350823651
 20
101.43736266212176
 30
0.0
 11
-232.66750350823651
 21
99.937362662121757
 31
0.0
  0
LINE
  5
301
100
AcDbEntity
  8
0
  6
CONTINUOUS
 62
               4
100
AcDbLine
 10
-232.66750350823651
 20
101.43736266212176
 30
0.0
 11
-238.96750350823646
 21
101.43736266212176
 31
0.0
  0
LINE
  5
302
100
AcDbEntity
  8
0
  6
CONTINUOUS
 62
               4
100
AcDbLine
 10
-229.46750350823646
 20
99.937362662121757
 30
0.0
 11
-232.66750350823651
 21
99.937362662121757
 31
0.0
  0
LINE
  5
303
100
AcDbEntity
  8
0
  6
CONTINUOUS
 62
               4
100
AcDbLine
 10
-229.46750350823646
 20
101.53736266212172
 30
0.0
 11
-239.46750350823646
 21
101.53736266212172
 31
0.0
  0
LINE
  5
304
100
AcDbEntity
  8
0
  6
CENTER
 62
               2
100
AcDbLine
 10
-157.07432671915592
 20
44.437362662121757
 30
0.0
 11
-152.07432671915592
 21
44.437362662121757
 31
0.0
  0
LINE
  5
305
100
AcDbEntity
  8
0
  6
CENTER
 62
               2
100
AcDbLine
 10
-157.07432671915592
 20
61.03736266212178
 30
0.0
 11
-152.07432671915592
 21
61.03736266212178
 31
0.0
  0
LINE
  5
306
100
AcDbEntity
  8
0
  6
CONTINUOUS
 62
               4
100
AcDbLine
 10
-154.57432671915586
 20
18.437362662121814
 30
0.0
 11
-137.68947824395588
 21
18.437362662121814
 31
0.0
  0
ARC
  5
307
100
AcDbEntity
  8
0
  6
CONTINUOUS
 62
               4
100
AcDbCircle
 10
-137.68947824395588
 20
17.937362662121984
 30
0.0
 40
0.5
100
AcDbArc
 50
64.979216838932658
 51
89.999999999999602
  0
ARC
  5
308
100
AcDbEntity
  8
0
  6
CONTINUOUS
 62
               4
100
AcDbCircle
 10
-133.07706935759899
 20
15.784840201582824
 30
0.0
 40
0.4997133381008656
100
AcDbArc
 50
0.1154955796437407
 51
65.173784690191113
  0
LINE
  5
309
100
AcDbEntity
  8
0
  6
CONTINUOUS
 62
               4
100
AcDbLine
 10
-132.86571710882771
 20
16.237657656210217
 30
0.0
 11
-137.47800475239922
 21
18.390439876698963
 31
0.0
  0
LINE
  5
30A
100
AcDbEntity
  8
0
  6
CONTINUOUS
 62
               4
100
AcDbLine
 10
-117.07836714462218
 20
0.7818071166556706
 30
0.0
 11
-120.41574088008878
 21
0.7818071166556138
 31
0.0
  0
LINE
  5
30B
100
AcDbEntity
  8
0
  6
CONTINUOUS
 62
               4
100
AcDbLine
 10
-117.07836714462229
 20
2.0828172169223649
 30
0.0
 11
-119.66157659616681
 21
2.082817216922308
 31
0.0
  0
ARC
  5
30C
100
AcDbEntity
  8
0
  6
CONTINUOUS
 62
               4
100
AcDbCircle
 10
-153.77442177980407
 20
-3.4627324845269527
 30
0.0
 40
0.599904800896587
100
AcDbArc
 50
236.24741787039483
 51
270.00908727754711
  0
ARC
  5
30D
100
AcDbEntity
  8
0
  6
CONTINUOUS
 62
               4
100
AcDbCircle
 10
-141.37323880802711
 20
-3.4637253430062742
 30
0.0
 40
0.598912923125741
100
AcDbArc
 50
269.89591452477362
 51
0.1040854752283423
  0
LINE
  5
30E
100
AcDbEntity
  8
0
  6
CONTINUOUS
 62
               4
100
AcDbLine
 10
-144.27432690819097
 20
-3.4626373378780499
 30
0.0
 11
-140.57432672715544
 21
-3.4626373378779931
 31
0.0
  0
ARC
  5
30F
100
AcDbEntity
  8
0
  6
CONTINUOUS
 62
               4
100
AcDbCircle
 10
-141.07432672715532
 20
-3.4626373378779931
 30
0.0
 40
0.5
100
AcDbArc
 50
273.91958589965162
 51
0.0000000000012213
  0
LINE
  5
310
100
AcDbEntity
  8
0
  6
CONTINUOUS
 62
               4
100
AcDbLine
 10
-153.77432663315545
 20
-4.0626373378783001
 30
0.0
 11
-141.37432681315539
 21
-4.0626373378780158
 31
0.0
  0
ARC
  5
311
100
AcDbEntity
  8
0
  6
CONTINUOUS
 62
               4
100
AcDbCircle
 10
-154.07432671915541
 20
-3.4626373378782773
 30
0.0
 40
0.5
100
AcDbArc
 50
180.00000000000091
 51
270.00000000000074
  0
LINE
  5
312
100
AcDbEntity
  8
0
  6
CONTINUOUS
 62
               4
100
AcDbLine
 10
-154.07432671915541
 20
-3.9626373378783342
 30
0.0
 11
-152.57432672315548
 21
-3.9626373378782773
 31
0.0
  0
LINE
  5
313
100
AcDbEntity
  8
0
  6
CONTINUOUS
 62
               4
100
AcDbLine
 10
-152.57432672315548
 20
-4.0626373378782432
 30
0.0
 11
-152.57432672315548
 21
-2.4626373378781636
 31
0.0
  0
LINE
  5
314
100
AcDbEntity
  8
0
  6
CONTINUOUS
 62
               4
100
AcDbLine
 10
-152.57432672315548
 20
-2.4626373378781636
 30
0.0
 11
-140.57432672715544
 21
-2.4626373378779363
 31
0.0
  0
LINE
  5
315
100
AcDbEntity
  8
0
  6
CONTINUOUS
 62
             200
100
AcDbLine
 10
-120.90361966768882
 20
-0.0666777313444413
 30
0.0
 11
-119.17129643635548
 21
2.9313020649223063
 31
0.0
  0
ARC
  5
316
100
AcDbEntity
  8
0
  6
CONTINUOUS
 62
               4
100
AcDbCircle
 10
-132.17349268780123
 20
-0.5695319772322591
 30
0.0
 40
0.403865208170398
100
AcDbArc
 50
90.118324735514292
 51
179.88167526448541
  0
ARC
  5
317
100
AcDbEntity
  8
0
  6
CONTINUOUS
 62
               4
100
AcDbCircle
 10
-132.17443080077652
 20
-0.5679645694824558
 30
0.0
 40
0.4029269013737999
100
AcDbArc
 50
180.10428358574953
 51
259.90822844260407
  0
ARC
  5
318
100
AcDbEntity
  8
0
  6
CONTINUOUS
 62
               4
100
AcDbCircle
 10
-133.57441421301843
 20
-0.6676716629705766
 30
0.0
 40
0.4950149226876426
100
AcDbArc
 50
269.19169587542149
 51
306.8768752588353
  0
ARC
  5
319
100
AcDbEntity
  8
0
  6
CONTINUOUS
 62
               4
100
AcDbCircle
 10
-140.27489543543817
 20
-1.8672214672967584
 30
0.0
 40
0.2994663800970315
100
AcDbArc
 50
179.12289923249421
 51
269.5290269715357
  0
ARC
  5
31A
100
AcDbEntity
  8
0
  6
CONTINUOUS
 62
               4
100
AcDbCircle
 10
-133.07399388623429
 20
-0.5670105762659432
 30
0.0
 40
0.4966660273328702
100
AcDbArc
 50
269.37896036356642
 51
0.621039636437107
  0
LINE
  5
31B
100
AcDbEntity
  8
0
  6
CONTINUOUS
 62
               4
100
AcDbLine
 10
-125.57735703875557
 20
3.9353424683889102
 30
0.0
 11
-124.58038734235555
 21
3.9353424683889102
 31
0.0
  0
LINE
  5
31C
100
AcDbEntity
  8
0
  6
CONTINUOUS
 62
               4
100
AcDbLine
 10
-132.57735703475561
 20
3.9353424683887397
 30
0.0
 11
-130.57634693488893
 21
3.9353424683888534
 31
0.0
  0
LINE
  5
31D
100
AcDbEntity
  8
0
  6
CONTINUOUS
 62
               4
100
AcDbLine
 10
-124.58038734235555
 20
2.3373626713221256
 30
0.0
 11
-132.57735703475549
 21
2.3373626713220119
 31
0.0
  0
LINE
  5
31E
100
AcDbEntity
  8
0
  6
CONTINUOUS
 62
               4
100
AcDbLine
 10
-124.58038734235555
 20
0.5343323693221578
 30
0.0
 11
-132.57735703475549
 21
0.5343323693219872
 31
0.0
  0
LINE
  5
31F
100
AcDbEntity
  8
0
  6
CONTINUOUS
 62
               4
100
AcDbLine
 10
-124.58038734235566
 20
-0.1656676302778237
 30
0.0
 11
-132.17432673195555
 21
-0.1656676302779374
 31
0.0
  0
LINE
  5
320
100
AcDbEntity
  8
0
  6
CONTINUOUS
 62
               4
100
AcDbLine
 10
-124.87735703915558
 20
-0.4626373270778004
 30
0.0
 11
-130.78139743982234
 21
-0.4626373270779141
 31
0.0
  0
LINE
  5
321
100
AcDbEntity
  8
0
  6
CONTINUOUS
 62
               4
100
AcDbLine
 10
-124.58038734235555
 20
-2.0676878312111171
 30
0.0
 11
-125.98745804862227
 21
-2.0676878312111739
 31
0.0
  0
LINE
  5
322
100
AcDbEntity
  8
0
  6
CONTINUOUS
 62
               4
100
AcDbLine
 10
-124.58038734235555
 20
-3.0646575276111889
 30
0.0
 11
-126.0793772404889
 21
-3.0646575276111889
 31
0.0
  0
LINE
  5
323
100
AcDbEntity
  8
0
  6
CONTINUOUS
 62
               4
100
AcDbLine
 10
-120.76220552635556
 20
0.7818071166556138
 30
0.0
 11
-124.58038734235555
 21
0.7818071166555001
 31
0.0
  0
LINE
  5
324
100
AcDbEntity
  8
0
  6
CONTINUOUS
 62
             200
100
AcDbLine
 10
-121.25008431395548
 20
-0.0666777313443845
 30
0.0
 11
-119.51776108262226
 21
2.9383727719888952
 31
0.0
  0
LINE
  5
325
100
AcDbEntity
  8
0
  6
CONTINUOUS
 62
               4
100
AcDbLine
 10
-120.01096369671944
 20
2.082817216922308
 30
0.0
 11
-124.58038734235555
 21
2.0828172169222512
 31
0.0
  0
LINE
  5
326
100
AcDbEntity
  8
0
  6
CONTINUOUS
 62
               4
100
AcDbLine
 10
-139.28038733395562
 20
-1.0636474277447405
 30
0.0
 11
-139.28038733395562
 21
-1.1626373266780092
 31
0.0
  0
LINE
  5
327
100
AcDbEntity
  8
0
  6
CONTINUOUS
 62
               4
100
AcDbLine
 10
-131.18442774262218
 20
-2.16667773014467
 30
0.0
 11
-140.27735703035563
 21
-2.1666777301447837
 31
0.0
  0
LINE
  5
328
100
AcDbEntity
  8
0
  6
CONTINUOUS
 62
               4
100
AcDbLine
 10
-131.07836713662226
 20
-0.1656676302779374
 30
0.0
 11
-130.78139743982234
 21
-0.4626373270779141
 31
0.0
  0
LINE
  5
329
100
AcDbEntity
  8
0
  6
CONTINUOUS
 62
               4
100
AcDbLine
 10
-130.57634693488893
 20
3.9353424683888534
 30
0.0
 11
-130.57634693488893
 21
3.3343323677220269
 31
0.0
  0
LINE
  5
32A
100
AcDbEntity
  8
0
  6
CONTINUOUS
 62
               4
100
AcDbLine
 10
-125.57735703875557
 20
3.3343323677221974
 30
0.0
 11
-130.57634693488893
 21
3.3343323677220269
 31
0.0
  0
LINE
  5
32B
100
AcDbEntity
  8
0
  6
CONTINUOUS
 62
               4
100
AcDbLine
 10
-125.57735703875557
 20
3.9353424683889102
 30
0.0
 11
-125.57735703875557
 21
3.3343323677221974
 31
0.0
  0
LINE
  5
32C
100
AcDbEntity
  8
0
  6
CONTINUOUS
 62
               4
100
AcDbLine
 10
-124.58038734235566
 20
-0.1656676302778237
 30
0.0
 11
-124.87735703915558
 21
-0.4626373270778004
 31
0.0
  0
LINE
  5
32D
100
AcDbEntity
  8
0
  6
CONTINUOUS
 62
               4
100
AcDbLine
 10
-133.58139743822227
 20
-1.1626373266779524
 30
0.0
 11
-139.28038733395562
 21
-1.1626373266780092
 31
0.0
  0
LINE
  5
32E
100
AcDbEntity
  8
0
  6
CONTINUOUS
 62
               4
100
AcDbLine
 10
-132.24503380262223
 20
-0.9646575288112445
 30
0.0
 11
-125.9026095638223
 21
-2.0818292453444656
 31
0.0
  0
LINE
  5
32F
100
AcDbEntity
  8
0
  6
CONTINUOUS
 62
               4
100
AcDbLine
 10
-124.58038734235555
 20
-2.0676878312111171
 30
0.0
 11
-124.58038734235555
 21
-3.0646575276111889
 31
0.0
  0
LINE
  5
330
100
AcDbEntity
  8
0
  6
CONTINUOUS
 62
               4
100
AcDbLine
 10
-131.18442774262218
 20
-2.16667773014467
 30
0.0
 11
-126.0793772404889
 21
-3.0646575276111889
 31
0.0
  0
LINE
  5
331
100
AcDbEntity
  8
0
  6
CONTINUOUS
 62
               4
100
AcDbLine
 10
-124.58038734235555
 20
3.9353424683889102
 30
0.0
 11
-124.58038734235566
 21
-0.1656676302778237
 31
0.0
  0
LINE
  5
332
100
AcDbEntity
  8
0
  6
CONTINUOUS
 62
               4
100
AcDbLine
 10
-140.57432672715566
 20
-1.0636474277447405
 30
0.0
 11
-133.07937723648894
 21
-1.0636474277446837
 31
0.0
  0
LINE
  5
333
100
AcDbEntity
  8
0
  6
CONTINUOUS
 62
               4
100
AcDbLine
 10
-117.07836714462229
 20
2.0828172169223649
 30
0.0
 11
-117.07836714462218
 21
0.7818071166556706
 31
0.0
  0
LINE
  5
334
100
AcDbEntity
  8
0
  6
CONTINUOUS
 62
               4
100
AcDbLine
 10
-144.27432690819097
 20
-3.4626373378779931
 30
0.0
 11
-144.27432690819097
 21
-4.0626373378780158
 31
0.0
  0
ARC
  5
335
100
AcDbEntity
  8
0
  6
CONTINUOUS
 62
               4
100
AcDbCircle
 10
-143.17541491342803
 20
-3.4637253431150157
 30
0.0
 40
0.5989129830170392
100
AcDbArc
 50
179.89591452477279
 51
270.10408547522673
  0
LINE
  5
336
100
AcDbEntity
  8
0
  6
CONTINUOUS
 62
               4
100
AcDbLine
 10
-132.57735703475561
 20
-0.5616272260112964
 30
0.0
 11
-132.57735703475572
 21
15.785847512121961
 31
0.0
  0
LINE
  5
337
100
AcDbEntity
  8
0
  6
CONTINUOUS
 62
               4
100
AcDbLine
 10
-137.68947824395588
 20
18.437362662121984
 30
0.0
 11
-137.68947824395565
 21
-1.0636474277447405
 31
0.0
  0
LINE
  5
338
100
AcDbEntity
  8
0
  6
CONTINUOUS
 62
               4
100
AcDbLine
 10
-154.57432671915586
 20
18.437362662121757
 30
0.0
 11
-154.57432671915552
 21
-3.4626373378782205
 31
0.0
  0
LINE
  5
339
100
AcDbEntity
  8
0
  6
CONTINUOUS
 62
               4
100
AcDbLine
 10
-140.57432672715555
 20
-3.4626373378780499
 30
0.0
 11
-140.57432672715589
 21
18.437362662121927
 31
0.0
  0
LINE
  5
33A
100
AcDbEntity
  8
0
  6
CONTINUOUS
 62
               4
100
AcDbLine
 10
-117.07836714462235
 20
1.6831295496015173
 30
0.0
 11
-113.57836714462218
 21
1.6831295496015173
 31
0.0
  0
LINE
  5
33B
100
AcDbEntity
  8
0
  6
CONTINUOUS
 62
               4
100
AcDbLine
 10
-117.07836714462235
 20
1.1831295496015173
 30
0.0
 11
-113.57836714462218
 21
1.1831295496015173
 31
0.0
  0
ARC
  5
33C
100
AcDbEntity
  8
0
  6
CONTINUOUS
 62
               4
100
AcDbCircle
 10
-137.68947824395593
 20
79.537362662121609
 30
0.0
 40
0.5
100
AcDbArc
 50
269.99999999999937
 51
295.02078316106633
  0
ARC
  5
33D
100
AcDbEntity
  8
0
  6
CONTINUOUS
 62
               4
100
AcDbCircle
 10
-133.07706935759904
 20
81.689885122660712
 30
0.0
 40
0.4997133381008656
100
AcDbArc
 50
294.82621530980788
 51
359.88450442035526
  0
LINE
  5
33E
100
AcDbEntity
  8
0
  6
CONTINUOUS
 62
               4
100
AcDbLine
 10
-132.86571710882777
 20
81.237067668033319
 30
0.0
 11
-137.47800475239927
 21
79.08428544754463
 31
0.0
  0
LINE
  5
33F
100
AcDbEntity
  8
0
  6
CONTINUOUS
 62
               4
100
AcDbLine
 10
-117.07836714462223
 20
96.692918207587866
 30
0.0
 11
-120.41333950787754
 21
96.692918207587923
 31
0.0
  0
LINE
  5
340
100
AcDbEntity
  8
0
  6
CONTINUOUS
 62
               4
100
AcDbLine
 10
-117.07836714462235
 20
95.391908107321171
 30
0.0
 11
-119.66157659616687
 21
95.391908107321228
 31
0.0
  0
ARC
  5
341
100
AcDbEntity
  8
0
  6
CONTINUOUS
 62
               4
100
AcDbCircle
 10
-141.3742316585076
 20
100.93745780877055
 30
0.0
 40
0.599904800896587
100
AcDbArc
 50
56.247417870394948
 51
90.009087277547238
  0
ARC
  5
342
100
AcDbEntity
  8
0
  6
CONTINUOUS
 62
               4
100
AcDbCircle
 10
-153.77541463028456
 20
100.93845066724992
 30
0.0
 40
0.598912923125741
100
AcDbArc
 50
89.895914524773801
 51
180.10408547522775
  0
LINE
  5
343
100
AcDbEntity
  8
0
  6
CONTINUOUS
 62
               4
100
AcDbLine
 10
-150.8743265301207
 20
100.9373626621217
 30
0.0
 11
-154.57432671115623
 21
100.93736266212164
 31
0.0
  0
ARC
  5
344
100
AcDbEntity
  8
0
  6
CONTINUOUS
 62
               4
100
AcDbCircle
 10
-154.07432671115635
 20
100.93736266212164
 30
0.0
 40
0.5
100
AcDbArc
 50
93.919585899651864
 51
180.00000000000065
  0
LINE
  5
345
100
AcDbEntity
  8
0
  6
CONTINUOUS
 62
               4
100
AcDbLine
 10
-141.37432680515622
 20
101.53736266212189
 30
0.0
 11
-153.77432662515628
 21
101.53736266212167
 31
0.0
  0
ARC
  5
346
100
AcDbEntity
  8
0
  6
CONTINUOUS
 62
               4
100
AcDbCircle
 10
-141.07432671915626
 20
100.93736266212187
 30
0.0
 40
0.5
100
AcDbArc
 50
0.0000000000010687
 51
90.000000000000867
  0
LINE
  5
347
100
AcDbEntity
  8
0
  6
CONTINUOUS
 62
               4
100
AcDbLine
 10
-141.07432671915626
 20
101.43736266212193
 30
0.0
 11
-142.57432671515619
 21
101.43736266212187
 31
0.0
  0
LINE
  5
348
100
AcDbEntity
  8
0
  6
CONTINUOUS
 62
               4
100
AcDbLine
 10
-142.57432671515619
 20
101.53736266212186
 30
0.0
 11
-142.57432671515619
 21
99.937362662121814
 31
0.0
  0
LINE
  5
349
100
AcDbEntity
  8
0
  6
CONTINUOUS
 62
               4
100
AcDbLine
 10
-142.57432671515619
 20
99.937362662121814
 30
0.0
 11
-154.57432671115623
 21
99.937362662121586
 31
0.0
  0
LINE
  5
34A
100
AcDbEntity
  8
0
  6
CONTINUOUS
 62
             200
100
AcDbLine
 10
-120.90361966768887
 20
97.541403055587978
 30
0.0
 11
-119.17129643635553
 21
94.54342325932123
 31
0.0
  0
ARC
  5
34B
100
AcDbEntity
  8
0
  6
CONTINUOUS
 62
               4
100
AcDbCircle
 10
-132.17349268780117
 20
98.044257301475852
 30
0.0
 40
0.403865208170398
100
AcDbArc
 50
180.1183247355136
 51
269.88167526448467
  0
ARC
  5
34C
100
AcDbEntity
  8
0
  6
CONTINUOUS
 62
               4
100
AcDbCircle
 10
-132.17443080077646
 20
98.042689893725992
 30
0.0
 40
0.4029269013737999
100
AcDbArc
 50
100.09177155739488
 51
179.89571641424939
  0
ARC
  5
34D
100
AcDbEntity
  8
0
  6
CONTINUOUS
 62
               4
100
AcDbCircle
 10
-133.57441421301837
 20
98.14239698721417
 30
0.0
 40
0.4950149226876426
100
AcDbArc
 50
53.123124741163664
 51
90.808304124577461
  0
ARC
  5
34E
100
AcDbEntity
  8
0
  6
CONTINUOUS
 62
               4
100
AcDbCircle
 10
-140.27489543543811
 20
99.341946791540352
 30
0.0
 40
0.2994663800970315
100
AcDbArc
 50
90.470973028463291
 51
180.87710076750477
  0
ARC
  5
34F
100
AcDbEntity
  8
0
  6
CONTINUOUS
 62
               4
100
AcDbCircle
 10
-133.07399388623423
 20
98.041735900509536
 30
0.0
 40
0.4966660273328702
100
AcDbArc
 50
359.37896036356273
 51
90.621039636432627
  0
LINE
  5
350
100
AcDbEntity
  8
0
  6
CONTINUOUS
 62
               4
100
AcDbLine
 10
-125.57735703875562
 20
93.539382855854683
 30
0.0
 11
-124.58038734235561
 21
93.539382855854626
 31
0.0
  0
LINE
  5
351
100
AcDbEntity
  8
0
  6
CONTINUOUS
 62
               4
100
AcDbLine
 10
-132.57735703475566
 20
93.539382855854797
 30
0.0
 11
-130.57634693488899
 21
93.53938285585474
 31
0.0
  0
LINE
  5
352
100
AcDbEntity
  8
0
  6
CONTINUOUS
 62
               4
100
AcDbLine
 10
-124.58038734235561
 20
95.137362652921411
 30
0.0
 11
-132.57735703475555
 21
95.137362652921524
 31
0.0
  0
LINE
  5
353
100
AcDbEntity
  8
0
  6
CONTINUOUS
 62
               4
100
AcDbLine
 10
-124.58038734235561
 20
96.940392954921379
 30
0.0
 11
-132.57735703475555
 21
96.940392954921549
 31
0.0
  0
LINE
  5
354
100
AcDbEntity
  8
0
  6
CONTINUOUS
 62
               4
100
AcDbLine
 10
-124.58038734235561
 20
97.64039295452136
 30
0.0
 11
-132.17432673195549
 21
97.640392954521474
 31
0.0
  0
LINE
  5
355
100
AcDbEntity
  8
0
  6
CONTINUOUS
 62
               4
100
AcDbLine
 10
-124.87735703915553
 20
97.937362651321337
 30
0.0
 11
-130.78139743982229
 21
97.93736265132145
 31
0.0
  0
LINE
  5
356
100
AcDbEntity
  8
0
  6
CONTINUOUS
 62
               4
100
AcDbLine
 10
-124.58038734235549
 20
99.542413155454653
 30
0.0
 11
-125.98745804862222
 21
99.54241315545471
 31
0.0
  0
LINE
  5
357
100
AcDbEntity
  8
0
  6
CONTINUOUS
 62
               4
100
AcDbLine
 10
-124.58038734235549
 20
100.53938285185473
 30
0.0
 11
-126.07937724048884
 21
100.53938285185478
 31
0.0
  0
LINE
  5
358
100
AcDbEntity
  8
0
  6
CONTINUOUS
 62
               4
100
AcDbLine
 10
-120.76220552635561
 20
96.692918207587923
 30
0.0
 11
-124.58038734235561
 21
96.692918207588036
 31
0.0
  0
LINE
  5
359
100
AcDbEntity
  8
0
  6
CONTINUOUS
 62
             200
100
AcDbLine
 10
-121.25008431395554
 20
97.541403055587921
 30
0.0
 11
-119.51776108262231
 21
94.536352552254641
 31
0.0
  0
LINE
  5
35A
100
AcDbEntity
  8
0
  6
CONTINUOUS
 62
               4
100
AcDbLine
 10
-120.012710577289
 20
95.391908107321228
 30
0.0
 11
-124.58038734235561
 21
95.391908107321285
 31
0.0
  0
LINE
  5
35B
100
AcDbEntity
  8
0
  6
CONTINUOUS
 62
               4
100
AcDbLine
 10
-139.28038733395556
 20
98.538372751988362
 30
0.0
 11
-139.28038733395556
 21
98.637362650921631
 31
0.0
  0
LINE
  5
35C
100
AcDbEntity
  8
0
  6
CONTINUOUS
 62
               4
100
AcDbLine
 10
-131.18442774262212
 20
99.641403054388206
 30
0.0
 11
-140.27735703035557
 21
99.641403054388377
 31
0.0
  0
LINE
  5
35D
100
AcDbEntity
  8
0
  6
CONTINUOUS
 62
               4
100
AcDbLine
 10
-131.07836713662221
 20
97.640392954521474
 30
0.0
 11
-130.78139743982229
 21
97.93736265132145
 31
0.0
  0
LINE
  5
35E
100
AcDbEntity
  8
0
  6
CONTINUOUS
 62
               4
100
AcDbLine
 10
-130.57634693488899
 20
93.53938285585474
 30
0.0
 11
-130.57634693488899
 21
94.140392956521509
 31
0.0
  0
LINE
  5
35F
100
AcDbEntity
  8
0
  6
CONTINUOUS
 62
               4
100
AcDbLine
 10
-125.57735703875562
 20
94.140392956521396
 30
0.0
 11
-130.57634693488899
 21
94.140392956521509
 31
0.0
  0
LINE
  5
360
100
AcDbEntity
  8
0
  6
CONTINUOUS
 62
               4
100
AcDbLine
 10
-125.57735703875562
 20
93.539382855854683
 30
0.0
 11
-125.57735703875562
 21
94.140392956521396
 31
0.0
  0
LINE
  5
361
100
AcDbEntity
  8
0
  6
CONTINUOUS
 62
               4
100
AcDbLine
 10
-124.58038734235561
 20
97.64039295452136
 30
0.0
 11
-124.87735703915553
 21
97.937362651321337
 31
0.0
  0
LINE
  5
362
100
AcDbEntity
  8
0
  6
CONTINUOUS
 62
               4
100
AcDbLine
 10
-133.58139743822221
 20
98.637362650921546
 30
0.0
 11
-139.28038733395556
 21
98.637362650921631
 31
0.0
  0
LINE
  5
363
100
AcDbEntity
  8
0
  6
CONTINUOUS
 62
               4
100
AcDbLine
 10
-132.24503380262217
 20
98.439382853054781
 30
0.0
 11
-125.90260956382224
 21
99.556554569588059
 31
0.0
  0
LINE
  5
364
100
AcDbEntity
  8
0
  6
CONTINUOUS
 62
               4
100
AcDbLine
 10
-124.58038734235549
 20
99.542413155454653
 30
0.0
 11
-124.58038734235549
 21
100.53938285185473
 31
0.0
  0
LINE
  5
365
100
AcDbEntity
  8
0
  6
CONTINUOUS
 62
               4
100
AcDbLine
 10
-131.18442774262212
 20
99.641403054388206
 30
0.0
 11
-126.07937724048884
 21
100.53938285185478
 31
0.0
  0
LINE
  5
366
100
AcDbEntity
  8
0
  6
CONTINUOUS
 62
               4
100
AcDbLine
 10
-124.58038734235561
 20
93.539382855854626
 30
0.0
 11
-124.58038734235561
 21
97.64039295452136
 31
0.0
  0
LINE
  5
367
100
AcDbEntity
  8
0
  6
CONTINUOUS
 62
               4
100
AcDbLine
 10
-140.57432672715561
 20
98.538372751988334
 30
0.0
 11
-133.07937723648888
 21
98.538372751988248
 31
0.0
  0
LINE
  5
368
100
AcDbEntity
  8
0
  6
CONTINUOUS
 62
               4
100
AcDbLine
 10
-117.07836714462235
 20
95.391908107321171
 30
0.0
 11
-117.07836714462223
 21
96.692918207587866
 31
0.0
  0
LINE
  5
369
100
AcDbEntity
  8
0
  6
CONTINUOUS
 62
               4
100
AcDbLine
 10
-150.8743265301207
 20
100.93736266212164
 30
0.0
 11
-150.8743265301207
 21
101.53736266212167
 31
0.0
  0
ARC
  5
36A
100
AcDbEntity
  8
0
  6
CONTINUOUS
 62
               4
100
AcDbCircle
 10
-151.97323852488364
 20
100.93845066735867
 30
0.0
 40
0.5989129830170392
100
AcDbArc
 50
359.89591452477299
 51
90.104085475226924
  0
LINE
  5
36B
100
AcDbEntity
  8
0
  6
CONTINUOUS
 62
               4
100
AcDbLine
 10
-113.57836714462223
 20
96.291595774642019
 30
0.0
 11
-113.57836714462223
 21
95.791595774642019
 31
0.0
  0
LINE
  5
36C
100
AcDbEntity
  8
0
  6
CONTINUOUS
 62
               4
100
AcDbLine
 10
-117.07836714462229
 20
96.291595774642019
 30
0.0
 11
-113.57836714462223
 21
96.291595774642019
 31
0.0
  0
LINE
  5
36D
100
AcDbEntity
  8
0
  6
CONTINUOUS
 62
               4
100
AcDbLine
 10
-117.07836714462229
 20
95.791595774642019
 30
0.0
 11
-113.57836714462223
 21
95.791595774642019
 31
0.0
  0
LINE
  5
36E
100
AcDbEntity
  8
0
  6
CONTINUOUS
 62
               4
100
AcDbLine
 10
-132.57735703475555
 20
98.036352550254833
 30
0.0
 11
-132.57735703475578
 21
81.688877812121575
 31
0.0
  0
LINE
  5
36F
100
AcDbEntity
  8
0
  6
CONTINUOUS
 62
               4
100
AcDbLine
 10
-137.68947824395593
 20
79.037362662121609
 30
0.0
 11
-137.68947824395559
 21
98.538372751988305
 31
0.0
  0
LINE
  5
370
100
AcDbEntity
  8
0
  6
CONTINUOUS
 62
               4
100
AcDbLine
 10
-154.57432671915592
 20
79.037362662121893
 30
0.0
 11
-154.57432671915547
 21
100.93736266212187
 31
0.0
  0
LINE
  5
371
100
AcDbEntity
  8
0
  6
CONTINUOUS
 62
               4
100
AcDbLine
 10
-140.57432672715549
 20
100.93736266212164
 30
0.0
 11
-140.57432672715595
 21
79.037362662121666
 31
0.0
  0
LINE
  5
372
100
AcDbEntity
  8
0
  6
CONTINUOUS
 62
               7
100
AcDbLine
 10
-138.97432390262912
 20
73.03736266212178
 30
0.0
 11
-138.97432390262912
 21
79.03736266212178
 31
0.0
  0
LINE
  5
373
100
AcDbEntity
  8
0
  6
CONTINUOUS
 62
               4
100
AcDbLine
 10
-154.57432671915592
 20
79.037362662121836
 30
0.0
 11
-137.68947824395593
 21
79.03736266212178
 31
0.0
  0
LINE
  5
374
100
AcDbEntity
  8
0
  6
CONTINUOUS
 62
               7
100
AcDbLine
 10
-154.57432390262915
 20
65.837362662121791
 30
0.0
 11
-140.57432390262915
 21
65.837362662121791
 31
0.0
  0
LINE
  5
375
100
AcDbEntity
  8
0
  6
CONTINUOUS
 62
               7
100
AcDbLine
 10
-154.57432390262915
 20
39.637362662121859
 30
0.0
 11
-140.57432390262915
 21
39.637362662121859
 31
0.0
  0
LINE
  5
376
100
AcDbEntity
  8
0
  6
CONTINUOUS
 62
               7
100
AcDbLine
 10
-138.97432390262912
 20
73.03736266212178
 30
0.0
 11
-140.57432390262915
 21
71.437362662121814
 31
0.0
  0
LINE
  5
377
100
AcDbEntity
  8
0
  6
CENTER
 62
               2
100
AcDbLine
 10
-153.27432671915591
 20
48.237362662121768
 30
0.0
 11
-150.27432671915591
 21
48.237362662121768
 31
0.0
  0
LINE
  5
378
100
AcDbEntity
  8
0
  6
CENTER
 62
               2
100
AcDbLine
 10
-151.77432671915591
 20
46.737362662121768
 30
0.0
 11
-151.77432671915591
 21
49.737362662121768
 31
0.0
  0
CIRCLE
  5
379
100
AcDbEntity
  8
0
  6
CONTINUOUS
 62
               7
100
AcDbCircle
 10
-151.77432671915591
 20
48.237362662121768
 30
0.0
 40
1.0499999999999998
  0
LINE
  5
37A
100
AcDbEntity
  8
0
  6
CENTER
 62
               2
100
AcDbLine
 10
-153.27432671915591
 20
57.237362662121768
 30
0.0
 11
-150.27432671915591
 21
57.237362662121768
 31
0.0
  0
LINE
  5
37B
100
AcDbEntity
  8
0
  6
CENTER
 62
               2
100
AcDbLine
 10
-151.77432671915591
 20
55.737362662121768
 30
0.0
 11
-151.77432671915591
 21
58.737362662121768
 31
0.0
  0
CIRCLE
  5
37C
100
AcDbEntity
  8
0
  6
CONTINUOUS
 62
               7
100
AcDbCircle
 10
-151.77432671915591
 20
57.237362662121768
 30
0.0
 40
1.0499999999999998
  0
LINE
  5
37D
100
AcDbEntity
  8
0
  6
CONTINUOUS
 62
               7
100
AcDbLine
 10
-140.57432670818866
 20
42.8363893955202
 30
0.0
 11
-141.57432670818866
 21
42.8363893955202
 31
0.0
  0
LINE
  5
37E
100
AcDbEntity
  8
0
  6
CONTINUOUS
 62
               7
100
AcDbLine
 10
-140.57432670818866
 20
46.036389395520246
 30
0.0
 11
-141.57432670818866
 21
46.036389395520246
 31
0.0
  0
LINE
  5
37F
100
AcDbEntity
  8
0
  6
CONTINUOUS
 62
               7
100
AcDbLine
 10
-141.57432671915592
 20
46.036389395520246
 30
0.0
 11
-141.57432671915592
 21
42.8363893955202
 31
0.0
  0
LINE
  5
380
100
AcDbEntity
  8
0
  6
CENTER
 62
               2
100
AcDbLine
 10
-152.53824628842341
 20
61.138335928723336
 30
0.0
 11
-167.98025778664589
 21
61.138335928723336
 31
0.0
  0
LINE
  5
381
100
AcDbEntity
  8
0
  6
CENTER
 62
               2
100
AcDbLine
 10
-152.53824628842341
 20
44.336389395520257
 30
0.0
 11
-167.98025778664589
 21
44.336389395520257
 31
0.0
  0
ARC
  5
382
100
AcDbEntity
  8
0
  6
DASHED
 62
             200
100
AcDbCircle
 10
-166.07432671915592
 20
58.638335928723336
 30
0.0
 40
0.5
100
AcDbArc
 50
179.99999999999963
 51
269.99999999999937
  0
ARC
  5
383
100
AcDbEntity
  8
0
  6
DASHED
 62
             200
100
AcDbCircle
 10
-166.07432671915592
 20
63.638335928723336
 30
0.0
 40
0.5
100
AcDbArc
 50
89.999999999999815
 51
179.99999999999963
  0
LINE
  5
384
100
AcDbEntity
  8
0
  6
DASHED
 62
             200
100
AcDbLine
 10
-166.57432671915592
 20
58.638335928723336
 30
0.0
 11
-166.57432671915592
 21
63.638335928723336
 31
0.0
  0
LINE
  5
385
100
AcDbEntity
  8
0
  6
DASHED
 62
             200
100
AcDbLine
 10
-164.07432671915592
 20
58.138335928723336
 30
0.0
 11
-164.07432671915592
 21
64.138335928723336
 31
0.0
  0
LINE
  5
386
100
AcDbEntity
  8
0
  6
DASHED
 62
             200
100
AcDbLine
 10
-166.07432671915592
 20
58.138335928723336
 30
0.0
 11
-166.07432671915592
 21
64.138335928723336
 31
0.0
  0
LINE
  5
387
100
AcDbEntity
  8
0
  6
DASHED
 62
             200
100
AcDbLine
 10
-154.57432671915592
 20
64.138335928723336
 30
0.0
 11
-166.07432671915592
 21
64.138335928723336
 31
0.0
  0
LINE
  5
388
100
AcDbEntity
  8
0
  6
DASHED
 62
             200
100
AcDbLine
 10
-154.57432671915592
 20
58.138335928723336
 30
0.0
 11
-166.07432671915592
 21
58.138335928723336
 31
0.0
  0
LINE
  5
389
100
AcDbEntity
  8
0
  6
DASHED
 62
             200
100
AcDbLine
 10
-154.57432671915592
 20
47.336389395520257
 30
0.0
 11
-166.07432671915592
 21
47.336389395520257
 31
0.0
  0
LINE
  5
38A
100
AcDbEntity
  8
0
  6
DASHED
 62
             200
100
AcDbLine
 10
-154.57432671915592
 20
41.336389395520257
 30
0.0
 11
-166.07432671915592
 21
41.336389395520257
 31
0.0
  0
LINE
  5
38B
100
AcDbEntity
  8
0
  6
DASHED
 62
             200
100
AcDbLine
 10
-166.07432671915592
 20
47.336389395520257
 30
0.0
 11
-166.07432671915592
 21
41.336389395520257
 31
0.0
  0
LINE
  5
38C
100
AcDbEntity
  8
0
  6
DASHED
 62
             200
100
AcDbLine
 10
-164.07432671915592
 20
47.336389395520257
 30
0.0
 11
-164.07432671915592
 21
41.336389395520257
 31
0.0
  0
LINE
  5
38D
100
AcDbEntity
  8
0
  6
DASHED
 62
             200
100
AcDbLine
 10
-166.57432671915592
 20
46.836389395520257
 30
0.0
 11
-166.57432671915592
 21
41.836389395520257
 31
0.0
  0
ARC
  5
38E
100
AcDbEntity
  8
0
  6
DASHED
 62
             200
100
AcDbCircle
 10
-166.07432671915592
 20
41.836389395520257
 30
0.0
 40
0.5
100
AcDbArc
 50
179.99999999999963
 51
269.99999999999937
  0
ARC
  5
38F
100
AcDbEntity
  8
0
  6
DASHED
 62
             200
100
AcDbCircle
 10
-166.07432671915592
 20
46.836389395520257
 30
0.0
 40
0.5
100
AcDbArc
 50
89.999999999999815
 51
179.99999999999963
  0
LINE
  5
390
100
AcDbEntity
  8
0
  6
CONTINUOUS
 62
               7
100
AcDbLine
 10
-138.97432390262912
 20
24.437362662121814
 30
0.0
 11
-138.97432390262912
 21
18.437362662121814
 31
0.0
  0
LINE
  5
391
100
AcDbEntity
  8
0
  6
CONTINUOUS
 62
               7
100
AcDbLine
 10
-138.97432390262912
 20
24.437362662121814
 30
0.0
 11
-140.57432390262915
 21
26.037362662121836
 31
0.0
  0
LINE
  5
392
100
AcDbEntity
  8
0
  6
CONTINUOUS
 62
               7
100
AcDbLine
 10
-154.57432390262915
 20
31.637362662121859
 30
0.0
 11
-140.57432390262915
 21
31.637362662121859
 31
0.0
  0
LINE
  5
393
100
AcDbEntity
  8
0
  6
CENTER
 62
               2
100
AcDbLine
 10
-147.57432671915592
 20
102.22029464101206
 30
0.0
 11
-147.57432671915592
 21
-4.7455693167684672
 31
0.0
  0
LINE
  5
394
100
AcDbEntity
  8
0
  6
CONTINUOUS
 62
               7
100
AcDbLine
 10
-140.57432671915592
 20
18.437362662121814
 30
0.0
 11
-140.57432671915592
 21
79.03736266212178
 31
0.0
  0
LINE
  5
395
100
AcDbEntity
  8
0
  6
CONTINUOUS
 62
               7
100
AcDbLine
 10
-154.57432671915592
 20
18.437362662121814
 30
0.0
 11
-154.57432671915592
 21
79.037362662121836
 31
0.0
  0
LINE
  5
396
100
AcDbEntity
  8
0
  6
CONTINUOUS
 62
               4
100
AcDbLine
 10
-48.931144297021831
 20
-2.0676878312110034
 30
0.0
 11
-54.431144297021831
 21
-2.0676878312110034
 31
0.0
  0
LINE
  5
397
100
AcDbEntity
  8
0
  6
CONTINUOUS
 62
               4
100
AcDbLine
 10
-48.931144297021831
 20
-3.0646575276110752
 30
0.0
 11
-54.431144297021831
 21
-3.0646575276110752
 31
0.0
  0
LINE
  5
398
100
AcDbEntity
  8
0
  6
CONTINUOUS
 62
               4
100
AcDbLine
 10
-49.931144297021831
 20
2.5853626621217813
 30
0.0
 11
-49.931144297021831
 21
2.28536266212177
 31
0.0
  0
ARC
  5
399
100
AcDbEntity
  8
0
  6
CONTINUOUS
 62
               4
100
AcDbCircle
 10
-47.181441321227965
 20
17.937065637915737
 30
0.0
 40
0.5002971123771115
100
AcDbArc
 50
0.034016255545966
 51
89.965983744453979
  0
ARC
  5
39A
100
AcDbEntity
  8
0
  6
CONTINUOUS
 62
               4
100
AcDbCircle
 10
-56.181441144886037
 20
17.93765950998602
 30
0.0
 40
0.4997032403068002
100
AcDbArc
 50
89.965963537146934
 51
180.03403646285233
  0
LINE
  5
39B
100
AcDbEntity
  8
0
  6
CONTINUOUS
 62
               4
100
AcDbLine
 10
-46.681144297021831
 20
-4.0626373378781864
 30
0.0
 11
-46.681144297021831
 21
18.437362662121814
 31
0.0
  0
LINE
  5
39C
100
AcDbEntity
  8
0
  6
CONTINUOUS
 62
               4
100
AcDbLine
 10
-56.681144297021831
 20
-4.0626373378781864
 30
0.0
 11
-56.681144297021831
 21
18.437362662121814
 31
0.0
  0
ARC
  5
39D
100
AcDbEntity
  8
0
  6
CONTINUOUS
 62
               4
100
AcDbCircle
 10
-54.084056291784805
 20
-3.463725343115243
 30
0.0
 40
0.5989129830170392
100
AcDbArc
 50
269.89591452477231
 51
0.1040854752270701
  0
ARC
  5
39E
100
AcDbEntity
  8
0
  6
CONTINUOUS
 62
               4
100
AcDbCircle
 10
-55.885239443680064
 20
-3.4627324845363887
 30
0.0
 40
0.5999048608870732
100
AcDbArc
 50
179.99091272245337
 51
270.00908727754575
  0
LINE
  5
39F
100
AcDbEntity
  8
0
  6
CONTINUOUS
 62
               4
100
AcDbLine
 10
-56.681144297021831
 20
-3.4626373378782205
 30
0.0
 11
-53.481144297021842
 21
-3.4626373378782205
 31
0.0
  0
ARC
  5
3A0
100
AcDbEntity
  8
0
  6
CONTINUOUS
 62
               4
100
AcDbCircle
 10
-47.181144297021831
 20
-3.4626373378782205
 30
0.0
 40
0.5
100
AcDbArc
 50
269.99999999999937
 51
0.0
  0
LINE
  5
3A1
100
AcDbEntity
  8
0
  6
CONTINUOUS
 62
               4
100
AcDbLine
 10
-53.481144297021842
 20
-3.9626373378782205
 30
0.0
 11
-53.481144297021842
 21
-3.0646575276110752
 31
0.0
  0
LINE
  5
3A2
100
AcDbEntity
  8
0
  6
CONTINUOUS
 62
               4
100
AcDbLine
 10
-53.481144297021842
 20
-3.9626373378782205
 30
0.0
 11
-47.181144297021831
 21
-3.9626373378782205
 31
0.0
  0
LINE
  5
3A3
100
AcDbEntity
  8
0
  6
CONTINUOUS
 62
               4
100
AcDbLine
 10
-56.681144297021831
 20
-2.4626373378782205
 30
0.0
 11
-54.431144297021831
 21
-2.4626373378782205
 31
0.0
  0
LINE
  5
3A4
100
AcDbEntity
  8
0
  6
CONTINUOUS
 62
               4
100
AcDbLine
 10
-56.681144297021831
 20
-4.0626373378781864
 30
0.0
 11
-46.681144297021831
 21
-4.0626373378781864
 31
0.0
  0
LINE
  5
3A5
100
AcDbEntity
  8
0
  6
PHANTOM
 62
             200
100
AcDbLine
 10
-50.181144297021831
 20
10.937362662121814
 30
0.0
 11
-53.181144297021831
 21
10.937362662121814
 31
0.0
  0
LINE
  5
3A6
100
AcDbEntity
  8
0
  6
PHANTOM
 62
             200
100
AcDbLine
 10
-50.181144297021831
 20
12.937362662121814
 30
0.0
 11
-53.181144297021831
 21
12.937362662121814
 31
0.0
  0
LINE
  5
3A7
100
AcDbEntity
  8
0
  6
PHANTOM
 62
             200
100
AcDbLine
 10
-53.181144297021831
 20
10.937362662121814
 30
0.0
 11
-53.181144297021831
 21
12.937362662121814
 31
0.0
  0
LINE
  5
3A8
100
AcDbEntity
  8
0
  6
PHANTOM
 62
             200
100
AcDbLine
 10
-50.181144297021831
 20
10.937362662121814
 30
0.0
 11
-50.181144297021831
 21
12.937362662121814
 31
0.0
  0
LINE
  5
3A9
100
AcDbEntity
  8
0
  6
CONTINUOUS
 62
               4
100
AcDbLine
 10
-47.411144297021735
 20
16.244346250644981
 30
0.0
 11
-55.951144297021926
 21
16.244346250644981
 31
0.0
  0
LINE
  5
3AA
100
AcDbEntity
  8
0
  6
CONTINUOUS
 62
               4
100
AcDbLine
 10
-56.451144297021926
 20
-0.5646373378782528
 30
0.0
 11
-56.451144297021926
 21
15.744346250644583
 31
0.0
  0
ARC
  5
3AB
100
AcDbEntity
  8
0
  6
CONTINUOUS
 62
               4
100
AcDbCircle
 10
-55.949946872532053
 20
15.743148826155277
 30
0.0
 40
0.5011988548874781
100
AcDbArc
 50
90.136886655154825
 51
179.86311334484458
  0
LINE
  5
3AC
100
AcDbEntity
  8
0
  6
CONTINUOUS
 62
               4
100
AcDbLine
 10
-46.911144297021849
 20
-0.5646373378782528
 30
0.0
 11
-46.911144297021735
 21
15.744346250644583
 31
0.0
  0
ARC
  5
3AD
100
AcDbEntity
  8
0
  6
CONTINUOUS
 62
               4
100
AcDbCircle
 10
-47.412341721511609
 20
15.743148826155277
 30
0.0
 40
0.5011988548874781
100
AcDbArc
 50
0.1368866551550224
 51
89.863113344844777
  0
LINE
  5
3AE
100
AcDbEntity
  8
0
  6
CONTINUOUS
 62
               4
100
AcDbLine
 10
-49.261144297021815
 20
-0.46463733787823
 30
0.0
 11
-54.091144297021856
 21
-0.46463733787823
 31
0.0
  0
LINE
  5
3AF
100
AcDbEntity
  8
0
  6
CONTINUOUS
 62
               4
100
AcDbLine
 10
-48.96114429702186
 20
-0.1646373378782187
 30
0.0
 11
-54.39114429702181
 21
-0.1646373378782187
 31
0.0
  0
LINE
  5
3B0
100
AcDbEntity
  8
0
  6
CONTINUOUS
 62
               4
100
AcDbLine
 10
-48.931144297021831
 20
-1.1646373378782187
 30
0.0
 11
-54.431144297021831
 21
-1.1646373378782187
 31
0.0
  0
LINE
  5
3B1
100
AcDbEntity
  8
0
  6
CONTINUOUS
 62
               4
100
AcDbLine
 10
-48.831144297021865
 20
3.9353626621217472
 30
0.0
 11
-54.531144297021797
 21
3.9353626621217472
 31
0.0
  0
LINE
  5
3B2
100
AcDbEntity
  8
0
  6
CONTINUOUS
 62
               4
100
AcDbLine
 10
-48.931144297021831
 20
3.8353626621217813
 30
0.0
 11
-54.431144297021831
 21
3.8353626621217813
 31
0.0
  0
LINE
  5
3B3
100
AcDbEntity
  8
0
  6
CONTINUOUS
 62
               4
100
AcDbLine
 10
-49.481144297021842
 20
2.28536266212177
 30
0.0
 11
-51.38114429702182
 21
2.28536266212177
 31
0.0
  0
CIRCLE
  5
3B4
100
AcDbEntity
  8
0
  6
CONTINUOUS
 62
               4
100
AcDbCircle
 10
-50.431144297021831
 20
1.3353779209108438
 30
0.0
 40
0.8499675393104553
  0
LINE
  5
3B5
100
AcDbEntity
  8
0
  6
CONTINUOUS
 62
               4
100
AcDbLine
 10
-49.481144297021842
 20
0.3853626621217927
 30
0.0
 11
-51.38114429702182
 21
0.3853626621217927
 31
0.0
  0
LINE
  5
3B6
100
AcDbEntity
  8
0
  6
CONTINUOUS
 62
               4
100
AcDbLine
 10
-49.481144297021842
 20
0.1853626621217472
 30
0.0
 11
-51.38114429702182
 21
0.1853626621217472
 31
0.0
  0
ARC
  5
3B7
100
AcDbEntity
  8
0
  6
CONTINUOUS
 62
               4
100
AcDbCircle
 10
-47.181154978195138
 20
-0.5646266567049452
 30
0.0
 40
0.5000106812873828
100
AcDbArc
 50
270.00122394615283
 51
359.99877605384501
  0
LINE
  5
3B8
100
AcDbEntity
  8
0
  6
CONTINUOUS
 62
               4
100
AcDbLine
 10
-48.931144297021831
 20
2.3353626621217813
 30
0.0
 11
-48.931144297021831
 21
3.8353626621217813
 31
0.0
  0
LINE
  5
3B9
100
AcDbEntity
  8
0
  6
CONTINUOUS
 62
               4
100
AcDbLine
 10
-48.831144297021865
 20
2.4353626621217472
 30
0.0
 11
-48.831144297021865
 21
3.9353626621217472
 31
0.0
  0
LINE
  5
3BA
100
AcDbEntity
  8
0
  6
CONTINUOUS
 62
               4
100
AcDbLine
 10
-47.831144297021922
 20
2.4353626621217472
 30
0.0
 11
-48.831144297021865
 21
2.4353626621217472
 31
0.0
  0
LINE
  5
3BB
100
AcDbEntity
  8
0
  6
CONTINUOUS
 62
               4
100
AcDbLine
 10
-47.931144297021831
 20
2.3353626621217813
 30
0.0
 11
-48.931144297021831
 21
2.3353626621217813
 31
0.0
  0
LINE
  5
3BC
100
AcDbEntity
  8
0
  6
CONTINUOUS
 62
               4
100
AcDbLine
 10
-47.931144297021831
 20
0.53536266212177
 30
0.0
 11
-48.931144297021831
 21
0.53536266212177
 31
0.0
  0
LINE
  5
3BD
100
AcDbEntity
  8
0
  6
CONTINUOUS
 62
               4
100
AcDbLine
 10
-47.831144297021922
 20
0.4353626621217472
 30
0.0
 11
-48.831144297021865
 21
0.4353626621217472
 31
0.0
  0
LINE
  5
3BE
100
AcDbEntity
  8
0
  6
CONTINUOUS
 62
               4
100
AcDbLine
 10
-47.831144297021922
 20
0.4353626621217472
 30
0.0
 11
-47.831144297021922
 21
2.4353626621217472
 31
0.0
  0
LINE
  5
3BF
100
AcDbEntity
  8
0
  6
CONTINUOUS
 62
               4
100
AcDbLine
 10
-47.931144297021831
 20
2.3353626621217813
 30
0.0
 11
-47.931144297021831
 21
0.53536266212177
 31
0.0
  0
LINE
  5
3C0
100
AcDbEntity
  8
0
  6
CONTINUOUS
 62
               4
100
AcDbLine
 10
-48.931144297021831
 20
-0.124637337878255
 30
0.0
 11
-49.261144297021815
 21
-0.46463733787823
 31
0.0
  0
ARC
  5
3C1
100
AcDbEntity
  8
0
  6
CONTINUOUS
 62
               4
100
AcDbCircle
 10
-47.411145212576173
 20
-0.5646364223239857
 30
0.0
 40
0.5000009155550945
100
AcDbArc
 50
270.00010491459648
 51
359.99989508540216
  0
LINE
  5
3C2
100
AcDbEntity
  8
0
  6
CONTINUOUS
 62
               4
100
AcDbLine
 10
-47.181144297021831
 20
-1.0646373378782528
 30
0.0
 11
-48.931144297021831
 21
-1.0646373378782528
 31
0.0
  0
LINE
  5
3C3
100
AcDbEntity
  8
0
  6
CONTINUOUS
 62
               4
100
AcDbLine
 10
-48.831144297021865
 20
-1.0646373378782528
 30
0.0
 11
-48.831144297021865
 21
0.4353626621217472
 31
0.0
  0
LINE
  5
3C4
100
AcDbEntity
  8
0
  6
CONTINUOUS
 62
               4
100
AcDbLine
 10
-49.481144297021842
 20
0.1853626621217472
 30
0.0
 11
-49.481144297021842
 21
2.28536266212177
 31
0.0
  0
LINE
  5
3C5
100
AcDbEntity
  8
0
  6
CONTINUOUS
 62
               4
100
AcDbLine
 10
-48.931144297021831
 20
-3.0646575276110752
 30
0.0
 11
-48.931144297021831
 21
0.53536266212177
 31
0.0
  0
LINE
  5
3C6
100
AcDbEntity
  8
0
  6
CONTINUOUS
 62
               4
100
AcDbLine
 10
-50.931144297021831
 20
2.28536266212177
 30
0.0
 11
-50.931144297021831
 21
2.5853626621217813
 31
0.0
  0
LINE
  5
3C7
100
AcDbEntity
  8
0
  6
CONTINUOUS
 62
               4
100
AcDbLine
 10
-49.931144297021831
 20
2.5853626621217813
 30
0.0
 11
-50.931144297021831
 21
2.5853626621217813
 31
0.0
  0
LINE
  5
3C8
100
AcDbEntity
  8
0
  6
CONTINUOUS
 62
               4
100
AcDbLine
 10
-54.431144297021831
 20
-3.0646575276110752
 30
0.0
 11
-54.431144297021831
 21
0.53536266212177
 31
0.0
  0
LINE
  5
3C9
100
AcDbEntity
  8
0
  6
CONTINUOUS
 62
               4
100
AcDbLine
 10
-54.39114429702181
 20
-0.1646373378782187
 30
0.0
 11
-54.091144297021856
 21
-0.46463733787823
 31
0.0
  0
LINE
  5
3CA
100
AcDbEntity
  8
0
  6
CONTINUOUS
 62
               4
100
AcDbLine
 10
-54.531144297021797
 20
-1.0646373378782528
 30
0.0
 11
-54.531144297021797
 21
0.4353626621217472
 31
0.0
  0
LINE
  5
3CB
100
AcDbEntity
  8
0
  6
CONTINUOUS
 62
               4
100
AcDbLine
 10
-54.431144297021831
 20
2.3353626621217813
 30
0.0
 11
-54.431144297021831
 21
3.8353626621217813
 31
0.0
  0
LINE
  5
3CC
100
AcDbEntity
  8
0
  6
CONTINUOUS
 62
               4
100
AcDbLine
 10
-54.531144297021797
 20
2.4353626621217472
 30
0.0
 11
-54.531144297021797
 21
3.9353626621217472
 31
0.0
  0
LINE
  5
3CD
100
AcDbEntity
  8
0
  6
CONTINUOUS
 62
               4
100
AcDbLine
 10
-51.981144297021842
 20
0.1853626621217472
 30
0.0
 11
-53.88114429702182
 21
0.1853626621217472
 31
0.0
  0
LINE
  5
3CE
100
AcDbEntity
  8
0
  6
CONTINUOUS
 62
               4
100
AcDbLine
 10
-51.981144297021842
 20
0.3853626621217927
 30
0.0
 11
-53.88114429702182
 21
0.3853626621217927
 31
0.0
  0
LINE
  5
3CF
100
AcDbEntity
  8
0
  6
CONTINUOUS
 62
               4
100
AcDbLine
 10
-55.431144297021831
 20
2.3353626621217813
 30
0.0
 11
-55.431144297021831
 21
0.53536266212177
 31
0.0
  0
LINE
  5
3D0
100
AcDbEntity
  8
0
  6
CONTINUOUS
 62
               4
100
AcDbLine
 10
-54.431144297021831
 20
0.53536266212177
 30
0.0
 11
-55.431144297021831
 21
0.53536266212177
 31
0.0
  0
LINE
  5
3D1
100
AcDbEntity
  8
0
  6
CONTINUOUS
 62
               4
100
AcDbLine
 10
-51.981144297021842
 20
2.28536266212177
 30
0.0
 11
-53.88114429702182
 21
2.28536266212177
 31
0.0
  0
LINE
  5
3D2
100
AcDbEntity
  8
0
  6
CONTINUOUS
 62
               4
100
AcDbLine
 10
-52.431144297021831
 20
2.5853626621217813
 30
0.0
 11
-53.431144297021831
 21
2.5853626621217813
 31
0.0
  0
LINE
  5
3D3
100
AcDbEntity
  8
0
  6
CONTINUOUS
 62
               4
100
AcDbLine
 10
-53.431144297021831
 20
2.28536266212177
 30
0.0
 11
-53.431144297021831
 21
2.5853626621217813
 31
0.0
  0
LINE
  5
3D4
100
AcDbEntity
  8
0
  6
CONTINUOUS
 62
               4
100
AcDbLine
 10
-52.431144297021831
 20
2.28536266212177
 30
0.0
 11
-52.431144297021831
 21
2.5853626621217813
 31
0.0
  0
LINE
  5
3D5
100
AcDbEntity
  8
0
  6
CONTINUOUS
 62
               4
100
AcDbLine
 10
-51.981144297021842
 20
0.1853626621217472
 30
0.0
 11
-51.981144297021842
 21
2.28536266212177
 31
0.0
  0
LINE
  5
3D6
100
AcDbEntity
  8
0
  6
CONTINUOUS
 62
               4
100
AcDbLine
 10
-54.531144297021797
 20
2.4353626621217472
 30
0.0
 11
-55.531144297021854
 21
2.4353626621217472
 31
0.0
  0
LINE
  5
3D7
100
AcDbEntity
  8
0
  6
CONTINUOUS
 62
               4
100
AcDbLine
 10
-54.431144297021831
 20
2.3353626621217813
 30
0.0
 11
-55.431144297021831
 21
2.3353626621217813
 31
0.0
  0
LINE
  5
3D8
100
AcDbEntity
  8
0
  6
CONTINUOUS
 62
               4
100
AcDbLine
 10
-53.88114429702182
 20
0.1853626621217472
 30
0.0
 11
-53.88114429702182
 21
2.28536266212177
 31
0.0
  0
CIRCLE
  5
3D9
100
AcDbEntity
  8
0
  6
CONTINUOUS
 62
               4
100
AcDbCircle
 10
-52.931144297021831
 20
1.3353779209108438
 30
0.0
 40
0.8499675393104553
  0
LINE
  5
3DA
100
AcDbEntity
  8
0
  6
CONTINUOUS
 62
               4
100
AcDbLine
 10
-54.531144297021797
 20
0.4353626621217472
 30
0.0
 11
-55.531144297021854
 21
0.4353626621217472
 31
0.0
  0
LINE
  5
3DB
100
AcDbEntity
  8
0
  6
CONTINUOUS
 62
               4
100
AcDbLine
 10
-55.531144297021854
 20
0.4353626621217472
 30
0.0
 11
-55.531144297021854
 21
2.4353626621217472
 31
0.0
  0
LINE
  5
3DC
100
AcDbEntity
  8
0
  6
CONTINUOUS
 62
               4
100
AcDbLine
 10
-51.38114429702182
 20
0.1853626621217472
 30
0.0
 11
-51.38114429702182
 21
2.28536266212177
 31
0.0
  0
ARC
  5
3DD
100
AcDbEntity
  8
0
  6
CONTINUOUS
 62
               4
100
AcDbCircle
 10
-56.181148874544476
 20
-0.5646419154008413
 30
0.0
 40
0.4999954224983215
100
AcDbArc
 50
179.99947544974253
 51
270.00052455025644
  0
ARC
  5
3DE
100
AcDbEntity
  8
0
  6
CONTINUOUS
 62
               4
100
AcDbCircle
 10
-55.951143381467489
 20
-0.5646364223239857
 30
0.0
 40
0.5000009155550945
100
AcDbArc
 50
180.00010491459673
 51
269.99989508540227
  0
LINE
  5
3DF
100
AcDbEntity
  8
0
  6
CONTINUOUS
 62
               4
100
AcDbLine
 10
-54.431144297021831
 20
-1.0646373378782528
 30
0.0
 11
-56.181144297021831
 21
-1.0646373378782528
 31
0.0
  0
LINE
  5
3E0
100
AcDbEntity
  8
0
  6
CONTINUOUS
 62
               4
100
AcDbLine
 10
-54.431144297021831
 20
99.542413155454597
 30
0.0
 11
-48.931144297021831
 21
99.542413155454597
 31
0.0
  0
LINE
  5
3E1
100
AcDbEntity
  8
0
  6
CONTINUOUS
 62
               4
100
AcDbLine
 10
-54.431144297021831
 20
100.53938285185467
 30
0.0
 11
-48.931144297021831
 21
100.53938285185467
 31
0.0
  0
LINE
  5
3E2
100
AcDbEntity
  8
0
  6
CONTINUOUS
 62
               4
100
AcDbLine
 10
-53.431144297021831
 20
94.889362662121812
 30
0.0
 11
-53.431144297021831
 21
95.189362662121823
 31
0.0
  0
ARC
  5
3E3
100
AcDbEntity
  8
0
  6
CONTINUOUS
 62
               4
100
AcDbCircle
 10
-56.180847272815754
 20
79.537659686327856
 30
0.0
 40
0.5002971123771115
100
AcDbArc
 50
180.03401625554557
 51
269.96598374445358
  0
ARC
  5
3E4
100
AcDbEntity
  8
0
  6
CONTINUOUS
 62
               4
100
AcDbCircle
 10
-47.180847449157625
 20
79.537065814257573
 30
0.0
 40
0.4997032403068002
100
AcDbArc
 50
269.96596353714654
 51
0.0340364628527164
  0
LINE
  5
3E5
100
AcDbEntity
  8
0
  6
CONTINUOUS
 62
               4
100
AcDbLine
 10
-56.681144297021831
 20
101.53736266212181
 30
0.0
 11
-56.681144297021831
 21
79.03736266212178
 31
0.0
  0
LINE
  5
3E6
100
AcDbEntity
  8
0
  6
CONTINUOUS
 62
               4
100
AcDbLine
 10
-46.681144297021831
 20
101.53736266212181
 30
0.0
 11
-46.681144297021831
 21
79.03736266212178
 31
0.0
  0
ARC
  5
3E7
100
AcDbEntity
  8
0
  6
CONTINUOUS
 62
               4
100
AcDbCircle
 10
-49.278232302258857
 20
100.93845066735884
 30
0.0
 40
0.5989129830170392
100
AcDbArc
 50
89.895914524772735
 51
180.10408547522667
  0
ARC
  5
3E8
100
AcDbEntity
  8
0
  6
CONTINUOUS
 62
               4
100
AcDbCircle
 10
-47.477049150363598
 20
100.93745780877998
 30
0.0
 40
0.5999048608870732
100
AcDbArc
 50
359.99091272245295
 51
90.009087277546172
  0
LINE
  5
3E9
100
AcDbEntity
  8
0
  6
CONTINUOUS
 62
               4
100
AcDbLine
 10
-46.681144297021831
 20
100.93736266212181
 30
0.0
 11
-49.88114429702182
 21
100.93736266212181
 31
0.0
  0
ARC
  5
3EA
100
AcDbEntity
  8
0
  6
CONTINUOUS
 62
               4
100
AcDbCircle
 10
-56.181144297021831
 20
100.93736266212181
 30
0.0
 40
0.5
100
AcDbArc
 50
89.999999999999815
 51
179.99999999999963
  0
LINE
  5
3EB
100
AcDbEntity
  8
0
  6
CONTINUOUS
 62
               4
100
AcDbLine
 10
-49.88114429702182
 20
101.43736266212181
 30
0.0
 11
-49.88114429702182
 21
100.53938285185467
 31
0.0
  0
LINE
  5
3EC
100
AcDbEntity
  8
0
  6
CONTINUOUS
 62
               4
100
AcDbLine
 10
-49.88114429702182
 20
101.43736266212181
 30
0.0
 11
-56.181144297021831
 21
101.43736266212181
 31
0.0
  0
LINE
  5
3ED
100
AcDbEntity
  8
0
  6
CONTINUOUS
 62
               4
100
AcDbLine
 10
-46.681144297021831
 20
99.937362662121814
 30
0.0
 11
-48.931144297021831
 21
99.937362662121814
 31
0.0
  0
LINE
  5
3EE
100
AcDbEntity
  8
0
  6
CONTINUOUS
 62
               4
100
AcDbLine
 10
-46.681144297021831
 20
101.53736266212181
 30
0.0
 11
-56.681144297021831
 21
101.53736266212181
 31
0.0
  0
LINE
  5
3EF
100
AcDbEntity
  8
0
  6
PHANTOM
 62
             200
100
AcDbLine
 10
-53.181144297021831
 20
86.53736266212178
 30
0.0
 11
-50.181144297021831
 21
86.53736266212178
 31
0.0
  0
LINE
  5
3F0
100
AcDbEntity
  8
0
  6
PHANTOM
 62
             200
100
AcDbLine
 10
-53.181144297021831
 20
84.53736266212178
 30
0.0
 11
-50.181144297021831
 21
84.53736266212178
 31
0.0
  0
LINE
  5
3F1
100
AcDbEntity
  8
0
  6
PHANTOM
 62
             200
100
AcDbLine
 10
-50.181144297021831
 20
86.53736266212178
 30
0.0
 11
-50.181144297021831
 21
84.53736266212178
 31
0.0
  0
LINE
  5
3F2
100
AcDbEntity
  8
0
  6
PHANTOM
 62
             200
100
AcDbLine
 10
-53.181144297021831
 20
86.53736266212178
 30
0.0
 11
-53.181144297021831
 21
84.53736266212178
 31
0.0
  0
LINE
  5
3F3
100
AcDbEntity
  8
0
  6
CONTINUOUS
 62
               4
100
AcDbLine
 10
-55.95114429702187
 20
81.230379073598613
 30
0.0
 11
-47.411144297021735
 21
81.230379073598613
 31
0.0
  0
LINE
  5
3F4
100
AcDbEntity
  8
0
  6
CONTINUOUS
 62
               4
100
AcDbLine
 10
-46.911144297021735
 20
98.039362662121846
 30
0.0
 11
-46.911144297021735
 21
81.730379073599011
 31
0.0
  0
ARC
  5
3F5
100
AcDbEntity
  8
0
  6
CONTINUOUS
 62
               4
100
AcDbCircle
 10
-47.412341721511609
 20
81.731576498088316
 30
0.0
 40
0.5011988548874781
100
AcDbArc
 50
270.1368866551544
 51
359.86311334484418
  0
LINE
  5
3F6
100
AcDbEntity
  8
0
  6
CONTINUOUS
 62
               4
100
AcDbLine
 10
-56.45114429702187
 20
98.039362662121846
 30
0.0
 11
-56.45114429702187
 21
81.730379073599011
 31
0.0
  0
ARC
  5
3F7
100
AcDbEntity
  8
0
  6
CONTINUOUS
 62
               4
100
AcDbCircle
 10
-55.949946872532109
 20
81.731576498088316
 30
0.0
 40
0.5011988548874781
100
AcDbArc
 50
180.13688665515463
 51
269.86311334484435
  0
LINE
  5
3F8
100
AcDbEntity
  8
0
  6
CONTINUOUS
 62
               4
100
AcDbLine
 10
-54.101144297021847
 20
97.939362662121823
 30
0.0
 11
-49.271144297021806
 21
97.939362662121823
 31
0.0
  0
LINE
  5
3F9
100
AcDbEntity
  8
0
  6
CONTINUOUS
 62
               4
100
AcDbLine
 10
-54.401144297021801
 20
97.639362662121812
 30
0.0
 11
-48.971144297021851
 21
97.639362662121812
 31
0.0
  0
LINE
  5
3FA
100
AcDbEntity
  8
0
  6
CONTINUOUS
 62
               4
100
AcDbLine
 10
-54.431144297021831
 20
98.639362662121812
 30
0.0
 11
-48.931144297021831
 21
98.639362662121812
 31
0.0
  0
LINE
  5
3FB
100
AcDbEntity
  8
0
  6
CONTINUOUS
 62
               4
100
AcDbLine
 10
-54.531144297021797
 20
93.539362662121846
 30
0.0
 11
-48.831144297021865
 21
93.539362662121846
 31
0.0
  0
LINE
  5
3FC
100
AcDbEntity
  8
0
  6
CONTINUOUS
 62
               4
100
AcDbLine
 10
-54.431144297021831
 20
93.639362662121812
 30
0.0
 11
-48.931144297021831
 21
93.639362662121812
 31
0.0
  0
LINE
  5
3FD
100
AcDbEntity
  8
0
  6
CONTINUOUS
 62
               4
100
AcDbLine
 10
-53.88114429702182
 20
95.189362662121823
 30
0.0
 11
-51.981144297021842
 21
95.189362662121823
 31
0.0
  0
CIRCLE
  5
3FE
100
AcDbEntity
  8
0
  6
CONTINUOUS
 62
               4
100
AcDbCircle
 10
-52.931144297021831
 20
96.139347403332749
 30
0.0
 40
0.8499675393104553
  0
LINE
  5
3FF
100
AcDbEntity
  8
0
  6
CONTINUOUS
 62
               4
100
AcDbLine
 10
-53.88114429702182
 20
97.0893626621218
 30
0.0
 11
-51.981144297021842
 21
97.0893626621218
 31
0.0
  0
LINE
  5
400
100
AcDbEntity
  8
0
  6
CONTINUOUS
 62
               4
100
AcDbLine
 10
-53.88114429702182
 20
97.289362662121846
 30
0.0
 11
-51.981144297021842
 21
97.289362662121846
 31
0.0
  0
ARC
  5
401
100
AcDbEntity
  8
0
  6
CONTINUOUS
 62
               4
100
AcDbCircle
 10
-56.18113361584858
 20
98.039351980948538
 30
0.0
 40
0.5000106812873828
100
AcDbArc
 50
90.001223946153175
 51
179.9987760538454
  0
LINE
  5
402
100
AcDbEntity
  8
0
  6
CONTINUOUS
 62
               4
100
AcDbLine
 10
-54.431144297021831
 20
95.139362662121812
 30
0.0
 11
-54.431144297021831
 21
93.639362662121812
 31
0.0
  0
LINE
  5
403
100
AcDbEntity
  8
0
  6
CONTINUOUS
 62
               4
100
AcDbLine
 10
-54.531144297021797
 20
95.039362662121846
 30
0.0
 11
-54.531144297021797
 21
93.539362662121846
 31
0.0
  0
LINE
  5
404
100
AcDbEntity
  8
0
  6
CONTINUOUS
 62
               4
100
AcDbLine
 10
-55.531144297021797
 20
95.039362662121846
 30
0.0
 11
-54.531144297021797
 21
95.039362662121846
 31
0.0
  0
LINE
  5
405
100
AcDbEntity
  8
0
  6
CONTINUOUS
 62
               4
100
AcDbLine
 10
-55.431144297021831
 20
95.139362662121812
 30
0.0
 11
-54.431144297021831
 21
95.139362662121812
 31
0.0
  0
LINE
  5
406
100
AcDbEntity
  8
0
  6
CONTINUOUS
 62
               4
100
AcDbLine
 10
-55.431144297021831
 20
96.939362662121823
 30
0.0
 11
-54.431144297021831
 21
96.939362662121823
 31
0.0
  0
LINE
  5
407
100
AcDbEntity
  8
0
  6
CONTINUOUS
 62
               4
100
AcDbLine
 10
-55.531144297021797
 20
97.039362662121846
 30
0.0
 11
-54.531144297021797
 21
97.039362662121846
 31
0.0
  0
LINE
  5
408
100
AcDbEntity
  8
0
  6
CONTINUOUS
 62
               4
100
AcDbLine
 10
-55.531144297021797
 20
97.039362662121846
 30
0.0
 11
-55.531144297021797
 21
95.039362662121846
 31
0.0
  0
LINE
  5
409
100
AcDbEntity
  8
0
  6
CONTINUOUS
 62
               4
100
AcDbLine
 10
-55.431144297021831
 20
95.139362662121812
 30
0.0
 11
-55.431144297021831
 21
96.939362662121823
 31
0.0
  0
LINE
  5
40A
100
AcDbEntity
  8
0
  6
CONTINUOUS
 62
               4
100
AcDbLine
 10
-54.431144297021831
 20
97.599362662121848
 30
0.0
 11
-54.101144297021847
 21
97.939362662121823
 31
0.0
  0
ARC
  5
40B
100
AcDbEntity
  8
0
  6
CONTINUOUS
 62
               4
100
AcDbCircle
 10
-55.951143381467546
 20
98.039361746567579
 30
0.0
 40
0.5000009155550945
100
AcDbArc
 50
90.000104914596918
 51
179.99989508540253
  0
LINE
  5
40C
100
AcDbEntity
  8
0
  6
CONTINUOUS
 62
               4
100
AcDbLine
 10
-56.181144297021831
 20
98.539362662121846
 30
0.0
 11
-54.431144297021831
 21
98.539362662121846
 31
0.0
  0
LINE
  5
40D
100
AcDbEntity
  8
0
  6
CONTINUOUS
 62
               4
100
AcDbLine
 10
-54.531144297021797
 20
98.539362662121846
 30
0.0
 11
-54.531144297021797
 21
97.039362662121846
 31
0.0
  0
LINE
  5
40E
100
AcDbEntity
  8
0
  6
CONTINUOUS
 62
               4
100
AcDbLine
 10
-53.88114429702182
 20
97.289362662121846
 30
0.0
 11
-53.88114429702182
 21
95.189362662121823
 31
0.0
  0
LINE
  5
40F
100
AcDbEntity
  8
0
  6
CONTINUOUS
 62
               4
100
AcDbLine
 10
-54.431144297021831
 20
100.53938285185467
 30
0.0
 11
-54.431144297021831
 21
96.939362662121823
 31
0.0
  0
LINE
  5
410
100
AcDbEntity
  8
0
  6
CONTINUOUS
 62
               4
100
AcDbLine
 10
-52.431144297021831
 20
95.189362662121823
 30
0.0
 11
-52.431144297021831
 21
94.889362662121812
 31
0.0
  0
LINE
  5
411
100
AcDbEntity
  8
0
  6
CONTINUOUS
 62
               4
100
AcDbLine
 10
-53.431144297021831
 20
94.889362662121812
 30
0.0
 11
-52.431144297021831
 21
94.889362662121812
 31
0.0
  0
LINE
  5
412
100
AcDbEntity
  8
0
  6
CONTINUOUS
 62
               4
100
AcDbLine
 10
-48.931144297021831
 20
100.53938285185467
 30
0.0
 11
-48.931144297021831
 21
96.939362662121823
 31
0.0
  0
LINE
  5
413
100
AcDbEntity
  8
0
  6
CONTINUOUS
 62
               4
100
AcDbLine
 10
-48.971144297021851
 20
97.639362662121812
 30
0.0
 11
-49.271144297021806
 21
97.939362662121823
 31
0.0
  0
LINE
  5
414
100
AcDbEntity
  8
0
  6
CONTINUOUS
 62
               4
100
AcDbLine
 10
-48.831144297021865
 20
98.539362662121846
 30
0.0
 11
-48.831144297021865
 21
97.039362662121846
 31
0.0
  0
LINE
  5
415
100
AcDbEntity
  8
0
  6
CONTINUOUS
 62
               4
100
AcDbLine
 10
-48.931144297021831
 20
95.139362662121812
 30
0.0
 11
-48.931144297021831
 21
93.639362662121812
 31
0.0
  0
LINE
  5
416
100
AcDbEntity
  8
0
  6
CONTINUOUS
 62
               4
100
AcDbLine
 10
-48.831144297021865
 20
95.039362662121846
 30
0.0
 11
-48.831144297021865
 21
93.539362662121846
 31
0.0
  0
LINE
  5
417
100
AcDbEntity
  8
0
  6
CONTINUOUS
 62
               4
100
AcDbLine
 10
-51.38114429702182
 20
97.289362662121846
 30
0.0
 11
-49.481144297021842
 21
97.289362662121846
 31
0.0
  0
LINE
  5
418
100
AcDbEntity
  8
0
  6
CONTINUOUS
 62
               4
100
AcDbLine
 10
-51.38114429702182
 20
97.0893626621218
 30
0.0
 11
-49.481144297021842
 21
97.0893626621218
 31
0.0
  0
LINE
  5
419
100
AcDbEntity
  8
0
  6
CONTINUOUS
 62
               4
100
AcDbLine
 10
-47.931144297021831
 20
95.139362662121812
 30
0.0
 11
-47.931144297021831
 21
96.939362662121823
 31
0.0
  0
LINE
  5
41A
100
AcDbEntity
  8
0
  6
CONTINUOUS
 62
               4
100
AcDbLine
 10
-48.931144297021831
 20
96.939362662121823
 30
0.0
 11
-47.931144297021831
 21
96.939362662121823
 31
0.0
  0
LINE
  5
41B
100
AcDbEntity
  8
0
  6
CONTINUOUS
 62
               4
100
AcDbLine
 10
-51.38114429702182
 20
95.189362662121823
 30
0.0
 11
-49.481144297021842
 21
95.189362662121823
 31
0.0
  0
LINE
  5
41C
100
AcDbEntity
  8
0
  6
CONTINUOUS
 62
               4
100
AcDbLine
 10
-50.931144297021831
 20
94.889362662121812
 30
0.0
 11
-49.931144297021831
 21
94.889362662121812
 31
0.0
  0
LINE
  5
41D
100
AcDbEntity
  8
0
  6
CONTINUOUS
 62
               4
100
AcDbLine
 10
-49.931144297021831
 20
95.189362662121823
 30
0.0
 11
-49.931144297021831
 21
94.889362662121812
 31
0.0
  0
LINE
  5
41E
100
AcDbEntity
  8
0
  6
CONTINUOUS
 62
               4
100
AcDbLine
 10
-50.931144297021831
 20
95.189362662121823
 30
0.0
 11
-50.931144297021831
 21
94.889362662121812
 31
0.0
  0
LINE
  5
41F
100
AcDbEntity
  8
0
  6
CONTINUOUS
 62
               4
100
AcDbLine
 10
-51.38114429702182
 20
97.289362662121846
 30
0.0
 11
-51.38114429702182
 21
95.189362662121823
 31
0.0
  0
LINE
  5
420
100
AcDbEntity
  8
0
  6
CONTINUOUS
 62
               4
100
AcDbLine
 10
-48.831144297021865
 20
95.039362662121846
 30
0.0
 11
-47.831144297021808
 21
95.039362662121846
 31
0.0
  0
LINE
  5
421
100
AcDbEntity
  8
0
  6
CONTINUOUS
 62
               4
100
AcDbLine
 10
-48.931144297021831
 20
95.139362662121812
 30
0.0
 11
-47.931144297021831
 21
95.139362662121812
 31
0.0
  0
LINE
  5
422
100
AcDbEntity
  8
0
  6
CONTINUOUS
 62
               4
100
AcDbLine
 10
-49.481144297021842
 20
97.289362662121846
 30
0.0
 11
-49.481144297021842
 21
95.189362662121823
 31
0.0
  0
CIRCLE
  5
423
100
AcDbEntity
  8
0
  6
CONTINUOUS
 62
               4
100
AcDbCircle
 10
-50.431144297021831
 20
96.139347403332749
 30
0.0
 40
0.8499675393104553
  0
LINE
  5
424
100
AcDbEntity
  8
0
  6
CONTINUOUS
 62
               4
100
AcDbLine
 10
-48.831144297021865
 20
97.039362662121846
 30
0.0
 11
-47.831144297021808
 21
97.039362662121846
 31
0.0
  0
LINE
  5
425
100
AcDbEntity
  8
0
  6
CONTINUOUS
 62
               4
100
AcDbLine
 10
-47.831144297021808
 20
97.039362662121846
 30
0.0
 11
-47.831144297021808
 21
95.039362662121846
 31
0.0
  0
LINE
  5
426
100
AcDbEntity
  8
0
  6
CONTINUOUS
 62
               4
100
AcDbLine
 10
-51.981144297021842
 20
97.289362662121846
 30
0.0
 11
-51.981144297021842
 21
95.189362662121823
 31
0.0
  0
ARC
  5
427
100
AcDbEntity
  8
0
  6
CONTINUOUS
 62
               4
100
AcDbCircle
 10
-47.181139719499186
 20
98.039367239644434
 30
0.0
 40
0.4999954224983215
100
AcDbArc
 50
359.99947544974214
 51
90.000524550256856
  0
ARC
  5
428
100
AcDbEntity
  8
0
  6
CONTINUOUS
 62
               4
100
AcDbCircle
 10
-47.411145212576173
 20
98.039361746567579
 30
0.0
 40
0.5000009155550945
100
AcDbArc
 50
0.0001049145970977
 51
89.999895085402713
  0
LINE
  5
429
100
AcDbEntity
  8
0
  6
CONTINUOUS
 62
               4
100
AcDbLine
 10
-48.931144297021831
 20
98.539362662121846
 30
0.0
 11
-47.181144297021831
 21
98.539362662121846
 31
0.0
  0
LINE
  5
42A
100
AcDbEntity
  8
0
  6
CONTINUOUS
 62
               7
100
AcDbLine
 10
-56.681144297021831
 20
31.637362662121859
 30
0.0
 11
-46.681144297021831
 21
31.637362662121859
 31
0.0
  0
LINE
  5
42B
100
AcDbEntity
  8
0
  6
CONTINUOUS
 62
               7
100
AcDbLine
 10
-56.681144297021831
 20
39.637362662121859
 30
0.0
 11
-46.681144297021831
 21
39.637362662121859
 31
0.0
  0
CIRCLE
  5
42C
100
AcDbEntity
  8
0
  6
CONTINUOUS
 62
               7
100
AcDbCircle
 10
-51.681144297021831
 20
76.737362662121768
 30
0.0
 40
0.7500000000000001
  0
CIRCLE
  5
42D
100
AcDbEntity
  8
0
  6
CONTINUOUS
 62
               7
100
AcDbCircle
 10
-51.681144297021831
 20
76.737362662121768
 30
0.0
 40
1.1000000000000001
  0
LINE
  5
42E
100
AcDbEntity
  8
0
  6
CONTINUOUS
 62
               7
100
AcDbLine
 10
-56.681144297021831
 20
65.837362662121791
 30
0.0
 11
-46.681144297021831
 21
65.837362662121791
 31
0.0
  0
CIRCLE
  5
42F
100
AcDbEntity
  8
0
  6
CONTINUOUS
 62
               7
100
AcDbCircle
 10
-51.681144297021831
 20
76.737362662121768
 30
0.0
 40
1.1500000000000001
  0
CIRCLE
  5
430
100
AcDbEntity
  8
0
  6
CONTINUOUS
 62
               7
100
AcDbCircle
 10
-51.681144297021831
 20
76.737362662121768
 30
0.0
 40
1.3000000000000012
  0
LINE
  5
431
100
AcDbEntity
  8
0
  6
CENTER
 62
               2
100
AcDbLine
 10
-49.981144297021785
 20
76.737362662121768
 30
0.0
 11
-53.381144297021763
 21
76.737362662121768
 31
0.0
  0
ARC
  5
432
100
AcDbEntity
  8
0
  6
CONTINUOUS
 62
               7
100
AcDbCircle
 10
-51.681144297021831
 20
75.03736266212178
 30
0.0
 40
3.6000000000000005
100
AcDbArc
 50
179.99999999999963
 51
0.0
  0
ARC
  5
433
100
AcDbEntity
  8
0
  6
CONTINUOUS
 62
               7
100
AcDbCircle
 10
-51.681144297021831
 20
75.03736266212178
 30
0.0
 40
2.0
100
AcDbArc
 50
179.99999999999963
 51
0.0
  0
LINE
  5
434
100
AcDbEntity
  8
0
  6
CONTINUOUS
 62
               7
100
AcDbLine
 10
-48.081144297021808
 20
75.03736266212178
 30
0.0
 11
-48.081144297021808
 21
79.03736266212178
 31
0.0
  0
LINE
  5
435
100
AcDbEntity
  8
0
  6
CONTINUOUS
 62
               7
100
AcDbLine
 10
-55.281144297021854
 20
75.03736266212178
 30
0.0
 11
-55.281144297021854
 21
79.03736266212178
 31
0.0
  0
LINE
  5
436
100
AcDbEntity
  8
0
  6
CONTINUOUS
 62
               7
100
AcDbLine
 10
-49.681144297021831
 20
75.03736266212178
 30
0.0
 11
-49.681144297021831
 21
79.03736266212178
 31
0.0
  0
LINE
  5
437
100
AcDbEntity
  8
0
  6
CONTINUOUS
 62
               7
100
AcDbLine
 10
-53.681144297021831
 20
75.03736266212178
 30
0.0
 11
-53.681144297021831
 21
79.03736266212178
 31
0.0
  0
LINE
  5
438
100
AcDbEntity
  8
0
  6
CONTINUOUS
 62
               7
100
AcDbLine
 10
-46.681144297021831
 20
79.03736266212178
 30
0.0
 11
-56.681144297021831
 21
79.03736266212178
 31
0.0
  0
LINE
  5
439
100
AcDbEntity
  8
0
  6
CENTER
 62
               2
100
AcDbLine
 10
-48.789144297021778
 20
47.837362662121791
 30
0.0
 11
-54.509144297021805
 21
47.837362662121791
 31
0.0
  0
CIRCLE
  5
43A
100
AcDbEntity
  8
0
  6
CONTINUOUS
 62
               2
100
AcDbCircle
 10
-51.681147348779575
 20
47.837365713879592
 30
0.0
 40
2.5
  0
CIRCLE
  5
43B
100
AcDbEntity
  8
0
  6
CONTINUOUS
 62
               7
100
AcDbCircle
 10
-51.681147348779575
 20
47.837365713879592
 30
0.0
 40
2.1000000000000001
  0
LINE
  5
43C
100
AcDbEntity
  8
0
  6
CENTER
 62
               2
100
AcDbLine
 10
-57.208036908401198
 20
44.437362662121757
 30
0.0
 11
-53.464630680061589
 21
44.437362662121757
 31
0.0
  0
LINE
  5
43D
100
AcDbEntity
  8
0
  6
CONTINUOUS
 62
               7
100
AcDbLine
 10
-55.481144297021785
 20
42.837362662121734
 30
0.0
 11
-56.681144297021831
 21
42.837362662121734
 31
0.0
  0
LINE
  5
43E
100
AcDbEntity
  8
0
  6
CONTINUOUS
 62
               7
100
AcDbLine
 10
-55.481144297021785
 20
46.03736266212178
 30
0.0
 11
-56.681144297021831
 21
46.03736266212178
 31
0.0
  0
CIRCLE
  5
43F
100
AcDbEntity
  8
0
  6
CONTINUOUS
 62
               7
100
AcDbCircle
 10
-55.481144297021785
 20
44.437362662121757
 30
0.0
 40
0.8500000000000002
  0
LINE
  5
440
100
AcDbEntity
  8
0
  6
CENTER
 62
               2
100
AcDbLine
 10
-55.481144297021785
 20
42.487362662121768
 30
0.0
 11
-55.481144297021785
 21
46.387362662121745
 31
0.0
  0
ARC
  5
441
100
AcDbEntity
  8
0
  6
CONTINUOUS
 62
               7
100
AcDbCircle
 10
-55.481144297021785
 20
44.437362662121757
 30
0.0
 40
1.6000000000000003
100
AcDbArc
 50
270.00000000000023
 51
89.999999999999801
  0
LINE
  5
442
100
AcDbEntity
  8
0
  6
CENTER
 62
               2
100
AcDbLine
 10
-49.831144297021808
 20
61.03736266212178
 30
0.0
 11
-45.931144297021717
 21
61.03736266212178
 31
0.0
  0
LINE
  5
443
100
AcDbEntity
  8
0
  6
CENTER
 62
               2
100
AcDbLine
 10
-48.869144297021819
 20
57.637362662121802
 30
0.0
 11
-54.589144297021846
 21
57.637362662121802
 31
0.0
  0
CIRCLE
  5
444
100
AcDbEntity
  8
0
  6
CONTINUOUS
 62
               2
100
AcDbCircle
 10
-51.681147348779575
 20
57.637365713879547
 30
0.0
 40
2.5
  0
CIRCLE
  5
445
100
AcDbEntity
  8
0
  6
CONTINUOUS
 62
               7
100
AcDbCircle
 10
-51.681147348779575
 20
57.637365713879547
 30
0.0
 40
2.1000000000000001
  0
CIRCLE
  5
446
100
AcDbEntity
  8
0
  6
CONTINUOUS
 62
               7
100
AcDbCircle
 10
-47.881144297021763
 20
61.03736266212178
 30
0.0
 40
0.8500000000000002
  0
LINE
  5
447
100
AcDbEntity
  8
0
  6
CONTINUOUS
 62
               7
100
AcDbLine
 10
-47.881144297021763
 20
62.637362662121802
 30
0.0
 11
-46.681144297021831
 21
62.637362662121802
 31
0.0
  0
LINE
  5
448
100
AcDbEntity
  8
0
  6
CONTINUOUS
 62
               7
100
AcDbLine
 10
-47.881144297021763
 20
59.437362662121757
 30
0.0
 11
-46.681144297021831
 21
59.437362662121757
 31
0.0
  0
ARC
  5
449
100
AcDbEntity
  8
0
  6
CONTINUOUS
 62
               7
100
AcDbCircle
 10
-47.881144297021763
 20
61.03736266212178
 30
0.0
 40
1.6000000000000003
100
AcDbArc
 50
89.999999999999815
 51
269.99999999999937
  0
LINE
  5
44A
100
AcDbEntity
  8
0
  6
CENTER
 62
               2
100
AcDbLine
 10
-47.881144297021763
 20
59.087362662121734
 30
0.0
 11
-47.881144297021763
 21
62.987362662121825
 31
0.0
  0
LINE
  5
44B
100
AcDbEntity
  8
0
  6
CONTINUOUS
 62
               4
100
AcDbLine
 10
-56.681144297021831
 20
18.437362662121814
 30
0.0
 11
-46.681144297021831
 21
18.437362662121814
 31
0.0
  0
LINE
  5
44C
100
AcDbEntity
  8
0
  6
CONTINUOUS
 62
               7
100
AcDbLine
 10
-49.681144297021831
 20
22.437362662121814
 30
0.0
 11
-49.681144297021831
 21
18.437362662121814
 31
0.0
  0
LINE
  5
44D
100
AcDbEntity
  8
0
  6
CONTINUOUS
 62
               7
100
AcDbLine
 10
-53.681144297021831
 20
22.437362662121814
 30
0.0
 11
-53.681144297021831
 21
18.437362662121814
 31
0.0
  0
LINE
  5
44E
100
AcDbEntity
  8
0
  6
CONTINUOUS
 62
               7
100
AcDbLine
 10
-48.081144297021808
 20
22.437362662121814
 30
0.0
 11
-48.081144297021808
 21
18.437362662121814
 31
0.0
  0
LINE
  5
44F
100
AcDbEntity
  8
0
  6
CONTINUOUS
 62
               7
100
AcDbLine
 10
-55.281144297021854
 20
22.437362662121814
 30
0.0
 11
-55.281144297021854
 21
18.437362662121814
 31
0.0
  0
ARC
  5
450
100
AcDbEntity
  8
0
  6
CONTINUOUS
 62
               7
100
AcDbCircle
 10
-51.681144297021831
 20
22.437362662121814
 30
0.0
 40
2.0
100
AcDbArc
 50
0.0
 51
179.99999999999963
  0
ARC
  5
451
100
AcDbEntity
  8
0
  6
CONTINUOUS
 62
               7
100
AcDbCircle
 10
-51.681144297021831
 20
22.437362662121814
 30
0.0
 40
3.6000000000000005
100
AcDbArc
 50
0.0
 51
179.99999999999963
  0
LINE
  5
452
100
AcDbEntity
  8
0
  6
CENTER
 62
               2
100
AcDbLine
 10
-53.381144297021763
 20
20.737362662121825
 30
0.0
 11
-49.981144297021785
 21
20.737362662121825
 31
0.0
  0
CIRCLE
  5
453
100
AcDbEntity
  8
0
  6
CONTINUOUS
 62
               7
100
AcDbCircle
 10
-51.681144297021831
 20
20.737362662121825
 30
0.0
 40
1.3000000000000012
  0
CIRCLE
  5
454
100
AcDbEntity
  8
0
  6
CONTINUOUS
 62
               7
100
AcDbCircle
 10
-51.681144297021831
 20
20.737362662121825
 30
0.0
 40
1.1500000000000001
  0
CIRCLE
  5
455
100
AcDbEntity
  8
0
  6
CONTINUOUS
 62
               7
100
AcDbCircle
 10
-51.681144297021831
 20
20.737362662121825
 30
0.0
 40
1.1000000000000001
  0
CIRCLE
  5
456
100
AcDbEntity
  8
0
  6
CONTINUOUS
 62
               7
100
AcDbCircle
 10
-51.681144297021831
 20
20.737362662121825
 30
0.0
 40
0.7500000000000001
  0
LINE
  5
457
100
AcDbEntity
  8
0
  6
CENTER
 62
               2
100
AcDbLine
 10
-51.681144297021831
 20
102.23536266212176
 30
0.0
 11
-51.681144297021831
 21
-4.7606373378781655
 31
0.0
  0
LINE
  5
458
100
AcDbEntity
  8
0
  6
CONTINUOUS
 62
               7
100
AcDbLine
 10
-46.681144297021831
 20
18.437362662121814
 30
0.0
 11
-46.681144297021831
 21
79.03736266212178
 31
0.0
  0
LINE
  5
459
100
AcDbEntity
  8
0
  6
CONTINUOUS
 62
               7
100
AcDbLine
 10
-56.681144297021831
 20
18.437362662121814
 30
0.0
 11
-56.681144297021831
 21
79.03736266212178
 31
0.0
  0
ENDSEC
  0
SECTION
  2
OBJECTS
  0
DICTIONARY
  5
19
100
AcDbDictionary
  3
ACAD_GROUP
350
1A
  3
ACAD_MLINESTYLE
350
1B
  0
DICTIONARY
  5
1A
102
{ACAD_REACTORS
330
19
102
}
100
AcDbDictionary
  0
DICTIONARY
  5
1B
102
{ACAD_REACTORS
330
19
102
}
100
AcDbDictionary
  3
STANDARD
350
1C
  0
MLINESTYLE
  5
1C
102
{ACAD_REACTORS
330
1B
102
}
100
AcDbMlineStyle
  2
Standard
 70
               0
  3

 62
               0
 51
90.0
 52
90.0
 71
               2
 49
0.5
 62
             256
  6
ByLayer
 49
-0.5
 62
             256
  6
ByLayer
  0
ENDSEC
  0
EOF
