  0
SECTION
  2
HEADER
  9
$ACADVER
  1
AC1009
  9
$INSBASE
 10
0.0
 20
0.0
 30
0.0
  9
$EXTMIN
 10
-194.25
 20
-133.5
 30
0.0
  9
$EXTMAX
 10
194.80000305
 20
132.6000061
 30
0.0
  9
$LIMMIN
 10
-194.25
 20
-133.5
  9
$LIMMAX
 10
194.80000305
 20
132.6000061
  9
$ORTHOMODE
 70
       0
  9
$REGENMODE
 70
       1
  9
$FILLMODE
 70
       1
  9
$QTEXTMODE
 70
       0
  9
$MIRRTEXT
 70
       1
  9
$DRAGMODE
 70
       2
  9
$LTSCALE
 40
1.0
  9
$OSMODE
 70
       0
  9
$ATTMODE
 70
       1
  9
$TEXTSIZE
 40
3.20000005
  9
$TRACEWID
 40
0.05
  9
$TEXTSTYLE
  7
MX_NOTE_STANDARD
  9
$CLAYER
  8
0
  9
$CELTYPE
  6
CONTINUOUS
  9
$CECOLOR
 62
     256
  9
$DIMSCALE
 40
1.0
  9
$DIMASZ
 40
2.5
  9
$DIMEXO
 40
1.5
  9
$DIMDLI
 40
3.75
  9
$DIMRND
 40
0.0
  9
$DIMDLE
 40
0.0
  9
$DIMEXE
 40
1.5
  9
$DIMTP
 40
0.0
  9
$DIMTM
 40
0.0
  9
$DIMTXT
 40
3.20000005
  9
$DIMCEN
 40
2.5
  9
$DIMTSZ
 40
0.0
  9
$DIMTOL
 70
       0
  9
$DIMLIM
 70
       0
  9
$DIMTIH
 70
       0
  9
$DIMTOH
 70
       0
  9
$DIMSE1
 70
       0
  9
$DIMSE2
 70
       0
  9
$DIMTAD
 70
       1
  9
$DIMZIN
 70
       8
  9
$DIMBLK
  1

  9
$DIMASO
 70
       1
  9
$DIMSHO
 70
       1
  9
$DIMPOST
  1

  9
$DIMAPOST
  1

  9
$DIMALT
 70
       0
  9
$DIMALTD
 70
       4
  9
$DIMALTF
 40
0.0394
  9
$DIMLFAC
 40
1.0
  9
$DIMTOFL
 70
       1
  9
$DIMTVP
 40
0.0
  9
$DIMTIX
 70
       0
  9
$DIMSOXD
 70
       0
  9
$DIMSAH
 70
       0
  9
$DIMBLK1
  1

  9
$DIMBLK2
  1

  9
$DIMSTYLE
  2
MXDIMSTYLE
  9
$DIMCLRD
 70
       0
  9
$DIMCLRE
 70
       0
  9
$DIMCLRT
 70
       0
  9
$DIMTFAC
 40
1.0
  9
$DIMGAP
 40
1.0
  9
$LUNITS
 70
       2
  9
$LUPREC
 70
       4
  9
$AXISMODE
 70
       0
  9
$AXISUNIT
 10
0.0
 20
0.0
  9
$SKETCHINC
 40
0.1
  9
$FILLETRAD
 40
0.0
  9
$AUNITS
 70
       0
  9
$AUPREC
 70
       0
  9
$MENU
  1
acad
  9
$ELEVATION
 40
0.0
  9
$PELEVATION
 40
0.0
  9
$THICKNESS
 40
0.0
  9
$LIMCHECK
 70
       0
  9
$BLIPMODE
 70
       1
  9
$CHAMFERA
 40
0.0
  9
$CHAMFERB
 40
0.0
  9
$SKPOLY
 70
       0
  9
$TDCREATE
 40
2452776.788576389
  9
$TDUPDATE
 40
2452776.788576389
  9
$TDINDWG
 40
0.0000000000
  9
$TDUSRTIMER
 40
0.0000000000
  9
$USRTIMER
 70
       1
  9
$ANGBASE
 50
0.0
  9
$ANGDIR
 70
       0
  9
$PDMODE
 70
       0
  9
$PDSIZE
 40
0.0
  9
$PLINEWID
 40
0.0
  9
$COORDS
 70
       1
  9
$SPLFRAME
 70
       0
  9
$SPLINETYPE
 70
       6
  9
$SPLINESEGS
 70
       8
  9
$ATTDIA
 70
       0
  9
$ATTREQ
 70
       1
  9
$HANDLING
 70
       1
  9
$HANDSEED
  5
139
  9
$SURFTAB1
 70
       6
  9
$SURFTAB2
 70
       6
  9
$SURFTYPE
 70
       6
  9
$SURFU
 70
       6
  9
$SURFV
 70
       6
  9
$UCSNAME
  2

  9
$UCSORG
 10
0.0
 20
0.0
 30
0.0
  9
$UCSXDIR
 10
1.0
 20
0.0
 30
0.0
  9
$UCSYDIR
 10
0.0
 20
1.0
 30
0.0
  9
$PUCSNAME
  2

  9
$PUCSORG
 10
0.0
 20
0.0
 30
0.0
  9
$PUCSXDIR
 10
1.0
 20
0.0
 30
0.0
  9
$PUCSYDIR
 10
0.0
 20
1.0
 30
0.0
  9
$USERI1
 70
       0
  9
$USERI2
 70
       0
  9
$USERI3
 70
       0
  9
$USERI4
 70
       0
  9
$USERI5
 70
       0
  9
$USERR1
 40
0.0
  9
$USERR2
 40
0.0
  9
$USERR3
 40
0.0
  9
$USERR4
 40
0.0
  9
$USERR5
 40
0.0
  9
$WORLDVIEW
 70
       1
  9
$SHADEDGE
 70
       3
  9
$SHADEDIF
 70
      70
  9
$TILEMODE
 70
       1
  9
$MAXACTVP
 70
      16
  9
$PINSBASE
 10
0.0
 20
0.0
 30
0.0
  9
$PLIMCHECK
 70
       0
  9
$PEXTMIN
 10
1.00000000E+20
 20
1.00000000E+20
 30
1.00000000E+20
  9
$PEXTMAX
 10
-1.00000000E+20
 20
-1.00000000E+20
 30
-1.00000000E+20
  9
$PLIMMIN
 10
0.0
 20
0.0
  9
$PLIMMAX
 10
12.0
 20
9.0
  9
$UNITMODE
 70
       0
  9
$VISRETAIN
 70
       0
  9
$PLINEGEN
 70
       1
  9
$PSLTSCALE
 70
       0
  9
$TREEDEPTH
 70
    3020
  9
$DWGCODEPAGE
  3
dos932
  0
ENDSEC
  0
SECTION
  2
TABLES
  0
TABLE
  2
VPORT
 70
       1
  0
VPORT
  2
*ACTIVE
 70
       0
 10
0.0
 20
0.0
 11
1.0
 21
1.0
 12
0.27500153
 22
-0.44999695
 13
0.0
 23
0.0
 14
1.0
 24
1.0
 15
0.0
 25
0.0
 16
0.0
 26
0.0
 36
1.0
 17
0.0
 27
0.0
 37
0.0
 40
268.76100616
 41
1.73205081
 42
50.0
 43
0.0
 44
0.0
 50
0.0
 51
0.0
 71
       0
 72
     100
 73
       1
 74
       1
 75
       0
 76
       0
 77
       0
 78
       0
  0
ENDTAB
  0
TABLE
  2
LTYPE
 70
       3
  0
LTYPE
  2
CONTINUOUS
 70
      64
  3
Solid line
 72
      65
 73
       0
 40
0.0
  0
LTYPE
  2
CENTER
 70
      64
  3
Center ____ _ ____ _ ____ _ ____ _ ____ _ ____
 72
      65
 73
       4
 40
50.8
 49
31.75
 49
-6.35
 49
6.35
 49
-6.35
  0
LTYPE
  2
DASHED
 70
      64
  3
Dashed __ __ __ __ __ __ __ __ __ __ __ __ __ _
 72
      65
 73
       2
 40
19.05
 49
12.7
 49
-6.35
  0
ENDTAB
  0
TABLE
  2
LAYER
 70
       2
  0
LAYER
  2
0
 70
       0
 62
       7
  6
CONTINUOUS
  0
LAYER
  2
DEFPOINTS
 70
       0
 62
       7
  6
CONTINUOUS
  0
ENDTAB
  0
TABLE
  2
STYLE
 70
       1
  0
STYLE
  2
MX_NOTE_STANDARD
 70
       0
 40
3.20000005
 41
1.0
 50
0.0
 71
       0
 42
3.20000005
  3
txt.shx
  4
extfont.shx
  0
ENDTAB
  0
TABLE
  2
VIEW
 70
       0
  0
ENDTAB
  0
TABLE
  2
UCS
 70
       0
  0
ENDTAB
  0
TABLE
  2
APPID
 70
       1
  0
APPID
  2
ACAD
 70
       0
  0
ENDTAB
  0
TABLE
  2
DIMSTYLE
 70
       1
  0
DIMSTYLE
  2
MXDIMSTYLE
 70
       0
  3

  4

  5

  6

  7

 40
1.0
 41
2.5
 42
1.5
 43
3.75
 44
1.5
 45
0.0
 46
0.0
 47
0.0
 48
0.0
 71
       0
 72
       0
 73
       0
 74
       0
 75
       0
 76
       0
 77
       1
 78
       8
140
3.20000005
141
2.5
142
0.0
143
0.0394
144
1.0
145
0.0
146
1.0
147
1.0
170
       0
171
       4
172
       1
173
       0
174
       0
175
       0
176
       0
177
       0
178
       0
  0
ENDTAB
  0
ENDSEC
  0
SECTION
  2
BLOCKS
  0
ENDSEC
  0
SECTION
  2
ENTITIES
  0
LINE
  8
0
  6
CENTER
 62
       2
  5
1F
 10
-128.5739739
 20
-5.72006894
 30
0.0
 11
-114.6151729
 21
-5.72006894
 31
0.0
  0
LINE
  8
0
  6
CENTER
 62
       2
  5
20
 10
-128.5739739
 20
-45.72009894
 30
0.0
 11
-114.3723139
 21
-45.72009894
 31
0.0
  0
LINE
  8
0
  6
CENTER
 62
       2
  5
21
 10
-121.2327879
 20
-53.72424894
 30
0.0
 11
-121.2327879
 21
-39.09585894
 31
0.0
  0
LINE
  8
0
  6
CENTER
 62
       2
  5
22
 10
-81.2328199
 20
-53.54614894
 30
0.0
 11
-81.2328199
 21
-38.73151894
 31
0.0
  0
LINE
  8
0
  6
CENTER
 62
       2
  5
23
 10
-87.5360099
 20
-45.72009894
 30
0.0
 11
-73.3285499
 21
-45.72009894
 31
0.0
  0
LINE
  8
0
  6
CENTER
 62
       2
  5
24
 10
-81.2328199
 20
-12.13809894
 30
0.0
 11
-81.2328199
 21
1.70507106
 31
0.0
  0
LINE
  8
0
  6
CENTER
 62
       2
  5
25
 10
-87.4145499
 20
-5.72006894
 30
0.0
 11
-73.9357299
 21
-5.72006894
 31
0.0
  0
LINE
  8
0
  6
CENTER
 62
       2
  5
26
 10
-121.2327879
 20
-12.13809894
 30
0.0
 11
-121.2327879
 21
2.43368106
 31
0.0
  0
LINE
  8
0
  6
CONTINUOUS
 62
       7
  5
27
 10
-93.7328199
 20
-51.72009894
 30
0.0
 11
-93.7328199
 21
-51.22009894
 31
0.0
  0
LINE
  8
0
  6
CONTINUOUS
 62
       7
  5
28
 10
-93.7329699
 20
-51.22016894
 30
0.0
 11
-94.2329999
 21
-50.72013894
 31
0.0
  0
LINE
  8
0
  6
CONTINUOUS
 62
       7
  5
29
 10
-94.2328199
 20
-50.72012894
 30
0.0
 11
-94.2328199
 21
-49.12015894
 31
0.0
  0
LINE
  8
0
  6
CONTINUOUS
 62
       7
  5
2A
 10
-90.0328399
 20
-50.72012894
 30
0.0
 11
-90.0328399
 21
-49.12015894
 31
0.0
  0
LINE
  8
0
  6
CONTINUOUS
 62
       7
  5
2B
 10
-90.0326699
 20
-50.72031894
 30
0.0
 11
-90.5326499
 21
-51.22030894
 31
0.0
  0
LINE
  8
0
  6
CONTINUOUS
 62
       7
  5
2C
 10
-90.5328099
 20
-51.72009894
 30
0.0
 11
-90.5328099
 21
-51.22009894
 31
0.0
  0
LINE
  8
0
  6
CONTINUOUS
 62
       7
  5
2D
 10
-112.4329979
 20
-50.72017894
 30
0.0
 11
-111.9329679
 21
-51.22020894
 31
0.0
  0
LINE
  8
0
  6
CONTINUOUS
 62
       7
  5
2E
 10
-112.4327999
 20
-50.72012894
 30
0.0
 11
-112.4327999
 21
-49.12015894
 31
0.0
  0
LINE
  8
0
  6
CONTINUOUS
 62
       7
  5
2F
 10
-108.2327879
 20
-50.72012894
 30
0.0
 11
-108.2327879
 21
-49.12015894
 31
0.0
  0
LINE
  8
0
  6
CONTINUOUS
 62
       7
  5
30
 10
-108.7326349
 20
-51.22033894
 30
0.0
 11
-108.2326349
 21
-50.72032894
 31
0.0
  0
LINE
  8
0
  6
CONTINUOUS
 62
       7
  5
31
 10
-108.7328179
 20
-51.72009894
 30
0.0
 11
-108.7328179
 21
-51.22009894
 31
0.0
  0
LINE
  8
0
  6
CONTINUOUS
 62
       7
  5
32
 10
-111.9328309
 20
-51.72009894
 30
0.0
 11
-111.9328309
 21
-51.22009894
 31
0.0
  0
LINE
  8
0
  6
CONTINUOUS
 62
       7
  5
33
 10
-123.9099119
 20
-51.72009894
 30
0.0
 11
-111.9328609
 21
-51.72009894
 31
0.0
  0
LINE
  8
0
  6
CONTINUOUS
 62
       7
  5
34
 10
-108.7328489
 20
-51.72006894
 30
0.0
 11
-104.7327879
 21
-51.72006894
 31
0.0
  0
LINE
  8
0
  6
CONTINUOUS
 62
       7
  5
35
 10
-90.5328399
 20
-51.72009894
 30
0.0
 11
-78.5557199
 21
-51.72009894
 31
0.0
  0
LINE
  8
0
  6
CONTINUOUS
 62
       7
  5
36
 10
-109.9828489
 20
5.27990106
 30
0.0
 11
-92.4827899
 21
5.27990106
 31
0.0
  0
LINE
  8
0
  6
CONTINUOUS
 62
       7
  5
37
 10
-75.2327899
 20
-18.22009894
 30
0.0
 11
-75.7327899
 21
-18.22009894
 31
0.0
  0
LINE
  8
0
  6
CONTINUOUS
 62
       7
  5
38
 10
-75.7326299
 20
-18.22021894
 30
0.0
 11
-76.2326699
 21
-18.72024894
 31
0.0
  0
LINE
  8
0
  6
CONTINUOUS
 62
       7
  5
39
 10
-76.2328499
 20
-18.72006894
 30
0.0
 11
-77.8328199
 21
-18.72006894
 31
0.0
  0
LINE
  8
0
  6
CONTINUOUS
 62
       7
  5
3A
 10
-76.2328499
 20
-14.52008894
 30
0.0
 11
-77.8328199
 21
-14.52008894
 31
0.0
  0
LINE
  8
0
  6
CONTINUOUS
 62
       7
  5
3B
 10
-76.2329299
 20
-14.52020894
 30
0.0
 11
-75.7328999
 21
-15.02024894
 31
0.0
  0
LINE
  8
0
  6
CONTINUOUS
 62
       7
  5
3C
 10
-75.2327899
 20
-15.02008894
 30
0.0
 11
-75.7327899
 21
-15.02008894
 31
0.0
  0
LINE
  8
0
  6
CONTINUOUS
 62
       7
  5
3D
 10
-76.2325099
 20
-36.92032894
 30
0.0
 11
-75.7325199
 21
-36.42033894
 31
0.0
  0
LINE
  8
0
  6
CONTINUOUS
 62
       7
  5
3E
 10
-76.2328499
 20
-36.92007894
 30
0.0
 11
-77.8328199
 21
-36.92007894
 31
0.0
  0
LINE
  8
0
  6
CONTINUOUS
 62
       7
  5
3F
 10
-76.2328499
 20
-32.72009894
 30
0.0
 11
-77.8328199
 21
-32.72009894
 31
0.0
  0
LINE
  8
0
  6
CONTINUOUS
 62
       7
  5
40
 10
-75.7329499
 20
-33.22013894
 30
0.0
 11
-76.2329899
 21
-32.72010894
 31
0.0
  0
LINE
  8
0
  6
CONTINUOUS
 62
       7
  5
41
 10
-75.2327899
 20
-33.22009894
 30
0.0
 11
-75.7327899
 21
-33.22009894
 31
0.0
  0
LINE
  8
0
  6
CONTINUOUS
 62
       7
  5
42
 10
-75.2327899
 20
-36.42010894
 30
0.0
 11
-75.7327899
 21
-36.42010894
 31
0.0
  0
LINE
  8
0
  6
CONTINUOUS
 62
       7
  5
43
 10
-75.2328199
 20
-48.39715894
 30
0.0
 11
-75.2328199
 21
-36.42013894
 31
0.0
  0
LINE
  8
0
  6
CONTINUOUS
 62
       7
  5
44
 10
-75.2327899
 20
-33.22012894
 30
0.0
 11
-75.2327899
 21
-29.22009894
 31
0.0
  0
LINE
  8
0
  6
CONTINUOUS
 62
       7
  5
45
 10
-75.2328199
 20
-15.02011894
 30
0.0
 11
-75.2328199
 21
-3.04303894
 31
0.0
  0
LINE
  8
0
  6
CONTINUOUS
 62
       7
  5
46
 10
-111.4924009
 20
0.06727106
 30
0.0
 11
-111.2810819
 21
-0.38590894
 31
0.0
  0
LINE
  8
0
  6
CONTINUOUS
 62
       7
  5
47
 10
-111.2809289
 20
-0.38593894
 30
0.0
 11
-110.6165009
 21
-0.62776894
 31
0.0
  0
LINE
  8
0
  6
CONTINUOUS
 62
       7
  5
48
 10
-110.6165919
 20
-0.62774894
 30
0.0
 11
-109.9404289
 21
-2.07779894
 31
0.0
  0
LINE
  8
0
  6
CONTINUOUS
 62
       7
  5
49
 10
-114.4228819
 20
-2.40279894
 30
0.0
 11
-114.1810449
 21
-1.73834894
 31
0.0
  0
LINE
  8
0
  6
CONTINUOUS
 62
       7
  5
4A
 10
-114.3925629
 20
-1.28512894
 30
0.0
 11
-114.1812439
 21
-1.73830894
 31
0.0
  0
LINE
  8
0
  6
CONTINUOUS
 62
       7
  5
4B
 10
-78.5557199
 20
0.27990106
 30
0.0
 11
-86.3504299
 21
0.27990106
 31
0.0
  0
LINE
  8
0
  6
CONTINUOUS
 62
       7
  5
4C
 10
-127.2327879
 20
-33.22009894
 30
0.0
 11
-126.7328489
 21
-33.22009894
 31
0.0
  0
LINE
  8
0
  6
CONTINUOUS
 62
       7
  5
4D
 10
-126.7326809
 20
-33.22020894
 30
0.0
 11
-126.2326809
 21
-32.72019894
 31
0.0
  0
LINE
  8
0
  6
CONTINUOUS
 62
       7
  5
4E
 10
-126.2328489
 20
-32.72009894
 30
0.0
 11
-124.6328119
 21
-32.72009894
 31
0.0
  0
LINE
  8
0
  6
CONTINUOUS
 62
       7
  5
4F
 10
-126.2328489
 20
-36.92007894
 30
0.0
 11
-124.6328119
 21
-36.92007894
 31
0.0
  0
LINE
  8
0
  6
CONTINUOUS
 62
       7
  5
50
 10
-126.2329859
 20
-36.92019894
 30
0.0
 11
-126.7329559
 21
-36.42022894
 31
0.0
  0
LINE
  8
0
  6
CONTINUOUS
 62
       7
  5
51
 10
-127.2327879
 20
-36.42010894
 30
0.0
 11
-126.7328489
 21
-36.42010894
 31
0.0
  0
LINE
  8
0
  6
CONTINUOUS
 62
       7
  5
52
 10
-126.2326199
 20
-14.52039894
 30
0.0
 11
-126.7326199
 21
-15.02038894
 31
0.0
  0
LINE
  8
0
  6
CONTINUOUS
 62
       7
  5
53
 10
-126.2328489
 20
-14.52008894
 30
0.0
 11
-124.6328119
 21
-14.52008894
 31
0.0
  0
LINE
  8
0
  6
CONTINUOUS
 62
       7
  5
54
 10
-126.2328489
 20
-18.72006894
 30
0.0
 11
-124.6328119
 21
-18.72006894
 31
0.0
  0
LINE
  8
0
  6
CONTINUOUS
 62
       7
  5
55
 10
-126.7330469
 20
-18.22015894
 30
0.0
 11
-126.2330009
 21
-18.72019894
 31
0.0
  0
LINE
  8
0
  6
CONTINUOUS
 62
       7
  5
56
 10
-127.2327879
 20
-18.22009894
 30
0.0
 11
-126.7328489
 21
-18.22009894
 31
0.0
  0
LINE
  8
0
  6
CONTINUOUS
 62
       7
  5
57
 10
-127.2327879
 20
-15.02008894
 30
0.0
 11
-126.7328489
 21
-15.02008894
 31
0.0
  0
LINE
  8
0
  6
CONTINUOUS
 62
       7
  5
58
 10
98.2671801
 20
95.27988406
 30
0.0
 11
28.7671801
 21
95.27988406
 31
0.0
  0
LINE
  8
0
  6
CONTINUOUS
 62
       7
  5
59
 10
-127.2327879
 20
-18.22012894
 30
0.0
 11
-127.2327879
 21
-22.22009894
 31
0.0
  0
LINE
  8
0
  6
CONTINUOUS
 62
       7
  5
5A
 10
-127.2328179
 20
-36.42013894
 30
0.0
 11
-127.2328179
 21
-48.39715894
 31
0.0
  0
LINE
  8
0
  6
CONTINUOUS
 62
       7
  5
5B
 10
-75.2327899
 20
-22.22009894
 30
0.0
 11
-75.2327899
 21
-18.22012894
 31
0.0
  0
LINE
  8
0
  6
CONTINUOUS
 62
       7
  5
5C
 10
-77.2328499
 20
-29.22006894
 30
0.0
 11
-75.2327899
 21
-29.22006894
 31
0.0
  0
LINE
  8
0
  6
CONTINUOUS
 62
       7
  5
5D
 10
-77.2328199
 20
-29.22009894
 30
0.0
 11
-77.2328199
 21
-30.72009894
 31
0.0
  0
LINE
  8
0
  6
CONTINUOUS
 62
       7
  5
5E
 10
-78.2327899
 20
-20.72009894
 30
0.0
 11
-78.2327899
 21
-30.72009894
 31
0.0
  0
LINE
  8
0
  6
CONTINUOUS
 62
       7
  5
5F
 10
-78.2327899
 20
-30.72006894
 30
0.0
 11
-77.2328499
 21
-30.72006894
 31
0.0
  0
LINE
  8
0
  6
CONTINUOUS
 62
       7
  5
60
 10
-78.2327899
 20
-20.72006894
 30
0.0
 11
-77.2328499
 21
-20.72006894
 31
0.0
  0
LINE
  8
0
  6
CONTINUOUS
 62
       7
  5
61
 10
-77.2328199
 20
-20.72009894
 30
0.0
 11
-77.2328199
 21
-22.22009894
 31
0.0
  0
LINE
  8
0
  6
CONTINUOUS
 62
       7
  5
62
 10
-77.2328499
 20
-22.22006894
 30
0.0
 11
-75.2327899
 21
-22.22006894
 31
0.0
  0
LINE
  8
0
  6
CONTINUOUS
 62
       7
  5
63
 10
-125.2328489
 20
-22.22006894
 30
0.0
 11
-127.2327879
 21
-22.22006894
 31
0.0
  0
LINE
  8
0
  6
CONTINUOUS
 62
       7
  5
64
 10
-125.2328179
 20
-22.22009894
 30
0.0
 11
-125.2328179
 21
-20.72009894
 31
0.0
  0
LINE
  8
0
  6
CONTINUOUS
 62
       7
  5
65
 10
-124.2327879
 20
-30.72009894
 30
0.0
 11
-124.2327879
 21
-20.72009894
 31
0.0
  0
LINE
  8
0
  6
CONTINUOUS
 62
       7
  5
66
 10
-124.2327879
 20
-20.72006894
 30
0.0
 11
-125.2328489
 21
-20.72006894
 31
0.0
  0
LINE
  8
0
  6
CONTINUOUS
 62
       7
  5
67
 10
-124.2327879
 20
-30.72006894
 30
0.0
 11
-125.2328489
 21
-30.72006894
 31
0.0
  0
LINE
  8
0
  6
CONTINUOUS
 62
       7
  5
68
 10
-125.2328179
 20
-30.72009894
 30
0.0
 11
-125.2328179
 21
-29.22009894
 31
0.0
  0
LINE
  8
0
  6
CONTINUOUS
 62
       7
  5
69
 10
-125.2328489
 20
-29.22006894
 30
0.0
 11
-127.2327879
 21
-29.22006894
 31
0.0
  0
LINE
  8
0
  6
CONTINUOUS
 62
       7
  5
6A
 10
-97.7327899
 20
-51.72006894
 30
0.0
 11
-93.7328499
 21
-51.72006894
 31
0.0
  0
LINE
  8
0
  6
CONTINUOUS
 62
       7
  5
6B
 10
-127.2327879
 20
-29.22009894
 30
0.0
 11
-127.2327879
 21
-33.22012894
 31
0.0
  0
LINE
  8
0
  6
CONTINUOUS
 62
       7
  5
6C
 10
-96.2327899
 20
-49.72009894
 30
0.0
 11
-97.7327899
 21
-49.72009894
 31
0.0
  0
LINE
  8
0
  6
CONTINUOUS
 62
       7
  5
6D
 10
-97.7328499
 20
-49.72012894
 30
0.0
 11
-97.7328499
 21
-51.72009894
 31
0.0
  0
LINE
  8
0
  6
CONTINUOUS
 62
       7
  5
6E
 10
-104.7327879
 20
-49.72012894
 30
0.0
 11
-104.7327879
 21
-51.72009894
 31
0.0
  0
LINE
  8
0
  6
CONTINUOUS
 62
       7
  5
6F
 10
-104.7327879
 20
-49.72009894
 30
0.0
 11
-106.2327879
 21
-49.72009894
 31
0.0
  0
LINE
  8
0
  6
CONTINUOUS
 62
       7
  5
70
 10
-106.2327879
 20
-48.72009894
 30
0.0
 11
-106.2327879
 21
-49.72012894
 31
0.0
  0
LINE
  8
0
  6
CONTINUOUS
 62
       7
  5
71
 10
-96.2327899
 20
-48.72006894
 30
0.0
 11
-106.2327879
 21
-48.72006894
 31
0.0
  0
LINE
  8
0
  6
CONTINUOUS
 62
       7
  5
72
 10
-96.2327899
 20
-48.72009894
 30
0.0
 11
-96.2327899
 21
-49.72012894
 31
0.0
  0
LINE
  8
0
  6
CENTER
 62
       2
  5
73
 10
18.7671801
 20
69.27989906
 30
0.0
 11
101.2671801
 21
69.27989906
 31
0.0
  0
LINE
  8
0
  6
CONTINUOUS
 62
       7
  5
74
 10
28.7671801
 20
95.27988406
 30
0.0
 11
28.7671801
 21
43.27989906
 31
0.0
  0
LINE
  8
0
  6
CONTINUOUS
 62
       7
  5
75
 10
98.2671801
 20
95.27988406
 30
0.0
 11
98.2671801
 21
43.27989906
 31
0.0
  0
LINE
  8
0
  6
CONTINUOUS
 62
       7
  5
76
 10
21.7671801
 20
-33.72009894
 30
0.0
 11
28.7671801
 21
-33.72009894
 31
0.0
  0
LINE
  8
0
  6
CONTINUOUS
 62
       7
  5
77
 10
21.7671801
 20
-33.72009894
 30
0.0
 11
21.7671801
 21
-17.72009894
 31
0.0
  0
LINE
  8
0
  6
CONTINUOUS
 62
       7
  5
78
 10
28.7671801
 20
43.27989906
 30
0.0
 11
98.2671801
 21
43.27989906
 31
0.0
  0
LINE
  8
0
  6
CONTINUOUS
 62
       7
  5
79
 10
-114.4229279
 20
-2.40302894
 30
0.0
 11
-113.7468719
 21
-3.85282894
 31
0.0
  0
LINE
  8
0
  6
CONTINUOUS
 62
       7
  5
7A
 10
-116.1152949
 20
0.27990106
 30
0.0
 11
-123.9099119
 21
0.27990106
 31
0.0
  0
LINE
  8
0
  6
CONTINUOUS
 62
       7
  5
7B
 10
-88.0732599
 20
-1.28507894
 30
0.0
 11
-88.2845599
 21
-1.73823894
 31
0.0
  0
LINE
  8
0
  6
CONTINUOUS
 62
       7
  5
7C
 10
-88.0429899
 20
-2.40283894
 30
0.0
 11
-88.2848299
 21
-1.73838894
 31
0.0
  0
LINE
  8
0
  6
CONTINUOUS
 62
       7
  5
7D
 10
-88.0428799
 20
-2.40296894
 30
0.0
 11
-88.7189299
 21
-3.85275894
 31
0.0
  0
LINE
  8
0
  6
CONTINUOUS
 62
       7
  5
7E
 10
-90.9734099
 20
0.06731106
 30
0.0
 11
-91.1847299
 21
-0.38586894
 31
0.0
  0
LINE
  8
0
  6
CONTINUOUS
 62
       7
  5
7F
 10
-91.1847699
 20
-0.38571894
 30
0.0
 11
-91.8492199
 21
-0.62755894
 31
0.0
  0
LINE
  8
0
  6
CONTINUOUS
 62
       7
  5
80
 10
-91.8492699
 20
-0.62764894
 30
0.0
 11
-92.5254399
 21
-2.07771894
 31
0.0
  0
LINE
  8
0
  6
CONTINUOUS
 62
       7
  5
81
 10
23.2671801
 20
-33.72009894
 30
0.0
 11
23.2671801
 21
-17.72009894
 31
0.0
  0
LINE
  8
0
  6
CONTINUOUS
 62
       7
  5
82
 10
-114.3925469
 20
-1.28511894
 30
0.0
 11
-115.5885469
 21
-0.84980894
 31
0.0
  0
LINE
  8
0
  6
CONTINUOUS
 62
       7
  5
83
 10
-111.4925529
 20
0.06738106
 30
0.0
 11
-111.4151909
 21
0.27993106
 31
0.0
  0
LINE
  8
0
  6
CONTINUOUS
 62
       7
  5
84
 10
-88.0731099
 20
-1.28510894
 30
0.0
 11
-86.8772399
 21
-0.84985894
 31
0.0
  0
LINE
  8
0
  6
CONTINUOUS
 62
       7
  5
85
 10
21.7671801
 20
-17.72009894
 30
0.0
 11
28.7671801
 21
-17.72009894
 31
0.0
  0
LINE
  8
0
  6
CONTINUOUS
 62
       7
  5
86
 10
-109.9829099
 20
5.27988106
 30
0.0
 11
-111.4924009
 21
0.06725106
 31
0.0
  0
LINE
  8
0
  6
CONTINUOUS
 62
       7
  5
87
 10
-92.4828599
 20
5.27984106
 30
0.0
 11
-90.9733699
 21
0.06721106
 31
0.0
  0
LINE
  8
0
  6
CONTINUOUS
 62
       7
  5
88
 10
-115.5885009
 20
-0.84984894
 30
0.0
 11
-116.1152799
 21
0.27983106
 31
0.0
  0
LINE
  8
0
  6
CONTINUOUS
 62
       7
  5
89
 10
28.7671801
 20
46.60282106
 30
0.0
 11
98.2671801
 21
46.60282106
 31
0.0
  0
LINE
  8
0
  6
CONTINUOUS
 62
       7
  5
8A
 10
-86.8772799
 20
-0.84987894
 30
0.0
 11
-86.3504599
 21
0.27988106
 31
0.0
  0
LINE
  8
0
  6
CONTINUOUS
 62
       7
  5
8B
 10
28.7671801
 20
60.52986906
 30
0.0
 11
98.2671801
 21
60.52986906
 31
0.0
  0
LINE
  8
0
  6
CONTINUOUS
 62
       7
  5
8C
 10
28.7671801
 20
59.23171206
 30
0.0
 11
98.2671801
 21
59.23171206
 31
0.0
  0
LINE
  8
0
  6
CONTINUOUS
 62
       7
  5
8D
 10
28.7671801
 20
59.02045406
 30
0.0
 11
98.2671801
 21
59.02045406
 31
0.0
  0
LINE
  8
0
  6
CONTINUOUS
 62
       7
  5
8E
 10
28.7671801
 20
56.33176406
 30
0.0
 11
98.2671801
 21
56.33176406
 31
0.0
  0
LINE
  8
0
  6
CONTINUOUS
 62
       7
  5
8F
 10
28.7671801
 20
56.12035306
 30
0.0
 11
98.2671801
 21
56.12035306
 31
0.0
  0
LINE
  8
0
  6
CONTINUOUS
 62
       7
  5
90
 10
28.7671801
 20
54.92430806
 30
0.0
 11
98.2671801
 21
54.92430806
 31
0.0
  0
LINE
  8
0
  6
CONTINUOUS
 62
       7
  5
91
 10
28.7671801
 20
54.39749906
 30
0.0
 11
98.2671801
 21
54.39749906
 31
0.0
  0
LINE
  8
0
  6
CONTINUOUS
 62
       7
  5
92
 10
28.7671801
 20
91.95697706
 30
0.0
 11
98.2671801
 21
91.95697706
 31
0.0
  0
LINE
  8
0
  6
CONTINUOUS
 62
       7
  5
93
 10
28.7671801
 20
78.02993006
 30
0.0
 11
98.2671801
 21
78.02993006
 31
0.0
  0
LINE
  8
0
  6
CONTINUOUS
 62
       7
  5
94
 10
28.7671801
 20
79.32808606
 30
0.0
 11
98.2671801
 21
79.32808606
 31
0.0
  0
LINE
  8
0
  6
CONTINUOUS
 62
       7
  5
95
 10
28.7671801
 20
79.53934406
 30
0.0
 11
98.2671801
 21
79.53934406
 31
0.0
  0
LINE
  8
0
  6
CONTINUOUS
 62
       7
  5
96
 10
28.7671801
 20
82.22803406
 30
0.0
 11
98.2671801
 21
82.22803406
 31
0.0
  0
LINE
  8
0
  6
CONTINUOUS
 62
       7
  5
97
 10
28.7671801
 20
82.43944506
 30
0.0
 11
98.2671801
 21
82.43944506
 31
0.0
  0
LINE
  8
0
  6
CONTINUOUS
 62
       7
  5
98
 10
28.7671801
 20
83.63549006
 30
0.0
 11
98.2671801
 21
83.63549006
 31
0.0
  0
LINE
  8
0
  6
CONTINUOUS
 62
       7
  5
99
 10
28.7671801
 20
84.16230006
 30
0.0
 11
98.2671801
 21
84.16230006
 31
0.0
  0
LINE
  8
0
  6
CONTINUOUS
 62
       7
  5
9A
 10
-127.2328179
 20
-3.04303894
 30
0.0
 11
-127.2328179
 21
-15.02011894
 31
0.0
  0
LINE
  8
0
  6
CENTER
 62
       2
  5
9B
 10
40.2671801
 20
76.50086206
 30
0.0
 11
40.2671801
 21
62.46881806
 31
0.0
  0
LINE
  8
0
  6
CENTER
 62
       2
  5
9C
 10
86.7671801
 20
76.78150106
 30
0.0
 11
86.7671801
 21
62.18817906
 31
0.0
  0
LINE
  8
0
  6
CONTINUOUS
 62
       7
  5
9D
 10
28.7671801
 20
-22.22009894
 30
0.0
 11
98.2671801
 21
-22.22009894
 31
0.0
  0
LINE
  8
0
  6
CONTINUOUS
 62
       7
  5
9E
 10
28.7671801
 20
-48.39720894
 30
0.0
 11
98.2671801
 21
-48.39720894
 31
0.0
  0
LINE
  8
0
  6
CONTINUOUS
 62
       7
  5
9F
 10
28.7671801
 20
-36.42013894
 30
0.0
 11
98.2671801
 21
-36.42013894
 31
0.0
  0
LINE
  8
0
  6
CONTINUOUS
 62
       7
  5
A0
 10
28.7671801
 20
-29.22009894
 30
0.0
 11
98.2671801
 21
-29.22009894
 31
0.0
  0
LINE
  8
0
  6
CONTINUOUS
 62
       7
  5
A1
 10
28.7671801
 20
-18.22012894
 30
0.0
 11
98.2671801
 21
-18.22012894
 31
0.0
  0
LINE
  8
0
  6
CONTINUOUS
 62
       7
  5
A2
 10
28.7671801
 20
-15.02011894
 30
0.0
 11
98.2671801
 21
-15.02011894
 31
0.0
  0
LINE
  8
0
  6
CONTINUOUS
 62
       7
  5
A3
 10
28.7671801
 20
-3.04303894
 30
0.0
 11
98.2671801
 21
-3.04303894
 31
0.0
  0
LINE
  8
0
  6
CONTINUOUS
 62
       7
  5
A4
 10
28.7671801
 20
0.27990106
 30
0.0
 11
98.2671801
 21
0.27990106
 31
0.0
  0
LINE
  8
0
  6
CONTINUOUS
 62
       7
  5
A5
 10
28.7671801
 20
5.27984106
 30
0.0
 11
98.2671801
 21
5.27984106
 31
0.0
  0
LINE
  8
0
  6
CONTINUOUS
 62
       7
  5
A6
 10
28.2671901
 20
62.27989906
 30
0.0
 11
28.7671901
 21
61.77989906
 31
0.0
  0
LINE
  8
0
  6
CONTINUOUS
 62
       7
  5
A7
 10
21.7671801
 20
76.27989906
 30
0.0
 11
28.2671801
 21
76.27989906
 31
0.0
  0
LINE
  8
0
  6
CONTINUOUS
 62
       7
  5
A8
 10
28.2671801
 20
76.27989906
 30
0.0
 11
28.7671801
 21
76.77989906
 31
0.0
  0
LINE
  8
0
  6
CONTINUOUS
 62
       7
  5
A9
 10
21.7671801
 20
62.27989906
 30
0.0
 11
28.2671801
 21
62.27989906
 31
0.0
  0
LINE
  8
0
  6
CONTINUOUS
 62
       7
  5
AA
 10
98.2671801
 20
5.27984106
 30
0.0
 11
98.2671801
 21
-51.72012894
 31
0.0
  0
LINE
  8
0
  6
CONTINUOUS
 62
       7
  5
AB
 10
21.7671801
 20
62.27989906
 30
0.0
 11
21.7671801
 21
76.27989906
 31
0.0
  0
LINE
  8
0
  6
CONTINUOUS
 62
       7
  5
AC
 10
28.7671801
 20
-33.22012894
 30
0.0
 11
98.2671801
 21
-33.22012894
 31
0.0
  0
LINE
  8
0
  6
CONTINUOUS
 62
       7
  5
AD
 10
23.2671801
 20
62.27989906
 30
0.0
 11
23.2671801
 21
76.27989906
 31
0.0
  0
LINE
  8
0
  6
CONTINUOUS
 62
       7
  5
AE
 10
28.7671801
 20
5.27984106
 30
0.0
 11
28.7671801
 21
-51.72012894
 31
0.0
  0
LINE
  8
0
  6
CONTINUOUS
 62
       7
  5
AF
 10
28.7671801
 20
-51.72012894
 30
0.0
 11
98.2671801
 21
-51.72012894
 31
0.0
  0
LINE
  8
0
  6
DASHED
 62
       2
  5
B1
 10
-106.2328489
 20
5.27992106
 30
0.0
 11
-106.0163419
 21
-0.92008894
 31
0.0
  0
LINE
  8
0
  6
DASHED
 62
       7
  5
B2
 10
-105.3328399
 20
5.27991106
 30
0.0
 11
-105.1163329
 21
-0.92009894
 31
0.0
  0
LINE
  8
0
  6
DASHED
 62
       7
  5
B3
 10
-97.1327999
 20
5.27992106
 30
0.0
 11
-97.3493099
 21
-0.92006894
 31
0.0
  0
LINE
  8
0
  6
DASHED
 62
       2
  5
B4
 10
-96.2327999
 20
5.27991106
 30
0.0
 11
-96.4492999
 21
-0.92008894
 31
0.0
  0
LINE
  8
0
  6
DASHED
 62
       2
  5
B5
 10
35.2672101
 20
5.27986106
 30
0.0
 11
35.4837201
 21
-0.92013894
 31
0.0
  0
LINE
  8
0
  6
DASHED
 62
       7
  5
B6
 10
36.1672001
 20
5.27985106
 30
0.0
 11
36.3837101
 21
-0.92012894
 31
0.0
  0
LINE
  8
0
  6
DASHED
 62
       7
  5
B7
 10
44.3672101
 20
5.27985106
 30
0.0
 11
44.1507001
 21
-0.92013894
 31
0.0
  0
LINE
  8
0
  6
DASHED
 62
       2
  5
B8
 10
45.2671901
 20
5.27986106
 30
0.0
 11
45.0506801
 21
-0.92015894
 31
0.0
  0
LINE
  8
0
  6
DASHED
 62
       2
  5
B9
 10
81.7672201
 20
5.27985106
 30
0.0
 11
81.9837201
 21
-0.92014894
 31
0.0
  0
LINE
  8
0
  6
DASHED
 62
       7
  5
BA
 10
82.6672001
 20
5.27984106
 30
0.0
 11
82.8837101
 21
-0.92013894
 31
0.0
  0
LINE
  8
0
  6
DASHED
 62
       7
  5
BB
 10
90.8671801
 20
5.27983106
 30
0.0
 11
90.6506701
 21
-0.92013894
 31
0.0
  0
LINE
  8
0
  6
DASHED
 62
       2
  5
BC
 10
91.7671901
 20
5.27984106
 30
0.0
 11
91.5506801
 21
-0.92014894
 31
0.0
  0
LINE
  8
0
  6
CENTER
 62
       2
  5
BD
 10
86.7671701
 20
8.27984106
 30
0.0
 11
86.7671701
 21
-3.92014894
 31
0.0
  0
LINE
  8
0
  6
CENTER
 62
       2
  5
BE
 10
40.2671801
 20
8.27984106
 30
0.0
 11
40.2671801
 21
-3.92014894
 31
0.0
  0
LINE
  8
0
  6
CENTER
 62
       2
  5
BF
 10
26.7671801
 20
89.27989906
 30
0.0
 11
100.2671801
 21
89.27989906
 31
0.0
  0
LINE
  8
0
  6
CENTER
 62
       2
  5
C0
 10
26.7671801
 20
-45.72009894
 30
0.0
 11
100.2671801
 21
-45.72009894
 31
0.0
  0
LINE
  8
0
  6
CENTER
 62
       2
  5
C1
 10
26.7671801
 20
-5.72006894
 30
0.0
 11
100.2671801
 21
-5.72006894
 31
0.0
  0
LINE
  8
0
  6
CENTER
 62
       2
  5
C2
 10
26.7671801
 20
49.27989906
 30
0.0
 11
100.2671801
 21
49.27989906
 31
0.0
  0
LINE
  8
0
  6
CENTER
 62
       2
  5
C3
 10
18.7671801
 20
-25.72009894
 30
0.0
 11
101.2671801
 21
-25.72009894
 31
0.0
  0
LINE
  8
0
  6
DASHED
 62
       2
  5
C4
 10
28.7671801
 20
-10.47009894
 30
0.0
 11
34.1671801
 21
-10.47009894
 31
0.0
  0
LINE
  8
0
  6
DASHED
 62
       2
  5
C5
 10
28.7671801
 20
-0.97009894
 30
0.0
 11
34.1671801
 21
-0.97009894
 31
0.0
  0
LINE
  8
0
  6
DASHED
 62
       2
  5
C6
 10
34.1671801
 20
-2.97009894
 30
0.0
 11
92.8671801
 21
-2.97009894
 31
0.0
  0
LINE
  8
0
  6
DASHED
 62
       2
  5
C7
 10
34.1671801
 20
-8.47009894
 30
0.0
 11
92.8671801
 21
-8.47009894
 31
0.0
  0
LINE
  8
0
  6
DASHED
 62
       2
  5
C8
 10
34.1671801
 20
-0.97009894
 30
0.0
 11
34.1671801
 21
-10.47009894
 31
0.0
  0
LINE
  8
0
  6
DASHED
 62
       2
  5
C9
 10
92.8671801
 20
-0.97009894
 30
0.0
 11
92.8671801
 21
-10.47009894
 31
0.0
  0
LINE
  8
0
  6
DASHED
 62
       2
  5
CA
 10
98.2671801
 20
-10.47009894
 30
0.0
 11
92.8671801
 21
-10.47009894
 31
0.0
  0
LINE
  8
0
  6
DASHED
 62
       2
  5
CB
 10
98.2671801
 20
-0.97009894
 30
0.0
 11
92.8671801
 21
-0.97009894
 31
0.0
  0
LINE
  8
0
  6
DASHED
 62
       2
  5
CC
 10
28.7671801
 20
84.52986906
 30
0.0
 11
34.1671801
 21
84.52986906
 31
0.0
  0
LINE
  8
0
  6
DASHED
 62
       2
  5
CD
 10
28.7671801
 20
94.02986906
 30
0.0
 11
34.1671801
 21
94.02986906
 31
0.0
  0
LINE
  8
0
  6
DASHED
 62
       2
  5
CE
 10
34.1671801
 20
92.02986906
 30
0.0
 11
92.8671801
 21
92.02986906
 31
0.0
  0
LINE
  8
0
  6
DASHED
 62
       2
  5
CF
 10
34.1671801
 20
86.52986906
 30
0.0
 11
92.8671801
 21
86.52986906
 31
0.0
  0
LINE
  8
0
  6
DASHED
 62
       2
  5
D0
 10
34.1671801
 20
94.02986906
 30
0.0
 11
34.1671801
 21
84.52986906
 31
0.0
  0
LINE
  8
0
  6
DASHED
 62
       2
  5
D1
 10
92.8671801
 20
94.02986906
 30
0.0
 11
92.8671801
 21
84.52986906
 31
0.0
  0
LINE
  8
0
  6
DASHED
 62
       2
  5
D2
 10
98.2671801
 20
84.52986906
 30
0.0
 11
92.8671801
 21
84.52986906
 31
0.0
  0
LINE
  8
0
  6
DASHED
 62
       2
  5
D3
 10
98.2671801
 20
94.02986906
 30
0.0
 11
92.8671801
 21
94.02986906
 31
0.0
  0
LINE
  8
0
  6
CENTER
 62
       2
  5
D4
 10
-66.2328199
 20
-25.72009894
 30
0.0
 11
-136.2328179
 21
-25.72009894
 31
0.0
  0
LINE
  8
0
  6
CENTER
 62
       2
  5
D5
 10
-101.2328179
 20
9.27990106
 30
0.0
 11
-101.2328179
 21
-60.72009894
 31
0.0
  0
LINE
  8
0
  6
CONTINUOUS
 62
       7
  5
D6
 10
63.5671801
 20
-33.32013894
 30
0.0
 11
63.5671801
 21
-36.32013894
 31
0.0
  0
LINE
  8
0
  6
CONTINUOUS
 62
       7
  5
D7
 10
63.5671801
 20
-33.47213894
 30
0.0
 11
108.5231901
 21
-33.47213894
 31
0.0
  0
LINE
  8
0
  6
CONTINUOUS
 62
       7
  5
D8
 10
63.5671801
 20
-36.17213894
 30
0.0
 11
108.1511901
 21
-36.17213894
 31
0.0
  0
LINE
  8
0
  6
CONTINUOUS
 62
       7
  5
D9
 10
53.6671901
 20
-34.22013894
 30
0.0
 11
55.6671901
 21
-34.22013894
 31
0.0
  0
LINE
  8
0
  6
CONTINUOUS
 62
       7
  5
DA
 10
53.6671901
 20
-35.72013894
 30
0.0
 11
55.6671901
 21
-35.72013894
 31
0.0
  0
LINE
  8
0
  6
CONTINUOUS
 62
       7
  5
DB
 10
53.6671901
 20
-34.22013894
 30
0.0
 11
53.6671901
 21
-35.72013894
 31
0.0
  0
LINE
  8
0
  6
CONTINUOUS
 62
       7
  5
DC
 10
55.6671901
 20
-34.22013894
 30
0.0
 11
55.6671901
 21
-35.72013894
 31
0.0
  0
LINE
  8
0
  6
CENTER
 62
       2
  5
DD
 10
54.6671901
 20
-33.71213894
 30
0.0
 11
54.6671901
 21
-36.50413894
 31
0.0
  0
LINE
  8
0
  6
CENTER
 62
       2
  5
DE
 10
43.0671801
 20
-31.98413894
 30
0.0
 11
43.0671801
 21
-37.57213894
 31
0.0
  0
LINE
  8
0
  6
CONTINUOUS
 62
       7
  5
DF
 10
41.0671801
 20
-33.32013894
 30
0.0
 11
41.0671801
 21
-36.32013894
 31
0.0
  0
LINE
  8
0
  6
CONTINUOUS
 62
       7
  5
E0
 10
41.0671801
 20
-36.32013894
 30
0.0
 11
63.5671801
 21
-36.32013894
 31
0.0
  0
LINE
  8
0
  6
CENTER
 62
       2
  5
E1
 10
39.3031901
 20
-34.82013894
 30
0.0
 11
110.8112001
 21
-34.82013894
 31
0.0
  0
LINE
  8
0
  6
CONTINUOUS
 62
       7
  5
E2
 10
93.0671801
 20
-15.12012894
 30
0.0
 11
93.0671801
 21
-18.12012894
 31
0.0
  0
LINE
  8
0
  6
CONTINUOUS
 62
       7
  5
E3
 10
93.0671801
 20
-15.27212894
 30
0.0
 11
108.0231901
 21
-15.27212894
 31
0.0
  0
LINE
  8
0
  6
CONTINUOUS
 62
       7
  5
E4
 10
93.0671801
 20
-17.97212894
 30
0.0
 11
107.6511901
 21
-17.97212894
 31
0.0
  0
LINE
  8
0
  6
CONTINUOUS
 62
       7
  5
E5
 10
83.1671901
 20
-16.02012894
 30
0.0
 11
85.1671901
 21
-16.02012894
 31
0.0
  0
LINE
  8
0
  6
CONTINUOUS
 62
       7
  5
E6
 10
83.1671901
 20
-17.52012894
 30
0.0
 11
85.1671901
 21
-17.52012894
 31
0.0
  0
LINE
  8
0
  6
CONTINUOUS
 62
       7
  5
E7
 10
83.1671901
 20
-16.02012894
 30
0.0
 11
83.1671901
 21
-17.52012894
 31
0.0
  0
LINE
  8
0
  6
CONTINUOUS
 62
       7
  5
E8
 10
85.1671901
 20
-16.02012894
 30
0.0
 11
85.1671901
 21
-17.52012894
 31
0.0
  0
LINE
  8
0
  6
CENTER
 62
       2
  5
E9
 10
84.1671901
 20
-15.51212894
 30
0.0
 11
84.1671901
 21
-18.30412894
 31
0.0
  0
LINE
  8
0
  6
CENTER
 62
       2
  5
EA
 10
72.5671801
 20
-13.78412894
 30
0.0
 11
72.5671801
 21
-19.37212894
 31
0.0
  0
LINE
  8
0
  6
CONTINUOUS
 62
       7
  5
EB
 10
70.5671801
 20
-15.12012894
 30
0.0
 11
70.5671801
 21
-18.12012894
 31
0.0
  0
LINE
  8
0
  6
CONTINUOUS
 62
       7
  5
EC
 10
70.5671801
 20
-15.12012894
 30
0.0
 11
93.0671801
 21
-15.12012894
 31
0.0
  0
LINE
  8
0
  6
CONTINUOUS
 62
       7
  5
ED
 10
70.5671801
 20
-18.12012894
 30
0.0
 11
93.0671801
 21
-18.12012894
 31
0.0
  0
LINE
  8
0
  6
CENTER
 62
       2
  5
EE
 10
68.8031901
 20
-16.62012894
 30
0.0
 11
110.3112001
 21
-16.62012894
 31
0.0
  0
LINE
  8
0
  6
CONTINUOUS
 62
       7
  5
EF
 10
-77.8327899
 20
-33.57204894
 30
0.0
 11
-78.8327899
 21
-33.57204894
 31
0.0
  0
LINE
  8
0
  6
CONTINUOUS
 62
       7
  5
F0
 10
-77.8327899
 20
-36.07204894
 30
0.0
 11
-78.8327899
 21
-36.07204894
 31
0.0
  0
LINE
  8
0
  6
CONTINUOUS
 62
       7
  5
F1
 10
-74.6367899
 20
-33.57204894
 30
0.0
 11
-74.6367899
 21
-36.07204894
 31
0.0
  0
LINE
  8
0
  6
CONTINUOUS
 62
       7
  5
F2
 10
-77.8327899
 20
-32.77204894
 30
0.0
 11
-77.8327899
 21
-36.87204894
 31
0.0
  0
LINE
  8
0
  6
CONTINUOUS
 62
       7
  5
F3
 10
-74.6367899
 20
-33.57204894
 30
0.0
 11
-75.2367899
 21
-33.57204894
 31
0.0
  0
LINE
  8
0
  6
CONTINUOUS
 62
       7
  5
F4
 10
-74.6367899
 20
-36.07204894
 30
0.0
 11
-75.2367899
 21
-36.07204894
 31
0.0
  0
LINE
  8
0
  6
CONTINUOUS
 62
       7
  5
F5
 10
-78.8327899
 20
-33.57204894
 30
0.0
 11
-78.8327899
 21
-36.07204894
 31
0.0
  0
LINE
  8
0
  6
CONTINUOUS
 62
       7
  5
F6
 10
-77.0367899
 20
-32.77204894
 30
0.0
 11
-77.0367899
 21
-36.87204894
 31
0.0
  0
LINE
  8
0
  6
CONTINUOUS
 62
       7
  5
F7
 10
-75.2367899
 20
-33.22009894
 30
0.0
 11
-75.2367899
 21
-36.42010894
 31
0.0
  0
LINE
  8
0
  6
CONTINUOUS
 62
       7
  5
F8
 10
-75.2367899
 20
-15.02008894
 30
0.0
 11
-75.2367899
 21
-18.22009894
 31
0.0
  0
LINE
  8
0
  6
CONTINUOUS
 62
       7
  5
F9
 10
-77.0367899
 20
-14.52008894
 30
0.0
 11
-77.0367899
 21
-18.72006894
 31
0.0
  0
LINE
  8
0
  6
CONTINUOUS
 62
       7
  5
FA
 10
-78.8327899
 20
-15.37212894
 30
0.0
 11
-78.8327899
 21
-17.87212894
 31
0.0
  0
LINE
  8
0
  6
CONTINUOUS
 62
       7
  5
FB
 10
-74.6367899
 20
-17.87212894
 30
0.0
 11
-75.2367899
 21
-17.87212894
 31
0.0
  0
LINE
  8
0
  6
CONTINUOUS
 62
       7
  5
FC
 10
-74.6367899
 20
-15.37212894
 30
0.0
 11
-75.2367899
 21
-15.37212894
 31
0.0
  0
LINE
  8
0
  6
CONTINUOUS
 62
       7
  5
FD
 10
-77.8327899
 20
-14.52015894
 30
0.0
 11
-77.8327899
 21
-18.72006894
 31
0.0
  0
LINE
  8
0
  6
CONTINUOUS
 62
       7
  5
FE
 10
-74.6367899
 20
-15.37212894
 30
0.0
 11
-74.6367899
 21
-17.87212894
 31
0.0
  0
LINE
  8
0
  6
CONTINUOUS
 62
       7
  5
FF
 10
-77.8327899
 20
-17.87212894
 30
0.0
 11
-78.8327899
 21
-17.87212894
 31
0.0
  0
LINE
  8
0
  6
CONTINUOUS
 62
       7
  5
100
 10
-77.8327899
 20
-15.37212894
 30
0.0
 11
-78.8327899
 21
-15.37212894
 31
0.0
  0
LINE
  8
0
  6
CONTINUOUS
 62
       7
  5
101
 10
108.1511901
 20
-36.17213894
 30
0.0
 11
108.5231901
 21
-33.47213894
 31
0.0
  0
LINE
  8
0
  6
CONTINUOUS
 62
       7
  5
102
 10
107.6511901
 20
-17.97212894
 30
0.0
 11
108.0231901
 21
-15.27212894
 31
0.0
  0
CIRCLE
  8
0
  6
CONTINUOUS
 62
       7
  5
103
 10
-121.2327879
 20
-5.72009894
 30
0.0
 40
4.75
  0
CIRCLE
  8
0
  6
CONTINUOUS
 62
       7
  5
104
 10
-121.2327879
 20
-5.72009894
 30
0.0
 40
2.75
  0
ARC
  8
0
  6
CONTINUOUS
 62
       7
  5
105
 10
-92.1328099
 20
-49.12015894
 30
0.0
 40
2.0999999
 50
359.99994
 51
179.99992
  0
ARC
  8
0
  6
CONTINUOUS
 62
       7
  5
106
 10
-110.3328239
 20
-49.12015894
 30
0.0
 40
2.0999999
 50
359.99999
 51
179.99998
  0
ARC
  8
0
  6
CONTINUOUS
 62
       7
  5
107
 10
-101.2328489
 20
-25.72012894
 30
0.0
 40
34.5
 50
41.094789
 51
48.905217
  0
ARC
  8
0
  6
CONTINUOUS
 62
       7
  5
108
 10
-101.2328489
 20
-25.72012894
 30
0.0
 40
34.5
 50
131.09481
 51
138.90523
  0
ARC
  8
0
  6
CONTINUOUS
 62
       7
  5
109
 10
-101.2328489
 20
-25.72012894
 30
0.0
 40
34.5
 50
311.0948
 51
318.90521
  0
ARC
  8
0
  6
CONTINUOUS
 62
       7
  5
10A
 10
-101.2328489
 20
-25.72012894
 30
0.0
 40
34.5
 50
221.09476
 51
228.90517
  0
ARC
  8
0
  6
CONTINUOUS
 62
       7
  5
10B
 10
-77.8328199
 20
-16.62015894
 30
0.0
 40
2.0999999
 50
89.999934
 51
269.99995
  0
ARC
  8
0
  6
CONTINUOUS
 62
       7
  5
10C
 10
-77.8328199
 20
-34.82007894
 30
0.0
 40
2.0999999
 50
89.999989
 51
270.0
  0
ARC
  8
0
  6
CONTINUOUS
 62
       7
  5
10D
 10
-111.8436279
 20
-2.96527894
 30
0.0
 40
2.0999999
 50
204.99992
 51
24.999913
  0
ARC
  8
0
  6
CONTINUOUS
 62
       7
  5
10E
 10
-124.6328119
 20
-34.82007894
 30
0.0
 40
2.0999999
 50
269.99992
 51
90.000003
  0
ARC
  8
0
  6
CONTINUOUS
 62
       7
  5
10F
 10
-124.6328119
 20
-16.62015894
 30
0.0
 40
2.0999999
 50
269.99999
 51
90.000003
  0
CIRCLE
  8
0
  6
CONTINUOUS
 62
       7
  5
110
 10
-101.2328489
 20
-25.72012894
 30
0.0
 40
14.75
  0
CIRCLE
  8
0
  6
CONTINUOUS
 62
       7
  5
111
 10
-101.2328489
 20
-25.72012894
 30
0.0
 40
21.0
  0
CIRCLE
  8
0
  6
CONTINUOUS
 62
       7
  5
112
 10
-101.2327879
 20
-25.72012894
 30
0.0
 40
8.0
  0
CIRCLE
  8
0
  6
CONTINUOUS
 62
       2
  5
113
 10
-101.2328489
 20
-25.72012894
 30
0.0
 40
4.0
  0
CIRCLE
  8
0
  6
CONTINUOUS
 62
       7
  5
114
 10
-101.2328489
 20
-25.72012894
 30
0.0
 40
3.3499999
  0
ARC
  8
0
  6
CONTINUOUS
 62
       7
  5
115
 10
-90.6220699
 20
-2.96527894
 30
0.0
 40
2.0999999
 50
155.00008
 51
335.0001
  0
CIRCLE
  8
0
  6
CONTINUOUS
 62
       7
  5
116
 10
86.7671801
 20
69.27989906
 30
0.0
 40
4.0999999
  0
CIRCLE
  8
0
  6
CONTINUOUS
 62
       2
  5
117
 10
86.7671801
 20
69.27989906
 30
0.0
 40
5.0
  0
CIRCLE
  8
0
  6
CONTINUOUS
 62
       7
  5
118
 10
40.2671801
 20
69.27989906
 30
0.0
 40
4.0999999
  0
CIRCLE
  8
0
  6
CONTINUOUS
 62
       2
  5
119
 10
40.2671801
 20
69.27989906
 30
0.0
 40
5.0
  0
CIRCLE
  8
0
  6
CONTINUOUS
 62
       7
  5
11A
 10
-101.2328179
 20
-25.72009894
 30
0.0
 40
7.1339998
  0
CIRCLE
  8
0
  6
CONTINUOUS
 62
       7
  5
11B
 10
43.0693901
 20
-34.81887894
 30
0.0
 40
1.4
  0
CIRCLE
  8
0
  6
CONTINUOUS
 62
       7
  5
11C
 10
72.5694001
 20
-16.61885894
 30
0.0
 40
1.4
  0
CIRCLE
  8
0
  6
CONTINUOUS
 62
       7
  5
11D
 10
-81.2328199
 20
-5.72009894
 30
0.0
 40
4.75
  0
CIRCLE
  8
0
  6
CONTINUOUS
 62
       7
  5
11E
 10
-81.2328199
 20
-5.72009894
 30
0.0
 40
2.75
  0
CIRCLE
  8
0
  6
CONTINUOUS
 62
       7
  5
11F
 10
-81.2328199
 20
-45.72012894
 30
0.0
 40
4.75
  0
CIRCLE
  8
0
  6
CONTINUOUS
 62
       7
  5
120
 10
-81.2328199
 20
-45.72012894
 30
0.0
 40
2.75
  0
CIRCLE
  8
0
  6
CONTINUOUS
 62
       7
  5
121
 10
-121.2327879
 20
-45.72012894
 30
0.0
 40
4.75
  0
CIRCLE
  8
0
  6
CONTINUOUS
 62
       7
  5
122
 10
-121.2327879
 20
-45.72012894
 30
0.0
 40
2.75
  0
LINE
  8
0
  6
CONTINUOUS
 62
       7
  5
123
 10
23.7671801
 20
-101.16869393
 30
0.0
 11
28.7671701
 21
-101.16869393
 31
0.0
  0
LINE
  8
0
  6
DASHED
 62
       2
  5
124
 10
28.7671801
 20
-92.01755393
 30
0.0
 11
28.7671801
 21
-127.21643393
 31
0.0
  0
LINE
  8
0
  6
CONTINUOUS
 62
       7
  5
125
 10
23.7671801
 20
-101.16869393
 30
0.0
 11
23.7671801
 21
-117.16869393
 31
0.0
  0
LINE
  8
0
  6
CONTINUOUS
 62
       7
  5
126
 10
23.7671801
 20
-117.16869393
 30
0.0
 11
28.7671701
 21
-117.16869393
 31
0.0
  0
LINE
  8
0
  6
CENTER
 62
       2
  5
127
 10
-4.7328199
 20
-109.16870393
 30
0.0
 11
33.7671801
 21
-109.16870393
 31
0.0
  0
LINE
  8
0
  6
CONTINUOUS
 62
       7
  5
128
 10
0.2671801
 20
-116.16870393
 30
0.0
 11
23.7671801
 21
-116.16870393
 31
0.0
  0
LINE
  8
0
  6
CONTINUOUS
 62
       7
  5
129
 10
0.2671801
 20
-102.16870393
 30
0.0
 11
23.7671801
 21
-102.16870393
 31
0.0
  0
LINE
  8
0
  6
CONTINUOUS
 62
       7
  5
12A
 10
0.2671801
 20
-102.16870393
 30
0.0
 11
0.2671801
 21
-116.16870393
 31
0.0
  0
LINE
  8
0
  6
CONTINUOUS
 62
       7
  5
12B
 10
20.7671801
 20
-102.16870393
 30
0.0
 11
20.7671801
 21
-116.16870393
 31
0.0
  0
LINE
  8
0
  6
CONTINUOUS
 62
       2
  5
12C
 10
0.2671801
 20
-115.35671393
 30
0.0
 11
20.7671801
 21
-115.35671393
 31
0.0
  0
LINE
  8
0
  6
CONTINUOUS
 62
       2
  5
12D
 10
0.2671801
 20
-102.98070393
 30
0.0
 11
20.7671801
 21
-102.98070393
 31
0.0
  0
LINE
  8
0
  6
CONTINUOUS
 62
       7
  5
12E
 10
16.7671801
 20
-96.46870393
 30
0.0
 11
16.7671801
 21
-121.86870393
 31
0.0
  0
LINE
  8
0
  6
CONTINUOUS
 62
       7
  5
12F
 10
8.7671901
 20
-96.46870393
 30
0.0
 11
8.7671901
 21
-121.86870393
 31
0.0
  0
LINE
  8
0
  6
CONTINUOUS
 62
       7
  5
130
 10
8.7671901
 20
-121.86870393
 30
0.0
 11
16.7671801
 21
-121.86870393
 31
0.0
  0
LINE
  8
0
  6
CONTINUOUS
 62
       7
  5
131
 10
8.7671901
 20
-96.46870393
 30
0.0
 11
16.7671801
 21
-96.46870393
 31
0.0
  0
TEXT
  8
0
  6
CONTINUOUS
 62
       7
  5
132
 10
-185.69402985
 20
105.3500061
 30
0.0
 40
4.5
  1
MODEL:JCDAS40*STROKE(30)
 41
1.07462687
  7
MX_NOTE_STANDARD
 11
-185.69402985
 21
107.6000061
 31
0.0
 73
       2
  0
LINE
  8
0
  6
CONTINUOUS
 62
       7
  5
133
 10
-194.25
 20
132.6000061
 30
0.0
 11
194.80000305
 21
132.6000061
 31
0.0
  0
LINE
  8
0
  6
CONTINUOUS
 62
       7
  5
134
 10
194.80000305
 20
132.6000061
 30
0.0
 11
194.80000305
 21
-133.5
 31
0.0
  0
LINE
  8
0
  6
CONTINUOUS
 62
       7
  5
135
 10
-194.25
 20
132.6000061
 30
0.0
 11
-194.25
 21
-133.5
 31
0.0
  0
LINE
  8
0
  6
CONTINUOUS
 62
       7
  5
136
 10
-194.25
 20
-133.5
 30
0.0
 11
194.80000305
 21
-133.5
 31
0.0
  0
ENDSEC
  0
EOF
