  0
SECTION
  2
HEADER
  9
$ACADVER
  1
AC1012
  9
$DWGCODEPAGE
  3
dos932
  9
$INSBASE
 10
0.0
 20
0.0
 30
0.0
  9
$EXTMIN
 10
-281.25
 20
-195.0
 30
0.0
  9
$EXTMAX
 10
285.6319057062413
 20
195.5
 30
0.0
  9
$LIMMIN
 10
-281.25
 20
-195.0
  9
$LIMMAX
 10
285.6319057062413
 20
195.5
  9
$ORTHOMODE
 70
               0
  9
$REGENMODE
 70
               1
  9
$FILLMODE
 70
               1
  9
$QTEXTMODE
 70
               0
  9
$MIRRTEXT
 70
               1
  9
$DRAGMODE
 70
               2
  9
$LTSCALE
 40
1.0
  9
$OSMODE
 70
               0
  9
$ATTMODE
 70
               1
  9
$TEXTSIZE
 40
3.2000000476837158
  9
$TRACEWID
 40
0.05
  9
$TEXTSTYLE
  7
MX_NOTE_STANDARD
  9
$CLAYER
  8
0
  9
$CELTYPE
  6
CONTINUOUS
  9
$CECOLOR
 62
             256
  9
$CELTSCALE
 40
1.0
  9
$DELOBJ
 70
               1
  9
$DISPSILH
 70
               0
  9
$DIMSCALE
 40
1.0
  9
$DIMASZ
 40
2.5
  9
$DIMEXO
 40
1.5
  9
$DIMDLI
 40
3.75
  9
$DIMRND
 40
0.0
  9
$DIMDLE
 40
0.0
  9
$DIMEXE
 40
1.5
  9
$DIMTP
 40
0.0
  9
$DIMTM
 40
0.0
  9
$DIMTXT
 40
3.2000000476837158
  9
$DIMCEN
 40
2.5
  9
$DIMTSZ
 40
0.0
  9
$DIMTOL
 70
               0
  9
$DIMLIM
 70
               0
  9
$DIMTIH
 70
               0
  9
$DIMTOH
 70
               0
  9
$DIMSE1
 70
               0
  9
$DIMSE2
 70
               0
  9
$DIMTAD
 70
               1
  9
$DIMZIN
 70
               8
  9
$DIMBLK
  1

  9
$DIMASO
 70
               1
  9
$DIMSHO
 70
               1
  9
$DIMPOST
  1

  9
$DIMAPOST
  1

  9
$DIMALT
 70
               0
  9
$DIMALTD
 70
               4
  9
$DIMALTF
 40
0.03937007874016
  9
$DIMLFAC
 40
1.0
  9
$DIMTOFL
 70
               1
  9
$DIMTVP
 40
0.0
  9
$DIMTIX
 70
               0
  9
$DIMSOXD
 70
               0
  9
$DIMSAH
 70
               0
  9
$DIMBLK1
  1

  9
$DIMBLK2
  1

  9
$DIMSTYLE
  2
MXDIMSTYLE
  9
$DIMCLRD
 70
               0
  9
$DIMCLRE
 70
               0
  9
$DIMCLRT
 70
               0
  9
$DIMTFAC
 40
1.0
  9
$DIMGAP
 40
1.0
  9
$DIMJUST
 70
               0
  9
$DIMSD1
 70
               0
  9
$DIMSD2
 70
               0
  9
$DIMTOLJ
 70
               1
  9
$DIMTZIN
 70
               0
  9
$DIMALTZ
 70
               0
  9
$DIMALTTZ
 70
               0
  9
$DIMFIT
 70
               3
  9
$DIMUPT
 70
               1
  9
$DIMUNIT
 70
               2
  9
$DIMDEC
 70
               4
  9
$DIMTDEC
 70
               4
  9
$DIMALTU
 70
               2
  9
$DIMALTTD
 70
               4
  9
$DIMTXSTY
  7
MX_NOTE_STANDARD
  9
$DIMAUNIT
 70
               0
  9
$LUNITS
 70
               2
  9
$LUPREC
 70
               4
  9
$SKETCHINC
 40
0.1
  9
$FILLETRAD
 40
0.0
  9
$AUNITS
 70
               0
  9
$AUPREC
 70
               0
  9
$MENU
  1
acad
  9
$ELEVATION
 40
0.0
  9
$PELEVATION
 40
0.0
  9
$THICKNESS
 40
0.0
  9
$LIMCHECK
 70
               0
  9
$BLIPMODE
 70
               1
  9
$CHAMFERA
 40
0.0
  9
$CHAMFERB
 40
0.0
  9
$CHAMFERC
 40
0.0
  9
$CHAMFERD
 40
0.0
  9
$SKPOLY
 70
               0
  9
$TDCREATE
 40
2453378.356608796
  9
$TDUPDATE
 40
2453378.356608796
  9
$TDINDWG
 40
0.0000000000
  9
$TDUSRTIMER
 40
0.0000000000
  9
$USRTIMER
 70
               1
  9
$ANGBASE
 50
0.0
  9
$ANGDIR
 70
               0
  9
$PDMODE
 70
               0
  9
$PDSIZE
 40
0.0
  9
$PLINEWID
 40
0.0
  9
$COORDS
 70
               1
  9
$SPLFRAME
 70
               0
  9
$SPLINETYPE
 70
               6
  9
$SPLINESEGS
 70
               8
  9
$ATTDIA
 70
               0
  9
$ATTREQ
 70
               1
  9
$HANDLING
 70
               1
  9
$HANDSEED
  5
6E7
  9
$SURFTAB1
 70
               6
  9
$SURFTAB2
 70
               6
  9
$SURFTYPE
 70
               6
  9
$SURFU
 70
               6
  9
$SURFV
 70
               6
  9
$UCSNAME
  2

  9
$UCSORG
 10
0.0
 20
0.0
 30
0.0
  9
$UCSXDIR
 10
1.0
 20
0.0
 30
0.0
  9
$UCSYDIR
 10
0.0
 20
1.0
 30
0.0
  9
$PUCSNAME
  2

  9
$PUCSORG
 10
0.0
 20
0.0
 30
0.0
  9
$PUCSXDIR
 10
1.0
 20
0.0
 30
0.0
  9
$PUCSYDIR
 10
0.0
 20
1.0
 30
0.0
  9
$USERI1
 70
               0
  9
$USERI2
 70
               0
  9
$USERI3
 70
               0
  9
$USERI4
 70
               0
  9
$USERI5
 70
               0
  9
$USERR1
 40
0.0
  9
$USERR2
 40
0.0
  9
$USERR3
 40
0.0
  9
$USERR4
 40
0.0
  9
$USERR5
 40
0.0
  9
$WORLDVIEW
 70
               1
  9
$SHADEDGE
 70
               3
  9
$SHADEDIF
 70
              70
  9
$TILEMODE
 70
               1
  9
$MAXACTVP
 70
              16
  9
$PINSBASE
 10
0.0
 20
0.0
 30
0.0
  9
$PLIMCHECK
 70
               0
  9
$PEXTMIN
 10
1.0000000000000000E+20
 20
1.0000000000000000E+20
 30
1.0000000000000000E+20
  9
$PEXTMAX
 10
-1.0000000000000000E+20
 20
-1.0000000000000000E+20
 30
-1.0000000000000000E+20
  9
$PLIMMIN
 10
0.0
 20
0.0
  9
$PLIMMAX
 10
12.0
 20
9.0
  9
$UNITMODE
 70
               0
  9
$VISRETAIN
 70
               0
  9
$PLINEGEN
 70
               1
  9
$PSLTSCALE
 70
               0
  9
$TREEDEPTH
 70
            3020
  9
$PICKSTYLE
 70
               1
  9
$CMLSTYLE
  2
Standard
  9
$CMLJUST
 70
               0
  9
$CMLSCALE
 40
1.0
  9
$SAVEIMAGES
 70
               0
  0
ENDSEC
  0
SECTION
  2
CLASSES
  0
CLASS
  1
LWPOLYLINE
  2
AcDbPolyline
  3
"AutoCAD"
 90
        0
280
               0
281
               1
  0
CLASS
  1
IMAGE
  2
AcDbRasterImage
  3
ISM
 90
      127
280
               0
281
               1
  0
CLASS
  1
OLE2FRAME
  2
AcDbOle2Frame
  3
""
 90
        0
280
               0
281
               1
  0
CLASS
  1
HATCH
  2
AcDbHatch
  3
"ACAD_SEDONA"
 90
        0
280
               0
281
               1
  0
CLASS
  1
DICTIONARYVAR
  2
AcDbDictionaryVar
  3
"AutoCAD"
 90
        0
280
               0
281
               0
  0
CLASS
  1
RASTERVARIABLES
  2
AcDbRasterVariables
  3
ISM
 90
        0
280
               0
281
               0
  0
CLASS
  1
IMAGEDEF
  2
AcDbRasterImageDef
  3
ISM
 90
        0
280
               0
281
               0
  0
CLASS
  1
IMAGEDEF_REACTOR
  2
AcDbRasterImageDefReactor
  3
ISM
 90
        1
280
               0
281
               0
  0
CLASS
  1
IDBUFFER
  2
AcDbIdBuffer
  3
"Acad"
 90
        0
280
               0
281
               0
  0
CLASS
  1
SPATIAL_FILTER
  2
AcDbSpatialFilter
  3
"Acad"
 90
        0
280
               0
281
               0
  0
CLASS
  1
XRECORD
  2
AcDbXrecord
  3
"<Built In>"
 90
        0
280
               0
281
               0
  0
CLASS
  1
SORTENTSTABLE
  2
AcDbSortentsTable
  3
"AutoCAD"
 90
        0
280
               0
281
               0
  0
CLASS
  1
LAYER_INDEX
  2
AcDbLayerIndex
  3
"Acad"
 90
        0
280
               0
281
               0
  0
CLASS
  1
SPATIAL_INDEX
  2
AcDbSpatialIndex
  3
"Acad"
 90
        0
280
               0
281
               0
  0
CLASS
  1
OBJECT_PTR
  2
CAseDLPNTableRecord
  3
"ASE-LPNTableRecord"
 90
        1
280
               0
281
               0
  0
CLASS
  1
LAYOUT
  2
AcDbLayout
  3
"AutoCAD 2000"
 90
        1
280
               0
281
               0
  0
CLASS
  1
PLOTSETTINGS
  2
AcDbPlotSettings
  3
"AutoCAD 2000"
 90
        1
280
               0
281
               0
  0
CLASS
  1
ACDBDICTIONARYWDFLT
  2
AcDbDictionaryWithDefault
  3
"AutoCAD 2000"
 90
        1
280
               0
281
               0
  0
CLASS
  1
ACDBPLACEHOLDER
  2
AcDbPlaceHolder
  3
"AutoCAD 2000"
 90
        1
280
               0
281
               0
  0
ENDSEC
  0
SECTION
  2
TABLES
  0
TABLE
  2
VPORT
  5
7
100
AcDbSymbolTable
 70
               1
  0
VPORT
  5
15
100
AcDbSymbolTableRecord
100
AcDbViewportTableRecord
  2
*ACTIVE
 70
               0
 10
0.0
 20
0.0
 11
1.0
 21
1.0
 12
2.1909528531206206
 22
0.25
 13
0.0
 23
0.0
 14
1.0
 24
1.0
 15
0.0
 25
0.0
 16
0.0
 26
0.0
 36
1.0
 17
0.0
 27
0.0
 37
0.0
 40
394.40500000000003
 41
1.7320508075688772
 42
50.0
 43
0.0
 44
0.0
 50
0.0
 51
0.0
 71
               0
 72
             100
 73
               1
 74
               1
 75
               0
 76
               0
 77
               0
 78
               0
  0
ENDTAB
  0
TABLE
  2
LTYPE
  5
4
100
AcDbSymbolTable
 70
               6
  0
LTYPE
  5
11
100
AcDbSymbolTableRecord
100
AcDbLinetypeTableRecord
  2
BYBLOCK
 70
              64
  3

 72
              65
 73
               0
 40
0.0
  0
LTYPE
  5
12
100
AcDbSymbolTableRecord
100
AcDbLinetypeTableRecord
  2
BYLAYER
 70
              64
  3

 72
              65
 73
               0
 40
0.0
  0
LTYPE
  5
13
100
AcDbSymbolTableRecord
100
AcDbLinetypeTableRecord
  2
CONTINUOUS
 70
              64
  3
Solid line
 72
              65
 73
               0
 40
0.0
  0
LTYPE
  5
38
100
AcDbSymbolTableRecord
100
AcDbLinetypeTableRecord
  2
PHANTOM
 70
              64
  3
Phantom ______  __  __  ______  __  __  ______
 72
              65
 73
               6
 40
30.0
 49
20.0
 74
               0
 49
-2.0
 74
               0
 49
2.0
 74
               0
 49
-2.0
 74
               0
 49
2.0
 74
               0
 49
-2.0
 74
               0
  0
LTYPE
  5
3B
100
AcDbSymbolTableRecord
100
AcDbLinetypeTableRecord
  2
CENTER
 70
              64
  3
Center ____ _ ____ _ ____ _ ____ _ ____ _ ____
 72
              65
 73
               4
 40
26.0
 49
20.0
 74
               0
 49
-2.0
 74
               0
 49
2.0
 74
               0
 49
-2.0
 74
               0
  0
LTYPE
  5
117
100
AcDbSymbolTableRecord
100
AcDbLinetypeTableRecord
  2
DASHED
 70
              64
  3
Dashed __ __ __ __ __ __ __ __ __ __ __ __ __ _
 72
              65
 73
               2
 40
4.0
 49
2.0
 74
               0
 49
-2.0
 74
               0
  0
ENDTAB
  0
TABLE
  2
LAYER
  5
2
100
AcDbSymbolTable
 70
               2
  0
LAYER
  5
14
100
AcDbSymbolTableRecord
100
AcDbLayerTableRecord
  2
0
 70
               0
 62
               7
  6
CONTINUOUS
  0
LAYER
  5
1D
100
AcDbSymbolTableRecord
100
AcDbLayerTableRecord
  2
DEFPOINTS
 70
               0
 62
               7
  6
CONTINUOUS
  0
ENDTAB
  0
TABLE
  2
STYLE
  5
3
100
AcDbSymbolTable
 70
               1
  0
STYLE
  5
17
100
AcDbSymbolTableRecord
100
AcDbTextStyleTableRecord
  2
MX_NOTE_STANDARD
 70
               0
 40
0.0
 41
1.0
 50
0.0
 71
               0
 42
3.2000000476837158
  3
txt.shx
  4
extfont.shx
  0
ENDTAB
  0
TABLE
  2
VIEW
  5
5
100
AcDbSymbolTable
 70
               0
  0
ENDTAB
  0
TABLE
  2
UCS
  5
6
100
AcDbSymbolTable
 70
               0
  0
ENDTAB
  0
TABLE
  2
APPID
  5
8
100
AcDbSymbolTable
 70
               1
  0
APPID
  5
16
100
AcDbSymbolTableRecord
100
AcDbRegAppTableRecord
  2
ACAD
 70
               0
  0
ENDTAB
  0
TABLE
  2
DIMSTYLE
  5
9
100
AcDbSymbolTable
 70
               1
  0
DIMSTYLE
105
18
100
AcDbSymbolTableRecord
100
AcDbDimStyleTableRecord
  2
MXDIMSTYLE
 70
               0
  3

  4

  5

  6

  7

 40
1.0
 41
2.5
 42
1.5
 43
3.75
 44
1.5
 45
0.0
 46
0.0
 47
0.0
 48
0.0
 71
               0
 72
               0
 73
               0
 74
               0
 75
               0
 76
               0
 77
               1
 78
               8
140
3.2000000476837158
141
2.5
142
0.0
143
0.03937007874016
144
1.0
145
0.0
146
1.0
147
1.0
170
               0
171
               4
172
               1
173
               0
174
               0
175
               0
176
               0
177
               0
178
               0
270
               2
271
               4
272
               4
273
               2
274
               4
275
               0
280
               0
281
               0
282
               0
283
               1
284
               0
285
               0
286
               0
287
               3
288
               1
340
17
  0
ENDTAB
  0
TABLE
  2
BLOCK_RECORD
  5
1
100
AcDbSymbolTable
 70
               0
  0
BLOCK_RECORD
  5
A
100
AcDbSymbolTableRecord
100
AcDbBlockTableRecord
  2
*MODEL_SPACE
  0
BLOCK_RECORD
  5
B
100
AcDbSymbolTableRecord
100
AcDbBlockTableRecord
  2
*PAPER_SPACE
  0
ENDTAB
  0
ENDSEC
  0
SECTION
  2
BLOCKS
  0
BLOCK
  5
D
100
AcDbEntity
  8
0
100
AcDbBlockBegin
  2
*MODEL_SPACE
 70
               0
 10
0.0
 20
0.0
 30
0.0
  3
*MODEL_SPACE
  1

  0
ENDBLK
  5
E
100
AcDbEntity
  8
0
100
AcDbBlockEnd
  0
BLOCK
  5
F
100
AcDbEntity
 67
               1
  8
0
100
AcDbBlockBegin
  2
*PAPER_SPACE
 70
               0
 10
0.0
 20
0.0
 30
0.0
  3
*PAPER_SPACE
  1

  0
ENDBLK
  5
10
100
AcDbEntity
 67
               1
  8
0
100
AcDbBlockEnd
  0
ENDSEC
  0
SECTION
  2
ENTITIES
  0
LINE
  5
1E
100
AcDbEntity
  8
0
  6
CONTINUOUS
 62
               7
100
AcDbLine
 10
-281.25
 20
-195.0
 30
0.0
 11
282.099853515625
 21
-195.0
 31
0.0
  0
LINE
  5
1F
100
AcDbEntity
  8
0
  6
CONTINUOUS
 62
               7
100
AcDbLine
 10
-281.25
 20
195.5
 30
0.0
 11
-281.25
 21
-195.0
 31
0.0
  0
LINE
  5
20
100
AcDbEntity
  8
0
  6
CONTINUOUS
 62
               7
100
AcDbLine
 10
-281.25
 20
195.5
 30
0.0
 11
282.099853515625
 21
195.5
 31
0.0
  0
LINE
  5
21
100
AcDbEntity
  8
0
  6
CONTINUOUS
 62
               7
100
AcDbLine
 10
282.099853515625
 20
195.5
 30
0.0
 11
282.099853515625
 21
-195.0
 31
0.0
  0
LINE
  5
22
100
AcDbEntity
  8
0
  6
CONTINUOUS
 62
               7
100
AcDbLine
 10
162.0999755859375
 20
195.5
 30
0.0
 11
162.0999755859375
 21
175.5
 31
0.0
  0
LINE
  5
23
100
AcDbEntity
  8
0
  6
CONTINUOUS
 62
               7
100
AcDbLine
 10
162.0999755859375
 20
175.5
 30
0.0
 11
282.099853515625
 21
175.5
 31
0.0
  0
MTEXT
  5
24
100
AcDbEntity
  8
0
  6
CONTINUOUS
 62
               7
100
AcDbMText
 10
198.27702406779611
 20
185.5
 30
0.0
 40
6.3000001907348633
 41
0.0
 71
               4
 72
               1
  1
\W1.311;\A1;Ver. 1.0
  0
MTEXT
  5
25
100
AcDbEntity
  8
0
  6
CONTINUOUS
 62
               7
100
AcDbMText
 10
170.28099805280428
 20
-185.0
 30
0.0
 40
9.0
 41
0.0
 71
               4
 72
               1
  1
\W1.121;\A1;KOGANEI CORP.
  0
LINE
  5
26
100
AcDbEntity
  8
0
  6
CONTINUOUS
 62
               7
100
AcDbLine
 10
162.0999755859375
 20
-175.0
 30
0.0
 11
282.099853515625
 21
-175.0
 31
0.0
  0
LINE
  5
27
100
AcDbEntity
  8
0
  6
CONTINUOUS
 62
               7
100
AcDbLine
 10
162.0999755859375
 20
-175.0
 30
0.0
 11
162.0999755859375
 21
-195.0
 31
0.0
  0
LINE
  5
28
100
AcDbEntity
  8
0
  6
CONTINUOUS
 62
               7
100
AcDbLine
 10
-161.25
 20
195.5
 30
0.0
 11
-161.25
 21
175.5
 31
0.0
  0
LINE
  5
29
100
AcDbEntity
  8
0
  6
CONTINUOUS
 62
               7
100
AcDbLine
 10
-281.25
 20
175.5
 30
0.0
 11
-161.25
 21
175.5
 31
0.0
  0
MTEXT
  5
2A
100
AcDbEntity
  8
0
  6
CONTINUOUS
 62
               7
100
AcDbMText
 10
-268.2882353765595
 20
-53.799999999999983
 30
0.0
 40
6.3000001907348633
 41
0.0
 71
               4
 72
               1
  1
\W1.059;\A1;MODEL:JE12A7-25-GL
  0
LINE
  5
2B
100
AcDbEntity
  8
0
  6
CONTINUOUS
 62
               7
100
AcDbLine
 10
-281.25
 20
-38.799999999999983
 30
0.0
 11
282.099853515625
 21
-38.799999999999983
 31
0.0
  0
MTEXT
  5
2C
100
AcDbEntity
  8
0
  6
CONTINUOUS
 62
               7
100
AcDbMText
 10
13.386691381253012
 20
160.5
 30
0.0
 40
6.3000001907348633
 41
0.0
 71
               4
 72
               1
  1
\W1.059;\A1;MODEL:JE12A7-25-PS
  0
MTEXT
  5
2D
100
AcDbEntity
  8
0
  6
CONTINUOUS
 62
               7
100
AcDbMText
 10
51.152559329728497
 20
140.5
 30
0.0
 40
6.3000001907348633
 41
0.0
 71
               4
 72
               1
  1
\W1.026;\A1;JE12SA7-25-PS
  0
MTEXT
  5
2E
100
AcDbEntity
  8
0
  6
CONTINUOUS
 62
               7
100
AcDbMText
 10
51.152559329728497
 20
150.5
 30
0.0
 40
6.3000001907348633
 41
0.0
 71
               4
 72
               1
  1
\W1.026;\A1;JE12LA7-25-PS
  0
LINE
  5
2F
100
AcDbEntity
  8
0
  6
CONTINUOUS
 62
               7
100
AcDbLine
 10
0.4249267578125
 20
-38.799999999999983
 30
0.0
 11
0.4249267578125
 21
195.5
 31
0.0
  0
MTEXT
  5
30
100
AcDbEntity
  8
0
  6
CONTINUOUS
 62
               7
100
AcDbMText
 10
-268.2882353765595
 20
160.5
 30
0.0
 40
6.3000001907348633
 41
0.0
 71
               4
 72
               1
  1
\W1.059;\A1;MODEL:JE12A7-25-PL
  0
LINE
  5
31
100
AcDbEntity
  8
0
  6
CONTINUOUS
 62
               7
100
AcDbLine
 10
-161.25
 20
195.5
 30
0.0
 11
-161.25
 21
175.5
 31
0.0
  0
LINE
  5
32
100
AcDbEntity
  8
0
  6
CONTINUOUS
 62
               7
100
AcDbLine
 10
-281.25
 20
175.5
 30
0.0
 11
-161.25
 21
175.5
 31
0.0
  0
MTEXT
  5
33
100
AcDbEntity
  8
0
  6
CONTINUOUS
 62
               7
100
AcDbMText
 10
-257.88333446177035
 20
185.5
 30
0.0
 40
6.3000001907348633
 41
0.0
 71
               4
 72
               1
  1
\W1.111;\A1;JC･JE SERIES
  0
MTEXT
  5
34
100
AcDbEntity
  8
0
  6
CONTINUOUS
 62
               7
100
AcDbMText
 10
-230.52236742808401
 20
150.5
 30
0.0
 40
6.3000001907348633
 41
0.0
 71
               4
 72
               1
  1
\W1.026;\A1;JE12LA7-25-PL
  0
MTEXT
  5
35
100
AcDbEntity
  8
0
  6
CONTINUOUS
 62
               7
100
AcDbMText
 10
-230.52236742808401
 20
140.5
 30
0.0
 40
6.3000001907348633
 41
0.0
 71
               4
 72
               1
  1
\W1.026;\A1;JE12SA7-25-PL
  0
MTEXT
  5
36
100
AcDbEntity
  8
0
  6
CONTINUOUS
 62
               7
100
AcDbMText
 10
107.21656894683839
 20
-53.799999999999983
 30
0.0
 40
6.3000001907348633
 41
0.0
 71
               4
 72
               1
  1
\A1;-84
  0
LINE
  5
37
100
AcDbEntity
  8
0
  6
CONTINUOUS
 62
               7
100
AcDbLine
 10
94.316569010416686
 20
-195.0
 30
0.0
 11
94.316569010416686
 21
-38.800000011920929
 31
0.0
  0
LINE
  5
39
100
AcDbEntity
  8
0
  6
PHANTOM
 62
               2
100
AcDbLine
 10
117.15318747210654
 20
-124.84324913770541
 30
0.0
 11
166.10472187002293
 21
-111.72672502751942
 31
0.0
  0
LINE
  5
3A
100
AcDbEntity
  8
0
  6
PHANTOM
 62
               2
100
AcDbLine
 10
117.15318741250189
 20
-101.05799580664024
 30
0.0
 11
166.10472187002293
 21
-87.941471680483176
 31
0.0
  0
LINE
  5
3C
100
AcDbEntity
  8
0
  6
CENTER
 62
               2
100
AcDbLine
 10
140.65554777949077
 20
-76.073299737922014
 30
0.0
 11
140.65554777949077
 21
-133.20133035905843
 31
0.0
  0
LINE
  5
3D
100
AcDbEntity
  8
0
  6
CONTINUOUS
 62
               7
100
AcDbLine
 10
218.10537251497766
 20
-101.20255047948893
 30
0.0
 11
228.20537251497763
 21
-101.20255047948893
 31
0.0
  0
LINE
  5
3E
100
AcDbEntity
  8
0
  6
CONTINUOUS
 62
               7
100
AcDbLine
 10
228.20537251497763
 20
-100.90255047948898
 30
0.0
 11
228.40537251497764
 21
-100.70255047948893
 31
0.0
  0
LINE
  5
3F
100
AcDbEntity
  8
0
  6
CONTINUOUS
 62
               7
100
AcDbLine
 10
218.10537251497766
 20
-100.90255047948898
 30
0.0
 11
217.90537251497764
 21
-100.70255047948893
 31
0.0
  0
LINE
  5
40
100
AcDbEntity
  8
0
  6
CONTINUOUS
 62
               7
100
AcDbLine
 10
218.10537251497766
 20
-100.90255047948898
 30
0.0
 11
218.10537251497766
 21
-101.20255047948893
 31
0.0
  0
LINE
  5
41
100
AcDbEntity
  8
0
  6
CONTINUOUS
 62
               7
100
AcDbLine
 10
228.20537251497763
 20
-100.90255047948898
 30
0.0
 11
228.20537251497763
 21
-101.20255047948893
 31
0.0
  0
LINE
  5
42
100
AcDbEntity
  8
0
  6
CONTINUOUS
 62
               7
100
AcDbLine
 10
228.85537251497763
 20
-100.70255047948893
 30
0.0
 11
229.15537251497764
 21
-101.00255047948895
 31
0.0
  0
LINE
  5
43
100
AcDbEntity
  8
0
  6
CONTINUOUS
 62
               7
100
AcDbLine
 10
217.45537251497763
 20
-100.70255047948893
 30
0.0
 11
217.15537251497764
 21
-101.00255047948895
 31
0.0
  0
LINE
  5
44
100
AcDbEntity
  8
0
  6
CONTINUOUS
 62
               7
100
AcDbLine
 10
217.45537251497763
 20
-100.70255047948893
 30
0.0
 11
217.90537251497764
 21
-100.70255047948893
 31
0.0
  0
LINE
  5
45
100
AcDbEntity
  8
0
  6
CONTINUOUS
 62
               7
100
AcDbLine
 10
228.40537251497764
 20
-100.70255047948893
 30
0.0
 11
228.85537251497763
 21
-100.70255047948893
 31
0.0
  0
LINE
  5
46
100
AcDbEntity
  8
0
  6
CONTINUOUS
 62
               7
100
AcDbLine
 10
217.25537251142558
 20
-114.70255047948893
 30
0.0
 11
217.15537251497761
 21
-114.80255047593687
 31
0.0
  0
LINE
  5
47
100
AcDbEntity
  8
0
  6
CONTINUOUS
 62
               7
100
AcDbLine
 10
229.15537251497764
 20
-114.80255047948896
 30
0.0
 11
229.05537251497762
 21
-114.70255047948893
 31
0.0
  0
LINE
  5
48
100
AcDbEntity
  8
0
  6
CONTINUOUS
 62
               7
100
AcDbLine
 10
217.15537251497767
 20
-114.70255047948893
 30
0.0
 11
229.15537251497767
 21
-114.70255047948893
 31
0.0
  0
LINE
  5
49
100
AcDbEntity
  8
0
  6
CONTINUOUS
 62
               7
100
AcDbLine
 10
217.15537251497764
 20
-123.07385105467796
 30
0.0
 11
217.15537251497767
 21
-101.00255047948895
 31
0.0
  0
LINE
  5
4A
100
AcDbEntity
  8
0
  6
CONTINUOUS
 62
               7
100
AcDbLine
 10
229.15537251497767
 20
-119.85846074550449
 30
0.0
 11
229.15537251497767
 21
-101.00255047948895
 31
0.0
  0
ARC
  5
4B
100
AcDbEntity
  8
0
  6
CONTINUOUS
 62
               4
100
AcDbCircle
 10
218.88537251497763
 20
-99.490266746734221
 30
0.0
 40
0.5
100
AcDbArc
 50
179.99999999999963
 51
269.99999999999937
  0
ARC
  5
4C
100
AcDbEntity
  8
0
  6
CONTINUOUS
 62
               4
100
AcDbCircle
 10
227.42537251497765
 20
-99.490266746734221
 30
0.0
 40
0.5
100
AcDbArc
 50
269.99999999999937
 51
0.0
  0
LINE
  5
4D
100
AcDbEntity
  8
0
  6
CONTINUOUS
 62
               4
100
AcDbLine
 10
218.38537251497763
 20
-98.95902020202135
 30
0.0
 11
218.38537251497763
 21
-99.490266746734221
 31
0.0
  0
LINE
  5
4E
100
AcDbEntity
  8
0
  6
CONTINUOUS
 62
               4
100
AcDbLine
 10
227.92537251497765
 20
-96.402784906228419
 30
0.0
 11
227.92537251497765
 21
-99.490266746734221
 31
0.0
  0
LINE
  5
4F
100
AcDbEntity
  8
0
  6
CONTINUOUS
 62
               4
100
AcDbLine
 10
218.88537251497763
 20
-99.990266746734221
 30
0.0
 11
227.42537251497765
 21
-99.990266746734221
 31
0.0
  0
LINE
  5
50
100
AcDbEntity
  8
0
  6
CONTINUOUS
 62
               4
100
AcDbLine
 10
228.15537251497764
 20
-96.341156591969309
 30
0.0
 11
228.15537251497764
 21
-101.20255047948893
 31
0.0
  0
ARC
  5
51
100
AcDbEntity
  8
0
  6
CONTINUOUS
 62
               4
100
AcDbCircle
 10
227.65566936284185
 20
-100.70284732735314
 30
0.0
 40
0.4997032403068001
100
AcDbArc
 50
269.96596353714654
 51
0.0340364628527164
  0
LINE
  5
52
100
AcDbEntity
  8
0
  6
CONTINUOUS
 62
               4
100
AcDbLine
 10
218.15537251497764
 20
-99.020648516280517
 30
0.0
 11
218.15537251497764
 21
-101.20255047948893
 31
0.0
  0
ARC
  5
53
100
AcDbEntity
  8
0
  6
CONTINUOUS
 62
               4
100
AcDbCircle
 10
218.65566953918378
 20
-100.70225345528286
 30
0.0
 40
0.5002971123771115
100
AcDbArc
 50
180.03401625554557
 51
269.96598374445358
  0
LINE
  5
54
100
AcDbEntity
  8
0
  6
CONTINUOUS
 62
               7
100
AcDbLine
 10
131.7555477794908
 20
-114.70255048375833
 30
0.0
 11
149.65554777949077
 21
-114.70255048375833
 31
0.0
  0
LINE
  5
55
100
AcDbEntity
  8
0
  6
CONTINUOUS
 62
               7
100
AcDbLine
 10
131.95554777949079
 20
-100.70255048375839
 30
0.0
 11
131.65554777949077
 21
-101.0025504837584
 31
0.0
  0
LINE
  5
56
100
AcDbEntity
  8
0
  6
CONTINUOUS
 62
               7
100
AcDbLine
 10
131.6555477794908
 20
-114.80255048375835
 30
0.0
 11
131.7555477794908
 21
-114.70255048375839
 31
0.0
  0
LINE
  5
57
100
AcDbEntity
  8
0
  6
CONTINUOUS
 62
               7
100
AcDbLine
 10
131.95554777949079
 20
-100.70255048375839
 30
0.0
 11
149.6555477794908
 21
-100.70255048375839
 31
0.0
  0
LINE
  5
58
100
AcDbEntity
  8
0
  6
CONTINUOUS
 62
               7
100
AcDbLine
 10
149.6555477794908
 20
-116.13426794123643
 30
0.0
 11
149.6555477794908
 21
-100.70255048375839
 31
0.0
  0
LINE
  5
59
100
AcDbEntity
  8
0
  6
CONTINUOUS
 62
               7
100
AcDbLine
 10
131.65554777949077
 20
-120.95735340499664
 30
0.0
 11
131.65554777949077
 21
-101.00255048375834
 31
0.0
  0
LINE
  5
5A
100
AcDbEntity
  8
0
  6
CONTINUOUS
 62
               4
100
AcDbLine
 10
147.65554777949077
 20
-100.70255048375839
 30
0.0
 11
147.65554777949077
 21
-92.884912979062449
 31
0.0
  0
LINE
  5
5B
100
AcDbEntity
  8
0
  6
CONTINUOUS
 62
               4
100
AcDbLine
 10
133.65554777949077
 20
-96.636201673098185
 30
0.0
 11
133.65554777949077
 21
-100.70255048375839
 31
0.0
  0
LINE
  5
5C
100
AcDbEntity
  8
0
  6
CONTINUOUS
 62
               4
100
AcDbLine
 10
150.65555059601755
 20
-101.20255078893416
 30
0.0
 11
150.65555059601755
 21
-92.081064647082997
 31
0.0
  0
LINE
  5
5D
100
AcDbEntity
  8
0
  6
CONTINUOUS
 62
               4
100
AcDbLine
 10
150.65555059601755
 20
-101.20255078893416
 30
0.0
 11
152.96755059601756
 21
-100.12455078893419
 31
0.0
  0
LINE
  5
5E
100
AcDbEntity
  8
0
  6
CONTINUOUS
 62
               4
100
AcDbLine
 10
149.6555477794908
 20
-101.20255078893416
 30
0.0
 11
150.65555059601755
 21
-101.20255078893416
 31
0.0
  0
LINE
  5
5F
100
AcDbEntity
  8
0
  6
CONTINUOUS
 62
               4
100
AcDbLine
 10
153.25555059601757
 20
-91.384396746762093
 30
0.0
 11
153.25555059601757
 21
-99.670550788934179
 31
0.0
  0
ARC
  5
60
100
AcDbEntity
  8
0
  6
CONTINUOUS
 62
               4
100
AcDbCircle
 10
152.75508615149957
 20
-99.671423564217889
 30
0.0
 40
0.5004652055472239
100
AcDbArc
 50
295.12116424320402
 51
0.0999197646782735
  0
LINE
  5
61
100
AcDbEntity
  8
0
  6
PHANTOM
 62
               2
100
AcDbLine
 10
205.14270104813727
 20
-102.50738332719192
 30
0.0
 11
241.16804389840649
 21
-92.854421803407945
 31
0.0
  0
LINE
  5
62
100
AcDbEntity
  8
0
  6
PHANTOM
 62
               2
100
AcDbLine
 10
205.14270104813727
 20
-126.29263667315826
 30
0.0
 11
241.16804389840649
 21
-116.63967514937428
 31
0.0
  0
LINE
  5
63
100
AcDbEntity
  8
0
  6
CENTER
 62
             200
100
AcDbLine
 10
154.17061296756253
 20
-103.502550465902
 30
0.0
 11
148.45171886897498
 21
-103.502550465902
 31
0.0
  0
LINE
  5
64
100
AcDbEntity
  8
0
  6
CONTINUOUS
 62
               4
100
AcDbLine
 10
150.75554777949077
 20
-102.40255046590198
 30
0.0
 11
149.6555477794908
 21
-102.40255046590198
 31
0.0
  0
LINE
  5
65
100
AcDbEntity
  8
0
  6
CONTINUOUS
 62
               4
100
AcDbLine
 10
150.75554777949077
 20
-104.60255046590197
 30
0.0
 11
150.57553778359596
 21
-104.60255046590197
 31
0.0
  0
ARC
  5
66
100
AcDbEntity
  8
0
  6
CONTINUOUS
 62
               4
100
AcDbCircle
 10
152.75554777949077
 20
-107.87286986159677
 30
0.0
 40
0.5
100
AcDbArc
 50
270.00000000000023
 51
0.0
  0
ARC
  5
67
100
AcDbEntity
  8
0
  6
CONTINUOUS
 62
               4
100
AcDbCircle
 10
152.75554777949077
 20
-102.20255046590199
 30
0.0
 40
0.5
100
AcDbArc
 50
0.0
 51
89.999999999999815
  0
ARC
  5
68
100
AcDbEntity
  8
0
  6
CONTINUOUS
 62
               4
100
AcDbCircle
 10
150.85554777949079
 20
-101.80255046590196
 30
0.0
 40
0.1
100
AcDbArc
 50
89.999999999999815
 51
179.99999999999963
  0
ARC
  5
69
100
AcDbEntity
  8
0
  6
CONTINUOUS
 62
               4
100
AcDbCircle
 10
150.85554777949079
 20
-105.20255046590199
 30
0.0
 40
0.1
100
AcDbArc
 50
179.99999999999963
 51
269.99999999999937
  0
LINE
  5
6A
100
AcDbEntity
  8
0
  6
CONTINUOUS
 62
               4
100
AcDbLine
 10
152.75554777949077
 20
-108.37286986159677
 30
0.0
 11
151.85554777949079
 21
-108.37286986159677
 31
0.0
  0
LINE
  5
6B
100
AcDbEntity
  8
0
  6
CONTINUOUS
 62
               4
100
AcDbLine
 10
150.85554777949079
 20
-105.30255046590196
 30
0.0
 11
151.85554777949079
 21
-105.30255046590196
 31
0.0
  0
LINE
  5
6C
100
AcDbEntity
  8
0
  6
CONTINUOUS
 62
               4
100
AcDbLine
 10
153.25554777949077
 20
-107.87286986159677
 30
0.0
 11
153.25554777949077
 21
-102.20255046590199
 31
0.0
  0
LINE
  5
6D
100
AcDbEntity
  8
0
  6
CONTINUOUS
 62
               4
100
AcDbLine
 10
151.85554777949079
 20
-108.37286986159677
 30
0.0
 11
151.85554777949079
 21
-105.30255046590196
 31
0.0
  0
LINE
  5
6E
100
AcDbEntity
  8
0
  6
CONTINUOUS
 62
               4
100
AcDbLine
 10
150.85554777949079
 20
-101.70255046590199
 30
0.0
 11
152.75554777949077
 21
-101.70255046590199
 31
0.0
  0
LINE
  5
6F
100
AcDbEntity
  8
0
  6
CONTINUOUS
 62
               4
100
AcDbLine
 10
150.75554777949077
 20
-105.20255046590199
 30
0.0
 11
150.75554777949077
 21
-101.80255046590196
 31
0.0
  0
LINE
  5
70
100
AcDbEntity
  8
0
  6
CONTINUOUS
 62
               4
100
AcDbLine
 10
153.25554780187531
 20
-107.58267747948071
 30
0.0
 11
152.65554777803345
 21
-107.58267747948071
 31
0.0
  0
LINE
  5
71
100
AcDbEntity
  8
0
  6
CONTINUOUS
 62
               4
100
AcDbLine
 10
153.20939878644867
 20
-108.08267748208669
 30
0.0
 11
152.65554777803345
 21
-108.08267748208669
 31
0.0
  0
LINE
  5
72
100
AcDbEntity
  8
0
  6
CONTINUOUS
 62
               4
100
AcDbLine
 10
152.6555477794908
 20
-107.58267747948071
 30
0.0
 11
152.6555477794908
 21
-108.08267748208669
 31
0.0
  0
ARC
  5
73
100
AcDbEntity
  8
0
  6
CONTINUOUS
 62
               4
100
AcDbCircle
 10
150.27016589157307
 20
-104.5025504837584
 30
0.0
 40
0.3
100
AcDbArc
 50
2.8609771159547184
 51
89.999999999999815
  0
LINE
  5
74
100
AcDbEntity
  8
0
  6
CONTINUOUS
 62
               4
100
AcDbLine
 10
150.75554777949083
 20
-108.2045504837584
 30
0.0
 11
150.56979196655527
 21
-104.48757666691773
 31
0.0
  0
ARC
  5
75
100
AcDbEntity
  8
0
  6
CONTINUOUS
 62
               4
100
AcDbCircle
 10
150.32843289805169
 20
-113.94370473649064
 30
0.0
 40
0.1
100
AcDbArc
 50
269.99999999999937
 51
344.99999994881006
  0
ARC
  5
76
100
AcDbEntity
  8
0
  6
CONTINUOUS
 62
               4
100
AcDbCircle
 10
150.38202273672943
 20
-113.7437047364906
 30
0.0
 40
0.1
100
AcDbArc
 50
344.99999994881091
 51
89.999999999999801
  0
ARC
  5
77
100
AcDbEntity
  8
0
  6
CONTINUOUS
 62
               4
100
AcDbCircle
 10
150.4892024140849
 20
-113.34370473649062
 30
0.0
 40
0.1
100
AcDbArc
 50
269.99999999999937
 51
344.99999994880994
  0
ARC
  5
78
100
AcDbEntity
  8
0
  6
CONTINUOUS
 62
               4
100
AcDbCircle
 10
150.54279225276264
 20
-113.14370473649063
 30
0.0
 40
0.1
100
AcDbArc
 50
344.99999994881108
 51
89.999999999999801
  0
ARC
  5
79
100
AcDbEntity
  8
0
  6
CONTINUOUS
 62
               4
100
AcDbCircle
 10
150.64997193011811
 20
-112.7437047364906
 30
0.0
 40
0.1
100
AcDbArc
 50
269.99999999999937
 51
344.99999994881006
  0
ARC
  5
7A
100
AcDbEntity
  8
0
  6
CONTINUOUS
 62
               4
100
AcDbCircle
 10
150.70356176879585
 20
-112.54370473649061
 30
0.0
 40
0.1
100
AcDbArc
 50
344.99999994881091
 51
89.999999999999801
  0
ARC
  5
7B
100
AcDbEntity
  8
0
  6
CONTINUOUS
 62
               4
100
AcDbCircle
 10
150.81074144615133
 20
-112.14370473649063
 30
0.0
 40
0.1
100
AcDbArc
 50
269.99999999999937
 51
344.99999994880994
  0
ARC
  5
7C
100
AcDbEntity
  8
0
  6
CONTINUOUS
 62
               4
100
AcDbCircle
 10
150.86433128482906
 20
-111.94370473649064
 30
0.0
 40
0.1
100
AcDbArc
 50
344.99999994881108
 51
89.999999999999801
  0
ARC
  5
7D
100
AcDbEntity
  8
0
  6
CONTINUOUS
 62
               4
100
AcDbCircle
 10
150.97151096218454
 20
-111.54370473649061
 30
0.0
 40
0.1
100
AcDbArc
 50
269.99999999999937
 51
344.99999994881006
  0
ARC
  5
7E
100
AcDbEntity
  8
0
  6
CONTINUOUS
 62
               4
100
AcDbCircle
 10
151.02510080086228
 20
-111.34370473649062
 30
0.0
 40
0.1
100
AcDbArc
 50
344.99999994881091
 51
89.999999999999801
  0
LINE
  5
7F
100
AcDbEntity
  8
0
  6
CONTINUOUS
 62
               4
100
AcDbLine
 10
150.19811035916939
 20
-114.04370473649061
 30
0.0
 11
150.32843289897573
 21
-114.04370473649061
 31
0.0
  0
LINE
  5
80
100
AcDbEntity
  8
0
  6
CONTINUOUS
 62
               4
100
AcDbLine
 10
150.30529003665578
 20
-113.64370473649063
 30
0.0
 11
150.38202273771896
 21
-113.64370473649063
 31
0.0
  0
LINE
  5
81
100
AcDbEntity
  8
0
  6
CONTINUOUS
 62
               4
100
AcDbLine
 10
150.358879875399
 20
-113.44370473649064
 30
0.0
 11
150.4892024152054
 21
-113.44370473649064
 31
0.0
  0
LINE
  5
82
100
AcDbEntity
  8
0
  6
CONTINUOUS
 62
               4
100
AcDbLine
 10
150.46605955288544
 20
-113.04370473649061
 30
0.0
 11
150.54279225394856
 21
-113.04370473649061
 31
0.0
  0
LINE
  5
83
100
AcDbEntity
  8
0
  6
CONTINUOUS
 62
               4
100
AcDbLine
 10
150.51964939162866
 20
-112.84370473649062
 30
0.0
 11
150.649971931435
 21
-112.84370473649062
 31
0.0
  0
LINE
  5
84
100
AcDbEntity
  8
0
  6
CONTINUOUS
 62
               4
100
AcDbLine
 10
150.62682906911505
 20
-112.44370473649064
 30
0.0
 11
150.70356177017823
 21
-112.44370473649064
 31
0.0
  0
LINE
  5
85
100
AcDbEntity
  8
0
  6
CONTINUOUS
 62
               4
100
AcDbLine
 10
150.68041890785827
 20
-112.2437047364906
 30
0.0
 11
150.81074144766461
 21
-112.2437047364906
 31
0.0
  0
LINE
  5
86
100
AcDbEntity
  8
0
  6
CONTINUOUS
 62
               4
100
AcDbLine
 10
150.78759858534471
 20
-111.84370473649062
 30
0.0
 11
150.86433128640783
 21
-111.84370473649062
 31
0.0
  0
LINE
  5
87
100
AcDbEntity
  8
0
  6
CONTINUOUS
 62
               4
100
AcDbLine
 10
150.84118842408787
 20
-111.64370473649063
 30
0.0
 11
150.97151096389427
 21
-111.64370473649063
 31
0.0
  0
LINE
  5
88
100
AcDbEntity
  8
0
  6
CONTINUOUS
 62
               4
100
AcDbLine
 10
150.94836810157432
 20
-111.2437047364906
 30
0.0
 11
151.0251008026375
 21
-111.2437047364906
 31
0.0
  0
LINE
  5
89
100
AcDbEntity
  8
0
  6
CONTINUOUS
 62
               4
100
AcDbLine
 10
150.42502548065744
 20
-113.96958664108718
 30
0.0
 11
150.47861531933523
 21
-113.76958664108719
 31
0.0
  0
LINE
  5
8A
100
AcDbEntity
  8
0
  6
CONTINUOUS
 62
               4
100
AcDbLine
 10
150.58579499669071
 20
-113.36958664108715
 30
0.0
 11
150.63938483536839
 21
-113.16958664108716
 31
0.0
  0
LINE
  5
8B
100
AcDbEntity
  8
0
  6
CONTINUOUS
 62
               4
100
AcDbLine
 10
150.74656451272386
 20
-112.76958664108719
 30
0.0
 11
150.80015435140166
 21
-112.5695866410872
 31
0.0
  0
LINE
  5
8C
100
AcDbEntity
  8
0
  6
CONTINUOUS
 62
               4
100
AcDbLine
 10
150.90733402875713
 20
-112.16958664108716
 30
0.0
 11
150.96092386743481
 21
-111.96958664108718
 31
0.0
  0
LINE
  5
8D
100
AcDbEntity
  8
0
  6
CONTINUOUS
 62
               4
100
AcDbLine
 10
151.06810354479029
 20
-111.5695866410872
 30
0.0
 11
151.12169338346808
 21
-111.36958664108715
 31
0.0
  0
LINE
  5
8E
100
AcDbEntity
  8
0
  6
CONTINUOUS
 62
               4
100
AcDbLine
 10
150.21512744490786
 20
-113.98019611365953
 30
0.0
 11
151.04532550935431
 21
-110.88185476787248
 31
0.0
  0
ARC
  5
8F
100
AcDbEntity
  8
0
  6
CONTINUOUS
 62
               4
100
AcDbCircle
 10
150.75554777949083
 20
-110.80420898183615
 30
0.0
 40
0.3
100
AcDbArc
 50
344.99999159956064
 51
0.0
  0
ARC
  5
90
100
AcDbEntity
  8
0
  6
CONTINUOUS
 62
               4
100
AcDbCircle
 10
149.9253496775795
 20
-113.90255048375838
 30
0.0
 40
0.3
100
AcDbArc
 50
269.99999999999937
 51
345.00001052269107
  0
LINE
  5
91
100
AcDbEntity
  8
0
  6
CONTINUOUS
 62
               4
100
AcDbLine
 10
149.6555477794908
 20
-114.20255048375839
 30
0.0
 11
149.9253496775795
 21
-114.20255048375839
 31
0.0
  0
LINE
  5
92
100
AcDbEntity
  8
0
  6
CONTINUOUS
 62
               4
100
AcDbLine
 10
149.65554778192922
 20
-104.20255048375844
 30
0.0
 11
150.27016589157307
 21
-104.20255048375844
 31
0.0
  0
LINE
  5
93
100
AcDbEntity
  8
0
  6
CONTINUOUS
 62
               4
100
AcDbLine
 10
151.05554777949084
 20
-108.50455048375841
 30
0.0
 11
151.05554777949084
 21
-110.80420898183615
 31
0.0
  0
ARC
  5
94
100
AcDbEntity
  8
0
  6
CONTINUOUS
 62
               4
100
AcDbCircle
 10
150.75554777949083
 20
-108.50455048375841
 30
0.0
 40
0.3
100
AcDbArc
 50
0.0
 51
89.999999999999815
  0
LINE
  5
95
100
AcDbEntity
  8
0
  6
CONTINUOUS
 62
               4
100
AcDbLine
 10
217.85537251535538
 20
-114.20255048374273
 30
0.0
 11
228.45537251535541
 21
-114.20255048336853
 31
0.0
  0
LINE
  5
96
100
AcDbEntity
  8
0
  6
CONTINUOUS
 62
               4
100
AcDbLine
 10
226.34819283554319
 20
-107.43267747961971
 30
0.0
 11
224.96255219059123
 21
-108.23267748180152
 31
0.0
  0
LINE
  5
97
100
AcDbEntity
  8
0
  6
CONTINUOUS
 62
               4
100
AcDbLine
 10
226.34819283489779
 20
-107.43267747999232
 30
0.0
 11
224.26126062885166
 21
-103.81800486746319
 31
0.0
  0
ARC
  5
98
100
AcDbEntity
  8
0
  6
CONTINUOUS
 62
               4
100
AcDbCircle
 10
224.71255218985831
 20
-107.79966478033248
 30
0.0
 40
0.5
100
AcDbArc
 50
210.00000000202218
 51
300.00000008741563
  0
LINE
  5
99
100
AcDbEntity
  8
0
  6
CONTINUOUS
 62
               4
100
AcDbLine
 10
226.53120553676592
 20
-106.7496647780936
 30
0.0
 11
224.83854296006675
 21
-103.81788719541923
 31
0.0
  0
ARC
  5
9A
100
AcDbEntity
  8
0
  6
CONTINUOUS
 62
               4
100
AcDbCircle
 10
223.15537251497764
 20
-103.50255046569924
 30
0.0
 40
1.6500000000000001
100
AcDbArc
 50
355.13616201929131
 51
244.86383791664005
  0
LINE
  5
9B
100
AcDbEntity
  8
0
  6
CONTINUOUS
 62
               4
100
AcDbLine
 10
224.27953948797492
 20
-108.04966478034775
 30
0.0
 11
222.58687690913237
 21
-105.117887193961
 31
0.0
  0
LINE
  5
9C
100
AcDbEntity
  8
0
  6
CONTINUOUS
 62
               4
100
AcDbLine
 10
226.08838521539437
 20
-107.58267747957868
 30
0.0
 11
222.80217595823089
 21
-101.89079608233239
 31
0.0
  0
LINE
  5
9D
100
AcDbEntity
  8
0
  6
CONTINUOUS
 62
               4
100
AcDbLine
 10
225.22235980998374
 20
-108.08267748202299
 30
0.0
 11
221.93615055226496
 21
-102.39079608381492
 31
0.0
  0
ARC
  5
9E
100
AcDbEntity
  8
0
  6
CONTINUOUS
 62
               4
100
AcDbCircle
 10
222.32706928800235
 20
-105.26788719397015
 30
0.0
 40
0.3
100
AcDbArc
 50
30.000000002022531
 51
64.863837916640307
  0
ARC
  5
9F
100
AcDbEntity
  8
0
  6
CONTINUOUS
 62
               4
100
AcDbCircle
 10
225.09835058119677
 20
-103.66788719541002
 30
0.0
 40
0.3
100
AcDbArc
 50
175.13616201929182
 51
210.00000000202243
  0
LINE
  5
A0
100
AcDbEntity
  8
0
  6
CONTINUOUS
 62
               4
100
AcDbLine
 10
224.96255218939893
 20
-108.2326774797364
 30
0.0
 11
222.87561998335278
 21
-104.61800486720732
 31
0.0
  0
ARC
  5
A1
100
AcDbEntity
  8
0
  6
CONTINUOUS
 62
               4
100
AcDbCircle
 10
223.15537251454774
 20
-103.50255046594742
 30
0.0
 40
1.1500000000000001
100
AcDbArc
 50
145.77146180160696
 51
255.92079019249044
  0
ARC
  5
A2
100
AcDbEntity
  8
0
  6
CONTINUOUS
 62
               4
100
AcDbCircle
 10
226.0981928348825
 20
-106.99966477810888
 30
0.0
 40
0.5
100
AcDbArc
 50
300.00000008741654
 51
30.000000002022595
  0
ARC
  5
A3
100
AcDbEntity
  8
0
  6
CONTINUOUS
 62
               4
100
AcDbCircle
 10
223.1553725149777
 20
-103.50255046569924
 30
0.0
 40
1.1500000000000001
100
AcDbArc
 50
344.07920981155343
 51
94.22853820243769
  0
ARC
  5
A4
100
AcDbEntity
  8
0
  6
CONTINUOUS
 62
               4
100
AcDbCircle
 10
228.45537251534481
 20
-113.90255048336857
 30
0.0
 40
0.3
100
AcDbArc
 50
270.00000000202203
 51
0.0000000020226292
  0
ARC
  5
A5
100
AcDbEntity
  8
0
  6
CONTINUOUS
 62
               4
100
AcDbCircle
 10
217.85537251534478
 20
-113.90255048374271
 30
0.0
 40
0.3
100
AcDbArc
 50
180.00000000202223
 51
270.00000000202203
  0
LINE
  5
A6
100
AcDbEntity
  8
0
  6
CONTINUOUS
 62
               4
100
AcDbLine
 10
228.75537250837635
 20
-110.84370473609016
 30
0.0
 11
217.5553725143368
 21
-110.84370473648556
 31
0.0
  0
ARC
  5
A7
100
AcDbEntity
  8
0
  6
CONTINUOUS
 62
               4
100
AcDbCircle
 10
226.4553725152636
 20
-111.6025504834391
 30
0.0
 40
0.3
100
AcDbArc
 50
0.0000000020226547
 51
90.00000000202246
  0
ARC
  5
A8
100
AcDbEntity
  8
0
  6
CONTINUOUS
 62
               4
100
AcDbCircle
 10
219.85537251526361
 20
-111.6025504836721
 30
0.0
 40
0.3
100
AcDbArc
 50
90.00000000202246
 51
180.00000000202226
  0
LINE
  5
A9
100
AcDbEntity
  8
0
  6
CONTINUOUS
 62
               4
100
AcDbLine
 10
225.45537251500235
 20
-104.20255048347454
 30
0.0
 11
227.75537251500236
 21
-104.20255048339334
 31
0.0
  0
LINE
  5
AA
100
AcDbEntity
  8
0
  6
CONTINUOUS
 62
               4
100
AcDbLine
 10
226.45537251525303
 20
-111.30255048343915
 30
0.0
 11
219.85537251525304
 21
-111.30255048367215
 31
0.0
  0
LINE
  5
AB
100
AcDbEntity
  8
0
  6
CONTINUOUS
 62
               4
100
AcDbLine
 10
226.75537251534223
 20
-113.82934537154621
 30
0.0
 11
226.75537251526362
 21
-111.60255048342852
 31
0.0
  0
LINE
  5
AC
100
AcDbEntity
  8
0
  6
CONTINUOUS
 62
               4
100
AcDbLine
 10
219.55537251534221
 20
-113.82934537180039
 30
0.0
 11
219.55537251526363
 21
-111.60255048368269
 31
0.0
  0
LINE
  5
AD
100
AcDbEntity
  8
0
  6
CONTINUOUS
 62
               4
100
AcDbLine
 10
228.75537251534482
 20
-113.90255048335797
 30
0.0
 11
228.75537251503769
 21
-105.20255048335804
 31
0.0
  0
LINE
  5
AE
100
AcDbEntity
  8
0
  6
CONTINUOUS
 62
               4
100
AcDbLine
 10
217.5553725153448
 20
-113.90255048375332
 30
0.0
 11
217.55537251503767
 21
-105.20255048375344
 31
0.0
  0
LINE
  5
AF
100
AcDbEntity
  8
0
  6
CONTINUOUS
 62
               4
100
AcDbLine
 10
220.85537251500236
 20
-104.20255048363694
 30
0.0
 11
218.55537251500238
 21
-104.20255048371814
 31
0.0
  0
LINE
  5
B0
100
AcDbEntity
  8
0
  6
CONTINUOUS
 62
               4
100
AcDbLine
 10
228.75537252023881
 20
-108.20455048335799
 30
0.0
 11
225.01126958055934
 21
-108.20455048349018
 31
0.0
  0
LINE
  5
B1
100
AcDbEntity
  8
0
  6
CONTINUOUS
 62
               4
100
AcDbLine
 10
217.55537251079869
 20
-111.24370473648554
 30
0.0
 11
228.75537251079868
 21
-111.24370473609014
 31
0.0
  0
LINE
  5
B2
100
AcDbEntity
  8
0
  6
CONTINUOUS
 62
               4
100
AcDbLine
 10
226.75537251526507
 20
-111.64370473616079
 30
0.0
 11
228.7553725108128
 21
-111.64370473609017
 31
0.0
  0
LINE
  5
B3
100
AcDbEntity
  8
0
  6
CONTINUOUS
 62
               4
100
AcDbLine
 10
226.75537251527214
 20
-111.84370473616077
 30
0.0
 11
228.75537251081988
 21
-111.84370473609016
 31
0.0
  0
LINE
  5
B4
100
AcDbEntity
  8
0
  6
CONTINUOUS
 62
               4
100
AcDbLine
 10
226.75537251528627
 20
-112.24370473616075
 30
0.0
 11
228.75537251083401
 21
-112.24370473609014
 31
0.0
  0
LINE
  5
B5
100
AcDbEntity
  8
0
  6
CONTINUOUS
 62
               4
100
AcDbLine
 10
226.75537251529332
 20
-112.4437047361608
 30
0.0
 11
228.75537251084106
 21
-112.44370473609018
 31
0.0
  0
LINE
  5
B6
100
AcDbEntity
  8
0
  6
CONTINUOUS
 62
               4
100
AcDbLine
 10
226.75537251530744
 20
-112.84370473616077
 30
0.0
 11
228.75537251085518
 21
-112.84370473609016
 31
0.0
  0
LINE
  5
B7
100
AcDbEntity
  8
0
  6
CONTINUOUS
 62
               4
100
AcDbLine
 10
226.75537251531449
 20
-113.04370473616076
 30
0.0
 11
228.75537251086223
 21
-113.04370473609015
 31
0.0
  0
LINE
  5
B8
100
AcDbEntity
  8
0
  6
CONTINUOUS
 62
               4
100
AcDbLine
 10
226.75537251532862
 20
-113.4437047361608
 30
0.0
 11
228.75537251087636
 21
-113.44370473609018
 31
0.0
  0
LINE
  5
B9
100
AcDbEntity
  8
0
  6
CONTINUOUS
 62
               4
100
AcDbLine
 10
226.75537251533569
 20
-113.64370473616079
 30
0.0
 11
228.75537251088343
 21
-113.64370473609017
 31
0.0
  0
LINE
  5
BA
100
AcDbEntity
  8
0
  6
CONTINUOUS
 62
               4
100
AcDbLine
 10
217.59065478467122
 20
-114.0437047364843
 30
0.0
 11
228.72009024475756
 21
-114.0437047360914
 31
0.0
  0
LINE
  5
BB
100
AcDbEntity
  8
0
  6
CONTINUOUS
 62
               4
100
AcDbLine
 10
219.55537251526505
 20
-111.64370473641496
 30
0.0
 11
217.55537251971728
 21
-111.64370473648557
 31
0.0
  0
LINE
  5
BC
100
AcDbEntity
  8
0
  6
CONTINUOUS
 62
               4
100
AcDbLine
 10
219.55537251527213
 20
-111.84370473641495
 30
0.0
 11
217.55537251972436
 21
-111.84370473648556
 31
0.0
  0
LINE
  5
BD
100
AcDbEntity
  8
0
  6
CONTINUOUS
 62
               4
100
AcDbLine
 10
219.55537251528625
 20
-112.24370473641493
 30
0.0
 11
217.55537251973848
 21
-112.24370473648554
 31
0.0
  0
LINE
  5
BE
100
AcDbEntity
  8
0
  6
CONTINUOUS
 62
               4
100
AcDbLine
 10
219.5553725152933
 20
-112.44370473641497
 30
0.0
 11
217.55537251974553
 21
-112.44370473648559
 31
0.0
  0
LINE
  5
BF
100
AcDbEntity
  8
0
  6
CONTINUOUS
 62
               4
100
AcDbLine
 10
219.55537251530743
 20
-112.84370473641495
 30
0.0
 11
217.55537251975966
 21
-112.84370473648556
 31
0.0
  0
LINE
  5
C0
100
AcDbEntity
  8
0
  6
CONTINUOUS
 62
               4
100
AcDbLine
 10
219.55537251531447
 20
-113.04370473641494
 30
0.0
 11
217.55537251976671
 21
-113.04370473648555
 31
0.0
  0
LINE
  5
C1
100
AcDbEntity
  8
0
  6
CONTINUOUS
 62
               4
100
AcDbLine
 10
219.5553725153286
 20
-113.44370473641497
 30
0.0
 11
217.55537251978083
 21
-113.44370473648559
 31
0.0
  0
LINE
  5
C2
100
AcDbEntity
  8
0
  6
CONTINUOUS
 62
               4
100
AcDbLine
 10
219.55537251533568
 20
-113.64370473641496
 30
0.0
 11
217.55537251978791
 21
-113.64370473648557
 31
0.0
  0
ARC
  5
C3
100
AcDbEntity
  8
0
  6
CONTINUOUS
 62
               4
100
AcDbCircle
 10
223.15537251506237
 20
-105.90255048355573
 30
0.0
 40
1.3
100
AcDbArc
 50
180.00000000202232
 51
295.58827457679422
  0
LINE
  5
C4
100
AcDbEntity
  8
0
  6
CONTINUOUS
 62
               4
100
AcDbLine
 10
221.85537251506238
 20
-105.90255048394366
 30
0.0
 11
221.85537251503769
 21
-105.20255048394361
 31
0.0
  0
ARC
  5
C5
100
AcDbEntity
  8
0
  6
CONTINUOUS
 62
               4
100
AcDbCircle
 10
220.85537251503769
 20
-105.20255048363694
 30
0.0
 40
1.0
100
AcDbArc
 50
0.000000002022731
 51
90.000000002022531
  0
ARC
  5
C6
100
AcDbEntity
  8
0
  6
CONTINUOUS
 62
               4
100
AcDbCircle
 10
225.45537251503768
 20
-105.20255048347454
 30
0.0
 40
1.0
100
AcDbArc
 50
90.000000002022531
 51
110.90095671103151
  0
ARC
  5
C7
100
AcDbEntity
  8
0
  6
CONTINUOUS
 62
               4
100
AcDbCircle
 10
227.75537251503769
 20
-105.20255048339334
 30
0.0
 40
1.0
100
AcDbArc
 50
0.000000002022731
 51
90.000000002022531
  0
ARC
  5
C8
100
AcDbEntity
  8
0
  6
CONTINUOUS
 62
               4
100
AcDbCircle
 10
218.55537251503767
 20
-105.20255048371814
 30
0.0
 40
1.0
100
AcDbArc
 50
90.000000002022531
 51
180.00000000202232
  0
LINE
  5
C9
100
AcDbEntity
  8
0
  6
CONTINUOUS
 62
               4
100
AcDbLine
 10
219.55537251088998
 20
-113.82934537180039
 30
0.0
 11
226.75537251088997
 21
-113.82934537154621
 31
0.0
  0
LINE
  5
CA
100
AcDbEntity
  8
0
  6
CONTINUOUS
 62
               4
100
AcDbLine
 10
224.41917944510919
 20
-108.20455048351107
 30
0.0
 11
217.55537251514363
 21
-108.20455048375334
 31
0.0
  0
LINE
  5
CB
100
AcDbEntity
  8
0
  6
CENTER
 62
             200
100
AcDbLine
 10
225.470302650702
 20
-103.50255046561752
 30
0.0
 11
220.85537251497769
 21
-103.50255046618472
 31
0.0
  0
LINE
  5
CC
100
AcDbEntity
  8
0
  6
CENTER
 62
               2
100
AcDbLine
 10
223.15537251403504
 20
-76.802550784664675
 30
0.0
 11
223.15537251602612
 21
-133.20133035905843
 31
0.0
  0
LINE
  5
CD
100
AcDbEntity
  8
0
  6
CONTINUOUS
 62
             200
100
AcDbLine
 10
2.7654255395184393
 20
-167.20860190541038
 30
0.0
 11
1.3214255395184793
 21
-164.70860190541038
 31
0.0
  0
LINE
  5
CE
100
AcDbEntity
  8
0
  6
CONTINUOUS
 62
             200
100
AcDbLine
 10
2.2654255395184393
 20
-167.20860190541038
 30
0.0
 11
0.8214255395184793
 21
-164.70860190541038
 31
0.0
  0
LINE
  5
CF
100
AcDbEntity
  8
0
  6
CONTINUOUS
 62
               4
100
AcDbLine
 10
3.8963266621960244
 20
-166.60860190541035
 30
0.0
 11
2.4194255395184356
 21
-166.60860190541035
 31
0.0
  0
LINE
  5
D0
100
AcDbEntity
  8
0
  6
CONTINUOUS
 62
               4
100
AcDbLine
 10
10.696329478722809
 20
-151.46060221058616
 30
0.0
 11
10.696329478722809
 21
-172.86060190034266
 31
0.0
  0
LINE
  5
D1
100
AcDbEntity
  8
0
  6
CONTINUOUS
 62
               4
100
AcDbLine
 10
24.696329478722809
 20
-172.86060190541036
 30
0.0
 11
24.696329478722809
 21
-151.46060221058616
 31
0.0
  0
LINE
  5
D2
100
AcDbEntity
  8
0
  6
CONTINUOUS
 62
               4
100
AcDbLine
 10
7.6963266621960358
 20
-150.96060190541039
 30
0.0
 11
7.6963266621960358
 21
-169.45860190541038
 31
0.0
  0
LINE
  5
D3
100
AcDbEntity
  8
0
  6
CONTINUOUS
 62
               4
100
AcDbLine
 10
7.6963266621960358
 20
-150.96060190541039
 30
0.0
 11
5.384326662196024
 21
-152.03860190541036
 31
0.0
  0
LINE
  5
D4
100
AcDbEntity
  8
0
  6
CONTINUOUS
 62
               4
100
AcDbLine
 10
-1.6005744604815462
 20
-166.20778452259782
 30
0.0
 11
-5.1005744604815462
 21
-166.20778452259782
 31
0.0
  0
LINE
  5
D5
100
AcDbEntity
  8
0
  6
CONTINUOUS
 62
               4
100
AcDbLine
 10
-1.6005744604815462
 20
-165.70778452259782
 30
0.0
 11
-5.1005744604815462
 21
-165.70778452259782
 31
0.0
  0
ARC
  5
D6
100
AcDbEntity
  8
0
  6
CONTINUOUS
 62
               4
100
AcDbCircle
 10
4.3963266621960244
 20
-167.95860190541038
 30
0.0
 40
0.5
100
AcDbArc
 50
179.99999999999963
 51
269.99999999999937
  0
ARC
  5
D7
100
AcDbEntity
  8
0
  6
CONTINUOUS
 62
               4
100
AcDbCircle
 10
4.3963266621960244
 20
-163.95860190541038
 30
0.0
 40
0.5
100
AcDbArc
 50
89.999999999999815
 51
179.99999999999963
  0
LINE
  5
D8
100
AcDbEntity
  8
0
  6
CONTINUOUS
 62
               4
100
AcDbLine
 10
5.096326662196013
 20
-168.45860190541038
 30
0.0
 11
4.3963266621960244
 21
-168.45860190541038
 31
0.0
  0
LINE
  5
D9
100
AcDbEntity
  8
0
  6
CONTINUOUS
 62
               4
100
AcDbLine
 10
3.8963266621960244
 20
-163.95860190541038
 30
0.0
 11
3.8963266621960244
 21
-167.95860190541038
 31
0.0
  0
LINE
  5
DA
100
AcDbEntity
  8
0
  6
CONTINUOUS
 62
               4
100
AcDbLine
 10
5.096326662196013
 20
-163.45860190541038
 30
0.0
 11
4.3963266621960244
 21
-163.45860190541038
 31
0.0
  0
LINE
  5
DB
100
AcDbEntity
  8
0
  6
CONTINUOUS
 62
               4
100
AcDbLine
 10
-1.6005744604815462
 20
-166.6077845225978
 30
0.0
 11
-1.6005744604815462
 21
-165.30778452259784
 31
0.0
  0
LINE
  5
DC
100
AcDbEntity
  8
0
  6
CONTINUOUS
 62
               4
100
AcDbLine
 10
1.9194255395184356
 20
-166.60860190541035
 30
0.0
 11
-1.6005744604815462
 21
-166.60860190541035
 31
0.0
  0
LINE
  5
DD
100
AcDbEntity
  8
0
  6
CONTINUOUS
 62
               4
100
AcDbLine
 10
1.1694255395184356
 20
-165.30860190541034
 30
0.0
 11
-1.6005744604815462
 21
-165.30860190541034
 31
0.0
  0
LINE
  5
DE
100
AcDbEntity
  8
0
  6
CONTINUOUS
 62
               4
100
AcDbLine
 10
5.096326662196013
 20
-168.95860190541038
 30
0.0
 11
5.096326662196013
 21
-168.45860190541038
 31
0.0
  0
ARC
  5
DF
100
AcDbEntity
  8
0
  6
CONTINUOUS
 62
               4
100
AcDbCircle
 10
5.596791106714015
 20
-152.49172913012666
 30
0.0
 40
0.5004652055472239
100
AcDbArc
 50
115.12116424320362
 51
180.09991976467791
  0
ARC
  5
E0
100
AcDbEntity
  8
0
  6
CONTINUOUS
 62
               4
100
AcDbCircle
 10
5.5962891381906203
 20
-168.95863942941577
 30
0.0
 40
0.4999624774027422
100
AcDbArc
 50
179.99569974300056
 51
270.00430025699842
  0
LINE
  5
E1
100
AcDbEntity
  8
0
  6
CONTINUOUS
 62
               4
100
AcDbLine
 10
10.696326662196036
 20
-169.45860190541038
 30
0.0
 11
5.596326662196013
 21
-169.45860190541038
 31
0.0
  0
LINE
  5
E2
100
AcDbEntity
  8
0
  6
CONTINUOUS
 62
               4
100
AcDbLine
 10
3.8963266621960244
 20
-165.30860190541034
 30
0.0
 11
1.6694255395184356
 21
-165.30860190541034
 31
0.0
  0
LINE
  5
E3
100
AcDbEntity
  8
0
  6
CONTINUOUS
 62
               4
100
AcDbLine
 10
5.096326662196013
 20
-168.45860190541038
 30
0.0
 11
5.096326662196013
 21
-152.49260190541037
 31
0.0
  0
LINE
  5
E4
100
AcDbEntity
  8
0
  6
CONTINUOUS
 62
               4
100
AcDbLine
 10
14.396329478722798
 20
-172.86060190541048
 30
0.0
 11
14.396329478722798
 21
-173.46060190541039
 31
0.0
  0
LINE
  5
E5
100
AcDbEntity
  8
0
  6
CONTINUOUS
 62
               4
100
AcDbLine
 10
11.379234332064577
 20
-173.46060190541039
 30
0.0
 11
22.696332295249583
 21
-173.46060190541044
 31
0.0
  0
ARC
  5
E6
100
AcDbEntity
  8
0
  6
CONTINUOUS
 62
               4
100
AcDbCircle
 10
13.180417483959836
 20
-172.86168991064739
 30
0.0
 40
0.5989129830170392
100
AcDbArc
 50
269.89591452477231
 51
0.1040854752270701
  0
ARC
  5
E7
100
AcDbEntity
  8
0
  6
CONTINUOUS
 62
               4
100
AcDbCircle
 10
11.379234332064634
 20
-172.86069705206859
 30
0.0
 40
0.5999048608870732
100
AcDbArc
 50
179.99091272245337
 51
236.43994933325826
  0
LINE
  5
E8
100
AcDbEntity
  8
0
  6
CONTINUOUS
 62
               4
100
AcDbLine
 10
10.696329478722866
 20
-172.86060190541048
 30
0.0
 11
14.396329478722798
 21
-172.86060190541048
 31
0.0
  0
LINE
  5
E9
100
AcDbEntity
  8
0
  6
CONTINUOUS
 62
               4
100
AcDbLine
 10
22.696332295249583
 20
-173.46060190541044
 30
0.0
 11
22.696332295249583
 21
-171.86060190541048
 31
0.0
  0
LINE
  5
EA
100
AcDbEntity
  8
0
  6
CONTINUOUS
 62
               4
100
AcDbLine
 10
10.696329478722809
 20
-171.86060190541048
 30
0.0
 11
22.696332295249583
 21
-171.86060190541048
 31
0.0
  0
LINE
  5
EB
100
AcDbEntity
  8
0
  6
CONTINUOUS
 62
               4
100
AcDbLine
 10
24.196329478722866
 20
-173.36060190541036
 30
0.0
 11
22.696329478722866
 21
-173.36060190541036
 31
0.0
  0
ARC
  5
EC
100
AcDbEntity
  8
0
  6
CONTINUOUS
 62
               4
100
AcDbCircle
 10
24.196329478722866
 20
-172.86060190541036
 30
0.0
 40
0.5
100
AcDbArc
 50
270.00000000000023
 51
0.0
  0
ARC
  5
ED
100
AcDbEntity
  8
0
  6
CONTINUOUS
 62
               4
100
AcDbCircle
 10
11.196329478722866
 20
-172.86060190541036
 30
0.0
 40
0.5
100
AcDbArc
 50
179.99999999999963
 51
245.26960130313901
  0
ARC
  5
EE
100
AcDbEntity
  8
0
  6
CONTINUOUS
 62
               4
100
AcDbCircle
 10
11.379234332064634
 20
-172.86069705206859
 30
0.0
 40
0.5999048608870732
100
AcDbArc
 50
236.43994933325826
 51
270.00908727754575
  0
LINE
  5
EF
100
AcDbEntity
  8
0
  6
CONTINUOUS
 62
               4
100
AcDbLine
 10
-5.1005744604815462
 20
-166.20778452259782
 30
0.0
 11
-5.1005744604815462
 21
-165.70778452259782
 31
0.0
  0
LINE
  5
F0
100
AcDbEntity
  8
0
  6
CONTINUOUS
 62
               4
100
AcDbLine
 10
8.6963294787228094
 20
-150.96060190541039
 30
0.0
 11
7.6963266621960358
 21
-150.96060190541039
 31
0.0
  0
LINE
  5
F1
100
AcDbEntity
  8
0
  6
CONTINUOUS
 62
               4
100
AcDbLine
 10
8.6963294787228094
 20
-75.960602515762105
 30
0.0
 11
7.6963266621960358
 21
-75.960602515762105
 31
0.0
  0
LINE
  5
F2
100
AcDbEntity
  8
0
  6
CONTINUOUS
 62
               4
100
AcDbLine
 10
-5.1005744604815462
 20
-60.713419898574671
 30
0.0
 11
-5.1005744604815462
 21
-61.213419898574671
 31
0.0
  0
ARC
  5
F3
100
AcDbEntity
  8
0
  6
CONTINUOUS
 62
               4
100
AcDbCircle
 10
11.379234332064634
 20
-54.060507369103902
 30
0.0
 40
0.5999048608870732
100
AcDbArc
 50
89.99091272245343
 51
123.56005066674096
  0
ARC
  5
F4
100
AcDbEntity
  8
0
  6
CONTINUOUS
 62
               4
100
AcDbCircle
 10
11.196329478722866
 20
-54.060602515762127
 30
0.0
 40
0.5
100
AcDbArc
 50
114.73039869686018
 51
179.99999999999963
  0
ARC
  5
F5
100
AcDbEntity
  8
0
  6
CONTINUOUS
 62
               4
100
AcDbCircle
 10
24.196329478722866
 20
-54.060602515762127
 30
0.0
 40
0.5
100
AcDbArc
 50
0.0
 51
89.999999999999815
  0
LINE
  5
F6
100
AcDbEntity
  8
0
  6
CONTINUOUS
 62
               4
100
AcDbLine
 10
24.196329478722866
 20
-53.560602515762127
 30
0.0
 11
22.696329478722866
 21
-53.560602515762127
 31
0.0
  0
LINE
  5
F7
100
AcDbEntity
  8
0
  6
CONTINUOUS
 62
               4
100
AcDbLine
 10
10.696329478722809
 20
-55.060602515762014
 30
0.0
 11
22.696332295249583
 21
-55.060602515762014
 31
0.0
  0
LINE
  5
F8
100
AcDbEntity
  8
0
  6
CONTINUOUS
 62
               4
100
AcDbLine
 10
22.696332295249583
 20
-53.460602515762048
 30
0.0
 11
22.696332295249583
 21
-55.060602515762014
 31
0.0
  0
LINE
  5
F9
100
AcDbEntity
  8
0
  6
CONTINUOUS
 62
               4
100
AcDbLine
 10
10.696329478722866
 20
-54.060602515762014
 30
0.0
 11
14.396329478722798
 21
-54.060602515762014
 31
0.0
  0
ARC
  5
FA
100
AcDbEntity
  8
0
  6
CONTINUOUS
 62
               4
100
AcDbCircle
 10
11.379234332064634
 20
-54.060507369103902
 30
0.0
 40
0.5999048608870732
100
AcDbArc
 50
123.56005066674096
 51
180.00908727754583
  0
ARC
  5
FB
100
AcDbEntity
  8
0
  6
CONTINUOUS
 62
               4
100
AcDbCircle
 10
13.180417483959836
 20
-54.059514510525105
 30
0.0
 40
0.5989129830170392
100
AcDbArc
 50
359.89591452477293
 51
90.104085475226867
  0
LINE
  5
FC
100
AcDbEntity
  8
0
  6
CONTINUOUS
 62
               4
100
AcDbLine
 10
11.379234332064577
 20
-53.460602515762105
 30
0.0
 11
22.696332295249583
 21
-53.460602515762048
 31
0.0
  0
LINE
  5
FD
100
AcDbEntity
  8
0
  6
CONTINUOUS
 62
               4
100
AcDbLine
 10
14.396329478722798
 20
-54.060602515762014
 30
0.0
 11
14.396329478722798
 21
-53.460602515762105
 31
0.0
  0
LINE
  5
FE
100
AcDbEntity
  8
0
  6
CONTINUOUS
 62
               4
100
AcDbLine
 10
5.096326662196013
 20
-58.462602515762114
 30
0.0
 11
5.096326662196013
 21
-74.428602515762122
 31
0.0
  0
LINE
  5
FF
100
AcDbEntity
  8
0
  6
CONTINUOUS
 62
               4
100
AcDbLine
 10
3.8963266621960244
 20
-61.612602515762148
 30
0.0
 11
1.6694255395184356
 21
-61.612602515762148
 31
0.0
  0
LINE
  5
100
100
AcDbEntity
  8
0
  6
CONTINUOUS
 62
               4
100
AcDbLine
 10
10.696326662196036
 20
-57.462602515762114
 30
0.0
 11
5.596326662196013
 21
-57.462602515762114
 31
0.0
  0
ARC
  5
101
100
AcDbEntity
  8
0
  6
CONTINUOUS
 62
               4
100
AcDbCircle
 10
5.5962891381906203
 20
-57.962564991756722
 30
0.0
 40
0.4999624774027422
100
AcDbArc
 50
89.995699743000799
 51
180.00430025699865
  0
ARC
  5
102
100
AcDbEntity
  8
0
  6
CONTINUOUS
 62
               4
100
AcDbCircle
 10
5.596791106714015
 20
-74.429475291045833
 30
0.0
 40
0.5004652055472239
100
AcDbArc
 50
179.9000802353213
 51
244.87883575679555
  0
LINE
  5
103
100
AcDbEntity
  8
0
  6
CONTINUOUS
 62
               4
100
AcDbLine
 10
5.096326662196013
 20
-57.962602515762114
 30
0.0
 11
5.096326662196013
 21
-58.462602515762114
 31
0.0
  0
LINE
  5
104
100
AcDbEntity
  8
0
  6
CONTINUOUS
 62
               4
100
AcDbLine
 10
1.1694255395184356
 20
-61.612602515762148
 30
0.0
 11
-1.6005744604815462
 21
-61.612602515762148
 31
0.0
  0
LINE
  5
105
100
AcDbEntity
  8
0
  6
CONTINUOUS
 62
               4
100
AcDbLine
 10
1.9194255395184356
 20
-60.312602515762137
 30
0.0
 11
-1.6005744604815462
 21
-60.312602515762137
 31
0.0
  0
LINE
  5
106
100
AcDbEntity
  8
0
  6
CONTINUOUS
 62
               4
100
AcDbLine
 10
-1.6005744604815462
 20
-60.313419898574693
 30
0.0
 11
-1.6005744604815462
 21
-61.613419898574648
 31
0.0
  0
LINE
  5
107
100
AcDbEntity
  8
0
  6
CONTINUOUS
 62
               4
100
AcDbLine
 10
5.096326662196013
 20
-63.462602515762114
 30
0.0
 11
4.3963266621960244
 21
-63.462602515762114
 31
0.0
  0
LINE
  5
108
100
AcDbEntity
  8
0
  6
CONTINUOUS
 62
               4
100
AcDbLine
 10
3.8963266621960244
 20
-62.962602515762114
 30
0.0
 11
3.8963266621960244
 21
-58.962602515762114
 31
0.0
  0
LINE
  5
109
100
AcDbEntity
  8
0
  6
CONTINUOUS
 62
               4
100
AcDbLine
 10
5.096326662196013
 20
-58.462602515762114
 30
0.0
 11
4.3963266621960244
 21
-58.462602515762114
 31
0.0
  0
ARC
  5
10A
100
AcDbEntity
  8
0
  6
CONTINUOUS
 62
               4
100
AcDbCircle
 10
4.3963266621960244
 20
-62.962602515762114
 30
0.0
 40
0.5
100
AcDbArc
 50
179.99999999999963
 51
269.99999999999937
  0
ARC
  5
10B
100
AcDbEntity
  8
0
  6
CONTINUOUS
 62
               4
100
AcDbCircle
 10
4.3963266621960244
 20
-58.962602515762114
 30
0.0
 40
0.5
100
AcDbArc
 50
89.999999999999815
 51
179.99999999999963
  0
LINE
  5
10C
100
AcDbEntity
  8
0
  6
CONTINUOUS
 62
               4
100
AcDbLine
 10
-1.6005744604815462
 20
-61.213419898574671
 30
0.0
 11
-5.1005744604815462
 21
-61.213419898574671
 31
0.0
  0
LINE
  5
10D
100
AcDbEntity
  8
0
  6
CONTINUOUS
 62
               4
100
AcDbLine
 10
-1.6005744604815462
 20
-60.713419898574671
 30
0.0
 11
-5.1005744604815462
 21
-60.713419898574671
 31
0.0
  0
LINE
  5
10E
100
AcDbEntity
  8
0
  6
CONTINUOUS
 62
               4
100
AcDbLine
 10
7.6963266621960358
 20
-75.960602515762105
 30
0.0
 11
5.384326662196024
 21
-74.88260251576213
 31
0.0
  0
LINE
  5
10F
100
AcDbEntity
  8
0
  6
CONTINUOUS
 62
               4
100
AcDbLine
 10
7.6963266621960358
 20
-75.960602515762105
 30
0.0
 11
7.6963266621960358
 21
-57.462602515762114
 31
0.0
  0
LINE
  5
110
100
AcDbEntity
  8
0
  6
CONTINUOUS
 62
               4
100
AcDbLine
 10
24.696329478722809
 20
-54.060602515762127
 30
0.0
 11
24.696329478722809
 21
-75.46060221058633
 31
0.0
  0
LINE
  5
111
100
AcDbEntity
  8
0
  6
CONTINUOUS
 62
               4
100
AcDbLine
 10
10.696329478722809
 20
-75.46060221058633
 30
0.0
 11
10.696329478722809
 21
-54.060602520829832
 31
0.0
  0
LINE
  5
112
100
AcDbEntity
  8
0
  6
CONTINUOUS
 62
             200
100
AcDbLine
 10
2.2654255395184393
 20
-59.712602515762114
 30
0.0
 11
0.8214255395184793
 21
-62.212602515762114
 31
0.0
  0
LINE
  5
113
100
AcDbEntity
  8
0
  6
CONTINUOUS
 62
               4
100
AcDbLine
 10
3.8963266621960244
 20
-60.312602515762137
 30
0.0
 11
2.4194255395184356
 21
-60.312602515762137
 31
0.0
  0
LINE
  5
114
100
AcDbEntity
  8
0
  6
CONTINUOUS
 62
             200
100
AcDbLine
 10
2.7654255395184393
 20
-59.712602515762114
 30
0.0
 11
1.3214255395184793
 21
-62.212602515762114
 31
0.0
  0
LINE
  5
115
100
AcDbEntity
  8
0
  6
CONTINUOUS
 62
               7
100
AcDbLine
 10
26.396329478722777
 20
-151.46060221058616
 30
0.0
 11
26.696329478722788
 21
-151.16060221058615
 31
0.0
  0
LINE
  5
116
100
AcDbEntity
  8
0
  6
CONTINUOUS
 62
               7
100
AcDbLine
 10
26.396329478722777
 20
-151.46060221058616
 30
0.0
 11
8.6963294787227312
 21
-151.46060221058616
 31
0.0
  0
LINE
  5
118
100
AcDbEntity
  8
0
  6
DASHED
 62
               2
100
AcDbLine
 10
26.696329478722788
 20
-80.260602210586313
 30
0.0
 11
25.096329478722794
 21
-80.260602210586313
 31
0.0
  0
LINE
  5
119
100
AcDbEntity
  8
0
  6
CENTER
 62
               2
100
AcDbLine
 10
24.279137127302675
 20
-81.260602210586313
 30
0.0
 11
27.561195533120753
 21
-81.260602210586327
 31
0.0
  0
LINE
  5
11A
100
AcDbEntity
  8
0
  6
DASHED
 62
               2
100
AcDbLine
 10
26.696329478722788
 20
-82.260602210586313
 30
0.0
 11
25.096329478722794
 21
-82.260602210586313
 31
0.0
  0
LINE
  5
11B
100
AcDbEntity
  8
0
  6
CONTINUOUS
 62
               7
100
AcDbLine
 10
26.696329478722816
 20
-151.16060221058615
 30
0.0
 11
26.696329478722788
 21
-75.760602210586313
 31
0.0
  0
LINE
  5
11C
100
AcDbEntity
  8
0
  6
CONTINUOUS
 62
               7
100
AcDbLine
 10
27.396329478722805
 20
-127.96060221058625
 30
0.0
 11
26.696329478722788
 21
-127.96060221058625
 31
0.0
  0
LINE
  5
11D
100
AcDbEntity
  8
0
  6
CONTINUOUS
 62
               7
100
AcDbLine
 10
26.696329478722788
 20
-89.960602210586245
 30
0.0
 11
27.396329478722805
 21
-89.960602210586245
 31
0.0
  0
LINE
  5
11E
100
AcDbEntity
  8
0
  6
CONTINUOUS
 62
               7
100
AcDbLine
 10
27.396329478722805
 20
-132.46060221105901
 30
0.0
 11
27.396329478722805
 21
-85.460602208563671
 31
0.0
  0
LINE
  5
11F
100
AcDbEntity
  8
0
  6
CENTER
 62
               2
100
AcDbLine
 10
35.896329478722805
 20
-86.460602209574958
 30
0.0
 11
35.896329478722805
 21
-98.460602209574958
 31
0.0
  0
CIRCLE
  5
120
100
AcDbEntity
  8
0
  6
CONTINUOUS
 62
               7
100
AcDbCircle
 10
35.896329478722805
 20
-108.96060220957497
 30
0.0
 40
4.2779998779296875
  0
CIRCLE
  5
121
100
AcDbEntity
  8
0
  6
CONTINUOUS
 62
               2
100
AcDbCircle
 10
35.896329478722805
 20
-108.96060220957497
 30
0.0
 40
4.8639993667602539
  0
LINE
  5
122
100
AcDbEntity
  8
0
  6
CENTER
 62
               2
100
AcDbLine
 10
29.896329478722805
 20
-108.96060220957497
 30
0.0
 11
41.896329478722805
 21
-108.96060220957497
 31
0.0
  0
CIRCLE
  5
123
100
AcDbEntity
  8
0
  6
CONTINUOUS
 62
               7
100
AcDbCircle
 10
35.896329478722805
 20
-92.460602209574958
 30
0.0
 40
4.2779998779296875
  0
CIRCLE
  5
124
100
AcDbEntity
  8
0
  6
CONTINUOUS
 62
               2
100
AcDbCircle
 10
35.896329478722805
 20
-92.460602209574958
 30
0.0
 40
4.8639993667602539
  0
LINE
  5
125
100
AcDbEntity
  8
0
  6
CENTER
 62
               2
100
AcDbLine
 10
29.896329478722805
 20
-92.460602209574958
 30
0.0
 11
41.896329478722805
 21
-92.460602209574958
 31
0.0
  0
CIRCLE
  5
126
100
AcDbEntity
  8
0
  6
CONTINUOUS
 62
               7
100
AcDbCircle
 10
35.896329478722805
 20
-125.46060220957496
 30
0.0
 40
4.2779998779296875
  0
CIRCLE
  5
127
100
AcDbEntity
  8
0
  6
CONTINUOUS
 62
               2
100
AcDbCircle
 10
35.896329478722805
 20
-125.46060220957496
 30
0.0
 40
4.8639993667602539
  0
LINE
  5
128
100
AcDbEntity
  8
0
  6
CENTER
 62
               2
100
AcDbLine
 10
29.896329478722805
 20
-125.46060220957496
 30
0.0
 11
41.896329478722805
 21
-125.46060220957496
 31
0.0
  0
LINE
  5
129
100
AcDbEntity
  8
0
  6
CONTINUOUS
 62
               7
100
AcDbLine
 10
44.396329474083927
 20
-85.460602208563671
 30
0.0
 11
27.396329478722805
 21
-85.460602208563671
 31
0.0
  0
LINE
  5
12A
100
AcDbEntity
  8
0
  6
CONTINUOUS
 62
               7
100
AcDbLine
 10
44.396329474083927
 20
-132.46060221058625
 30
0.0
 11
27.396329478722805
 21
-132.46060221058625
 31
0.0
  0
LINE
  5
12B
100
AcDbEntity
  8
0
  6
CONTINUOUS
 62
               7
100
AcDbLine
 10
44.396329478722805
 20
-132.46060221058625
 30
0.0
 11
44.396329478722805
 21
-85.460602208563671
 31
0.0
  0
LINE
  5
12C
100
AcDbEntity
  8
0
  6
CONTINUOUS
 62
               7
100
AcDbLine
 10
26.396329478722805
 20
-75.46060221058633
 30
0.0
 11
8.6963294787227881
 21
-75.46060221058633
 31
0.0
  0
LINE
  5
12D
100
AcDbEntity
  8
0
  6
CONTINUOUS
 62
               7
100
AcDbLine
 10
8.6963294787227881
 20
-151.46060221058616
 30
0.0
 11
8.6963294787227881
 21
-75.46060221058633
 31
0.0
  0
LINE
  5
12E
100
AcDbEntity
  8
0
  6
CONTINUOUS
 62
               7
100
AcDbLine
 10
26.696329478722788
 20
-89.560602210586325
 30
0.0
 11
26.596329478722794
 21
-89.46060221058633
 31
0.0
  0
LINE
  5
12F
100
AcDbEntity
  8
0
  6
CENTER
 62
               2
100
AcDbLine
 10
17.696329478722816
 20
-50.831351464750028
 30
0.0
 11
17.696329478722788
 21
-175.58866747866307
 31
0.0
  0
LINE
  5
130
100
AcDbEntity
  8
0
  6
CONTINUOUS
 62
               7
100
AcDbLine
 10
26.396329478722805
 20
-75.46060221058633
 30
0.0
 11
26.696329478722816
 21
-75.760602210586313
 31
0.0
  0
LINE
  5
131
100
AcDbEntity
  8
0
  6
CONTINUOUS
 62
               7
100
AcDbLine
 10
26.596329478722794
 20
-89.460602210586245
 30
0.0
 11
8.6963294787228165
 21
-89.460602210586245
 31
0.0
  0
LINE
  5
132
100
AcDbEntity
  8
0
  6
CONTINUOUS
 62
               7
100
AcDbLine
 10
26.696329478722816
 20
-89.560602210586239
 30
0.0
 11
26.596329478722794
 21
-89.460602210586245
 31
0.0
  0
LINE
  5
133
100
AcDbEntity
  8
0
  6
CONTINUOUS
 62
               7
100
AcDbLine
 10
8.6963294787227881
 20
-128.46060221058625
 30
0.0
 11
26.696329478722788
 21
-128.46060221058625
 31
0.0
  0
LINE
  5
134
100
AcDbEntity
  8
0
  6
CONTINUOUS
 62
               7
100
AcDbLine
 10
9.6963294695877664
 20
-119.31060221485559
 30
0.0
 11
8.6963294787228165
 21
-119.31060221485559
 31
0.0
  0
LINE
  5
135
100
AcDbEntity
  8
0
  6
CONTINUOUS
 62
               7
100
AcDbLine
 10
9.6963294695877664
 20
-116.0106022148556
 30
0.0
 11
8.6963294787228165
 21
-116.0106022148556
 31
0.0
  0
LINE
  5
136
100
AcDbEntity
  8
0
  6
CONTINUOUS
 62
               7
100
AcDbLine
 10
9.6963294787228165
 20
-116.0106022148556
 30
0.0
 11
9.6963294787228165
 21
-119.31060221485559
 31
0.0
  0
ARC
  5
137
100
AcDbEntity
  8
0
  6
CONTINUOUS
 62
               7
100
AcDbCircle
 10
9.6952414734858223
 20
-118.5616902200926
 30
0.0
 40
0.5989129830170392
100
AcDbArc
 50
179.89591452477256
 51
270.1040854752265
  0
LINE
  5
138
100
AcDbEntity
  8
0
  6
CONTINUOUS
 62
               7
100
AcDbLine
 10
9.0963294787228506
 20
-116.7605070681974
 30
0.0
 11
9.0963294787228506
 21
-118.5616902200926
 31
0.0
  0
ARC
  5
139
100
AcDbEntity
  8
0
  6
CONTINUOUS
 62
               7
100
AcDbCircle
 10
9.6962343320646767
 20
-116.7605070681974
 30
0.0
 40
0.5999048608870732
100
AcDbArc
 50
89.990912722453572
 51
180.00908727754597
  0
LINE
  5
13A
100
AcDbEntity
  8
0
  6
CENTER
 62
               2
100
AcDbLine
 10
35.896329478722805
 20
-102.96060220957497
 30
0.0
 11
35.896329478722805
 21
-114.96060220957497
 31
0.0
  0
LINE
  5
13B
100
AcDbEntity
  8
0
  6
CENTER
 62
               2
100
AcDbLine
 10
35.896329478722805
 20
-119.46060220957496
 30
0.0
 11
35.896329478722805
 21
-131.46060220957497
 31
0.0
  0
LINE
  5
13C
100
AcDbEntity
  8
0
  6
CONTINUOUS
 62
               7
100
AcDbLine
 10
8.6963294787227881
 20
-137.46060221058625
 30
0.0
 11
26.696329478722788
 21
-137.46060221058625
 31
0.0
  0
LINE
  5
13D
100
AcDbEntity
  8
0
  6
DASHED
 62
               2
100
AcDbLine
 10
26.696329478722788
 20
-144.66060221058623
 30
0.0
 11
25.096329478722794
 21
-144.66060221058623
 31
0.0
  0
LINE
  5
13E
100
AcDbEntity
  8
0
  6
CENTER
 62
               2
100
AcDbLine
 10
24.279137127302675
 20
-145.66060221058623
 30
0.0
 11
27.561195533120753
 21
-145.66060221058623
 31
0.0
  0
LINE
  5
13F
100
AcDbEntity
  8
0
  6
DASHED
 62
               2
100
AcDbLine
 10
26.696329478722788
 20
-146.66060221058623
 30
0.0
 11
25.096329478722794
 21
-146.66060221058623
 31
0.0
  0
LINE
  5
140
100
AcDbEntity
  8
0
  6
CENTER
 62
               2
100
AcDbLine
 10
46.896329469653807
 20
-91.460602016817489
 30
0.0
 11
41.896329469653807
 21
-91.460602016817489
 31
0.0
  0
LINE
  5
141
100
AcDbEntity
  8
0
  6
CENTER
 62
               2
100
AcDbLine
 10
46.896329469653807
 20
-126.46060240233237
 30
0.0
 11
41.896329469653807
 21
-126.46060240233237
 31
0.0
  0
LINE
  5
142
100
AcDbEntity
  8
0
  6
CONTINUOUS
 62
             200
100
AcDbLine
 10
-116.70609982590173
 20
-167.20860190541043
 30
0.0
 11
-115.26209982590177
 21
-164.7086019054104
 31
0.0
  0
LINE
  5
143
100
AcDbEntity
  8
0
  6
CONTINUOUS
 62
             200
100
AcDbLine
 10
-116.20609982590173
 20
-167.20860190541043
 30
0.0
 11
-114.76209982590177
 21
-164.7086019054104
 31
0.0
  0
ARC
  5
144
100
AcDbEntity
  8
0
  6
CONTINUOUS
 62
               4
100
AcDbCircle
 10
-119.53696342457391
 20
-168.95863942941583
 30
0.0
 40
0.4999624774027422
100
AcDbArc
 50
269.99569974300039
 51
0.0043002569990523
  0
LINE
  5
145
100
AcDbEntity
  8
0
  6
CONTINUOUS
 62
               4
100
AcDbLine
 10
-124.63700094857933
 20
-169.45860190541043
 30
0.0
 11
-119.5370009485793
 21
-169.45860190541043
 31
0.0
  0
LINE
  5
146
100
AcDbEntity
  8
0
  6
CONTINUOUS
 62
               4
100
AcDbLine
 10
-117.83700094857932
 20
-165.3086019054104
 30
0.0
 11
-115.61009982590173
 21
-165.3086019054104
 31
0.0
  0
LINE
  5
147
100
AcDbEntity
  8
0
  6
CONTINUOUS
 62
               4
100
AcDbLine
 10
-117.83700094857932
 20
-166.60860190541041
 30
0.0
 11
-116.36009982590173
 21
-166.60860190541041
 31
0.0
  0
LINE
  5
148
100
AcDbEntity
  8
0
  6
CONTINUOUS
 62
               4
100
AcDbLine
 10
-119.0370009485793
 20
-168.45860190541043
 30
0.0
 11
-119.0370009485793
 21
-152.4926019054104
 31
0.0
  0
LINE
  5
149
100
AcDbEntity
  8
0
  6
CONTINUOUS
 62
               4
100
AcDbLine
 10
-134.93700376510611
 20
-172.86060190541053
 30
0.0
 11
-134.93700376510611
 21
-173.46060190541044
 31
0.0
  0
LINE
  5
14A
100
AcDbEntity
  8
0
  6
CONTINUOUS
 62
               4
100
AcDbLine
 10
-137.95409891176433
 20
-173.46060190541041
 30
0.0
 11
-126.63700094857933
 21
-173.4606019054105
 31
0.0
  0
ARC
  5
14B
100
AcDbEntity
  8
0
  6
CONTINUOUS
 62
               4
100
AcDbCircle
 10
-136.15291575986907
 20
-172.86168991064744
 30
0.0
 40
0.5989129830170392
100
AcDbArc
 50
269.89591452477231
 51
0.1040854752270701
  0
ARC
  5
14C
100
AcDbEntity
  8
0
  6
CONTINUOUS
 62
               4
100
AcDbCircle
 10
-137.95409891176428
 20
-172.86069705206862
 30
0.0
 40
0.5999048608870732
100
AcDbArc
 50
179.99091272245337
 51
236.43994933325826
  0
LINE
  5
14D
100
AcDbEntity
  8
0
  6
CONTINUOUS
 62
               4
100
AcDbLine
 10
-138.63700376510604
 20
-172.86060190541053
 30
0.0
 11
-134.93700376510611
 21
-172.86060190541053
 31
0.0
  0
LINE
  5
14E
100
AcDbEntity
  8
0
  6
CONTINUOUS
 62
               4
100
AcDbLine
 10
-126.63700094857933
 20
-173.4606019054105
 30
0.0
 11
-126.63700094857933
 21
-171.8606019054105
 31
0.0
  0
LINE
  5
14F
100
AcDbEntity
  8
0
  6
CONTINUOUS
 62
               4
100
AcDbLine
 10
-138.6370037651061
 20
-171.8606019054105
 30
0.0
 11
-126.63700094857933
 21
-171.8606019054105
 31
0.0
  0
LINE
  5
150
100
AcDbEntity
  8
0
  6
CONTINUOUS
 62
               4
100
AcDbLine
 10
-125.13700376510604
 20
-173.36060190541042
 30
0.0
 11
-126.63700376510604
 21
-173.36060190541042
 31
0.0
  0
ARC
  5
151
100
AcDbEntity
  8
0
  6
CONTINUOUS
 62
               4
100
AcDbCircle
 10
-125.13700376510604
 20
-172.86060190541042
 30
0.0
 40
0.5
100
AcDbArc
 50
270.00000000000023
 51
0.0
  0
ARC
  5
152
100
AcDbEntity
  8
0
  6
CONTINUOUS
 62
               4
100
AcDbCircle
 10
-138.13700376510604
 20
-172.86060190541042
 30
0.0
 40
0.5
100
AcDbArc
 50
179.99999999999963
 51
245.26960130313901
  0
ARC
  5
153
100
AcDbEntity
  8
0
  6
CONTINUOUS
 62
               4
100
AcDbCircle
 10
-137.95409891176428
 20
-172.86069705206862
 30
0.0
 40
0.5999048608870732
100
AcDbArc
 50
236.43994933325826
 51
270.00908727754575
  0
LINE
  5
154
100
AcDbEntity
  8
0
  6
CONTINUOUS
 62
               4
100
AcDbLine
 10
-108.84009982590175
 20
-166.20778452259788
 30
0.0
 11
-108.84009982590175
 21
-165.70778452259788
 31
0.0
  0
LINE
  5
155
100
AcDbEntity
  8
0
  6
CONTINUOUS
 62
               4
100
AcDbLine
 10
-122.63700376510607
 20
-150.96060190541041
 30
0.0
 11
-121.63700094857933
 21
-150.96060190541041
 31
0.0
  0
LINE
  5
156
100
AcDbEntity
  8
0
  6
CONTINUOUS
 62
               4
100
AcDbLine
 10
-117.83700094857932
 20
-163.9586019054104
 30
0.0
 11
-117.83700094857932
 21
-167.95860190541043
 31
0.0
  0
LINE
  5
157
100
AcDbEntity
  8
0
  6
CONTINUOUS
 62
               4
100
AcDbLine
 10
-119.0370009485793
 20
-168.45860190541043
 30
0.0
 11
-118.33700094857932
 21
-168.45860190541043
 31
0.0
  0
ARC
  5
158
100
AcDbEntity
  8
0
  6
CONTINUOUS
 62
               4
100
AcDbCircle
 10
-118.33700094857932
 20
-163.9586019054104
 30
0.0
 40
0.5
100
AcDbArc
 50
0.0
 51
89.999999999999815
  0
ARC
  5
159
100
AcDbEntity
  8
0
  6
CONTINUOUS
 62
               4
100
AcDbCircle
 10
-118.33700094857932
 20
-167.95860190541043
 30
0.0
 40
0.5
100
AcDbArc
 50
269.99999999999937
 51
0.0
  0
LINE
  5
15A
100
AcDbEntity
  8
0
  6
CONTINUOUS
 62
               4
100
AcDbLine
 10
-112.34009982590175
 20
-165.70778452259788
 30
0.0
 11
-108.84009982590175
 21
-165.70778452259788
 31
0.0
  0
LINE
  5
15B
100
AcDbEntity
  8
0
  6
CONTINUOUS
 62
               4
100
AcDbLine
 10
-112.34009982590175
 20
-166.20778452259788
 30
0.0
 11
-108.84009982590175
 21
-166.20778452259788
 31
0.0
  0
LINE
  5
15C
100
AcDbEntity
  8
0
  6
CONTINUOUS
 62
               4
100
AcDbLine
 10
-121.63700094857933
 20
-150.96060190541041
 30
0.0
 11
-119.32500094857932
 21
-152.03860190541042
 31
0.0
  0
LINE
  5
15D
100
AcDbEntity
  8
0
  6
CONTINUOUS
 62
               4
100
AcDbLine
 10
-121.63700094857933
 20
-150.96060190541041
 30
0.0
 11
-121.63700094857933
 21
-169.45860190541043
 31
0.0
  0
LINE
  5
15E
100
AcDbEntity
  8
0
  6
CONTINUOUS
 62
               4
100
AcDbLine
 10
-138.6370037651061
 20
-172.86060190541042
 30
0.0
 11
-138.6370037651061
 21
-151.46060221058619
 31
0.0
  0
LINE
  5
15F
100
AcDbEntity
  8
0
  6
CONTINUOUS
 62
               4
100
AcDbLine
 10
-124.6370037651061
 20
-151.46060221058619
 30
0.0
 11
-124.6370037651061
 21
-172.86060190034269
 31
0.0
  0
ARC
  5
160
100
AcDbEntity
  8
0
  6
CONTINUOUS
 62
               4
100
AcDbCircle
 10
-119.53746539309731
 20
-152.49172913012669
 30
0.0
 40
0.5004652055472239
100
AcDbArc
 50
359.90008023532084
 51
64.878835756795922
  0
LINE
  5
161
100
AcDbEntity
  8
0
  6
CONTINUOUS
 62
               4
100
AcDbLine
 10
-119.0370009485793
 20
-168.95860190541043
 30
0.0
 11
-119.0370009485793
 21
-168.45860190541043
 31
0.0
  0
LINE
  5
162
100
AcDbEntity
  8
0
  6
CONTINUOUS
 62
               4
100
AcDbLine
 10
-115.11009982590173
 20
-165.3086019054104
 30
0.0
 11
-112.34009982590175
 21
-165.3086019054104
 31
0.0
  0
LINE
  5
163
100
AcDbEntity
  8
0
  6
CONTINUOUS
 62
               4
100
AcDbLine
 10
-115.86009982590173
 20
-166.60860190541041
 30
0.0
 11
-112.34009982590175
 21
-166.60860190541041
 31
0.0
  0
LINE
  5
164
100
AcDbEntity
  8
0
  6
CONTINUOUS
 62
               4
100
AcDbLine
 10
-112.34009982590175
 20
-166.60778452259785
 30
0.0
 11
-112.34009982590175
 21
-165.3077845225979
 31
0.0
  0
LINE
  5
165
100
AcDbEntity
  8
0
  6
CONTINUOUS
 62
               4
100
AcDbLine
 10
-119.0370009485793
 20
-163.4586019054104
 30
0.0
 11
-118.33700094857932
 21
-163.4586019054104
 31
0.0
  0
LINE
  5
166
100
AcDbEntity
  8
0
  6
CONTINUOUS
 62
               4
100
AcDbLine
 10
-124.6370037651061
 20
-75.460602210586302
 30
0.0
 11
-124.6370037651061
 21
-54.060602520829804
 31
0.0
  0
LINE
  5
167
100
AcDbEntity
  8
0
  6
CONTINUOUS
 62
               4
100
AcDbLine
 10
-138.6370037651061
 20
-54.060602515762071
 30
0.0
 11
-138.6370037651061
 21
-75.460602210586302
 31
0.0
  0
LINE
  5
168
100
AcDbEntity
  8
0
  6
CONTINUOUS
 62
               4
100
AcDbLine
 10
-121.63700094857933
 20
-75.960602515762076
 30
0.0
 11
-121.63700094857933
 21
-57.462602515762057
 31
0.0
  0
LINE
  5
169
100
AcDbEntity
  8
0
  6
CONTINUOUS
 62
               4
100
AcDbLine
 10
-121.63700094857933
 20
-75.960602515762076
 30
0.0
 11
-119.32500094857932
 21
-74.882602515762073
 31
0.0
  0
LINE
  5
16A
100
AcDbEntity
  8
0
  6
CONTINUOUS
 62
               4
100
AcDbLine
 10
-112.34009982590175
 20
-60.713419898574614
 30
0.0
 11
-108.84009982590175
 21
-60.713419898574614
 31
0.0
  0
LINE
  5
16B
100
AcDbEntity
  8
0
  6
CONTINUOUS
 62
               4
100
AcDbLine
 10
-112.34009982590175
 20
-61.213419898574614
 30
0.0
 11
-108.84009982590175
 21
-61.213419898574614
 31
0.0
  0
ARC
  5
16C
100
AcDbEntity
  8
0
  6
CONTINUOUS
 62
               4
100
AcDbCircle
 10
-118.33700094857932
 20
-58.962602515762057
 30
0.0
 40
0.5
100
AcDbArc
 50
0.0
 51
89.999999999999815
  0
ARC
  5
16D
100
AcDbEntity
  8
0
  6
CONTINUOUS
 62
               4
100
AcDbCircle
 10
-118.33700094857932
 20
-62.962602515762086
 30
0.0
 40
0.5
100
AcDbArc
 50
270.00000000000023
 51
0.0
  0
LINE
  5
16E
100
AcDbEntity
  8
0
  6
CONTINUOUS
 62
               4
100
AcDbLine
 10
-119.0370009485793
 20
-58.462602515762057
 30
0.0
 11
-118.33700094857932
 21
-58.462602515762057
 31
0.0
  0
LINE
  5
16F
100
AcDbEntity
  8
0
  6
CONTINUOUS
 62
               4
100
AcDbLine
 10
-117.83700094857932
 20
-62.962602515762086
 30
0.0
 11
-117.83700094857932
 21
-58.962602515762057
 31
0.0
  0
LINE
  5
170
100
AcDbEntity
  8
0
  6
CONTINUOUS
 62
               4
100
AcDbLine
 10
-122.63700376510607
 20
-75.960602515762076
 30
0.0
 11
-121.63700094857933
 21
-75.960602515762076
 31
0.0
  0
LINE
  5
171
100
AcDbEntity
  8
0
  6
CONTINUOUS
 62
               4
100
AcDbLine
 10
-108.84009982590175
 20
-60.713419898574614
 30
0.0
 11
-108.84009982590175
 21
-61.213419898574614
 31
0.0
  0
ARC
  5
172
100
AcDbEntity
  8
0
  6
CONTINUOUS
 62
               4
100
AcDbCircle
 10
-137.95409891176428
 20
-54.060507369103874
 30
0.0
 40
0.5999048608870732
100
AcDbArc
 50
89.99091272245343
 51
123.56005066674096
  0
ARC
  5
173
100
AcDbEntity
  8
0
  6
CONTINUOUS
 62
               4
100
AcDbCircle
 10
-138.13700376510604
 20
-54.060602515762071
 30
0.0
 40
0.5
100
AcDbArc
 50
114.73039869686018
 51
179.99999999999963
  0
ARC
  5
174
100
AcDbEntity
  8
0
  6
CONTINUOUS
 62
               4
100
AcDbCircle
 10
-125.13700376510604
 20
-54.060602515762071
 30
0.0
 40
0.5
100
AcDbArc
 50
0.0
 51
89.999999999999815
  0
LINE
  5
175
100
AcDbEntity
  8
0
  6
CONTINUOUS
 62
               4
100
AcDbLine
 10
-125.13700376510604
 20
-53.560602515762071
 30
0.0
 11
-126.63700376510604
 21
-53.560602515762071
 31
0.0
  0
LINE
  5
176
100
AcDbEntity
  8
0
  6
CONTINUOUS
 62
               4
100
AcDbLine
 10
-138.6370037651061
 20
-55.060602515761985
 30
0.0
 11
-126.63700094857933
 21
-55.060602515761985
 31
0.0
  0
LINE
  5
177
100
AcDbEntity
  8
0
  6
CONTINUOUS
 62
               4
100
AcDbLine
 10
-126.63700094857933
 20
-53.460602515761991
 30
0.0
 11
-126.63700094857933
 21
-55.060602515761985
 31
0.0
  0
LINE
  5
178
100
AcDbEntity
  8
0
  6
CONTINUOUS
 62
               4
100
AcDbLine
 10
-138.63700376510604
 20
-54.060602515761957
 30
0.0
 11
-134.93700376510611
 21
-54.060602515761957
 31
0.0
  0
ARC
  5
179
100
AcDbEntity
  8
0
  6
CONTINUOUS
 62
               4
100
AcDbCircle
 10
-137.95409891176428
 20
-54.060507369103874
 30
0.0
 40
0.5999048608870732
100
AcDbArc
 50
123.56005066674096
 51
180.00908727754583
  0
ARC
  5
17A
100
AcDbEntity
  8
0
  6
CONTINUOUS
 62
               4
100
AcDbCircle
 10
-136.15291575986907
 20
-54.059514510525048
 30
0.0
 40
0.5989129830170392
100
AcDbArc
 50
359.89591452477293
 51
90.104085475226867
  0
LINE
  5
17B
100
AcDbEntity
  8
0
  6
CONTINUOUS
 62
               4
100
AcDbLine
 10
-137.95409891176433
 20
-53.460602515762076
 30
0.0
 11
-126.63700094857933
 21
-53.460602515761991
 31
0.0
  0
LINE
  5
17C
100
AcDbEntity
  8
0
  6
CONTINUOUS
 62
               4
100
AcDbLine
 10
-134.93700376510611
 20
-54.060602515761957
 30
0.0
 11
-134.93700376510611
 21
-53.460602515762048
 31
0.0
  0
LINE
  5
17D
100
AcDbEntity
  8
0
  6
CONTINUOUS
 62
               4
100
AcDbLine
 10
-119.0370009485793
 20
-58.462602515762057
 30
0.0
 11
-119.0370009485793
 21
-74.428602515762094
 31
0.0
  0
LINE
  5
17E
100
AcDbEntity
  8
0
  6
CONTINUOUS
 62
               4
100
AcDbLine
 10
-117.83700094857932
 20
-60.31260251576208
 30
0.0
 11
-116.36009982590173
 21
-60.31260251576208
 31
0.0
  0
LINE
  5
17F
100
AcDbEntity
  8
0
  6
CONTINUOUS
 62
               4
100
AcDbLine
 10
-117.83700094857932
 20
-61.612602515762092
 30
0.0
 11
-115.61009982590173
 21
-61.612602515762092
 31
0.0
  0
LINE
  5
180
100
AcDbEntity
  8
0
  6
CONTINUOUS
 62
               4
100
AcDbLine
 10
-124.63700094857933
 20
-57.462602515762057
 30
0.0
 11
-119.5370009485793
 21
-57.462602515762057
 31
0.0
  0
ARC
  5
181
100
AcDbEntity
  8
0
  6
CONTINUOUS
 62
               4
100
AcDbCircle
 10
-119.53696342457391
 20
-57.962564991756665
 30
0.0
 40
0.4999624774027422
100
AcDbArc
 50
359.99569974300096
 51
90.004300256998803
  0
ARC
  5
182
100
AcDbEntity
  8
0
  6
CONTINUOUS
 62
               4
100
AcDbCircle
 10
-119.53746539309731
 20
-74.429475291045804
 30
0.0
 40
0.5004652055472239
100
AcDbArc
 50
295.12116424320402
 51
0.0999197646782735
  0
LINE
  5
183
100
AcDbEntity
  8
0
  6
CONTINUOUS
 62
               4
100
AcDbLine
 10
-119.0370009485793
 20
-57.962602515762057
 30
0.0
 11
-119.0370009485793
 21
-58.462602515762057
 31
0.0
  0
LINE
  5
184
100
AcDbEntity
  8
0
  6
CONTINUOUS
 62
               4
100
AcDbLine
 10
-115.11009982590173
 20
-61.612602515762092
 30
0.0
 11
-112.34009982590175
 21
-61.612602515762092
 31
0.0
  0
LINE
  5
185
100
AcDbEntity
  8
0
  6
CONTINUOUS
 62
               4
100
AcDbLine
 10
-115.86009982590173
 20
-60.31260251576208
 30
0.0
 11
-112.34009982590175
 21
-60.31260251576208
 31
0.0
  0
LINE
  5
186
100
AcDbEntity
  8
0
  6
CONTINUOUS
 62
               4
100
AcDbLine
 10
-112.34009982590175
 20
-60.313419898574637
 30
0.0
 11
-112.34009982590175
 21
-61.613419898574591
 31
0.0
  0
LINE
  5
187
100
AcDbEntity
  8
0
  6
CONTINUOUS
 62
               4
100
AcDbLine
 10
-119.0370009485793
 20
-63.462602515762086
 30
0.0
 11
-118.33700094857932
 21
-63.462602515762086
 31
0.0
  0
LINE
  5
188
100
AcDbEntity
  8
0
  6
CONTINUOUS
 62
             200
100
AcDbLine
 10
-116.70609982590173
 20
-59.712602515762057
 30
0.0
 11
-115.26209982590177
 21
-62.212602515762086
 31
0.0
  0
LINE
  5
189
100
AcDbEntity
  8
0
  6
CONTINUOUS
 62
             200
100
AcDbLine
 10
-116.20609982590173
 20
-59.712602515762057
 30
0.0
 11
-114.76209982590177
 21
-62.212602515762086
 31
0.0
  0
LINE
  5
18A
100
AcDbEntity
  8
0
  6
CONTINUOUS
 62
               7
100
AcDbLine
 10
-140.33700376510609
 20
-151.46060221058616
 30
0.0
 11
-122.63700376510604
 21
-151.46060221058616
 31
0.0
  0
LINE
  5
18B
100
AcDbEntity
  8
0
  6
CONTINUOUS
 62
               7
100
AcDbLine
 10
-140.33700376510609
 20
-151.46060221058616
 30
0.0
 11
-140.6370037651061
 21
-151.16060221058615
 31
0.0
  0
LINE
  5
18C
100
AcDbEntity
  8
0
  6
CENTER
 62
               2
100
AcDbLine
 10
-149.83700376046724
 20
-123.26060220957497
 30
0.0
 11
-149.83700376046724
 21
-111.26060220957497
 31
0.0
  0
CIRCLE
  5
18D
100
AcDbEntity
  8
0
  6
CONTINUOUS
 62
               2
100
AcDbCircle
 10
-149.83700376046724
 20
-100.76060220957498
 30
0.0
 40
4.8639993667602539
  0
CIRCLE
  5
18E
100
AcDbEntity
  8
0
  6
CONTINUOUS
 62
               7
100
AcDbCircle
 10
-149.83700376046724
 20
-100.76060220957498
 30
0.0
 40
4.2779998779296875
  0
LINE
  5
18F
100
AcDbEntity
  8
0
  6
CONTINUOUS
 62
               7
100
AcDbLine
 10
-141.33700376510612
 20
-132.46060221105901
 30
0.0
 11
-141.33700376510612
 21
-85.460602208563685
 31
0.0
  0
LINE
  5
190
100
AcDbEntity
  8
0
  6
CONTINUOUS
 62
               7
100
AcDbLine
 10
-158.33700376510612
 20
-132.46060221058625
 30
0.0
 11
-158.33700376510612
 21
-85.460602208563685
 31
0.0
  0
LINE
  5
191
100
AcDbEntity
  8
0
  6
CONTINUOUS
 62
               7
100
AcDbLine
 10
-122.63700376510607
 20
-151.46060221058616
 30
0.0
 11
-122.63700376510607
 21
-75.460602210586302
 31
0.0
  0
LINE
  5
192
100
AcDbEntity
  8
0
  6
CENTER
 62
               2
100
AcDbLine
 10
-131.6370037651061
 20
-50.831351464749972
 30
0.0
 11
-131.6370037651061
 21
-175.58866747866304
 31
0.0
  0
LINE
  5
193
100
AcDbEntity
  8
0
  6
CONTINUOUS
 62
               7
100
AcDbLine
 10
-140.63700376510613
 20
-151.16060221058615
 30
0.0
 11
-140.63700376510607
 21
-75.760602210586313
 31
0.0
  0
LINE
  5
194
100
AcDbEntity
  8
0
  6
CONTINUOUS
 62
               7
100
AcDbLine
 10
-158.33700376046724
 20
-132.46060221058625
 30
0.0
 11
-141.33700376510612
 21
-132.46060221058625
 31
0.0
  0
LINE
  5
195
100
AcDbEntity
  8
0
  6
CONTINUOUS
 62
               7
100
AcDbLine
 10
-122.63700376510607
 20
-128.46060221058625
 30
0.0
 11
-140.63700376510607
 21
-128.46060221058622
 31
0.0
  0
LINE
  5
196
100
AcDbEntity
  8
0
  6
CONTINUOUS
 62
               7
100
AcDbLine
 10
-158.33700376046724
 20
-132.46060221058625
 30
0.0
 11
-141.33700376510612
 21
-132.46060221058625
 31
0.0
  0
LINE
  5
197
100
AcDbEntity
  8
0
  6
CONTINUOUS
 62
               7
100
AcDbLine
 10
-141.33700376510612
 20
-127.96060221058622
 30
0.0
 11
-140.63700376510607
 21
-127.96060221058622
 31
0.0
  0
CIRCLE
  5
198
100
AcDbEntity
  8
0
  6
CONTINUOUS
 62
               7
100
AcDbCircle
 10
-149.83700376046724
 20
-117.26060220957497
 30
0.0
 40
4.2779998779296875
  0
CIRCLE
  5
199
100
AcDbEntity
  8
0
  6
CONTINUOUS
 62
               2
100
AcDbCircle
 10
-149.83700376046724
 20
-117.26060220957497
 30
0.0
 40
4.8639993667602539
  0
LINE
  5
19A
100
AcDbEntity
  8
0
  6
CENTER
 62
               2
100
AcDbLine
 10
-143.83700376046724
 20
-117.26060220957497
 30
0.0
 11
-155.83700376046724
 21
-117.26060220957497
 31
0.0
  0
LINE
  5
19B
100
AcDbEntity
  8
0
  6
CONTINUOUS
 62
               7
100
AcDbLine
 10
-140.6370037651061
 20
-89.560602210586225
 30
0.0
 11
-140.53700376510608
 21
-89.460602210586231
 31
0.0
  0
LINE
  5
19C
100
AcDbEntity
  8
0
  6
CONTINUOUS
 62
               7
100
AcDbLine
 10
-140.53700376510608
 20
-89.460602210586231
 30
0.0
 11
-122.6370037651061
 21
-89.460602210586231
 31
0.0
  0
LINE
  5
19D
100
AcDbEntity
  8
0
  6
CONTINUOUS
 62
               7
100
AcDbLine
 10
-140.33700376510609
 20
-75.460602210586302
 30
0.0
 11
-140.6370037651061
 21
-75.760602210586313
 31
0.0
  0
LINE
  5
19E
100
AcDbEntity
  8
0
  6
CONTINUOUS
 62
               7
100
AcDbLine
 10
-140.63700376510607
 20
-89.56060221058631
 30
0.0
 11
-140.53700376510608
 21
-89.460602210586316
 31
0.0
  0
LINE
  5
19F
100
AcDbEntity
  8
0
  6
CONTINUOUS
 62
               7
100
AcDbLine
 10
-140.33700376510609
 20
-75.460602210586302
 30
0.0
 11
-122.63700376510607
 21
-75.460602210586302
 31
0.0
  0
LINE
  5
1A0
100
AcDbEntity
  8
0
  6
CONTINUOUS
 62
               7
100
AcDbLine
 10
-158.33700376046724
 20
-85.460602208563685
 30
0.0
 11
-141.33700376510612
 21
-85.460602208563685
 31
0.0
  0
LINE
  5
1A1
100
AcDbEntity
  8
0
  6
CONTINUOUS
 62
               7
100
AcDbLine
 10
-140.63700376510607
 20
-89.960602210586231
 30
0.0
 11
-141.33700376510609
 21
-89.960602210586231
 31
0.0
  0
LINE
  5
1A2
100
AcDbEntity
  8
0
  6
CENTER
 62
               2
100
AcDbLine
 10
-143.83700376046724
 20
-100.76060220957498
 30
0.0
 11
-155.83700376046724
 21
-100.76060220957498
 31
0.0
  0
LINE
  5
1A3
100
AcDbEntity
  8
0
  6
CONTINUOUS
 62
               7
100
AcDbLine
 10
-123.63700375597105
 20
-98.610602206316898
 30
0.0
 11
-122.6370037651061
 21
-98.610602206316898
 31
0.0
  0
LINE
  5
1A4
100
AcDbEntity
  8
0
  6
CONTINUOUS
 62
               7
100
AcDbLine
 10
-123.63700375597105
 20
-101.9106022063169
 30
0.0
 11
-122.6370037651061
 21
-101.9106022063169
 31
0.0
  0
ARC
  5
1A5
100
AcDbEntity
  8
0
  6
CONTINUOUS
 62
               7
100
AcDbCircle
 10
-123.63690861844796
 20
-101.16069735297509
 30
0.0
 40
0.5999048608870732
100
AcDbArc
 50
269.99091272245317
 51
0.0090872775463741
  0
LINE
  5
1A6
100
AcDbEntity
  8
0
  6
CONTINUOUS
 62
               7
100
AcDbLine
 10
-123.03700376510614
 20
-101.16069735297509
 30
0.0
 11
-123.03700376510614
 21
-99.35951420107989
 31
0.0
  0
ARC
  5
1A7
100
AcDbEntity
  8
0
  6
CONTINUOUS
 62
               7
100
AcDbCircle
 10
-123.63591575986911
 20
-99.35951420107989
 30
0.0
 40
0.5989129830170392
100
AcDbArc
 50
359.89591452477219
 51
90.104085475226924
  0
LINE
  5
1A8
100
AcDbEntity
  8
0
  6
CONTINUOUS
 62
               7
100
AcDbLine
 10
-123.6370037651061
 20
-101.9106022063169
 30
0.0
 11
-123.6370037651061
 21
-98.610602206316898
 31
0.0
  0
LINE
  5
1A9
100
AcDbEntity
  8
0
  6
CENTER
 62
               2
100
AcDbLine
 10
-149.83700376046724
 20
-106.76060220957498
 30
0.0
 11
-149.83700376046724
 21
-94.760602209574984
 31
0.0
  0
LINE
  5
1AA
100
AcDbEntity
  8
0
  6
CONTINUOUS
 62
               7
100
AcDbLine
 10
-122.63700376510607
 20
-137.46060221058625
 30
0.0
 11
-140.63700376510607
 21
-137.46060221058622
 31
0.0
  0
LINE
  5
1AB
100
AcDbEntity
  8
0
  6
CENTER
 62
               2
100
AcDbLine
 10
-160.83700375139827
 20
-91.460602016817504
 30
0.0
 11
-155.83700375139824
 21
-91.460602016817504
 31
0.0
  0
LINE
  5
1AC
100
AcDbEntity
  8
0
  6
CENTER
 62
               2
100
AcDbLine
 10
-160.83700375139827
 20
-126.46060240233238
 30
0.0
 11
-155.83700375139824
 21
-126.46060240233238
 31
0.0
  0
LINE
  5
1AD
100
AcDbEntity
  8
0
  6
PHANTOM
 62
             200
100
AcDbLine
 10
-60.470355453738506
 20
-158.4606022105861
 30
0.0
 11
-57.470355453738506
 21
-158.4606022105861
 31
0.0
  0
LINE
  5
1AE
100
AcDbEntity
  8
0
  6
PHANTOM
 62
             200
100
AcDbLine
 10
-60.470355453738506
 20
-156.4606022105861
 30
0.0
 11
-57.470355453738506
 21
-156.4606022105861
 31
0.0
  0
LINE
  5
1AF
100
AcDbEntity
  8
0
  6
PHANTOM
 62
             200
100
AcDbLine
 10
-57.470355453738506
 20
-158.4606022105861
 30
0.0
 11
-57.470355453738506
 21
-156.4606022105861
 31
0.0
  0
LINE
  5
1B0
100
AcDbEntity
  8
0
  6
PHANTOM
 62
             200
100
AcDbLine
 10
-60.470337143191614
 20
-158.46260221485556
 30
0.0
 11
-60.470337143191614
 21
-156.46260221485556
 31
0.0
  0
LINE
  5
1B1
100
AcDbEntity
  8
0
  6
CONTINUOUS
 62
               4
100
AcDbLine
 10
-54.470337143191642
 20
-169.46060221485558
 30
0.0
 11
-63.470337143191642
 21
-169.46060221485558
 31
0.0
  0
LINE
  5
1B2
100
AcDbEntity
  8
0
  6
CONTINUOUS
 62
               4
100
AcDbLine
 10
-53.970337143191642
 20
-171.86060221485556
 30
0.0
 11
-57.170337143191688
 21
-171.86060221485556
 31
0.0
  0
LINE
  5
1B3
100
AcDbEntity
  8
0
  6
CONTINUOUS
 62
               4
100
AcDbLine
 10
-53.970337143191642
 20
-173.46060221485558
 30
0.0
 11
-63.970337143191642
 21
-173.46060221485558
 31
0.0
  0
LINE
  5
1B4
100
AcDbEntity
  8
0
  6
CONTINUOUS
 62
               4
100
AcDbLine
 10
-53.970337143191642
 20
-172.86060221485556
 30
0.0
 11
-57.170337143191688
 21
-172.86060221485556
 31
0.0
  0
ARC
  5
1B5
100
AcDbEntity
  8
0
  6
CONTINUOUS
 62
               4
100
AcDbCircle
 10
-63.470040118985509
 20
-151.46089923906169
 30
0.0
 40
0.5002971123771115
100
AcDbArc
 50
90.034016255545609
 51
179.96598374445364
  0
LINE
  5
1B6
100
AcDbEntity
  8
0
  6
CONTINUOUS
 62
               4
100
AcDbLine
 10
-57.170337143191688
 20
-173.36060221485556
 30
0.0
 11
-63.470337143191642
 21
-173.36060221485556
 31
0.0
  0
LINE
  5
1B7
100
AcDbEntity
  8
0
  6
CONTINUOUS
 62
               4
100
AcDbLine
 10
-57.170337143191688
 20
-173.36060221485556
 30
0.0
 11
-57.170337143191688
 21
-171.86060221485556
 31
0.0
  0
ARC
  5
1B8
100
AcDbEntity
  8
0
  6
CONTINUOUS
 62
               4
100
AcDbCircle
 10
-63.470337143191642
 20
-172.86060221485556
 30
0.0
 40
0.5
100
AcDbArc
 50
179.99999999999963
 51
269.99999999999937
  0
ARC
  5
1B9
100
AcDbEntity
  8
0
  6
CONTINUOUS
 62
               4
100
AcDbCircle
 10
-63.470040118985509
 20
-168.96030519064945
 30
0.0
 40
0.5002971123771114
100
AcDbArc
 50
180.03401625554562
 51
269.96598374445358
  0
ARC
  5
1BA
100
AcDbEntity
  8
0
  6
CONTINUOUS
 62
               4
100
AcDbCircle
 10
-63.240337143191653
 20
-168.96060221485558
 30
0.0
 40
0.5
100
AcDbArc
 50
179.99999999999963
 51
269.99999999999937
  0
ARC
  5
1BB
100
AcDbEntity
  8
0
  6
CONTINUOUS
 62
               4
100
AcDbCircle
 10
-54.700337143191632
 20
-168.96060221485558
 30
0.0
 40
0.5
100
AcDbArc
 50
270.00000000000023
 51
0.0
  0
ARC
  5
1BC
100
AcDbEntity
  8
0
  6
CONTINUOUS
 62
               4
100
AcDbCircle
 10
-63.240337143191653
 20
-152.67288594761033
 30
0.0
 40
0.5
100
AcDbArc
 50
89.999999999999815
 51
179.99999999999963
  0
ARC
  5
1BD
100
AcDbEntity
  8
0
  6
CONTINUOUS
 62
               4
100
AcDbCircle
 10
-54.700337143191632
 20
-152.67288594761033
 30
0.0
 40
0.5
100
AcDbArc
 50
0.0
 51
89.999999999999815
  0
LINE
  5
1BE
100
AcDbEntity
  8
0
  6
CONTINUOUS
 62
               4
100
AcDbLine
 10
-63.740337143191653
 20
-168.96060221485558
 30
0.0
 11
-63.740337143191653
 21
-152.67288594761033
 31
0.0
  0
LINE
  5
1BF
100
AcDbEntity
  8
0
  6
CONTINUOUS
 62
               4
100
AcDbLine
 10
-54.200337143191632
 20
-168.96060221485558
 30
0.0
 11
-54.200337143191632
 21
-152.67288594761033
 31
0.0
  0
LINE
  5
1C0
100
AcDbEntity
  8
0
  6
CONTINUOUS
 62
               4
100
AcDbLine
 10
-63.240337143191653
 20
-152.17288594761033
 30
0.0
 11
-54.700337143191632
 21
-152.17288594761033
 31
0.0
  0
LINE
  5
1C1
100
AcDbEntity
  8
0
  6
CONTINUOUS
 62
               4
100
AcDbLine
 10
-53.970337143191642
 20
-173.46060221485558
 30
0.0
 11
-53.970337143191642
 21
-150.96060221485558
 31
0.0
  0
ARC
  5
1C2
100
AcDbEntity
  8
0
  6
CONTINUOUS
 62
               4
100
AcDbCircle
 10
-54.766241996533466
 20
-172.86069736151376
 30
0.0
 40
0.5999048608870732
100
AcDbArc
 50
269.99091272245386
 51
0.0090872775462214
  0
ARC
  5
1C3
100
AcDbEntity
  8
0
  6
CONTINUOUS
 62
               4
100
AcDbCircle
 10
-54.470040295327436
 20
-168.96089906271976
 30
0.0
 40
0.4997032403068001
100
AcDbArc
 50
269.96596353714727
 51
0.0340364628526655
  0
ARC
  5
1C4
100
AcDbEntity
  8
0
  6
CONTINUOUS
 62
               4
100
AcDbCircle
 10
-54.470040295327436
 20
-151.46030536699138
 30
0.0
 40
0.4997032403068001
100
AcDbArc
 50
359.96596353714727
 51
90.034036462852669
  0
LINE
  5
1C5
100
AcDbEntity
  8
0
  6
CONTINUOUS
 62
               4
100
AcDbLine
 10
-63.970337143191642
 20
-173.46060221485558
 30
0.0
 11
-63.970337143191642
 21
-150.96060221485558
 31
0.0
  0
ARC
  5
1C6
100
AcDbEntity
  8
0
  6
CONTINUOUS
 62
               4
100
AcDbCircle
 10
-56.567425148428725
 20
-172.86169022009258
 30
0.0
 40
0.5989129830170392
100
AcDbArc
 50
179.89591452477254
 51
270.10408547522644
  0
CIRCLE
  5
1C7
100
AcDbEntity
  8
0
  6
CONTINUOUS
 62
               4
100
AcDbCircle
 10
-57.719743271121303
 20
-165.96060221485558
 30
0.0
 40
0.25
  0
CIRCLE
  5
1C8
100
AcDbEntity
  8
0
  6
CONTINUOUS
 62
               4
100
AcDbCircle
 10
-60.219743271121303
 20
-165.96060221485558
 30
0.0
 40
0.25
  0
ARC
  5
1C9
100
AcDbEntity
  8
0
  6
CONTINUOUS
 62
               4
100
AcDbCircle
 10
-57.720337143191642
 20
-165.96060221485558
 30
0.0
 40
2.0000000881710065
100
AcDbArc
 50
270.00000000000023
 51
89.999999999999801
  0
ARC
  5
1CA
100
AcDbEntity
  8
0
  6
CONTINUOUS
 62
               4
100
AcDbCircle
 10
-60.220337143191642
 20
-165.96060221485558
 30
0.0
 40
2.0000000881710065
100
AcDbArc
 50
89.999999999999815
 51
269.99999999999937
  0
LINE
  5
1CB
100
AcDbEntity
  8
0
  6
CONTINUOUS
 62
               4
100
AcDbLine
 10
-57.720337143191642
 20
-167.96060221485558
 30
0.0
 11
-60.220337143191642
 21
-167.96060221485558
 31
0.0
  0
LINE
  5
1CC
100
AcDbEntity
  8
0
  6
CONTINUOUS
 62
               4
100
AcDbLine
 10
-57.720337143191642
 20
-163.96060221485558
 30
0.0
 11
-60.220337143191642
 21
-163.96060221485558
 31
0.0
  0
CIRCLE
  5
1CD
100
AcDbEntity
  8
0
  6
CONTINUOUS
 62
               4
100
AcDbCircle
 10
-57.719743271121303
 20
-165.96060221485558
 30
0.0
 40
0.7250000000000001
  0
CIRCLE
  5
1CE
100
AcDbEntity
  8
0
  6
CONTINUOUS
 62
               4
100
AcDbCircle
 10
-60.219743271121303
 20
-165.96060221485558
 30
0.0
 40
0.7250000000000001
  0
LINE
  5
1CF
100
AcDbEntity
  8
0
  6
PHANTOM
 62
             200
100
AcDbLine
 10
-60.470337143191614
 20
-68.458602206316925
 30
0.0
 11
-60.470337143191614
 21
-70.458602206316925
 31
0.0
  0
CIRCLE
  5
1D0
100
AcDbEntity
  8
0
  6
CONTINUOUS
 62
               4
100
AcDbCircle
 10
-60.219743271121303
 20
-60.960602206316906
 30
0.0
 40
0.7250000000000001
  0
CIRCLE
  5
1D1
100
AcDbEntity
  8
0
  6
CONTINUOUS
 62
               4
100
AcDbCircle
 10
-57.719743271121303
 20
-60.960602206316906
 30
0.0
 40
0.7250000000000001
  0
LINE
  5
1D2
100
AcDbEntity
  8
0
  6
CONTINUOUS
 62
               4
100
AcDbLine
 10
-57.720337143191642
 20
-62.960602206316906
 30
0.0
 11
-60.220337143191642
 21
-62.960602206316906
 31
0.0
  0
LINE
  5
1D3
100
AcDbEntity
  8
0
  6
CONTINUOUS
 62
               4
100
AcDbLine
 10
-57.720337143191642
 20
-58.960602206316906
 30
0.0
 11
-60.220337143191642
 21
-58.960602206316906
 31
0.0
  0
ARC
  5
1D4
100
AcDbEntity
  8
0
  6
CONTINUOUS
 62
               4
100
AcDbCircle
 10
-60.220337143191642
 20
-60.960602206316906
 30
0.0
 40
2.0000000881710065
100
AcDbArc
 50
89.999999999999815
 51
269.99999999999937
  0
ARC
  5
1D5
100
AcDbEntity
  8
0
  6
CONTINUOUS
 62
               4
100
AcDbCircle
 10
-57.720337143191642
 20
-60.960602206316906
 30
0.0
 40
2.0000000881710065
100
AcDbArc
 50
269.99999999999937
 51
89.999999999999801
  0
CIRCLE
  5
1D6
100
AcDbEntity
  8
0
  6
CONTINUOUS
 62
               4
100
AcDbCircle
 10
-60.219743271121303
 20
-60.960602206316906
 30
0.0
 40
0.25
  0
CIRCLE
  5
1D7
100
AcDbEntity
  8
0
  6
CONTINUOUS
 62
               4
100
AcDbCircle
 10
-57.719743271121303
 20
-60.960602206316906
 30
0.0
 40
0.25
  0
ARC
  5
1D8
100
AcDbEntity
  8
0
  6
CONTINUOUS
 62
               4
100
AcDbCircle
 10
-63.240337143191653
 20
-57.960602206316906
 30
0.0
 40
0.5
100
AcDbArc
 50
89.999999999999815
 51
179.99999999999963
  0
ARC
  5
1D9
100
AcDbEntity
  8
0
  6
CONTINUOUS
 62
               4
100
AcDbCircle
 10
-54.700337143191632
 20
-57.960602206316906
 30
0.0
 40
0.5
100
AcDbArc
 50
0.0
 51
89.999999999999815
  0
ARC
  5
1DA
100
AcDbEntity
  8
0
  6
CONTINUOUS
 62
               4
100
AcDbCircle
 10
-63.240337143191653
 20
-74.248318473562165
 30
0.0
 40
0.5
100
AcDbArc
 50
179.99999999999963
 51
269.99999999999937
  0
ARC
  5
1DB
100
AcDbEntity
  8
0
  6
CONTINUOUS
 62
               4
100
AcDbCircle
 10
-54.700337143191632
 20
-74.248318473562165
 30
0.0
 40
0.5
100
AcDbArc
 50
269.99999999999937
 51
0.0
  0
LINE
  5
1DC
100
AcDbEntity
  8
0
  6
CONTINUOUS
 62
               4
100
AcDbLine
 10
-63.740337143191653
 20
-57.960602206316906
 30
0.0
 11
-63.740337143191653
 21
-74.248318473562165
 31
0.0
  0
LINE
  5
1DD
100
AcDbEntity
  8
0
  6
CONTINUOUS
 62
               4
100
AcDbLine
 10
-54.200337143191632
 20
-57.960602206316906
 30
0.0
 11
-54.200337143191632
 21
-74.248318473562165
 31
0.0
  0
LINE
  5
1DE
100
AcDbEntity
  8
0
  6
CONTINUOUS
 62
               4
100
AcDbLine
 10
-63.240337143191653
 20
-74.748318473562165
 30
0.0
 11
-54.700337143191632
 21
-74.748318473562165
 31
0.0
  0
LINE
  5
1DF
100
AcDbEntity
  8
0
  6
CONTINUOUS
 62
               4
100
AcDbLine
 10
-53.970337143191642
 20
-53.460602206316906
 30
0.0
 11
-53.970337143191642
 21
-75.960602206316906
 31
0.0
  0
ARC
  5
1E0
100
AcDbEntity
  8
0
  6
CONTINUOUS
 62
               4
100
AcDbCircle
 10
-54.766241996533466
 20
-54.060507059658732
 30
0.0
 40
0.5999048608870732
100
AcDbArc
 50
359.99091272245295
 51
90.009087277546172
  0
ARC
  5
1E1
100
AcDbEntity
  8
0
  6
CONTINUOUS
 62
               4
100
AcDbCircle
 10
-54.470040295327436
 20
-57.960305358452729
 30
0.0
 40
0.4997032403068001
100
AcDbArc
 50
359.96596353714654
 51
90.034036462852711
  0
ARC
  5
1E2
100
AcDbEntity
  8
0
  6
CONTINUOUS
 62
               4
100
AcDbCircle
 10
-54.470040295327436
 20
-75.460899054181112
 30
0.0
 40
0.4997032403068001
100
AcDbArc
 50
269.96596353714654
 51
0.0340364628527164
  0
LINE
  5
1E3
100
AcDbEntity
  8
0
  6
CONTINUOUS
 62
               4
100
AcDbLine
 10
-63.970337143191642
 20
-53.460602206316906
 30
0.0
 11
-63.970337143191642
 21
-75.960602206316906
 31
0.0
  0
ARC
  5
1E4
100
AcDbEntity
  8
0
  6
CONTINUOUS
 62
               4
100
AcDbCircle
 10
-56.567425148428725
 20
-54.059514201079907
 30
0.0
 40
0.5989129830170392
100
AcDbArc
 50
89.895914524772735
 51
180.10408547522667
  0
ARC
  5
1E5
100
AcDbEntity
  8
0
  6
CONTINUOUS
 62
               4
100
AcDbCircle
 10
-63.470040118985509
 20
-57.96089923052304
 30
0.0
 40
0.5002971123771114
100
AcDbArc
 50
90.034016255545609
 51
179.96598374445358
  0
ARC
  5
1E6
100
AcDbEntity
  8
0
  6
CONTINUOUS
 62
               4
100
AcDbCircle
 10
-63.470337143191642
 20
-54.060602206316929
 30
0.0
 40
0.5
100
AcDbArc
 50
89.999999999999815
 51
179.99999999999963
  0
LINE
  5
1E7
100
AcDbEntity
  8
0
  6
CONTINUOUS
 62
               4
100
AcDbLine
 10
-57.170337143191688
 20
-53.560602206316929
 30
0.0
 11
-57.170337143191688
 21
-55.060602206316929
 31
0.0
  0
LINE
  5
1E8
100
AcDbEntity
  8
0
  6
CONTINUOUS
 62
               4
100
AcDbLine
 10
-57.170337143191688
 20
-53.560602206316929
 30
0.0
 11
-63.470337143191642
 21
-53.560602206316929
 31
0.0
  0
ARC
  5
1E9
100
AcDbEntity
  8
0
  6
CONTINUOUS
 62
               4
100
AcDbCircle
 10
-63.470040118985509
 20
-75.460305182110801
 30
0.0
 40
0.5002971123771115
100
AcDbArc
 50
180.03401625554557
 51
269.96598374445358
  0
LINE
  5
1EA
100
AcDbEntity
  8
0
  6
CONTINUOUS
 62
               4
100
AcDbLine
 10
-53.970337143191642
 20
-54.060602206316929
 30
0.0
 11
-57.170337143191688
 21
-54.060602206316929
 31
0.0
  0
LINE
  5
1EB
100
AcDbEntity
  8
0
  6
CONTINUOUS
 62
               4
100
AcDbLine
 10
-53.970337143191642
 20
-53.460602206316906
 30
0.0
 11
-63.970337143191642
 21
-53.460602206316906
 31
0.0
  0
LINE
  5
1EC
100
AcDbEntity
  8
0
  6
CONTINUOUS
 62
               4
100
AcDbLine
 10
-53.970337143191642
 20
-55.060602206316929
 30
0.0
 11
-57.170337143191688
 21
-55.060602206316929
 31
0.0
  0
LINE
  5
1ED
100
AcDbEntity
  8
0
  6
CONTINUOUS
 62
               4
100
AcDbLine
 10
-54.470337143191642
 20
-57.460602206316906
 30
0.0
 11
-63.470337143191642
 21
-57.460602206316906
 31
0.0
  0
LINE
  5
1EE
100
AcDbEntity
  8
0
  6
PHANTOM
 62
             200
100
AcDbLine
 10
-60.470355453738506
 20
-68.460602210586387
 30
0.0
 11
-57.470355453738506
 21
-68.460602210586387
 31
0.0
  0
LINE
  5
1EF
100
AcDbEntity
  8
0
  6
PHANTOM
 62
             200
100
AcDbLine
 10
-60.470355453738506
 20
-70.460602210586387
 30
0.0
 11
-57.470355453738506
 21
-70.460602210586387
 31
0.0
  0
LINE
  5
1F0
100
AcDbEntity
  8
0
  6
PHANTOM
 62
             200
100
AcDbLine
 10
-57.470355453738506
 20
-68.460602210586387
 30
0.0
 11
-57.470355453738506
 21
-70.460602210586387
 31
0.0
  0
LINE
  5
1F1
100
AcDbEntity
  8
0
  6
CONTINUOUS
 62
               7
100
AcDbLine
 10
-64.020337143191597
 20
-150.96060221485564
 30
0.0
 11
-53.920337143191745
 21
-150.96060221485567
 31
0.0
  0
LINE
  5
1F2
100
AcDbEntity
  8
0
  6
CONTINUOUS
 62
               7
100
AcDbLine
 10
-53.920337143191745
 20
-151.26060221485568
 30
0.0
 11
-53.720337143191642
 21
-151.46060221485567
 31
0.0
  0
LINE
  5
1F3
100
AcDbEntity
  8
0
  6
CONTINUOUS
 62
               7
100
AcDbLine
 10
-64.020337143191597
 20
-151.26060221485565
 30
0.0
 11
-64.220337143191642
 21
-151.46060221485564
 31
0.0
  0
LINE
  5
1F4
100
AcDbEntity
  8
0
  6
CONTINUOUS
 62
               7
100
AcDbLine
 10
-64.020337143191597
 20
-151.26060221485565
 30
0.0
 11
-64.020337143191597
 21
-150.96060221485564
 31
0.0
  0
LINE
  5
1F5
100
AcDbEntity
  8
0
  6
CONTINUOUS
 62
               7
100
AcDbLine
 10
-53.920337143191745
 20
-151.26060221485568
 30
0.0
 11
-53.920337143191745
 21
-150.96060221485567
 31
0.0
  0
LINE
  5
1F6
100
AcDbEntity
  8
0
  6
CONTINUOUS
 62
               7
100
AcDbLine
 10
-53.270337143191625
 20
-151.46060221485567
 30
0.0
 11
-52.970337143191728
 21
-151.16060221485566
 31
0.0
  0
LINE
  5
1F7
100
AcDbEntity
  8
0
  6
CONTINUOUS
 62
               7
100
AcDbLine
 10
-64.670337143191716
 20
-151.46060221485564
 30
0.0
 11
-64.970337143191614
 21
-151.16060221485566
 31
0.0
  0
LINE
  5
1F8
100
AcDbEntity
  8
0
  6
CONTINUOUS
 62
               7
100
AcDbLine
 10
-64.670337143191716
 20
-151.46060221485564
 30
0.0
 11
-64.220337143191642
 21
-151.46060221485564
 31
0.0
  0
CIRCLE
  5
1F9
100
AcDbEntity
  8
0
  6
CONTINUOUS
 62
               7
100
AcDbCircle
 10
-58.970087143191591
 20
-148.66060221485566
 30
0.0
 40
1.1500000000000001
  0
LINE
  5
1FA
100
AcDbEntity
  8
0
  6
CONTINUOUS
 62
               7
100
AcDbLine
 10
-53.720337143191642
 20
-151.46060221485567
 30
0.0
 11
-53.270337143191625
 21
-151.46060221485567
 31
0.0
  0
LINE
  5
1FB
100
AcDbEntity
  8
0
  6
CENTER
 62
               2
100
AcDbLine
 10
-56.655407007467289
 20
-148.6606022284426
 30
0.0
 11
-61.194281295867398
 21
-148.6606022284426
 31
0.0
  0
CIRCLE
  5
1FC
100
AcDbEntity
  8
0
  6
CONTINUOUS
 62
               7
100
AcDbCircle
 10
-58.970337143191642
 20
-148.6606022284426
 30
0.0
 40
1.1000000000000001
  0
CIRCLE
  5
1FD
100
AcDbEntity
  8
0
  6
CONTINUOUS
 62
               7
100
AcDbCircle
 10
-58.970337143191642
 20
-148.6606022284426
 30
0.0
 40
0.75
  0
CIRCLE
  5
1FE
100
AcDbEntity
  8
0
  6
CONTINUOUS
 62
               7
100
AcDbCircle
 10
-58.970337143191642
 20
-148.6606022284426
 30
0.0
 40
1.3999999999999997
  0
LINE
  5
1FF
100
AcDbEntity
  8
0
  6
CONTINUOUS
 62
               7
100
AcDbLine
 10
-45.870337143191648
 20
-132.46060221058625
 30
0.0
 11
-52.970337143191671
 21
-132.46060221058625
 31
0.0
  0
LINE
  5
200
100
AcDbEntity
  8
0
  6
CONTINUOUS
 62
               7
100
AcDbLine
 10
-64.020337143191654
 20
-75.960602206316892
 30
0.0
 11
-53.920337143191659
 21
-75.960602206316892
 31
0.0
  0
LINE
  5
201
100
AcDbEntity
  8
0
  6
CONTINUOUS
 62
               7
100
AcDbLine
 10
-64.971285629519826
 20
-85.460602208563671
 30
0.0
 11
-74.070337140261557
 21
-85.460602208563671
 31
0.0
  0
CIRCLE
  5
202
100
AcDbEntity
  8
0
  6
CONTINUOUS
 62
               7
100
AcDbCircle
 10
-70.070337143191665
 20
-126.46060240233238
 30
0.0
 40
2.25
  0
CIRCLE
  5
203
100
AcDbEntity
  8
0
  6
CONTINUOUS
 62
               7
100
AcDbCircle
 10
-70.070337143191665
 20
-91.460602016817504
 30
0.0
 40
2.25
  0
LINE
  5
204
100
AcDbEntity
  8
0
  6
CONTINUOUS
 62
               7
100
AcDbLine
 10
-74.070337143191665
 20
-132.46060221058625
 30
0.0
 11
-74.070337143191665
 21
-85.460602208563671
 31
0.0
  0
LINE
  5
205
100
AcDbEntity
  8
0
  6
CONTINUOUS
 62
               7
100
AcDbLine
 10
-45.870337143191648
 20
-132.46060221058625
 30
0.0
 11
-45.870337143191648
 21
-85.460602208563671
 31
0.0
  0
LINE
  5
206
100
AcDbEntity
  8
0
  6
CENTER
 62
               2
100
AcDbLine
 10
-65.563017482502659
 20
-126.46060240233238
 30
0.0
 11
-74.354891012367744
 21
-126.46060240233238
 31
0.0
  0
LINE
  5
207
100
AcDbEntity
  8
0
  6
CENTER
 62
               2
100
AcDbLine
 10
-70.070337143191665
 20
-130.46060240233237
 30
0.0
 11
-70.070337143191665
 21
-121.63579578613123
 31
0.0
  0
LINE
  5
208
100
AcDbEntity
  8
0
  6
CENTER
 62
               2
100
AcDbLine
 10
-65.563017482502659
 20
-91.460602016817504
 30
0.0
 11
-74.354891012367744
 21
-91.460602016817504
 31
0.0
  0
LINE
  5
209
100
AcDbEntity
  8
0
  6
CENTER
 62
               2
100
AcDbLine
 10
-70.070337143191665
 20
-87.460602016817518
 30
0.0
 11
-70.070337143191665
 21
-96.285408633018662
 31
0.0
  0
LINE
  5
20A
100
AcDbEntity
  8
0
  6
CONTINUOUS
 62
               7
100
AcDbLine
 10
-45.870337143191648
 20
-85.460602208563671
 30
0.0
 11
-52.971285629519826
 21
-85.460602208563671
 31
0.0
  0
LINE
  5
20B
100
AcDbEntity
  8
0
  6
CONTINUOUS
 62
               7
100
AcDbLine
 10
-52.970337143191671
 20
-151.16060221485566
 30
0.0
 11
-52.970337143191671
 21
-118.56060220631697
 31
0.0
  0
LINE
  5
20C
100
AcDbEntity
  8
0
  6
CONTINUOUS
 62
               7
100
AcDbLine
 10
-64.970337143191699
 20
-151.1606022148556
 30
0.0
 11
-64.970337143191671
 21
-101.16060220631678
 31
0.0
  0
LINE
  5
20D
100
AcDbEntity
  8
0
  6
CONTINUOUS
 62
               7
100
AcDbLine
 10
-53.920337143191631
 20
-75.660602206316895
 30
0.0
 11
-53.720337143191642
 21
-75.460602206316892
 31
0.0
  0
LINE
  5
20E
100
AcDbEntity
  8
0
  6
CONTINUOUS
 62
               7
100
AcDbLine
 10
-64.020337143191654
 20
-75.660602206316895
 30
0.0
 11
-64.220337143191642
 21
-75.460602206316892
 31
0.0
  0
LINE
  5
20F
100
AcDbEntity
  8
0
  6
CONTINUOUS
 62
               7
100
AcDbLine
 10
-64.020337143191654
 20
-75.660602206316895
 30
0.0
 11
-64.020337143191654
 21
-75.960602206316892
 31
0.0
  0
LINE
  5
210
100
AcDbEntity
  8
0
  6
CONTINUOUS
 62
               7
100
AcDbLine
 10
-53.920337143191631
 20
-75.660602206316895
 30
0.0
 11
-53.920337143191631
 21
-75.960602206316892
 31
0.0
  0
LINE
  5
211
100
AcDbEntity
  8
0
  6
CONTINUOUS
 62
               7
100
AcDbLine
 10
-53.270337143191654
 20
-75.460602206316892
 30
0.0
 11
-52.970337143191642
 21
-75.760602206316889
 31
0.0
  0
LINE
  5
212
100
AcDbEntity
  8
0
  6
CONTINUOUS
 62
               7
100
AcDbLine
 10
-64.670337143191659
 20
-75.460602206316892
 30
0.0
 11
-64.970337143191642
 21
-75.760602206316889
 31
0.0
  0
LINE
  5
213
100
AcDbEntity
  8
0
  6
CONTINUOUS
 62
               7
100
AcDbLine
 10
-64.670337143191659
 20
-75.460602206316892
 30
0.0
 11
-64.220337143191642
 21
-75.460602206316892
 31
0.0
  0
CIRCLE
  5
214
100
AcDbEntity
  8
0
  6
CONTINUOUS
 62
               7
100
AcDbCircle
 10
-58.970087143191648
 20
-78.260602206316889
 30
0.0
 40
1.1500000000000001
  0
LINE
  5
215
100
AcDbEntity
  8
0
  6
CONTINUOUS
 62
               7
100
AcDbLine
 10
-53.720337143191642
 20
-75.460602206316892
 30
0.0
 11
-53.270337143191654
 21
-75.460602206316892
 31
0.0
  0
LINE
  5
216
100
AcDbEntity
  8
0
  6
CONTINUOUS
 62
               7
100
AcDbLine
 10
-64.970337143191642
 20
-128.46060220631688
 30
0.0
 11
-52.970337143191671
 21
-128.46060220631688
 31
0.0
  0
LINE
  5
217
100
AcDbEntity
  8
0
  6
CENTER
 62
               2
100
AcDbLine
 10
-56.655407007467289
 20
-78.26060219272992
 30
0.0
 11
-61.194281295867285
 21
-78.26060219272992
 31
0.0
  0
LINE
  5
218
100
AcDbEntity
  8
0
  6
CENTER
 62
               2
100
AcDbLine
 10
-58.970337143191642
 20
-51.560602511492633
 30
0.0
 11
-58.970337143191642
 21
-175.58866747866304
 31
0.0
  0
CIRCLE
  5
219
100
AcDbEntity
  8
0
  6
CONTINUOUS
 62
               7
100
AcDbCircle
 10
-58.970337143191642
 20
-78.26060219272992
 30
0.0
 40
1.1000000000000001
  0
CIRCLE
  5
21A
100
AcDbEntity
  8
0
  6
CONTINUOUS
 62
               7
100
AcDbCircle
 10
-58.970337143191642
 20
-78.26060219272992
 30
0.0
 40
0.75
  0
CIRCLE
  5
21B
100
AcDbEntity
  8
0
  6
CONTINUOUS
 62
               7
100
AcDbCircle
 10
-58.970337143191642
 20
-78.26060219272992
 30
0.0
 40
1.3999999999999997
  0
LINE
  5
21C
100
AcDbEntity
  8
0
  6
CONTINUOUS
 62
               7
100
AcDbLine
 10
-64.870337146743708
 20
-89.460602206316878
 30
0.0
 11
-64.970337143191671
 21
-89.560602202764812
 31
0.0
  0
LINE
  5
21D
100
AcDbEntity
  8
0
  6
CONTINUOUS
 62
               7
100
AcDbLine
 10
-52.970337143191642
 20
-89.560602206316872
 30
0.0
 11
-53.070337143191665
 21
-89.460602206316878
 31
0.0
  0
LINE
  5
21E
100
AcDbEntity
  8
0
  6
CONTINUOUS
 62
               7
100
AcDbLine
 10
-64.970337143191671
 20
-89.460602206316878
 30
0.0
 11
-52.970337143191671
 21
-89.460602206316878
 31
0.0
  0
LINE
  5
21F
100
AcDbEntity
  8
0
  6
CONTINUOUS
 62
               7
100
AcDbLine
 10
-63.770337143191654
 20
-101.9106022063169
 30
0.0
 11
-64.970337143191642
 21
-101.9106022063169
 31
0.0
  0
LINE
  5
220
100
AcDbEntity
  8
0
  6
CONTINUOUS
 62
               7
100
AcDbLine
 10
-63.770337143191654
 20
-98.610602206316884
 30
0.0
 11
-64.970337143191642
 21
-98.610602206316884
 31
0.0
  0
ARC
  5
221
100
AcDbEntity
  8
0
  6
CONTINUOUS
 62
               7
100
AcDbCircle
 10
-63.770337143191654
 20
-100.26060220631689
 30
0.0
 40
1.6499999999999999
100
AcDbArc
 50
269.99999999999937
 51
89.999999999999801
  0
LINE
  5
222
100
AcDbEntity
  8
0
  6
CONTINUOUS
 62
               7
100
AcDbLine
 10
-54.170337143191659
 20
-119.31060220631689
 30
0.0
 11
-52.970337143191671
 21
-119.31060220631689
 31
0.0
  0
LINE
  5
223
100
AcDbEntity
  8
0
  6
CONTINUOUS
 62
               7
100
AcDbLine
 10
-54.170337143191659
 20
-116.01060220631689
 30
0.0
 11
-52.970337143191671
 21
-116.01060220631689
 31
0.0
  0
ARC
  5
224
100
AcDbEntity
  8
0
  6
CONTINUOUS
 62
               7
100
AcDbCircle
 10
-54.170337143191659
 20
-117.66060220631688
 30
0.0
 40
1.6499999999999999
100
AcDbArc
 50
89.999999999999815
 51
269.99999999999937
  0
LINE
  5
225
100
AcDbEntity
  8
0
  6
CONTINUOUS
 62
               7
100
AcDbLine
 10
-64.970337143191699
 20
-132.46060221058625
 30
0.0
 11
-74.070337143191665
 21
-132.46060221058625
 31
0.0
  0
LINE
  5
226
100
AcDbEntity
  8
0
  6
CONTINUOUS
 62
               7
100
AcDbLine
 10
-64.970337143191699
 20
-137.46060220631688
 30
0.0
 11
-52.970337143191671
 21
-137.46060220631688
 31
0.0
  0
LINE
  5
227
100
AcDbEntity
  8
0
  6
CONTINUOUS
 62
               7
100
AcDbLine
 10
-64.970337143191671
 20
-99.360602206316969
 30
0.0
 11
-64.970337143191671
 21
-75.760602206316889
 31
0.0
  0
LINE
  5
228
100
AcDbEntity
  8
0
  6
CONTINUOUS
 62
               7
100
AcDbLine
 10
-52.970337143191671
 20
-116.76060220631679
 30
0.0
 11
-52.970337143191671
 21
-75.760602206316889
 31
0.0
  0
LINE
  5
229
100
AcDbEntity
  8
0
  6
CONTINUOUS
 62
               7
100
AcDbLine
 10
-64.47744392437815
 20
-100.96770898750343
 30
0.0
 11
-63.0632303620051
 21
-99.553495425130336
 31
0.0
  0
LINE
  5
22A
100
AcDbEntity
  8
0
  6
CONTINUOUS
 62
               7
100
AcDbLine
 10
-63.0632303620051
 20
-100.96770898750344
 30
0.0
 11
-64.47744392437815
 21
-99.553495425130336
 31
0.0
  0
CIRCLE
  5
22B
100
AcDbEntity
  8
0
  6
CONTINUOUS
 62
               7
100
AcDbCircle
 10
-63.770337143191597
 20
-100.26060220631688
 30
0.0
 40
1.5
  0
LINE
  5
22C
100
AcDbEntity
  8
0
  6
CONTINUOUS
 62
               7
100
AcDbLine
 10
-54.877443924378156
 20
-118.36770898750342
 30
0.0
 11
-53.463230362005106
 21
-116.95349542513034
 31
0.0
  0
LINE
  5
22D
100
AcDbEntity
  8
0
  6
CONTINUOUS
 62
               7
100
AcDbLine
 10
-53.463230362005106
 20
-118.36770898750343
 30
0.0
 11
-54.877443924378156
 21
-116.95349542513034
 31
0.0
  0
CIRCLE
  5
22E
100
AcDbEntity
  8
0
  6
CONTINUOUS
 62
               7
100
AcDbCircle
 10
-54.170337143191603
 20
-117.66060220631688
 30
0.0
 40
1.5
  0
ARC
  5
22F
100
AcDbEntity
  8
0
  6
DASHED
 62
             200
100
AcDbCircle
 10
-17.370337143191648
 20
-132.96060220957497
 30
0.0
 40
0.5
100
AcDbArc
 50
269.99999999999937
 51
0.0
  0
ARC
  5
230
100
AcDbEntity
  8
0
  6
DASHED
 62
             200
100
AcDbCircle
 10
-17.370337143191648
 20
-117.96060220957496
 30
0.0
 40
0.5
100
AcDbArc
 50
0.0
 51
89.999999999999815
  0
LINE
  5
231
100
AcDbEntity
  8
0
  6
DASHED
 62
             200
100
AcDbLine
 10
-45.870337143191648
 20
-130.31878402775675
 30
0.0
 11
-43.870337143191648
 21
-130.38060220957493
 31
0.0
  0
LINE
  5
232
100
AcDbEntity
  8
0
  6
DASHED
 62
             200
100
AcDbLine
 10
-45.870337143191648
 20
-120.60242039139315
 30
0.0
 11
-43.870337143191648
 21
-120.54060220957497
 31
0.0
  0
LINE
  5
233
100
AcDbEntity
  8
0
  6
DASHED
 62
             200
100
AcDbLine
 10
-25.370337143191648
 20
-119.10060220957494
 30
0.0
 11
-21.870337143191648
 21
-118.96060220957496
 31
0.0
  0
LINE
  5
234
100
AcDbEntity
  8
0
  6
DASHED
 62
             200
100
AcDbLine
 10
-30.120337143191648
 20
-119.28060220957495
 30
0.0
 11
-26.620337143191648
 21
-119.15060220957496
 31
0.0
  0
LINE
  5
235
100
AcDbEntity
  8
0
  6
DASHED
 62
             200
100
AcDbLine
 10
-25.370337143191648
 20
-131.82060220957499
 30
0.0
 11
-21.870337143191648
 21
-131.96060220957497
 31
0.0
  0
LINE
  5
236
100
AcDbEntity
  8
0
  6
DASHED
 62
             200
100
AcDbLine
 10
-30.120337143191648
 20
-131.64060220957498
 30
0.0
 11
-26.620337143191648
 21
-131.77060220957497
 31
0.0
  0
LINE
  5
237
100
AcDbEntity
  8
0
  6
DASHED
 62
             200
100
AcDbLine
 10
-34.870337143191648
 20
-131.46060220957497
 30
0.0
 11
-31.370337143191648
 21
-131.59060220957497
 31
0.0
  0
LINE
  5
238
100
AcDbEntity
  8
0
  6
DASHED
 62
             200
100
AcDbLine
 10
-34.870337143191648
 20
-119.46060220957496
 30
0.0
 11
-31.370337143191648
 21
-119.33060220957496
 31
0.0
  0
LINE
  5
239
100
AcDbEntity
  8
0
  6
DASHED
 62
             200
100
AcDbLine
 10
-26.620337143191648
 20
-124.10060220957494
 30
0.0
 11
-30.120337143191648
 21
-123.83060220957496
 31
0.0
  0
LINE
  5
23A
100
AcDbEntity
  8
0
  6
DASHED
 62
             200
100
AcDbLine
 10
-26.620337143191648
 20
-126.82060220957497
 30
0.0
 11
-30.120337143191648
 21
-127.09060220957495
 31
0.0
  0
LINE
  5
23B
100
AcDbEntity
  8
0
  6
DASHED
 62
             200
100
AcDbLine
 10
-31.370337143191648
 20
-127.19060220957495
 30
0.0
 11
-34.870337143191648
 21
-127.46060220957496
 31
0.0
  0
LINE
  5
23C
100
AcDbEntity
  8
0
  6
DASHED
 62
             200
100
AcDbLine
 10
-31.370337143191648
 20
-123.73060220957497
 30
0.0
 11
-34.870337143191648
 21
-123.46060220957496
 31
0.0
  0
LINE
  5
23D
100
AcDbEntity
  8
0
  6
DASHED
 62
             200
100
AcDbLine
 10
-25.370337143191648
 20
-126.72060220957495
 30
0.0
 11
-25.370337143191648
 21
-133.46060220957497
 31
0.0
  0
LINE
  5
23E
100
AcDbEntity
  8
0
  6
DASHED
 62
             200
100
AcDbLine
 10
-21.870337143191648
 20
-126.46060220957496
 30
0.0
 11
-21.870337143191648
 21
-133.46060220957497
 31
0.0
  0
LINE
  5
23F
100
AcDbEntity
  8
0
  6
DASHED
 62
             200
100
AcDbLine
 10
-26.620337143191648
 20
-126.82060220957497
 30
0.0
 11
-26.620337143191648
 21
-133.46060220957497
 31
0.0
  0
LINE
  5
240
100
AcDbEntity
  8
0
  6
DASHED
 62
             200
100
AcDbLine
 10
-30.120337143191648
 20
-127.09060220957495
 30
0.0
 11
-30.120337143191648
 21
-133.46060220957497
 31
0.0
  0
LINE
  5
241
100
AcDbEntity
  8
0
  6
DASHED
 62
             200
100
AcDbLine
 10
-31.370337143191648
 20
-127.19060220957495
 30
0.0
 11
-31.370337143191648
 21
-133.46060220957497
 31
0.0
  0
LINE
  5
242
100
AcDbEntity
  8
0
  6
DASHED
 62
             200
100
AcDbLine
 10
-34.870337143191648
 20
-127.46060220957496
 30
0.0
 11
-34.870337143191648
 21
-133.46060220957497
 31
0.0
  0
LINE
  5
243
100
AcDbEntity
  8
0
  6
DASHED
 62
             200
100
AcDbLine
 10
-30.120337143191648
 20
-117.46060220957496
 30
0.0
 11
-30.120337143191648
 21
-123.83060220957496
 31
0.0
  0
LINE
  5
244
100
AcDbEntity
  8
0
  6
DASHED
 62
             200
100
AcDbLine
 10
-26.620337143191648
 20
-117.46060220957496
 30
0.0
 11
-26.620337143191648
 21
-124.10060220957494
 31
0.0
  0
LINE
  5
245
100
AcDbEntity
  8
0
  6
DASHED
 62
             200
100
AcDbLine
 10
-25.370337143191648
 20
-117.46060220957496
 30
0.0
 11
-25.370337143191648
 21
-124.20060220957497
 31
0.0
  0
LINE
  5
246
100
AcDbEntity
  8
0
  6
DASHED
 62
             200
100
AcDbLine
 10
-31.370337143191648
 20
-117.46060220957496
 30
0.0
 11
-31.370337143191648
 21
-123.73060220957497
 31
0.0
  0
LINE
  5
247
100
AcDbEntity
  8
0
  6
DASHED
 62
             200
100
AcDbLine
 10
-21.870337143191648
 20
-126.46060220957496
 30
0.0
 11
-25.370337143191648
 21
-126.72060220957495
 31
0.0
  0
LINE
  5
248
100
AcDbEntity
  8
0
  6
DASHED
 62
             200
100
AcDbLine
 10
-21.870337143191648
 20
-124.46060220957496
 30
0.0
 11
-25.370337143191648
 21
-124.20060220957497
 31
0.0
  0
LINE
  5
249
100
AcDbEntity
  8
0
  6
DASHED
 62
             200
100
AcDbLine
 10
-18.870337143191648
 20
-117.46060220957496
 30
0.0
 11
-18.870337143191648
 21
-133.46060220957497
 31
0.0
  0
LINE
  5
24A
100
AcDbEntity
  8
0
  6
DASHED
 62
             200
100
AcDbLine
 10
-34.870337143191648
 20
-117.46060220957496
 30
0.0
 11
-34.870337143191648
 21
-123.46060220957496
 31
0.0
  0
LINE
  5
24B
100
AcDbEntity
  8
0
  6
DASHED
 62
             200
100
AcDbLine
 10
-21.870337143191648
 20
-117.46060220957496
 30
0.0
 11
-21.870337143191648
 21
-124.46060220957496
 31
0.0
  0
LINE
  5
24C
100
AcDbEntity
  8
0
  6
DASHED
 62
             200
100
AcDbLine
 10
-36.870337143191648
 20
-117.38060220957495
 30
0.0
 11
-36.870337143191648
 21
-133.54060220957496
 31
0.0
  0
LINE
  5
24D
100
AcDbEntity
  8
0
  6
DASHED
 62
             200
100
AcDbLine
 10
-43.870337143191648
 20
-133.54060220957496
 30
0.0
 11
-36.870337143191648
 21
-133.54060220957496
 31
0.0
  0
LINE
  5
24E
100
AcDbEntity
  8
0
  6
DASHED
 62
             200
100
AcDbLine
 10
-43.870337143191648
 20
-129.50060220957494
 30
0.0
 11
-36.870337143191648
 21
-129.50060220957494
 31
0.0
  0
LINE
  5
24F
100
AcDbEntity
  8
0
  6
DASHED
 62
             200
100
AcDbLine
 10
-43.870337143191648
 20
-121.42060220957497
 30
0.0
 11
-36.870337143191648
 21
-121.42060220957497
 31
0.0
  0
LINE
  5
250
100
AcDbEntity
  8
0
  6
DASHED
 62
             200
100
AcDbLine
 10
-43.870337143191648
 20
-117.38060220957495
 30
0.0
 11
-36.870337143191648
 21
-117.38060220957495
 31
0.0
  0
LINE
  5
251
100
AcDbEntity
  8
0
  6
DASHED
 62
             200
100
AcDbLine
 10
-43.870337143191648
 20
-117.38060220957495
 30
0.0
 11
-43.870337143191648
 21
-133.54060220957496
 31
0.0
  0
LINE
  5
252
100
AcDbEntity
  8
0
  6
DASHED
 62
             200
100
AcDbLine
 10
-16.870337143191648
 20
-117.96060220957496
 30
0.0
 11
-16.870337143191648
 21
-132.96060220957497
 31
0.0
  0
LINE
  5
253
100
AcDbEntity
  8
0
  6
DASHED
 62
             200
100
AcDbLine
 10
-36.870337143191648
 20
-117.46060220957496
 30
0.0
 11
-17.370337143191648
 21
-117.46060220957496
 31
0.0
  0
LINE
  5
254
100
AcDbEntity
  8
0
  6
DASHED
 62
             200
100
AcDbLine
 10
-36.870337143191648
 20
-133.46060220957497
 30
0.0
 11
-17.370337143191648
 21
-133.46060220957497
 31
0.0
  0
LINE
  5
255
100
AcDbEntity
  8
0
  6
CONTINUOUS
 62
             200
100
AcDbLine
 10
-47.375457620823028
 20
-125.46060220957496
 30
0.0
 11
-15.090337143191647
 21
-125.46060220957496
 31
0.0
  0
ARC
  5
256
100
AcDbEntity
  8
0
  6
DASHED
 62
             200
100
AcDbCircle
 10
-17.370337143191648
 20
-99.960602209574958
 30
0.0
 40
0.5
100
AcDbArc
 50
269.99999999999937
 51
0.0
  0
ARC
  5
257
100
AcDbEntity
  8
0
  6
DASHED
 62
             200
100
AcDbCircle
 10
-17.370337143191648
 20
-84.960602209574958
 30
0.0
 40
0.5
100
AcDbArc
 50
0.0
 51
89.999999999999815
  0
LINE
  5
258
100
AcDbEntity
  8
0
  6
DASHED
 62
             200
100
AcDbLine
 10
-45.870337143191648
 20
-97.318784027756763
 30
0.0
 11
-43.870337143191648
 21
-97.380602209574946
 31
0.0
  0
LINE
  5
259
100
AcDbEntity
  8
0
  6
DASHED
 62
             200
100
AcDbLine
 10
-45.870337143191648
 20
-87.602420391393153
 30
0.0
 11
-43.870337143191648
 21
-87.540602209574971
 31
0.0
  0
LINE
  5
25A
100
AcDbEntity
  8
0
  6
DASHED
 62
             200
100
AcDbLine
 10
-25.370337143191648
 20
-86.100602209574944
 30
0.0
 11
-21.870337143191648
 21
-85.960602209574958
 31
0.0
  0
LINE
  5
25B
100
AcDbEntity
  8
0
  6
DASHED
 62
             200
100
AcDbLine
 10
-30.120337143191648
 20
-86.280602209574951
 30
0.0
 11
-26.620337143191648
 21
-86.150602209574956
 31
0.0
  0
LINE
  5
25C
100
AcDbEntity
  8
0
  6
DASHED
 62
             200
100
AcDbLine
 10
-25.370337143191648
 20
-98.820602209574972
 30
0.0
 11
-21.870337143191648
 21
-98.960602209574958
 31
0.0
  0
LINE
  5
25D
100
AcDbEntity
  8
0
  6
DASHED
 62
             200
100
AcDbLine
 10
-30.120337143191648
 20
-98.640602209574965
 30
0.0
 11
-26.620337143191648
 21
-98.77060220957496
 31
0.0
  0
LINE
  5
25E
100
AcDbEntity
  8
0
  6
DASHED
 62
             200
100
AcDbLine
 10
-34.870337143191648
 20
-98.460602209574958
 30
0.0
 11
-31.370337143191648
 21
-98.590602209574953
 31
0.0
  0
LINE
  5
25F
100
AcDbEntity
  8
0
  6
DASHED
 62
             200
100
AcDbLine
 10
-34.870337143191648
 20
-86.460602209574958
 30
0.0
 11
-31.370337143191648
 21
-86.330602209574963
 31
0.0
  0
LINE
  5
260
100
AcDbEntity
  8
0
  6
DASHED
 62
             200
100
AcDbLine
 10
-26.620337143191648
 20
-91.100602209574944
 30
0.0
 11
-30.120337143191648
 21
-90.830602209574963
 31
0.0
  0
LINE
  5
261
100
AcDbEntity
  8
0
  6
DASHED
 62
             200
100
AcDbLine
 10
-26.620337143191648
 20
-93.820602209574972
 30
0.0
 11
-30.120337143191648
 21
-94.090602209574953
 31
0.0
  0
LINE
  5
262
100
AcDbEntity
  8
0
  6
DASHED
 62
             200
100
AcDbLine
 10
-31.370337143191648
 20
-94.190602209574948
 30
0.0
 11
-34.870337143191648
 21
-94.460602209574958
 31
0.0
  0
LINE
  5
263
100
AcDbEntity
  8
0
  6
DASHED
 62
             200
100
AcDbLine
 10
-31.370337143191648
 20
-90.730602209574968
 30
0.0
 11
-34.870337143191648
 21
-90.460602209574958
 31
0.0
  0
LINE
  5
264
100
AcDbEntity
  8
0
  6
DASHED
 62
             200
100
AcDbLine
 10
-25.370337143191648
 20
-93.720602209574949
 30
0.0
 11
-25.370337143191648
 21
-100.46060220957496
 31
0.0
  0
LINE
  5
265
100
AcDbEntity
  8
0
  6
DASHED
 62
             200
100
AcDbLine
 10
-21.870337143191648
 20
-93.460602209574958
 30
0.0
 11
-21.870337143191648
 21
-100.46060220957496
 31
0.0
  0
LINE
  5
266
100
AcDbEntity
  8
0
  6
DASHED
 62
             200
100
AcDbLine
 10
-26.620337143191648
 20
-93.820602209574972
 30
0.0
 11
-26.620337143191648
 21
-100.46060220957496
 31
0.0
  0
LINE
  5
267
100
AcDbEntity
  8
0
  6
DASHED
 62
             200
100
AcDbLine
 10
-30.120337143191648
 20
-94.090602209574953
 30
0.0
 11
-30.120337143191648
 21
-100.46060220957496
 31
0.0
  0
LINE
  5
268
100
AcDbEntity
  8
0
  6
DASHED
 62
             200
100
AcDbLine
 10
-31.370337143191648
 20
-94.190602209574948
 30
0.0
 11
-31.370337143191648
 21
-100.46060220957496
 31
0.0
  0
LINE
  5
269
100
AcDbEntity
  8
0
  6
DASHED
 62
             200
100
AcDbLine
 10
-34.870337143191648
 20
-94.460602209574958
 30
0.0
 11
-34.870337143191648
 21
-100.46060220957496
 31
0.0
  0
LINE
  5
26A
100
AcDbEntity
  8
0
  6
DASHED
 62
             200
100
AcDbLine
 10
-30.120337143191648
 20
-84.460602209574958
 30
0.0
 11
-30.120337143191648
 21
-90.830602209574963
 31
0.0
  0
LINE
  5
26B
100
AcDbEntity
  8
0
  6
DASHED
 62
             200
100
AcDbLine
 10
-26.620337143191648
 20
-84.460602209574958
 30
0.0
 11
-26.620337143191648
 21
-91.100602209574944
 31
0.0
  0
LINE
  5
26C
100
AcDbEntity
  8
0
  6
DASHED
 62
             200
100
AcDbLine
 10
-25.370337143191648
 20
-84.460602209574958
 30
0.0
 11
-25.370337143191648
 21
-91.200602209574967
 31
0.0
  0
LINE
  5
26D
100
AcDbEntity
  8
0
  6
DASHED
 62
             200
100
AcDbLine
 10
-31.370337143191648
 20
-84.460602209574958
 30
0.0
 11
-31.370337143191648
 21
-90.730602209574968
 31
0.0
  0
LINE
  5
26E
100
AcDbEntity
  8
0
  6
DASHED
 62
             200
100
AcDbLine
 10
-21.870337143191648
 20
-93.460602209574958
 30
0.0
 11
-25.370337143191648
 21
-93.720602209574949
 31
0.0
  0
LINE
  5
26F
100
AcDbEntity
  8
0
  6
DASHED
 62
             200
100
AcDbLine
 10
-21.870337143191648
 20
-91.460602209574958
 30
0.0
 11
-25.370337143191648
 21
-91.200602209574967
 31
0.0
  0
LINE
  5
270
100
AcDbEntity
  8
0
  6
DASHED
 62
             200
100
AcDbLine
 10
-18.870337143191648
 20
-84.460602209574958
 30
0.0
 11
-18.870337143191648
 21
-100.46060220957496
 31
0.0
  0
LINE
  5
271
100
AcDbEntity
  8
0
  6
DASHED
 62
             200
100
AcDbLine
 10
-34.870337143191648
 20
-84.460602209574958
 30
0.0
 11
-34.870337143191648
 21
-90.460602209574958
 31
0.0
  0
LINE
  5
272
100
AcDbEntity
  8
0
  6
DASHED
 62
             200
100
AcDbLine
 10
-21.870337143191648
 20
-84.460602209574958
 30
0.0
 11
-21.870337143191648
 21
-91.460602209574958
 31
0.0
  0
LINE
  5
273
100
AcDbEntity
  8
0
  6
DASHED
 62
             200
100
AcDbLine
 10
-36.870337143191648
 20
-84.380602209574946
 30
0.0
 11
-36.870337143191648
 21
-100.54060220957494
 31
0.0
  0
LINE
  5
274
100
AcDbEntity
  8
0
  6
DASHED
 62
             200
100
AcDbLine
 10
-43.870337143191648
 20
-100.54060220957494
 30
0.0
 11
-36.870337143191648
 21
-100.54060220957494
 31
0.0
  0
LINE
  5
275
100
AcDbEntity
  8
0
  6
DASHED
 62
             200
100
AcDbLine
 10
-43.870337143191648
 20
-96.50060220957495
 30
0.0
 11
-36.870337143191648
 21
-96.50060220957495
 31
0.0
  0
LINE
  5
276
100
AcDbEntity
  8
0
  6
DASHED
 62
             200
100
AcDbLine
 10
-43.870337143191648
 20
-88.420602209574966
 30
0.0
 11
-36.870337143191648
 21
-88.420602209574966
 31
0.0
  0
LINE
  5
277
100
AcDbEntity
  8
0
  6
DASHED
 62
             200
100
AcDbLine
 10
-43.870337143191648
 20
-84.380602209574946
 30
0.0
 11
-36.870337143191648
 21
-84.380602209574946
 31
0.0
  0
LINE
  5
278
100
AcDbEntity
  8
0
  6
DASHED
 62
             200
100
AcDbLine
 10
-43.870337143191648
 20
-84.380602209574946
 30
0.0
 11
-43.870337143191648
 21
-100.54060220957494
 31
0.0
  0
LINE
  5
279
100
AcDbEntity
  8
0
  6
DASHED
 62
             200
100
AcDbLine
 10
-16.870337143191648
 20
-84.960602209574958
 30
0.0
 11
-16.870337143191648
 21
-99.960602209574958
 31
0.0
  0
LINE
  5
27A
100
AcDbEntity
  8
0
  6
DASHED
 62
             200
100
AcDbLine
 10
-36.870337143191648
 20
-84.460602209574958
 30
0.0
 11
-17.370337143191648
 21
-84.460602209574958
 31
0.0
  0
LINE
  5
27B
100
AcDbEntity
  8
0
  6
DASHED
 62
             200
100
AcDbLine
 10
-36.870337143191648
 20
-100.46060220957496
 30
0.0
 11
-17.370337143191648
 21
-100.46060220957496
 31
0.0
  0
LINE
  5
27C
100
AcDbEntity
  8
0
  6
CONTINUOUS
 62
             200
100
AcDbLine
 10
-47.375457620823028
 20
-92.460602209574958
 30
0.0
 11
-15.090337143191647
 21
-92.460602209574958
 31
0.0
  0
LINE
  5
27D
100
AcDbEntity
  8
0
  6
CONTINUOUS
 62
             200
100
AcDbLine
 10
199.03928437420748
 20
-12.536880991001425
 30
0.0
 11
202.03726417047417
 21
-14.269204222334707
 31
0.0
  0
LINE
  5
27E
100
AcDbEntity
  8
0
  6
CONTINUOUS
 62
             200
100
AcDbLine
 10
199.03928437420748
 20
-12.190416344734757
 30
0.0
 11
202.03726417047417
 21
-13.922739576068096
 31
0.0
  0
LINE
  5
27F
100
AcDbEntity
  8
0
  6
CONTINUOUS
 62
               4
100
AcDbLine
 10
200.78574901967423
 20
-19.862133512068084
 30
0.0
 11
200.29079952500754
 21
-19.862133512068084
 31
0.0
  0
LINE
  5
280
100
AcDbEntity
  8
0
  6
CONTINUOUS
 62
               4
100
AcDbLine
 10
206.03928436620751
 20
18.132815671422719
 30
0.0
 11
206.03928436620751
 21
-3.2671840183337792
 31
0.0
  0
LINE
  5
281
100
AcDbEntity
  8
0
  6
CONTINUOUS
 62
               4
100
AcDbLine
 10
220.03928436620751
 20
-3.2671840234014837
 30
0.0
 11
220.03928436620751
 21
18.132815671422719
 31
0.0
  0
LINE
  5
282
100
AcDbEntity
  8
0
  6
CONTINUOUS
 62
               4
100
AcDbLine
 10
204.03928436620748
 20
18.632815976598494
 30
0.0
 11
203.03928154968074
 21
18.632815976598494
 31
0.0
  0
LINE
  5
283
100
AcDbEntity
  8
0
  6
CONTINUOUS
 62
               4
100
AcDbLine
 10
208.7392843662075
 20
-3.8671840234015349
 30
0.0
 11
208.7392843662075
 21
-3.267184023401569
 31
0.0
  0
LINE
  5
284
100
AcDbEntity
  8
0
  6
CONTINUOUS
 62
               4
100
AcDbLine
 10
208.7392843662075
 20
-3.267184023401569
 30
0.0
 11
206.03928437020753
 21
-3.267184023401569
 31
0.0
  0
LINE
  5
285
100
AcDbEntity
  8
0
  6
CONTINUOUS
 62
               4
100
AcDbLine
 10
219.5392843622075
 20
-3.767184023401569
 30
0.0
 11
218.03928436620757
 21
-3.767184023401569
 31
0.0
  0
LINE
  5
286
100
AcDbEntity
  8
0
  6
CONTINUOUS
 62
               4
100
AcDbLine
 10
219.23928427620754
 20
-3.8671840234015349
 30
0.0
 11
206.83928445620748
 21
-3.8671840234015349
 31
0.0
  0
ARC
  5
287
100
AcDbEntity
  8
0
  6
CONTINUOUS
 62
               4
100
AcDbCircle
 10
219.23937942285616
 20
-3.2672791700501875
 30
0.0
 40
0.5999048008965869
100
AcDbArc
 50
269.990912722453
 51
303.75258212960529
  0
ARC
  5
288
100
AcDbEntity
  8
0
  6
CONTINUOUS
 62
               4
100
AcDbCircle
 10
206.83819645107931
 20
-3.2682720285297364
 30
0.0
 40
0.5989129231257409
100
AcDbArc
 50
179.89591452477254
 51
270.10408547522644
  0
LINE
  5
289
100
AcDbEntity
  8
0
  6
CONTINUOUS
 62
               4
100
AcDbLine
 10
200.78574901967423
 20
-19.862133512068084
 30
0.0
 11
200.78574901967423
 21
-16.362133514068063
 31
0.0
  0
LINE
  5
28A
100
AcDbEntity
  8
0
  6
CONTINUOUS
 62
               4
100
AcDbLine
 10
200.29079952500754
 20
-19.862133512068084
 30
0.0
 11
200.29079952500754
 21
-16.362133514068063
 31
0.0
  0
ARC
  5
28B
100
AcDbEntity
  8
0
  6
CONTINUOUS
 62
               4
100
AcDbCircle
 10
198.53736324350953
 20
-1.2676301658952411
 30
0.0
 40
0.4029462287748787
100
AcDbArc
 50
0.4943309171552727
 51
169.39117201772518
  0
ARC
  5
28C
100
AcDbEntity
  8
0
  6
CONTINUOUS
 62
               4
100
AcDbCircle
 10
198.4392974253407
 20
0.1385442431539445
 30
0.0
 40
0.5030505883944908
100
AcDbArc
 50
180.30728929118945
 51
216.56260835465233
  0
ARC
  5
28D
100
AcDbEntity
  8
0
  6
CONTINUOUS
 62
               4
100
AcDbCircle
 10
197.24138824811567
 20
6.8337424134902562
 30
0.0
 40
0.3021474965435785
100
AcDbArc
 50
90.973632984511639
 51
179.02636701548775
  0
ARC
  5
28E
100
AcDbEntity
  8
0
  6
CONTINUOUS
 62
               4
100
AcDbCircle
 10
198.53545024692883
 20
-0.3608925381851691
 30
0.0
 40
0.5002341568128574
100
AcDbArc
 50
180.6049287534631
 51
270.20776371315344
  0
ARC
  5
28F
100
AcDbEntity
  8
0
  6
CONTINUOUS
 62
               4
100
AcDbCircle
 10
198.54125130863841
 20
15.983331479106852
 30
0.0
 40
0.5060324378497572
100
AcDbArc
 50
115.28139190005253
 51
179.42932783011443
  0
LINE
  5
290
100
AcDbEntity
  8
0
  6
CONTINUOUS
 62
               4
100
AcDbLine
 10
203.03423386687419
 20
18.632815976598607
 30
0.0
 11
203.03423386687419
 21
-0.8611234062015569
 31
0.0
  0
LINE
  5
291
100
AcDbEntity
  8
0
  6
CONTINUOUS
 62
               4
100
AcDbLine
 10
202.5392843722075
 20
-7.863143619934732
 30
0.0
 11
202.5392843722075
 21
-2.8621335060681758
 31
0.0
  0
LINE
  5
292
100
AcDbEntity
  8
0
  6
CONTINUOUS
 62
               4
100
AcDbLine
 10
203.03423386687419
 20
-2.8621335060681758
 30
0.0
 11
203.03423386687419
 21
-0.8611234062015569
 31
0.0
  0
LINE
  5
293
100
AcDbEntity
  8
0
  6
CONTINUOUS
 62
               4
100
AcDbLine
 10
203.03423386687419
 20
-8.8671840234013928
 30
0.0
 11
203.03423386687419
 21
-7.863143619934732
 31
0.0
  0
LINE
  5
294
100
AcDbEntity
  8
0
  6
CONTINUOUS
 62
               4
100
AcDbLine
 10
199.88776922220748
 20
-12.685365839401385
 30
0.0
 11
199.88776922220748
 21
-8.8671840234013928
 31
0.0
  0
LINE
  5
295
100
AcDbEntity
  8
0
  6
CONTINUOUS
 62
               4
100
AcDbLine
 10
201.18877932247418
 20
-16.362133514068063
 30
0.0
 11
199.88776922220748
 21
-16.362133514068063
 31
0.0
  0
LINE
  5
296
100
AcDbEntity
  8
0
  6
CONTINUOUS
 62
               4
100
AcDbLine
 10
201.18877932247418
 20
-16.362133514068063
 30
0.0
 11
201.18877932247418
 21
-13.781325434734725
 31
0.0
  0
LINE
  5
297
100
AcDbEntity
  8
0
  6
CONTINUOUS
 62
               4
100
AcDbLine
 10
199.88776922220748
 20
-16.362133514068063
 30
0.0
 11
199.88776922220748
 21
-13.031830485668053
 31
0.0
  0
LINE
  5
298
100
AcDbEntity
  8
0
  6
CONTINUOUS
 62
               4
100
AcDbLine
 10
201.18877932247418
 20
-13.434860788468058
 30
0.0
 11
201.18877932247418
 21
-8.8671840234013928
 31
0.0
  0
LINE
  5
299
100
AcDbEntity
  8
0
  6
CONTINUOUS
 62
               4
100
AcDbLine
 10
198.03524397074082
 20
7.0368563872651748
 30
0.0
 11
197.93625407180755
 21
7.1358462861985004
 31
0.0
  0
LINE
  5
29A
100
AcDbEntity
  8
0
  6
CONTINUOUS
 62
               4
100
AcDbLine
 10
198.03524397074082
 20
5.8348361859318061
 30
0.0
 11
197.93625407180755
 21
5.8348361859318061
 31
0.0
  0
LINE
  5
29B
100
AcDbEntity
  8
0
  6
CONTINUOUS
 62
               4
100
AcDbLine
 10
197.93625407180755
 20
7.1358462861985004
 30
0.0
 11
197.23625407220757
 21
7.1358462861985004
 31
0.0
  0
LINE
  5
29C
100
AcDbEntity
  8
0
  6
CONTINUOUS
 62
               4
100
AcDbLine
 10
196.93928437540754
 20
-2.2611234054015199
 30
0.0
 11
196.93928437540754
 21
6.8388765893984669
 31
0.0
  0
LINE
  5
29D
100
AcDbEntity
  8
0
  6
CONTINUOUS
 62
               4
100
AcDbLine
 10
198.94029447527421
 20
-2.3601133043349023
 30
0.0
 11
198.63625407140754
 21
-2.6641537082015248
 31
0.0
  0
LINE
  5
29E
100
AcDbEntity
  8
0
  6
CONTINUOUS
 62
               4
100
AcDbLine
 10
203.03423386687419
 20
-2.8621335060681758
 30
0.0
 11
202.5392843722075
 21
-2.8621335060681758
 31
0.0
  0
LINE
  5
29F
100
AcDbEntity
  8
0
  6
CONTINUOUS
 62
               4
100
AcDbLine
 10
203.03423386687419
 20
-7.863143619934732
 30
0.0
 11
202.5392843722075
 21
-7.863143619934732
 31
0.0
  0
LINE
  5
2A0
100
AcDbEntity
  8
0
  6
CONTINUOUS
 62
               4
100
AcDbLine
 10
198.94029447527421
 20
-8.8671840234013928
 30
0.0
 11
198.63625407140754
 21
-8.5631436195347135
 31
0.0
  0
LINE
  5
2A1
100
AcDbEntity
  8
0
  6
CONTINUOUS
 62
               4
100
AcDbLine
 10
198.63625407140754
 20
-8.5631436195347135
 30
0.0
 11
198.63625407140754
 21
-2.6641537082015248
 31
0.0
  0
LINE
  5
2A2
100
AcDbEntity
  8
0
  6
CONTINUOUS
 62
               4
100
AcDbLine
 10
198.94029447527421
 20
-8.8671840234013928
 30
0.0
 11
198.94029447527421
 21
-1.2641537090015618
 31
0.0
  0
LINE
  5
2A3
100
AcDbEntity
  8
0
  6
CONTINUOUS
 62
               4
100
AcDbLine
 10
197.93625407180755
 20
0.1358462901984581
 30
0.0
 11
197.93625407180755
 21
5.8348361859318061
 31
0.0
  0
LINE
  5
2A4
100
AcDbEntity
  8
0
  6
CONTINUOUS
 62
               4
100
AcDbLine
 10
198.14130457674085
 20
-1.1934466383348763
 30
0.0
 11
197.03827427434081
 21
-7.4576072437442633
 31
0.0
  0
LINE
  5
2A5
100
AcDbEntity
  8
0
  6
CONTINUOUS
 62
               4
100
AcDbLine
 10
197.03827427434081
 20
-8.8671840234013928
 30
0.0
 11
196.04130457794091
 21
-8.8671840234013928
 31
0.0
  0
LINE
  5
2A6
100
AcDbEntity
  8
0
  6
CONTINUOUS
 62
               4
100
AcDbLine
 10
197.03827427434081
 20
-8.8671840234013928
 30
0.0
 11
197.03827427434081
 21
-7.4530426100680245
 31
0.0
  0
LINE
  5
2A7
100
AcDbEntity
  8
0
  6
CONTINUOUS
 62
               4
100
AcDbLine
 10
196.93928437540754
 20
-2.2611234054015199
 30
0.0
 11
196.04130457794091
 21
-7.3681941252680474
 31
0.0
  0
LINE
  5
2A8
100
AcDbEntity
  8
0
  6
CONTINUOUS
 62
               4
100
AcDbLine
 10
196.04130457794091
 20
-8.8671840234013928
 30
0.0
 11
196.04130457794091
 21
-7.3681941252680474
 31
0.0
  0
LINE
  5
2A9
100
AcDbEntity
  8
0
  6
CONTINUOUS
 62
               4
100
AcDbLine
 10
199.6402944748742
 20
-8.8671840234013928
 30
0.0
 11
199.6402944748742
 21
-0.8611234062015569
 31
0.0
  0
LINE
  5
2AA
100
AcDbEntity
  8
0
  6
CONTINUOUS
 62
               4
100
AcDbLine
 10
201.43625406980757
 20
-8.8671840234013928
 30
0.0
 11
201.43625406980757
 21
-0.8611234062015569
 31
0.0
  0
LINE
  5
2AB
100
AcDbEntity
  8
0
  6
CONTINUOUS
 62
               4
100
AcDbLine
 10
203.03423386687419
 20
-8.8671840234013928
 30
0.0
 11
198.94029447527421
 21
-8.8671840234013928
 31
0.0
  0
LINE
  5
2AC
100
AcDbEntity
  8
0
  6
CONTINUOUS
 62
               4
100
AcDbLine
 10
203.03423386687419
 20
18.632815976598607
 30
0.0
 11
198.32514296047421
 21
16.440896785931869
 31
0.0
  0
LINE
  5
2AD
100
AcDbEntity
  8
0
  6
CONTINUOUS
 62
               4
100
AcDbLine
 10
198.03524397074082
 20
-0.3661739115348723
 30
0.0
 11
198.03524397074082
 21
15.98837153366523
 31
0.0
  0
LINE
  5
2AE
100
AcDbEntity
  8
0
  6
CONTINUOUS
 62
               4
100
AcDbLine
 10
206.03928437020753
 20
-0.8611234062015569
 30
0.0
 11
198.53726417247415
 21
-0.8611234062015569
 31
0.0
  0
LINE
  5
2AF
100
AcDbEntity
  8
0
  6
CONTINUOUS
 62
               4
100
AcDbLine
 10
218.03928436620757
 20
-2.267184023401569
 30
0.0
 11
206.03928437020753
 21
-2.267184023401569
 31
0.0
  0
LINE
  5
2B0
100
AcDbEntity
  8
0
  6
CONTINUOUS
 62
               4
100
AcDbLine
 10
218.03928436620757
 20
-3.8671840234015349
 30
0.0
 11
218.03928436620757
 21
-2.267184023401569
 31
0.0
  0
ARC
  5
2B1
100
AcDbEntity
  8
0
  6
CONTINUOUS
 62
               4
100
AcDbCircle
 10
219.5392843622075
 20
-3.267184023401569
 30
0.0
 40
0.5
100
AcDbArc
 50
269.99999999999937
 51
0.0
  0
ARC
  5
2B2
100
AcDbEntity
  8
0
  6
CONTINUOUS
 62
               4
100
AcDbCircle
 10
206.53928437020753
 20
-3.267184023401569
 30
0.0
 40
0.5
100
AcDbArc
 50
179.99999999999963
 51
266.08041410034838
  0
LINE
  5
2B3
100
AcDbEntity
  8
0
  6
CONTINUOUS
 62
             200
100
AcDbLine
 10
199.03928437420748
 20
124.45604768758002
 30
0.0
 11
202.03726417047417
 21
126.18837091891336
 31
0.0
  0
LINE
  5
2B4
100
AcDbEntity
  8
0
  6
CONTINUOUS
 62
             200
100
AcDbLine
 10
199.03928437420748
 20
124.80251233384669
 30
0.0
 11
202.03726417047417
 21
126.53483556517997
 31
0.0
  0
ARC
  5
2B5
100
AcDbEntity
  8
0
  6
CONTINUOUS
 62
               4
100
AcDbCircle
 10
206.53928437020753
 20
115.53281536624684
 30
0.0
 40
0.5
100
AcDbArc
 50
93.919585899650798
 51
179.99999999999963
  0
ARC
  5
2B6
100
AcDbEntity
  8
0
  6
CONTINUOUS
 62
               4
100
AcDbCircle
 10
219.5392843622075
 20
115.53281536624684
 30
0.0
 40
0.5
100
AcDbArc
 50
0.0
 51
89.999999999999815
  0
LINE
  5
2B7
100
AcDbEntity
  8
0
  6
CONTINUOUS
 62
               4
100
AcDbLine
 10
218.03928436620757
 20
116.1328153662468
 30
0.0
 11
218.03928436620757
 21
114.53281536624684
 31
0.0
  0
LINE
  5
2B8
100
AcDbEntity
  8
0
  6
CONTINUOUS
 62
               4
100
AcDbLine
 10
218.03928436620757
 20
114.53281536624684
 30
0.0
 11
206.03928437020753
 21
114.53281536624684
 31
0.0
  0
LINE
  5
2B9
100
AcDbEntity
  8
0
  6
CONTINUOUS
 62
               4
100
AcDbLine
 10
206.03928437020753
 20
113.12675474904682
 30
0.0
 11
198.53726417247415
 21
113.12675474904682
 31
0.0
  0
LINE
  5
2BA
100
AcDbEntity
  8
0
  6
CONTINUOUS
 62
               4
100
AcDbLine
 10
198.03524397074082
 20
112.63180525438014
 30
0.0
 11
198.03524397074082
 21
96.277259809180038
 31
0.0
  0
LINE
  5
2BB
100
AcDbEntity
  8
0
  6
CONTINUOUS
 62
               4
100
AcDbLine
 10
203.03423386687419
 20
93.63281536624666
 30
0.0
 11
198.32514296047421
 21
95.824734556913398
 31
0.0
  0
LINE
  5
2BC
100
AcDbEntity
  8
0
  6
CONTINUOUS
 62
               4
100
AcDbLine
 10
203.03423386687419
 20
121.13281536624666
 30
0.0
 11
198.94029447527421
 21
121.13281536624666
 31
0.0
  0
LINE
  5
2BD
100
AcDbEntity
  8
0
  6
CONTINUOUS
 62
               4
100
AcDbLine
 10
201.43625406980757
 20
121.13281536624666
 30
0.0
 11
201.43625406980757
 21
113.12675474904682
 31
0.0
  0
LINE
  5
2BE
100
AcDbEntity
  8
0
  6
CONTINUOUS
 62
               4
100
AcDbLine
 10
199.6402944748742
 20
121.13281536624666
 30
0.0
 11
199.6402944748742
 21
113.12675474904682
 31
0.0
  0
LINE
  5
2BF
100
AcDbEntity
  8
0
  6
CONTINUOUS
 62
               4
100
AcDbLine
 10
196.04130457794091
 20
121.13281536624666
 30
0.0
 11
196.04130457794091
 21
119.63382546811332
 31
0.0
  0
LINE
  5
2C0
100
AcDbEntity
  8
0
  6
CONTINUOUS
 62
               4
100
AcDbLine
 10
196.93928437540754
 20
114.52675474824679
 30
0.0
 11
196.04130457794091
 21
119.63382546811332
 31
0.0
  0
LINE
  5
2C1
100
AcDbEntity
  8
0
  6
CONTINUOUS
 62
               4
100
AcDbLine
 10
197.03827427434081
 20
121.13281536624666
 30
0.0
 11
197.03827427434081
 21
119.71867395291329
 31
0.0
  0
LINE
  5
2C2
100
AcDbEntity
  8
0
  6
CONTINUOUS
 62
               4
100
AcDbLine
 10
197.03827427434081
 20
121.13281536624666
 30
0.0
 11
196.04130457794091
 21
121.13281536624666
 31
0.0
  0
LINE
  5
2C3
100
AcDbEntity
  8
0
  6
CONTINUOUS
 62
               4
100
AcDbLine
 10
198.14130457674085
 20
113.45907798118014
 30
0.0
 11
197.03827427434081
 21
119.72323858658953
 31
0.0
  0
LINE
  5
2C4
100
AcDbEntity
  8
0
  6
CONTINUOUS
 62
               4
100
AcDbLine
 10
197.93625407180755
 20
112.12978505264681
 30
0.0
 11
197.93625407180755
 21
106.43079515691346
 31
0.0
  0
LINE
  5
2C5
100
AcDbEntity
  8
0
  6
CONTINUOUS
 62
               4
100
AcDbLine
 10
198.94029447527421
 20
121.13281536624666
 30
0.0
 11
198.94029447527421
 21
113.52978505184683
 31
0.0
  0
LINE
  5
2C6
100
AcDbEntity
  8
0
  6
CONTINUOUS
 62
               4
100
AcDbLine
 10
198.63625407140754
 20
120.82877496237998
 30
0.0
 11
198.63625407140754
 21
114.92978505104679
 31
0.0
  0
LINE
  5
2C7
100
AcDbEntity
  8
0
  6
CONTINUOUS
 62
               4
100
AcDbLine
 10
198.94029447527421
 20
121.13281536624666
 30
0.0
 11
198.63625407140754
 21
120.82877496237998
 31
0.0
  0
LINE
  5
2C8
100
AcDbEntity
  8
0
  6
CONTINUOUS
 62
               4
100
AcDbLine
 10
203.03423386687419
 20
120.12877496278
 30
0.0
 11
202.5392843722075
 21
120.12877496278
 31
0.0
  0
LINE
  5
2C9
100
AcDbEntity
  8
0
  6
CONTINUOUS
 62
               4
100
AcDbLine
 10
203.03423386687419
 20
115.12776484891344
 30
0.0
 11
202.5392843722075
 21
115.12776484891344
 31
0.0
  0
LINE
  5
2CA
100
AcDbEntity
  8
0
  6
CONTINUOUS
 62
               4
100
AcDbLine
 10
198.94029447527421
 20
114.62574464718017
 30
0.0
 11
198.63625407140754
 21
114.92978505104679
 31
0.0
  0
LINE
  5
2CB
100
AcDbEntity
  8
0
  6
CONTINUOUS
 62
               4
100
AcDbLine
 10
196.93928437540754
 20
114.52675474824679
 30
0.0
 11
196.93928437540754
 21
105.4267547534468
 31
0.0
  0
LINE
  5
2CC
100
AcDbEntity
  8
0
  6
CONTINUOUS
 62
               4
100
AcDbLine
 10
197.93625407180755
 20
105.12978505664677
 30
0.0
 11
197.23625407220757
 21
105.12978505664677
 31
0.0
  0
LINE
  5
2CD
100
AcDbEntity
  8
0
  6
CONTINUOUS
 62
               4
100
AcDbLine
 10
198.03524397074082
 20
106.43079515691346
 30
0.0
 11
197.93625407180755
 21
106.43079515691346
 31
0.0
  0
LINE
  5
2CE
100
AcDbEntity
  8
0
  6
CONTINUOUS
 62
               4
100
AcDbLine
 10
198.03524397074082
 20
105.22877495558009
 30
0.0
 11
197.93625407180755
 21
105.12978505664677
 31
0.0
  0
LINE
  5
2CF
100
AcDbEntity
  8
0
  6
CONTINUOUS
 62
               4
100
AcDbLine
 10
201.18877932247418
 20
125.70049213131333
 30
0.0
 11
201.18877932247418
 21
121.13281536624666
 31
0.0
  0
LINE
  5
2D0
100
AcDbEntity
  8
0
  6
CONTINUOUS
 62
               4
100
AcDbLine
 10
199.88776922220748
 20
128.62776485691333
 30
0.0
 11
199.88776922220748
 21
125.29746182851332
 31
0.0
  0
LINE
  5
2D1
100
AcDbEntity
  8
0
  6
CONTINUOUS
 62
               4
100
AcDbLine
 10
201.18877932247418
 20
128.62776485691333
 30
0.0
 11
201.18877932247418
 21
126.04695677757999
 31
0.0
  0
LINE
  5
2D2
100
AcDbEntity
  8
0
  6
CONTINUOUS
 62
               4
100
AcDbLine
 10
201.18877932247418
 20
128.62776485691333
 30
0.0
 11
199.88776922220748
 21
128.62776485691333
 31
0.0
  0
LINE
  5
2D3
100
AcDbEntity
  8
0
  6
CONTINUOUS
 62
               4
100
AcDbLine
 10
199.88776922220748
 20
124.95099718224665
 30
0.0
 11
199.88776922220748
 21
121.13281536624666
 31
0.0
  0
LINE
  5
2D4
100
AcDbEntity
  8
0
  6
CONTINUOUS
 62
               4
100
AcDbLine
 10
203.03423386687419
 20
121.13281536624666
 30
0.0
 11
203.03423386687419
 21
120.12877496278
 31
0.0
  0
LINE
  5
2D5
100
AcDbEntity
  8
0
  6
CONTINUOUS
 62
               4
100
AcDbLine
 10
203.03423386687419
 20
115.12776484891344
 30
0.0
 11
203.03423386687419
 21
113.12675474904682
 31
0.0
  0
LINE
  5
2D6
100
AcDbEntity
  8
0
  6
CONTINUOUS
 62
               4
100
AcDbLine
 10
202.5392843722075
 20
120.12877496278
 30
0.0
 11
202.5392843722075
 21
115.12776484891344
 31
0.0
  0
LINE
  5
2D7
100
AcDbEntity
  8
0
  6
CONTINUOUS
 62
               4
100
AcDbLine
 10
203.03423386687419
 20
93.63281536624666
 30
0.0
 11
203.03423386687419
 21
113.12675474904682
 31
0.0
  0
ARC
  5
2D8
100
AcDbEntity
  8
0
  6
CONTINUOUS
 62
               4
100
AcDbCircle
 10
198.54125130863841
 20
96.282299863738416
 30
0.0
 40
0.5060324378497572
100
AcDbArc
 50
180.57067216988474
 51
244.71860809994666
  0
ARC
  5
2D9
100
AcDbEntity
  8
0
  6
CONTINUOUS
 62
               4
100
AcDbCircle
 10
198.53545024692883
 20
112.62652388103044
 30
0.0
 40
0.5002341568128574
100
AcDbArc
 50
89.792236286845736
 51
179.39507124653611
  0
ARC
  5
2DA
100
AcDbEntity
  8
0
  6
CONTINUOUS
 62
               4
100
AcDbCircle
 10
197.24138824811567
 20
105.43188892935501
 30
0.0
 40
0.3021474965435785
100
AcDbArc
 50
180.97363298451145
 51
269.02636701548755
  0
ARC
  5
2DB
100
AcDbEntity
  8
0
  6
CONTINUOUS
 62
               4
100
AcDbCircle
 10
198.4392974253407
 20
112.12708709969132
 30
0.0
 40
0.5030505883944908
100
AcDbArc
 50
143.43739164534688
 51
179.69271070880976
  0
ARC
  5
2DC
100
AcDbEntity
  8
0
  6
CONTINUOUS
 62
               4
100
AcDbCircle
 10
198.53736324350953
 20
113.53326150874051
 30
0.0
 40
0.4029462287748787
100
AcDbArc
 50
190.60882798227402
 51
359.50566908284389
  0
LINE
  5
2DD
100
AcDbEntity
  8
0
  6
CONTINUOUS
 62
               4
100
AcDbLine
 10
200.29079952500754
 20
132.12776485491335
 30
0.0
 11
200.29079952500754
 21
128.62776485691333
 31
0.0
  0
LINE
  5
2DE
100
AcDbEntity
  8
0
  6
CONTINUOUS
 62
               4
100
AcDbLine
 10
200.78574901967423
 20
132.12776485491335
 30
0.0
 11
200.78574901967423
 21
128.62776485691333
 31
0.0
  0
ARC
  5
2DF
100
AcDbEntity
  8
0
  6
CONTINUOUS
 62
               4
100
AcDbCircle
 10
206.83819645107931
 20
115.533903371375
 30
0.0
 40
0.5989129231257409
100
AcDbArc
 50
89.895914524772735
 51
180.10408547522667
  0
ARC
  5
2E0
100
AcDbEntity
  8
0
  6
CONTINUOUS
 62
               4
100
AcDbCircle
 10
219.23937942285616
 20
115.53291051289546
 30
0.0
 40
0.5999048008965869
100
AcDbArc
 50
56.247417870393882
 51
90.009087277546172
  0
LINE
  5
2E1
100
AcDbEntity
  8
0
  6
CONTINUOUS
 62
               4
100
AcDbLine
 10
219.23928427620754
 20
116.1328153662468
 30
0.0
 11
206.83928445620748
 21
116.1328153662468
 31
0.0
  0
LINE
  5
2E2
100
AcDbEntity
  8
0
  6
CONTINUOUS
 62
               4
100
AcDbLine
 10
219.5392843622075
 20
116.03281536624684
 30
0.0
 11
218.03928436620757
 21
116.03281536624684
 31
0.0
  0
LINE
  5
2E3
100
AcDbEntity
  8
0
  6
CONTINUOUS
 62
               4
100
AcDbLine
 10
208.7392843662075
 20
115.53281536624684
 30
0.0
 11
206.03928437020753
 21
115.53281536624684
 31
0.0
  0
LINE
  5
2E4
100
AcDbEntity
  8
0
  6
CONTINUOUS
 62
               4
100
AcDbLine
 10
208.7392843662075
 20
116.1328153662468
 30
0.0
 11
208.7392843662075
 21
115.53281536624684
 31
0.0
  0
LINE
  5
2E5
100
AcDbEntity
  8
0
  6
CONTINUOUS
 62
               4
100
AcDbLine
 10
204.03928436620748
 20
93.632815366246774
 30
0.0
 11
203.03928154968074
 21
93.632815366246774
 31
0.0
  0
LINE
  5
2E6
100
AcDbEntity
  8
0
  6
CONTINUOUS
 62
               4
100
AcDbLine
 10
220.03928436620751
 20
115.53281536624675
 30
0.0
 11
220.03928436620751
 21
94.132815671422549
 31
0.0
  0
LINE
  5
2E7
100
AcDbEntity
  8
0
  6
CONTINUOUS
 62
               4
100
AcDbLine
 10
206.03928436620751
 20
94.132815671422549
 30
0.0
 11
206.03928436620751
 21
115.53281536117905
 31
0.0
  0
LINE
  5
2E8
100
AcDbEntity
  8
0
  6
CONTINUOUS
 62
               4
100
AcDbLine
 10
200.78574901967423
 20
132.12776485491335
 30
0.0
 11
200.29079952500754
 21
132.12776485491335
 31
0.0
  0
LINE
  5
2E9
100
AcDbEntity
  8
0
  6
CONTINUOUS
 62
               7
100
AcDbLine
 10
221.73928436620747
 20
18.132815671422719
 30
0.0
 11
222.03928436620748
 21
18.43281567142273
 31
0.0
  0
LINE
  5
2EA
100
AcDbEntity
  8
0
  6
CONTINUOUS
 62
               7
100
AcDbLine
 10
221.73928436620747
 20
18.132815671422719
 30
0.0
 11
204.03928436620743
 21
18.132815671422719
 31
0.0
  0
LINE
  5
2EB
100
AcDbEntity
  8
0
  6
DASHED
 62
               2
100
AcDbLine
 10
222.03928436620748
 20
89.332815671422566
 30
0.0
 11
220.43928436620749
 21
89.332815671422566
 31
0.0
  0
LINE
  5
2EC
100
AcDbEntity
  8
0
  6
CENTER
 62
               2
100
AcDbLine
 10
219.62209201478737
 20
88.332815671422566
 30
0.0
 11
222.90415042060545
 21
88.332815671422551
 31
0.0
  0
LINE
  5
2ED
100
AcDbEntity
  8
0
  6
DASHED
 62
               2
100
AcDbLine
 10
222.03928436620748
 20
87.332815671422566
 30
0.0
 11
220.43928436620749
 21
87.332815671422566
 31
0.0
  0
LINE
  5
2EE
100
AcDbEntity
  8
0
  6
CONTINUOUS
 62
               7
100
AcDbLine
 10
222.03928436620751
 20
18.43281567142273
 30
0.0
 11
222.03928436620748
 21
93.832815671422566
 31
0.0
  0
LINE
  5
2EF
100
AcDbEntity
  8
0
  6
CONTINUOUS
 62
               7
100
AcDbLine
 10
222.7392843662075
 20
41.632815671422634
 30
0.0
 11
222.03928436620748
 21
41.632815671422634
 31
0.0
  0
LINE
  5
2F0
100
AcDbEntity
  8
0
  6
CONTINUOUS
 62
               7
100
AcDbLine
 10
222.03928436620748
 20
79.632815671422634
 30
0.0
 11
222.7392843662075
 21
79.632815671422634
 31
0.0
  0
LINE
  5
2F1
100
AcDbEntity
  8
0
  6
CONTINUOUS
 62
               7
100
AcDbLine
 10
222.7392843662075
 20
37.132815670949867
 30
0.0
 11
222.7392843662075
 21
84.132815673445208
 31
0.0
  0
LINE
  5
2F2
100
AcDbEntity
  8
0
  6
CENTER
 62
               2
100
AcDbLine
 10
231.2392843662075
 20
83.132815672433921
 30
0.0
 11
231.2392843662075
 21
71.132815672433921
 31
0.0
  0
CIRCLE
  5
2F3
100
AcDbEntity
  8
0
  6
CONTINUOUS
 62
               7
100
AcDbCircle
 10
231.2392843662075
 20
60.632815672433907
 30
0.0
 40
4.2779998779296875
  0
CIRCLE
  5
2F4
100
AcDbEntity
  8
0
  6
CONTINUOUS
 62
               2
100
AcDbCircle
 10
231.2392843662075
 20
60.632815672433907
 30
0.0
 40
4.8639993667602539
  0
LINE
  5
2F5
100
AcDbEntity
  8
0
  6
CENTER
 62
               2
100
AcDbLine
 10
225.2392843662075
 20
60.632815672433907
 30
0.0
 11
237.2392843662075
 21
60.632815672433907
 31
0.0
  0
CIRCLE
  5
2F6
100
AcDbEntity
  8
0
  6
CONTINUOUS
 62
               7
100
AcDbCircle
 10
231.2392843662075
 20
77.132815672433921
 30
0.0
 40
4.2779998779296875
  0
CIRCLE
  5
2F7
100
AcDbEntity
  8
0
  6
CONTINUOUS
 62
               2
100
AcDbCircle
 10
231.2392843662075
 20
77.132815672433921
 30
0.0
 40
4.8639993667602539
  0
LINE
  5
2F8
100
AcDbEntity
  8
0
  6
CENTER
 62
               2
100
AcDbLine
 10
225.2392843662075
 20
77.132815672433921
 30
0.0
 11
237.2392843662075
 21
77.132815672433921
 31
0.0
  0
CIRCLE
  5
2F9
100
AcDbEntity
  8
0
  6
CONTINUOUS
 62
               7
100
AcDbCircle
 10
231.2392843662075
 20
44.132815672433921
 30
0.0
 40
4.2779998779296875
  0
CIRCLE
  5
2FA
100
AcDbEntity
  8
0
  6
CONTINUOUS
 62
               2
100
AcDbCircle
 10
231.2392843662075
 20
44.132815672433921
 30
0.0
 40
4.8639993667602539
  0
LINE
  5
2FB
100
AcDbEntity
  8
0
  6
CENTER
 62
               2
100
AcDbLine
 10
225.2392843662075
 20
44.132815672433921
 30
0.0
 11
237.2392843662075
 21
44.132815672433921
 31
0.0
  0
LINE
  5
2FC
100
AcDbEntity
  8
0
  6
CONTINUOUS
 62
               7
100
AcDbLine
 10
239.73928436156862
 20
84.132815673445208
 30
0.0
 11
222.7392843662075
 21
84.132815673445208
 31
0.0
  0
LINE
  5
2FD
100
AcDbEntity
  8
0
  6
CONTINUOUS
 62
               7
100
AcDbLine
 10
239.73928436156862
 20
37.132815671422634
 30
0.0
 11
222.7392843662075
 21
37.132815671422634
 31
0.0
  0
LINE
  5
2FE
100
AcDbEntity
  8
0
  6
CONTINUOUS
 62
               7
100
AcDbLine
 10
239.7392843662075
 20
37.132815671422634
 30
0.0
 11
239.7392843662075
 21
84.132815673445208
 31
0.0
  0
LINE
  5
2FF
100
AcDbEntity
  8
0
  6
CONTINUOUS
 62
               7
100
AcDbLine
 10
221.7392843662075
 20
94.132815671422549
 30
0.0
 11
204.03928436620748
 21
94.132815671422549
 31
0.0
  0
LINE
  5
300
100
AcDbEntity
  8
0
  6
CONTINUOUS
 62
               7
100
AcDbLine
 10
204.03928436620748
 20
18.132815671422719
 30
0.0
 11
204.03928436620748
 21
94.132815671422549
 31
0.0
  0
LINE
  5
301
100
AcDbEntity
  8
0
  6
CONTINUOUS
 62
               7
100
AcDbLine
 10
222.03928436620748
 20
80.032815671422554
 30
0.0
 11
221.93928436620749
 21
80.132815671422549
 31
0.0
  0
LINE
  5
302
100
AcDbEntity
  8
0
  6
CENTER
 62
               2
100
AcDbLine
 10
213.03928436620751
 20
118.76206641725885
 30
0.0
 11
213.03928436620748
 21
-5.9952495966542045
 31
0.0
  0
LINE
  5
303
100
AcDbEntity
  8
0
  6
CONTINUOUS
 62
               7
100
AcDbLine
 10
221.7392843662075
 20
94.132815671422549
 30
0.0
 11
222.03928436620751
 21
93.832815671422566
 31
0.0
  0
LINE
  5
304
100
AcDbEntity
  8
0
  6
CONTINUOUS
 62
               7
100
AcDbLine
 10
221.93928436620749
 20
80.132815671422634
 30
0.0
 11
204.03928436620751
 21
80.132815671422634
 31
0.0
  0
LINE
  5
305
100
AcDbEntity
  8
0
  6
CONTINUOUS
 62
               7
100
AcDbLine
 10
222.03928436620751
 20
80.03281567142264
 30
0.0
 11
221.93928436620749
 21
80.132815671422634
 31
0.0
  0
LINE
  5
306
100
AcDbEntity
  8
0
  6
CONTINUOUS
 62
               7
100
AcDbLine
 10
204.03928436620748
 20
41.132815671422634
 30
0.0
 11
222.03928436620748
 21
41.132815671422634
 31
0.0
  0
LINE
  5
307
100
AcDbEntity
  8
0
  6
CONTINUOUS
 62
               7
100
AcDbLine
 10
205.03928435707246
 20
50.282815667153287
 30
0.0
 11
204.03928436620751
 21
50.282815667153287
 31
0.0
  0
LINE
  5
308
100
AcDbEntity
  8
0
  6
CONTINUOUS
 62
               7
100
AcDbLine
 10
205.03928435707246
 20
53.582815667153284
 30
0.0
 11
204.03928436620751
 21
53.582815667153284
 31
0.0
  0
LINE
  5
309
100
AcDbEntity
  8
0
  6
CONTINUOUS
 62
               7
100
AcDbLine
 10
205.03928436620751
 20
53.582815667153284
 30
0.0
 11
205.03928436620751
 21
50.282815667153287
 31
0.0
  0
ARC
  5
30A
100
AcDbEntity
  8
0
  6
CONTINUOUS
 62
               7
100
AcDbCircle
 10
205.03819636097052
 20
51.031727661916278
 30
0.0
 40
0.5989129830170392
100
AcDbArc
 50
179.89591452477256
 51
270.1040854752265
  0
LINE
  5
30B
100
AcDbEntity
  8
0
  6
CONTINUOUS
 62
               7
100
AcDbLine
 10
204.43928436620754
 20
52.83291081381148
 30
0.0
 11
204.43928436620754
 21
51.031727661916278
 31
0.0
  0
ARC
  5
30C
100
AcDbEntity
  8
0
  6
CONTINUOUS
 62
               7
100
AcDbCircle
 10
205.03918921954937
 20
52.83291081381148
 30
0.0
 40
0.5999048608870732
100
AcDbArc
 50
89.990912722453572
 51
180.00908727754597
  0
LINE
  5
30D
100
AcDbEntity
  8
0
  6
CENTER
 62
               2
100
AcDbLine
 10
231.2392843662075
 20
66.632815672433907
 30
0.0
 11
231.2392843662075
 21
54.632815672433907
 31
0.0
  0
LINE
  5
30E
100
AcDbEntity
  8
0
  6
CENTER
 62
               2
100
AcDbLine
 10
231.2392843662075
 20
50.132815672433921
 30
0.0
 11
231.2392843662075
 21
38.132815672433921
 31
0.0
  0
LINE
  5
30F
100
AcDbEntity
  8
0
  6
CONTINUOUS
 62
               7
100
AcDbLine
 10
204.03928436620748
 20
32.132815671422634
 30
0.0
 11
222.03928436620748
 21
32.132815671422634
 31
0.0
  0
LINE
  5
310
100
AcDbEntity
  8
0
  6
DASHED
 62
               2
100
AcDbLine
 10
222.03928436620748
 20
24.932815671422645
 30
0.0
 11
220.43928436620749
 21
24.932815671422645
 31
0.0
  0
LINE
  5
311
100
AcDbEntity
  8
0
  6
CENTER
 62
               2
100
AcDbLine
 10
219.62209201478737
 20
23.932815671422645
 30
0.0
 11
222.90415042060545
 21
23.932815671422638
 31
0.0
  0
LINE
  5
312
100
AcDbEntity
  8
0
  6
DASHED
 62
               2
100
AcDbLine
 10
222.03928436620748
 20
22.932815671422645
 30
0.0
 11
220.43928436620749
 21
22.932815671422645
 31
0.0
  0
LINE
  5
313
100
AcDbEntity
  8
0
  6
CONTINUOUS
 62
               7
100
AcDbLine
 10
204.74534497300752
 20
113.23281535504675
 30
0.0
 11
204.74534497300752
 21
113.13382545611343
 31
0.0
  0
LINE
  5
314
100
AcDbEntity
  8
0
  6
CENTER
 62
               2
100
AcDbLine
 10
242.2392843571385
 20
78.13281586519139
 30
0.0
 11
237.2392843571385
 21
78.13281586519139
 31
0.0
  0
LINE
  5
315
100
AcDbEntity
  8
0
  6
CENTER
 62
               2
100
AcDbLine
 10
242.2392843571385
 20
43.132815479676509
 30
0.0
 11
237.2392843571385
 21
43.132815479676509
 31
0.0
  0
LINE
  5
316
100
AcDbEntity
  8
0
  6
CONTINUOUS
 62
             200
100
AcDbLine
 10
77.705951114378621
 20
-12.536880991001453
 30
0.0
 11
74.70797131811193
 21
-14.269204222334736
 31
0.0
  0
LINE
  5
317
100
AcDbEntity
  8
0
  6
CONTINUOUS
 62
             200
100
AcDbLine
 10
77.705951114378621
 20
-12.190416344734786
 30
0.0
 11
74.70797131811193
 21
-13.922739576068125
 31
0.0
  0
LINE
  5
318
100
AcDbEntity
  8
0
  6
CONTINUOUS
 62
               4
100
AcDbLine
 10
75.556456166111928
 20
-16.362133514068091
 30
0.0
 11
75.556456166111928
 21
-13.781325434734754
 31
0.0
  0
LINE
  5
319
100
AcDbEntity
  8
0
  6
CONTINUOUS
 62
               4
100
AcDbLine
 10
76.857466266378623
 20
-16.362133514068091
 30
0.0
 11
76.857466266378623
 21
-13.031830485668081
 31
0.0
  0
LINE
  5
31A
100
AcDbEntity
  8
0
  6
CONTINUOUS
 62
               4
100
AcDbLine
 10
75.556456166111928
 20
-13.434860788468086
 30
0.0
 11
75.556456166111928
 21
-8.8671840234014212
 31
0.0
  0
LINE
  5
31B
100
AcDbEntity
  8
0
  6
CONTINUOUS
 62
               4
100
AcDbLine
 10
78.709991517845282
 20
7.0368563872651464
 30
0.0
 11
78.808981416778551
 21
7.1358462861984719
 31
0.0
  0
LINE
  5
31C
100
AcDbEntity
  8
0
  6
CONTINUOUS
 62
               4
100
AcDbLine
 10
78.709991517845282
 20
5.8348361859317777
 30
0.0
 11
78.808981416778551
 21
5.8348361859317777
 31
0.0
  0
LINE
  5
31D
100
AcDbEntity
  8
0
  6
CONTINUOUS
 62
               4
100
AcDbLine
 10
78.808981416778551
 20
7.1358462861984719
 30
0.0
 11
79.508981416378532
 21
7.1358462861984719
 31
0.0
  0
LINE
  5
31E
100
AcDbEntity
  8
0
  6
CONTINUOUS
 62
               4
100
AcDbLine
 10
79.805951113178565
 20
-2.2611234054015483
 30
0.0
 11
79.805951113178565
 21
6.8388765893984385
 31
0.0
  0
LINE
  5
31F
100
AcDbEntity
  8
0
  6
CONTINUOUS
 62
               4
100
AcDbLine
 10
77.80494101331189
 20
-2.3601133043349307
 30
0.0
 11
78.108981417178569
 21
-2.6641537082015532
 31
0.0
  0
LINE
  5
320
100
AcDbEntity
  8
0
  6
CONTINUOUS
 62
               4
100
AcDbLine
 10
73.711001621711915
 20
-2.8621335060682043
 30
0.0
 11
74.2059511163786
 21
-2.8621335060682043
 31
0.0
  0
LINE
  5
321
100
AcDbEntity
  8
0
  6
CONTINUOUS
 62
               4
100
AcDbLine
 10
73.711001621711915
 20
-7.8631436199347604
 30
0.0
 11
74.2059511163786
 21
-7.8631436199347604
 31
0.0
  0
LINE
  5
322
100
AcDbEntity
  8
0
  6
CONTINUOUS
 62
               4
100
AcDbLine
 10
77.80494101331189
 20
-8.8671840234014212
 30
0.0
 11
78.108981417178569
 21
-8.5631436195347419
 31
0.0
  0
LINE
  5
323
100
AcDbEntity
  8
0
  6
CONTINUOUS
 62
               4
100
AcDbLine
 10
78.108981417178569
 20
-8.5631436195347419
 30
0.0
 11
78.108981417178569
 21
-2.6641537082015532
 31
0.0
  0
LINE
  5
324
100
AcDbEntity
  8
0
  6
CONTINUOUS
 62
               4
100
AcDbLine
 10
77.80494101331189
 20
-8.8671840234014212
 30
0.0
 11
77.80494101331189
 21
-1.2641537090015902
 31
0.0
  0
LINE
  5
325
100
AcDbEntity
  8
0
  6
CONTINUOUS
 62
               4
100
AcDbLine
 10
78.808981416778551
 20
0.1358462901984296
 30
0.0
 11
78.808981416778551
 21
5.8348361859317777
 31
0.0
  0
LINE
  5
326
100
AcDbEntity
  8
0
  6
CONTINUOUS
 62
               4
100
AcDbLine
 10
78.603930911845254
 20
-1.1934466383349047
 30
0.0
 11
79.706961214245297
 21
-7.4576072437442917
 31
0.0
  0
LINE
  5
327
100
AcDbEntity
  8
0
  6
CONTINUOUS
 62
               4
100
AcDbLine
 10
79.706961214245297
 20
-8.8671840234014212
 30
0.0
 11
80.703930910645198
 21
-8.8671840234014212
 31
0.0
  0
LINE
  5
328
100
AcDbEntity
  8
0
  6
CONTINUOUS
 62
               4
100
AcDbLine
 10
79.706961214245297
 20
-8.8671840234014212
 30
0.0
 11
79.706961214245297
 21
-7.4530426100680529
 31
0.0
  0
LINE
  5
329
100
AcDbEntity
  8
0
  6
CONTINUOUS
 62
               4
100
AcDbLine
 10
79.805951113178565
 20
-2.2611234054015483
 30
0.0
 11
80.703930910645198
 21
-7.3681941252680758
 31
0.0
  0
LINE
  5
32A
100
AcDbEntity
  8
0
  6
CONTINUOUS
 62
               4
100
AcDbLine
 10
80.703930910645198
 20
-8.8671840234014212
 30
0.0
 11
80.703930910645198
 21
-7.3681941252680758
 31
0.0
  0
LINE
  5
32B
100
AcDbEntity
  8
0
  6
CONTINUOUS
 62
               4
100
AcDbLine
 10
77.104941013711908
 20
-8.8671840234014212
 30
0.0
 11
77.104941013711908
 21
-0.8611234062015853
 31
0.0
  0
LINE
  5
32C
100
AcDbEntity
  8
0
  6
CONTINUOUS
 62
               4
100
AcDbLine
 10
75.308981418778529
 20
-8.8671840234014212
 30
0.0
 11
75.308981418778529
 21
-0.8611234062015853
 31
0.0
  0
LINE
  5
32D
100
AcDbEntity
  8
0
  6
CONTINUOUS
 62
               4
100
AcDbLine
 10
73.711001621711915
 20
-8.8671840234014212
 30
0.0
 11
77.80494101331189
 21
-8.8671840234014212
 31
0.0
  0
LINE
  5
32E
100
AcDbEntity
  8
0
  6
CONTINUOUS
 62
               4
100
AcDbLine
 10
70.705951118378579
 20
-0.8611234062015853
 30
0.0
 11
78.207971316111951
 21
-0.8611234062015853
 31
0.0
  0
LINE
  5
32F
100
AcDbEntity
  8
0
  6
CONTINUOUS
 62
               4
100
AcDbLine
 10
68.70595112237865
 20
-3.8671840234015633
 30
0.0
 11
68.70595112237865
 21
-2.2671840234015974
 31
0.0
  0
ARC
  5
330
100
AcDbEntity
  8
0
  6
CONTINUOUS
 62
               4
100
AcDbCircle
 10
70.205951118378579
 20
-3.2671840234015974
 30
0.0
 40
0.5
100
AcDbArc
 50
269.99999999999937
 51
0.0
  0
ARC
  5
331
100
AcDbEntity
  8
0
  6
CONTINUOUS
 62
               4
100
AcDbCircle
 10
69.906046179027243
 20
-3.267279170050216
 30
0.0
 40
0.5999048008965869
100
AcDbArc
 50
269.990912722453
 51
303.75258212960529
  0
LINE
  5
332
100
AcDbEntity
  8
0
  6
CONTINUOUS
 62
               4
100
AcDbLine
 10
70.205951118378579
 20
-3.7671840234015974
 30
0.0
 11
68.70595112237865
 21
-3.7671840234015974
 31
0.0
  0
LINE
  5
333
100
AcDbEntity
  8
0
  6
CONTINUOUS
 62
               4
100
AcDbLine
 10
75.959486468911876
 20
-19.862133512068112
 30
0.0
 11
76.454435963578561
 21
-19.862133512068112
 31
0.0
  0
LINE
  5
334
100
AcDbEntity
  8
0
  6
CONTINUOUS
 62
               4
100
AcDbLine
 10
70.705951122378593
 20
18.132815671422691
 30
0.0
 11
70.705951122378593
 21
-3.2671840183338077
 31
0.0
  0
LINE
  5
335
100
AcDbEntity
  8
0
  6
CONTINUOUS
 62
               4
100
AcDbLine
 10
78.709991517845282
 20
-0.3661739115349008
 30
0.0
 11
78.709991517845282
 21
15.988371533665202
 31
0.0
  0
LINE
  5
336
100
AcDbEntity
  8
0
  6
CONTINUOUS
 62
               4
100
AcDbLine
 10
73.711001621711915
 20
18.632815976598579
 30
0.0
 11
73.711001621711915
 21
-0.8611234062015853
 31
0.0
  0
ARC
  5
337
100
AcDbEntity
  8
0
  6
CONTINUOUS
 62
               4
100
AcDbCircle
 10
57.205951126378608
 20
-3.2671840234015974
 30
0.0
 40
0.5
100
AcDbArc
 50
179.99999999999963
 51
266.08041410034838
  0
ARC
  5
338
100
AcDbEntity
  8
0
  6
CONTINUOUS
 62
               4
100
AcDbCircle
 10
57.504863207250395
 20
-3.2682720285297648
 30
0.0
 40
0.5989129231257409
100
AcDbArc
 50
179.89591452477254
 51
270.10408547522644
  0
LINE
  5
339
100
AcDbEntity
  8
0
  6
CONTINUOUS
 62
               4
100
AcDbLine
 10
59.405951122378582
 20
-3.2671840234015974
 30
0.0
 11
56.705951126378608
 21
-3.2671840234015974
 31
0.0
  0
LINE
  5
33A
100
AcDbEntity
  8
0
  6
CONTINUOUS
 62
               4
100
AcDbLine
 10
59.405951122378582
 20
-3.8671840234015633
 30
0.0
 11
59.405951122378582
 21
-3.2671840234015974
 31
0.0
  0
LINE
  5
33B
100
AcDbEntity
  8
0
  6
CONTINUOUS
 62
               4
100
AcDbLine
 10
56.705951122378593
 20
-3.2671840234015121
 30
0.0
 11
56.705951122378593
 21
18.132815671422691
 31
0.0
  0
LINE
  5
33C
100
AcDbEntity
  8
0
  6
CONTINUOUS
 62
               4
100
AcDbLine
 10
69.905951032378624
 20
-3.8671840234015633
 30
0.0
 11
57.505951212378562
 21
-3.8671840234015633
 31
0.0
  0
LINE
  5
33D
100
AcDbEntity
  8
0
  6
CONTINUOUS
 62
               4
100
AcDbLine
 10
68.70595112237865
 20
-2.2671840234015974
 30
0.0
 11
56.705951126378608
 21
-2.2671840234015974
 31
0.0
  0
LINE
  5
33E
100
AcDbEntity
  8
0
  6
CONTINUOUS
 62
               4
100
AcDbLine
 10
75.556456166111928
 20
-16.362133514068091
 30
0.0
 11
76.857466266378623
 21
-16.362133514068091
 31
0.0
  0
LINE
  5
33F
100
AcDbEntity
  8
0
  6
CONTINUOUS
 62
               4
100
AcDbLine
 10
75.959486468911876
 20
-19.862133512068112
 30
0.0
 11
75.959486468911876
 21
-16.362133514068091
 31
0.0
  0
LINE
  5
340
100
AcDbEntity
  8
0
  6
CONTINUOUS
 62
               4
100
AcDbLine
 10
76.454435963578561
 20
-19.862133512068112
 30
0.0
 11
76.454435963578561
 21
-16.362133514068091
 31
0.0
  0
LINE
  5
341
100
AcDbEntity
  8
0
  6
CONTINUOUS
 62
               4
100
AcDbLine
 10
76.857466266378623
 20
-12.685365839401413
 30
0.0
 11
76.857466266378623
 21
-8.8671840234014212
 31
0.0
  0
LINE
  5
342
100
AcDbEntity
  8
0
  6
CONTINUOUS
 62
               4
100
AcDbLine
 10
73.711001621711915
 20
-8.8671840234014212
 30
0.0
 11
73.711001621711915
 21
-7.8631436199347604
 31
0.0
  0
LINE
  5
343
100
AcDbEntity
  8
0
  6
CONTINUOUS
 62
               4
100
AcDbLine
 10
73.711001621711915
 20
-2.8621335060682043
 30
0.0
 11
73.711001621711915
 21
-0.8611234062015853
 31
0.0
  0
LINE
  5
344
100
AcDbEntity
  8
0
  6
CONTINUOUS
 62
               4
100
AcDbLine
 10
74.2059511163786
 20
-7.8631436199347604
 30
0.0
 11
74.2059511163786
 21
-2.8621335060682043
 31
0.0
  0
ARC
  5
345
100
AcDbEntity
  8
0
  6
CONTINUOUS
 62
               4
100
AcDbCircle
 10
78.209785241657272
 20
-0.3608925381851975
 30
0.0
 40
0.5002341568128574
100
AcDbArc
 50
269.79223628684531
 51
359.39507124653568
  0
ARC
  5
346
100
AcDbEntity
  8
0
  6
CONTINUOUS
 62
               4
100
AcDbCircle
 10
79.503847240470435
 20
6.8337424134902278
 30
0.0
 40
0.3021474965435785
100
AcDbArc
 50
0.9736329845118463
 51
89.026367015487978
  0
ARC
  5
347
100
AcDbEntity
  8
0
  6
CONTINUOUS
 62
               4
100
AcDbCircle
 10
78.305938063245407
 20
0.1385442431539161
 30
0.0
 40
0.5030505883944908
100
AcDbArc
 50
323.43739164534645
 51
359.69271070880933
  0
ARC
  5
348
100
AcDbEntity
  8
0
  6
CONTINUOUS
 62
               4
100
AcDbCircle
 10
78.207872245076572
 20
-1.2676301658952696
 30
0.0
 40
0.4029462287748787
100
AcDbArc
 50
10.608827982274413
 51
179.50566908284432
  0
LINE
  5
349
100
AcDbEntity
  8
0
  6
CONTINUOUS
 62
               4
100
AcDbLine
 10
72.705951122378622
 20
18.632815976598465
 30
0.0
 11
73.705953938905367
 21
18.632815976598465
 31
0.0
  0
LINE
  5
34A
100
AcDbEntity
  8
0
  6
CONTINUOUS
 62
               4
100
AcDbLine
 10
73.711001621711915
 20
18.632815976598579
 30
0.0
 11
78.420092528111894
 21
16.440896785931841
 31
0.0
  0
ARC
  5
34B
100
AcDbEntity
  8
0
  6
CONTINUOUS
 62
               4
100
AcDbCircle
 10
78.203984179947696
 20
15.983331479106823
 30
0.0
 40
0.5060324378497572
100
AcDbArc
 50
0.570672169885155
 51
64.718608099947076
  0
LINE
  5
34C
100
AcDbEntity
  8
0
  6
CONTINUOUS
 62
             200
100
AcDbLine
 10
77.705951114378621
 20
124.80251233384672
 30
0.0
 11
74.70797131811193
 21
126.53483556518
 31
0.0
  0
LINE
  5
34D
100
AcDbEntity
  8
0
  6
CONTINUOUS
 62
             200
100
AcDbLine
 10
77.705951114378621
 20
124.45604768758005
 30
0.0
 11
74.70797131811193
 21
126.18837091891339
 31
0.0
  0
ARC
  5
34E
100
AcDbEntity
  8
0
  6
CONTINUOUS
 62
               4
100
AcDbCircle
 10
78.203984179947696
 20
96.282299863738444
 30
0.0
 40
0.5060324378497572
100
AcDbArc
 50
295.28139190005214
 51
359.42932783011406
  0
LINE
  5
34F
100
AcDbEntity
  8
0
  6
CONTINUOUS
 62
               4
100
AcDbLine
 10
73.711001621711915
 20
93.632815366246689
 30
0.0
 11
78.420092528111894
 21
95.824734556913427
 31
0.0
  0
LINE
  5
350
100
AcDbEntity
  8
0
  6
CONTINUOUS
 62
               4
100
AcDbLine
 10
72.705951122378622
 20
93.632815366246803
 30
0.0
 11
73.705953938905367
 21
93.632815366246803
 31
0.0
  0
ARC
  5
351
100
AcDbEntity
  8
0
  6
CONTINUOUS
 62
               4
100
AcDbCircle
 10
78.207872245076572
 20
113.53326150874054
 30
0.0
 40
0.4029462287748787
100
AcDbArc
 50
180.49433091715488
 51
349.39117201772478
  0
ARC
  5
352
100
AcDbEntity
  8
0
  6
CONTINUOUS
 62
               4
100
AcDbCircle
 10
78.305938063245407
 20
112.12708709969135
 30
0.0
 40
0.5030505883944908
100
AcDbArc
 50
0.3072892911898554
 51
36.562608354652731
  0
ARC
  5
353
100
AcDbEntity
  8
0
  6
CONTINUOUS
 62
               4
100
AcDbCircle
 10
79.503847240470435
 20
105.43188892935504
 30
0.0
 40
0.3021474965435785
100
AcDbArc
 50
270.97363298451126
 51
359.02636701548732
  0
ARC
  5
354
100
AcDbEntity
  8
0
  6
CONTINUOUS
 62
               4
100
AcDbCircle
 10
78.209785241657272
 20
112.62652388103047
 30
0.0
 40
0.5002341568128574
100
AcDbArc
 50
0.6049287534634878
 51
90.207763713153867
  0
LINE
  5
355
100
AcDbEntity
  8
0
  6
CONTINUOUS
 62
               4
100
AcDbLine
 10
74.2059511163786
 20
120.12877496278003
 30
0.0
 11
74.2059511163786
 21
115.12776484891347
 31
0.0
  0
LINE
  5
356
100
AcDbEntity
  8
0
  6
CONTINUOUS
 62
               4
100
AcDbLine
 10
73.711001621711915
 20
115.12776484891347
 30
0.0
 11
73.711001621711915
 21
113.12675474904685
 31
0.0
  0
LINE
  5
357
100
AcDbEntity
  8
0
  6
CONTINUOUS
 62
               4
100
AcDbLine
 10
73.711001621711915
 20
121.13281536624669
 30
0.0
 11
73.711001621711915
 21
120.12877496278003
 31
0.0
  0
LINE
  5
358
100
AcDbEntity
  8
0
  6
CONTINUOUS
 62
               4
100
AcDbLine
 10
76.857466266378623
 20
124.95099718224668
 30
0.0
 11
76.857466266378623
 21
121.13281536624669
 31
0.0
  0
LINE
  5
359
100
AcDbEntity
  8
0
  6
CONTINUOUS
 62
               4
100
AcDbLine
 10
76.454435963578561
 20
132.12776485491338
 30
0.0
 11
76.454435963578561
 21
128.62776485691336
 31
0.0
  0
LINE
  5
35A
100
AcDbEntity
  8
0
  6
CONTINUOUS
 62
               4
100
AcDbLine
 10
75.959486468911876
 20
132.12776485491338
 30
0.0
 11
75.959486468911876
 21
128.62776485691336
 31
0.0
  0
LINE
  5
35B
100
AcDbEntity
  8
0
  6
CONTINUOUS
 62
               4
100
AcDbLine
 10
75.556456166111928
 20
128.62776485691336
 30
0.0
 11
76.857466266378623
 21
128.62776485691336
 31
0.0
  0
LINE
  5
35C
100
AcDbEntity
  8
0
  6
CONTINUOUS
 62
               4
100
AcDbLine
 10
68.70595112237865
 20
114.53281536624687
 30
0.0
 11
56.705951126378608
 21
114.53281536624687
 31
0.0
  0
LINE
  5
35D
100
AcDbEntity
  8
0
  6
CONTINUOUS
 62
               4
100
AcDbLine
 10
69.905951032378624
 20
116.13281536624683
 30
0.0
 11
57.505951212378562
 21
116.13281536624683
 31
0.0
  0
LINE
  5
35E
100
AcDbEntity
  8
0
  6
CONTINUOUS
 62
               4
100
AcDbLine
 10
56.705951122378593
 20
115.53281536624678
 30
0.0
 11
56.705951122378593
 21
94.132815671422577
 31
0.0
  0
LINE
  5
35F
100
AcDbEntity
  8
0
  6
CONTINUOUS
 62
               4
100
AcDbLine
 10
59.405951122378582
 20
116.13281536624683
 30
0.0
 11
59.405951122378582
 21
115.53281536624687
 31
0.0
  0
LINE
  5
360
100
AcDbEntity
  8
0
  6
CONTINUOUS
 62
               4
100
AcDbLine
 10
59.405951122378582
 20
115.53281536624687
 30
0.0
 11
56.705951126378608
 21
115.53281536624687
 31
0.0
  0
ARC
  5
361
100
AcDbEntity
  8
0
  6
CONTINUOUS
 62
               4
100
AcDbCircle
 10
57.504863207250395
 20
115.53390337137503
 30
0.0
 40
0.5989129231257409
100
AcDbArc
 50
89.895914524772735
 51
180.10408547522667
  0
ARC
  5
362
100
AcDbEntity
  8
0
  6
CONTINUOUS
 62
               4
100
AcDbCircle
 10
57.205951126378608
 20
115.53281536624687
 30
0.0
 40
0.5
100
AcDbArc
 50
93.919585899650798
 51
179.99999999999963
  0
LINE
  5
363
100
AcDbEntity
  8
0
  6
CONTINUOUS
 62
               4
100
AcDbLine
 10
73.711001621711915
 20
93.632815366246689
 30
0.0
 11
73.711001621711915
 21
113.12675474904685
 31
0.0
  0
LINE
  5
364
100
AcDbEntity
  8
0
  6
CONTINUOUS
 62
               4
100
AcDbLine
 10
78.709991517845282
 20
112.63180525438017
 30
0.0
 11
78.709991517845282
 21
96.277259809180066
 31
0.0
  0
LINE
  5
365
100
AcDbEntity
  8
0
  6
CONTINUOUS
 62
               4
100
AcDbLine
 10
70.705951122378593
 20
94.132815671422577
 30
0.0
 11
70.705951122378593
 21
115.53281536117908
 31
0.0
  0
LINE
  5
366
100
AcDbEntity
  8
0
  6
CONTINUOUS
 62
               4
100
AcDbLine
 10
75.959486468911876
 20
132.12776485491338
 30
0.0
 11
76.454435963578561
 21
132.12776485491338
 31
0.0
  0
LINE
  5
367
100
AcDbEntity
  8
0
  6
CONTINUOUS
 62
               4
100
AcDbLine
 10
70.205951118378579
 20
116.03281536624687
 30
0.0
 11
68.70595112237865
 21
116.03281536624687
 31
0.0
  0
ARC
  5
368
100
AcDbEntity
  8
0
  6
CONTINUOUS
 62
               4
100
AcDbCircle
 10
69.906046179027243
 20
115.53291051289548
 30
0.0
 40
0.5999048008965869
100
AcDbArc
 50
56.247417870393882
 51
90.009087277546172
  0
ARC
  5
369
100
AcDbEntity
  8
0
  6
CONTINUOUS
 62
               4
100
AcDbCircle
 10
70.205951118378579
 20
115.53281536624687
 30
0.0
 40
0.5
100
AcDbArc
 50
0.0
 51
89.999999999999815
  0
LINE
  5
36A
100
AcDbEntity
  8
0
  6
CONTINUOUS
 62
               4
100
AcDbLine
 10
68.70595112237865
 20
116.13281536624683
 30
0.0
 11
68.70595112237865
 21
114.53281536624687
 31
0.0
  0
LINE
  5
36B
100
AcDbEntity
  8
0
  6
CONTINUOUS
 62
               4
100
AcDbLine
 10
70.705951118378579
 20
113.12675474904685
 30
0.0
 11
78.207971316111951
 21
113.12675474904685
 31
0.0
  0
LINE
  5
36C
100
AcDbEntity
  8
0
  6
CONTINUOUS
 62
               4
100
AcDbLine
 10
73.711001621711915
 20
121.13281536624669
 30
0.0
 11
77.80494101331189
 21
121.13281536624669
 31
0.0
  0
LINE
  5
36D
100
AcDbEntity
  8
0
  6
CONTINUOUS
 62
               4
100
AcDbLine
 10
75.308981418778529
 20
121.13281536624669
 30
0.0
 11
75.308981418778529
 21
113.12675474904685
 31
0.0
  0
LINE
  5
36E
100
AcDbEntity
  8
0
  6
CONTINUOUS
 62
               4
100
AcDbLine
 10
77.104941013711908
 20
121.13281536624669
 30
0.0
 11
77.104941013711908
 21
113.12675474904685
 31
0.0
  0
LINE
  5
36F
100
AcDbEntity
  8
0
  6
CONTINUOUS
 62
               4
100
AcDbLine
 10
80.703930910645198
 20
121.13281536624669
 30
0.0
 11
80.703930910645198
 21
119.63382546811334
 31
0.0
  0
LINE
  5
370
100
AcDbEntity
  8
0
  6
CONTINUOUS
 62
               4
100
AcDbLine
 10
79.805951113178565
 20
114.52675474824682
 30
0.0
 11
80.703930910645198
 21
119.63382546811334
 31
0.0
  0
LINE
  5
371
100
AcDbEntity
  8
0
  6
CONTINUOUS
 62
               4
100
AcDbLine
 10
79.706961214245297
 20
121.13281536624669
 30
0.0
 11
79.706961214245297
 21
119.71867395291332
 31
0.0
  0
LINE
  5
372
100
AcDbEntity
  8
0
  6
CONTINUOUS
 62
               4
100
AcDbLine
 10
79.706961214245297
 20
121.13281536624669
 30
0.0
 11
80.703930910645198
 21
121.13281536624669
 31
0.0
  0
LINE
  5
373
100
AcDbEntity
  8
0
  6
CONTINUOUS
 62
               4
100
AcDbLine
 10
78.603930911845254
 20
113.45907798118017
 30
0.0
 11
79.706961214245297
 21
119.72323858658956
 31
0.0
  0
LINE
  5
374
100
AcDbEntity
  8
0
  6
CONTINUOUS
 62
               4
100
AcDbLine
 10
78.808981416778551
 20
112.12978505264684
 30
0.0
 11
78.808981416778551
 21
106.43079515691349
 31
0.0
  0
LINE
  5
375
100
AcDbEntity
  8
0
  6
CONTINUOUS
 62
               4
100
AcDbLine
 10
77.80494101331189
 20
121.13281536624669
 30
0.0
 11
77.80494101331189
 21
113.52978505184686
 31
0.0
  0
LINE
  5
376
100
AcDbEntity
  8
0
  6
CONTINUOUS
 62
               4
100
AcDbLine
 10
78.108981417178569
 20
120.82877496238001
 30
0.0
 11
78.108981417178569
 21
114.92978505104682
 31
0.0
  0
LINE
  5
377
100
AcDbEntity
  8
0
  6
CONTINUOUS
 62
               4
100
AcDbLine
 10
77.80494101331189
 20
121.13281536624669
 30
0.0
 11
78.108981417178569
 21
120.82877496238001
 31
0.0
  0
LINE
  5
378
100
AcDbEntity
  8
0
  6
CONTINUOUS
 62
               4
100
AcDbLine
 10
73.711001621711915
 20
120.12877496278003
 30
0.0
 11
74.2059511163786
 21
120.12877496278003
 31
0.0
  0
LINE
  5
379
100
AcDbEntity
  8
0
  6
CONTINUOUS
 62
               4
100
AcDbLine
 10
73.711001621711915
 20
115.12776484891347
 30
0.0
 11
74.2059511163786
 21
115.12776484891347
 31
0.0
  0
LINE
  5
37A
100
AcDbEntity
  8
0
  6
CONTINUOUS
 62
               4
100
AcDbLine
 10
77.80494101331189
 20
114.6257446471802
 30
0.0
 11
78.108981417178569
 21
114.92978505104682
 31
0.0
  0
LINE
  5
37B
100
AcDbEntity
  8
0
  6
CONTINUOUS
 62
               4
100
AcDbLine
 10
79.805951113178565
 20
114.52675474824682
 30
0.0
 11
79.805951113178565
 21
105.42675475344683
 31
0.0
  0
LINE
  5
37C
100
AcDbEntity
  8
0
  6
CONTINUOUS
 62
               4
100
AcDbLine
 10
78.808981416778551
 20
105.1297850566468
 30
0.0
 11
79.508981416378532
 21
105.1297850566468
 31
0.0
  0
LINE
  5
37D
100
AcDbEntity
  8
0
  6
CONTINUOUS
 62
               4
100
AcDbLine
 10
78.709991517845282
 20
106.43079515691349
 30
0.0
 11
78.808981416778551
 21
106.43079515691349
 31
0.0
  0
LINE
  5
37E
100
AcDbEntity
  8
0
  6
CONTINUOUS
 62
               4
100
AcDbLine
 10
78.709991517845282
 20
105.22877495558012
 30
0.0
 11
78.808981416778551
 21
105.1297850566468
 31
0.0
  0
LINE
  5
37F
100
AcDbEntity
  8
0
  6
CONTINUOUS
 62
               4
100
AcDbLine
 10
75.556456166111928
 20
125.70049213131335
 30
0.0
 11
75.556456166111928
 21
121.13281536624669
 31
0.0
  0
LINE
  5
380
100
AcDbEntity
  8
0
  6
CONTINUOUS
 62
               4
100
AcDbLine
 10
76.857466266378623
 20
128.62776485691336
 30
0.0
 11
76.857466266378623
 21
125.29746182851335
 31
0.0
  0
LINE
  5
381
100
AcDbEntity
  8
0
  6
CONTINUOUS
 62
               4
100
AcDbLine
 10
75.556456166111928
 20
128.62776485691336
 30
0.0
 11
75.556456166111928
 21
126.04695677758002
 31
0.0
  0
LINE
  5
382
100
AcDbEntity
  8
0
  6
CONTINUOUS
 62
               7
100
AcDbLine
 10
55.005951122378605
 20
18.132815671422719
 30
0.0
 11
72.70595112237865
 21
18.132815671422719
 31
0.0
  0
LINE
  5
383
100
AcDbEntity
  8
0
  6
CONTINUOUS
 62
               7
100
AcDbLine
 10
55.005951122378605
 20
18.132815671422719
 30
0.0
 11
54.705951122378593
 21
18.43281567142273
 31
0.0
  0
LINE
  5
384
100
AcDbEntity
  8
0
  6
CENTER
 62
               2
100
AcDbLine
 10
45.505951127017454
 20
46.33281567243391
 30
0.0
 11
45.505951127017454
 21
58.33281567243391
 31
0.0
  0
CIRCLE
  5
385
100
AcDbEntity
  8
0
  6
CONTINUOUS
 62
               2
100
AcDbCircle
 10
45.505951127017454
 20
68.832815672433895
 30
0.0
 40
4.8639993667602539
  0
CIRCLE
  5
386
100
AcDbEntity
  8
0
  6
CONTINUOUS
 62
               7
100
AcDbCircle
 10
45.505951127017454
 20
68.832815672433895
 30
0.0
 40
4.2779998779296875
  0
LINE
  5
387
100
AcDbEntity
  8
0
  6
CONTINUOUS
 62
               7
100
AcDbLine
 10
54.005951122378576
 20
37.132815670949867
 30
0.0
 11
54.005951122378576
 21
84.132815673445194
 31
0.0
  0
LINE
  5
388
100
AcDbEntity
  8
0
  6
CONTINUOUS
 62
               7
100
AcDbLine
 10
37.005951122378576
 20
37.132815671422634
 30
0.0
 11
37.005951122378576
 21
84.132815673445194
 31
0.0
  0
LINE
  5
389
100
AcDbEntity
  8
0
  6
CONTINUOUS
 62
               7
100
AcDbLine
 10
72.705951122378622
 20
18.132815671422719
 30
0.0
 11
72.705951122378622
 21
94.132815671422577
 31
0.0
  0
LINE
  5
38A
100
AcDbEntity
  8
0
  6
CENTER
 62
               2
100
AcDbLine
 10
63.705951122378593
 20
118.76206641725891
 30
0.0
 11
63.705951122378593
 21
-5.9952495966541619
 31
0.0
  0
LINE
  5
38B
100
AcDbEntity
  8
0
  6
CONTINUOUS
 62
               7
100
AcDbLine
 10
54.705951122378565
 20
18.43281567142273
 30
0.0
 11
54.705951122378622
 21
93.832815671422566
 31
0.0
  0
LINE
  5
38C
100
AcDbEntity
  8
0
  6
CONTINUOUS
 62
               7
100
AcDbLine
 10
37.005951127017454
 20
37.132815671422634
 30
0.0
 11
54.005951122378576
 21
37.132815671422634
 31
0.0
  0
LINE
  5
38D
100
AcDbEntity
  8
0
  6
CONTINUOUS
 62
               7
100
AcDbLine
 10
72.705951122378622
 20
41.132815671422634
 30
0.0
 11
54.705951122378622
 21
41.132815671422662
 31
0.0
  0
LINE
  5
38E
100
AcDbEntity
  8
0
  6
CONTINUOUS
 62
               7
100
AcDbLine
 10
37.005951127017454
 20
37.132815671422634
 30
0.0
 11
54.005951122378576
 21
37.132815671422634
 31
0.0
  0
LINE
  5
38F
100
AcDbEntity
  8
0
  6
CONTINUOUS
 62
               7
100
AcDbLine
 10
54.005951122378576
 20
41.632815671422662
 30
0.0
 11
54.705951122378622
 21
41.632815671422662
 31
0.0
  0
CIRCLE
  5
390
100
AcDbEntity
  8
0
  6
CONTINUOUS
 62
               7
100
AcDbCircle
 10
45.505951127017454
 20
52.33281567243391
 30
0.0
 40
4.2779998779296875
  0
CIRCLE
  5
391
100
AcDbEntity
  8
0
  6
CONTINUOUS
 62
               2
100
AcDbCircle
 10
45.505951127017454
 20
52.33281567243391
 30
0.0
 40
4.8639993667602539
  0
LINE
  5
392
100
AcDbEntity
  8
0
  6
CENTER
 62
               2
100
AcDbLine
 10
51.505951127017454
 20
52.33281567243391
 30
0.0
 11
39.505951127017454
 21
52.33281567243391
 31
0.0
  0
LINE
  5
393
100
AcDbEntity
  8
0
  6
CONTINUOUS
 62
               7
100
AcDbLine
 10
54.705951122378593
 20
80.032815671422654
 30
0.0
 11
54.805951122378616
 21
80.132815671422648
 31
0.0
  0
LINE
  5
394
100
AcDbEntity
  8
0
  6
CONTINUOUS
 62
               7
100
AcDbLine
 10
54.805951122378616
 20
80.132815671422648
 30
0.0
 11
72.705951122378593
 21
80.132815671422648
 31
0.0
  0
LINE
  5
395
100
AcDbEntity
  8
0
  6
CONTINUOUS
 62
               7
100
AcDbLine
 10
55.005951122378605
 20
94.132815671422577
 30
0.0
 11
54.705951122378593
 21
93.832815671422566
 31
0.0
  0
LINE
  5
396
100
AcDbEntity
  8
0
  6
CONTINUOUS
 62
               7
100
AcDbLine
 10
54.705951122378622
 20
80.032815671422568
 30
0.0
 11
54.805951122378616
 21
80.132815671422563
 31
0.0
  0
LINE
  5
397
100
AcDbEntity
  8
0
  6
CONTINUOUS
 62
               7
100
AcDbLine
 10
55.005951122378605
 20
94.132815671422577
 30
0.0
 11
72.705951122378622
 21
94.132815671422577
 31
0.0
  0
LINE
  5
398
100
AcDbEntity
  8
0
  6
CONTINUOUS
 62
               7
100
AcDbLine
 10
37.005951127017454
 20
84.132815673445194
 30
0.0
 11
54.005951122378576
 21
84.132815673445194
 31
0.0
  0
LINE
  5
399
100
AcDbEntity
  8
0
  6
CONTINUOUS
 62
               7
100
AcDbLine
 10
54.705951122378622
 20
79.632815671422648
 30
0.0
 11
54.005951122378605
 21
79.632815671422648
 31
0.0
  0
LINE
  5
39A
100
AcDbEntity
  8
0
  6
CENTER
 62
               2
100
AcDbLine
 10
51.505951127017454
 20
68.832815672433895
 30
0.0
 11
39.505951127017454
 21
68.832815672433895
 31
0.0
  0
LINE
  5
39B
100
AcDbEntity
  8
0
  6
CONTINUOUS
 62
               7
100
AcDbLine
 10
71.705951131513643
 20
70.982815675691981
 30
0.0
 11
72.705951122378593
 21
70.982815675691981
 31
0.0
  0
LINE
  5
39C
100
AcDbEntity
  8
0
  6
CONTINUOUS
 62
               7
100
AcDbLine
 10
71.705951131513643
 20
67.682815675691984
 30
0.0
 11
72.705951122378593
 21
67.682815675691984
 31
0.0
  0
ARC
  5
39D
100
AcDbEntity
  8
0
  6
CONTINUOUS
 62
               7
100
AcDbCircle
 10
71.706046269036733
 20
68.432720529033787
 30
0.0
 40
0.5999048608870732
100
AcDbArc
 50
269.99091272245317
 51
0.0090872775463741
  0
LINE
  5
39E
100
AcDbEntity
  8
0
  6
CONTINUOUS
 62
               7
100
AcDbLine
 10
72.305951122378559
 20
68.432720529033787
 30
0.0
 11
72.305951122378559
 21
70.233903680928989
 31
0.0
  0
ARC
  5
39F
100
AcDbEntity
  8
0
  6
CONTINUOUS
 62
               7
100
AcDbCircle
 10
71.707039127615587
 20
70.233903680928989
 30
0.0
 40
0.5989129830170392
100
AcDbArc
 50
359.89591452477219
 51
90.104085475226924
  0
LINE
  5
3A0
100
AcDbEntity
  8
0
  6
CONTINUOUS
 62
               7
100
AcDbLine
 10
71.705951122378593
 20
67.682815675691984
 30
0.0
 11
71.705951122378593
 21
70.982815675691981
 31
0.0
  0
LINE
  5
3A1
100
AcDbEntity
  8
0
  6
CENTER
 62
               2
100
AcDbLine
 10
45.505951127017454
 20
62.832815672433895
 30
0.0
 11
45.505951127017454
 21
74.832815672433895
 31
0.0
  0
LINE
  5
3A2
100
AcDbEntity
  8
0
  6
CONTINUOUS
 62
               7
100
AcDbLine
 10
72.705951122378622
 20
32.132815671422634
 30
0.0
 11
54.705951122378622
 21
32.132815671422662
 31
0.0
  0
LINE
  5
3A3
100
AcDbEntity
  8
0
  6
CENTER
 62
               2
100
AcDbLine
 10
34.505951136086424
 20
78.132815865191375
 30
0.0
 11
39.505951136086452
 21
78.132815865191375
 31
0.0
  0
LINE
  5
3A4
100
AcDbEntity
  8
0
  6
CENTER
 62
               2
100
AcDbLine
 10
34.505951136086424
 20
43.132815479676495
 30
0.0
 11
39.505951136086452
 21
43.132815479676495
 31
0.0
  0
LINE
  5
3A5
100
AcDbEntity
  8
0
  6
PHANTOM
 62
             200
100
AcDbLine
 10
134.87259943374619
 20
11.132815667153423
 30
0.0
 11
134.87259943374619
 21
13.132815667153423
 31
0.0
  0
LINE
  5
3A6
100
AcDbEntity
  8
0
  6
PHANTOM
 62
             200
100
AcDbLine
 10
137.87259943374619
 20
11.132815667153423
 30
0.0
 11
137.87259943374619
 21
13.132815667153423
 31
0.0
  0
LINE
  5
3A7
100
AcDbEntity
  8
0
  6
PHANTOM
 62
             200
100
AcDbLine
 10
134.87259943374619
 20
11.132815667153423
 30
0.0
 11
137.87259943374619
 21
11.132815667153423
 31
0.0
  0
LINE
  5
3A8
100
AcDbEntity
  8
0
  6
CONTINUOUS
 62
             200
100
AcDbLine
 10
132.62259943374619
 20
-14.387184332846587
 30
0.0
 11
140.12259943374619
 21
-12.377184332846596
 31
0.0
  0
LINE
  5
3A9
100
AcDbEntity
  8
0
  6
CONTINUOUS
 62
             200
100
AcDbLine
 10
132.62259943374619
 20
-13.347184332846595
 30
0.0
 11
140.12259943374619
 21
-11.337184332846576
 31
0.0
  0
LINE
  5
3AA
100
AcDbEntity
  8
0
  6
CONTINUOUS
 62
               4
100
AcDbLine
 10
132.62259943374619
 20
-3.7671843371160634
 30
0.0
 11
131.87261774429305
 21
-3.7671843371160634
 31
0.0
  0
LINE
  5
3AB
100
AcDbEntity
  8
0
  6
CONTINUOUS
 62
               4
100
AcDbLine
 10
141.37261774429305
 20
-2.2671843371160634
 30
0.0
 11
140.12259943374619
 21
-2.2671843371160634
 31
0.0
  0
LINE
  5
3AC
100
AcDbEntity
  8
0
  6
CONTINUOUS
 62
               4
100
AcDbLine
 10
141.37261774429305
 20
-3.8671843371160861
 30
0.0
 11
140.12259943374619
 21
-3.8671843371160861
 31
0.0
  0
LINE
  5
3AD
100
AcDbEntity
  8
0
  6
CONTINUOUS
 62
               4
100
AcDbLine
 10
141.37261774429305
 20
-3.2671843371160634
 30
0.0
 11
140.12259943374619
 21
-3.2671843371160634
 31
0.0
  0
LINE
  5
3AE
100
AcDbEntity
  8
0
  6
CONTINUOUS
 62
               4
100
AcDbLine
 10
131.37261774429305
 20
-3.8671843371160861
 30
0.0
 11
131.37261774429305
 21
18.632815662883914
 31
0.0
  0
LINE
  5
3AF
100
AcDbEntity
  8
0
  6
CONTINUOUS
 62
               4
100
AcDbLine
 10
131.37259943374619
 20
-0.8671843328465769
 30
0.0
 11
131.87259943374619
 21
-0.8671843328465769
 31
0.0
  0
LINE
  5
3B0
100
AcDbEntity
  8
0
  6
CONTINUOUS
 62
               4
100
AcDbLine
 10
131.87259943374619
 20
-0.8671843328465769
 30
0.0
 11
133.62259943374619
 21
-0.8671843328465769
 31
0.0
  0
LINE
  5
3B1
100
AcDbEntity
  8
0
  6
CONTINUOUS
 62
               4
100
AcDbLine
 10
140.87259943374619
 20
-0.8671843328465769
 30
0.0
 11
141.37259943374619
 21
-0.8671843328465769
 31
0.0
  0
LINE
  5
3B2
100
AcDbEntity
  8
0
  6
CONTINUOUS
 62
               4
100
AcDbLine
 10
133.62259943374619
 20
7.1328156671534231
 30
0.0
 11
139.12259943374619
 21
7.1328156671534231
 31
0.0
  0
LINE
  5
3B3
100
AcDbEntity
  8
0
  6
CONTINUOUS
 62
               4
100
AcDbLine
 10
139.12259943374619
 20
-0.8671843328465769
 30
0.0
 11
140.87259943374619
 21
-0.8671843328465769
 31
0.0
  0
LINE
  5
3B4
100
AcDbEntity
  8
0
  6
CONTINUOUS
 62
               4
100
AcDbLine
 10
138.27259943374617
 20
-16.360113605780043
 30
0.0
 11
138.27259943374617
 21
-12.867184332846577
 31
0.0
  0
LINE
  5
3B5
100
AcDbEntity
  8
0
  6
CONTINUOUS
 62
               4
100
AcDbLine
 10
136.97259943374615
 20
-16.360113605780043
 30
0.0
 11
136.97259943374615
 21
-13.2171843328466
 31
0.0
  0
LINE
  5
3B6
100
AcDbEntity
  8
0
  6
CONTINUOUS
 62
               4
100
AcDbLine
 10
135.37259943374619
 20
-19.860113603780064
 30
0.0
 11
135.37259943374619
 21
-16.360113605780043
 31
0.0
  0
LINE
  5
3B7
100
AcDbEntity
  8
0
  6
CONTINUOUS
 62
               4
100
AcDbLine
 10
134.87259943374619
 20
-19.860113603780064
 30
0.0
 11
134.87259943374619
 21
-16.360113605780043
 31
0.0
  0
LINE
  5
3B8
100
AcDbEntity
  8
0
  6
CONTINUOUS
 62
               4
100
AcDbLine
 10
138.27259943374617
 20
-11.837184332846576
 30
0.0
 11
138.27259943374617
 21
-8.8671843328465769
 31
0.0
  0
LINE
  5
3B9
100
AcDbEntity
  8
0
  6
CONTINUOUS
 62
               4
100
AcDbLine
 10
136.97259943374615
 20
-12.187184332846599
 30
0.0
 11
136.97259943374615
 21
-8.8671843328465769
 31
0.0
  0
LINE
  5
3BA
100
AcDbEntity
  8
0
  6
CONTINUOUS
 62
               4
100
AcDbLine
 10
134.47259943374615
 20
-12.857184332846586
 30
0.0
 11
134.47259943374615
 21
-8.8671843328465769
 31
0.0
  0
LINE
  5
3BB
100
AcDbEntity
  8
0
  6
CONTINUOUS
 62
               4
100
AcDbLine
 10
135.77259943374617
 20
-16.360113605780043
 30
0.0
 11
135.77259943374617
 21
-13.537184332846593
 31
0.0
  0
LINE
  5
3BC
100
AcDbEntity
  8
0
  6
CONTINUOUS
 62
               4
100
AcDbLine
 10
134.47259943374615
 20
-16.360113605780043
 30
0.0
 11
134.47259943374615
 21
-13.887184332846587
 31
0.0
  0
LINE
  5
3BD
100
AcDbEntity
  8
0
  6
CONTINUOUS
 62
               4
100
AcDbLine
 10
137.87259943374619
 20
-19.860113603780064
 30
0.0
 11
137.87259943374619
 21
-16.360113605780043
 31
0.0
  0
LINE
  5
3BE
100
AcDbEntity
  8
0
  6
CONTINUOUS
 62
               4
100
AcDbLine
 10
137.37259943374619
 20
-19.860113603780064
 30
0.0
 11
137.37259943374619
 21
-16.360113605780043
 31
0.0
  0
LINE
  5
3BF
100
AcDbEntity
  8
0
  6
CONTINUOUS
 62
               4
100
AcDbLine
 10
135.77259943374617
 20
-12.507184332846592
 30
0.0
 11
135.77259943374617
 21
-8.8671843328465769
 31
0.0
  0
LINE
  5
3C0
100
AcDbEntity
  8
0
  6
CONTINUOUS
 62
               4
100
AcDbLine
 10
134.47259943374615
 20
-16.360113605780043
 30
0.0
 11
135.77259943374617
 21
-16.360113605780043
 31
0.0
  0
LINE
  5
3C1
100
AcDbEntity
  8
0
  6
CONTINUOUS
 62
               4
100
AcDbLine
 10
136.97259943374615
 20
-16.360113605780043
 30
0.0
 11
138.27259943374617
 21
-16.360113605780043
 31
0.0
  0
ARC
  5
3C2
100
AcDbEntity
  8
0
  6
CONTINUOUS
 62
               4
100
AcDbCircle
 10
131.87261774429305
 20
-3.2671843371160634
 30
0.0
 40
0.5
100
AcDbArc
 50
179.99999999999963
 51
269.99999999999937
  0
ARC
  5
3C3
100
AcDbEntity
  8
0
  6
CONTINUOUS
 62
               4
100
AcDbCircle
 10
140.57671289095123
 20
-3.2672794837742316
 30
0.0
 40
0.5999048608870732
100
AcDbArc
 50
269.99091272245386
 51
0.0090872775462214
  0
LINE
  5
3C4
100
AcDbEntity
  8
0
  6
CONTINUOUS
 62
               4
100
AcDbLine
 10
131.37261777338225
 20
-3.8671843371160861
 30
0.0
 11
132.62259943374619
 21
-3.8671843371160861
 31
0.0
  0
LINE
  5
3C5
100
AcDbEntity
  8
0
  6
CONTINUOUS
 62
               4
100
AcDbLine
 10
141.37261774429305
 20
-3.867184332846719
 30
0.0
 11
141.37261774429305
 21
18.632815667153281
 31
0.0
  0
LINE
  5
3C6
100
AcDbEntity
  8
0
  6
CONTINUOUS
 62
               4
100
AcDbLine
 10
134.87259943374619
 20
-19.860113603780064
 30
0.0
 11
135.37259943374619
 21
-19.860113603780064
 31
0.0
  0
LINE
  5
3C7
100
AcDbEntity
  8
0
  6
CONTINUOUS
 62
               4
100
AcDbLine
 10
137.37259943374619
 20
-19.860113603780064
 30
0.0
 11
137.87259943374619
 21
-19.860113603780064
 31
0.0
  0
ARC
  5
3C8
100
AcDbEntity
  8
0
  6
CONTINUOUS
 62
               4
100
AcDbCircle
 10
132.31061774429304
 20
-0.3671843328465769
 30
0.0
 40
0.5
100
AcDbArc
 50
179.99999999999963
 51
269.99999999999937
  0
ARC
  5
3C9
100
AcDbEntity
  8
0
  6
CONTINUOUS
 62
               4
100
AcDbCircle
 10
140.43461774429306
 20
-0.3671843328465769
 30
0.0
 40
0.5
100
AcDbArc
 50
270.00000000000023
 51
0.0
  0
ARC
  5
3CA
100
AcDbEntity
  8
0
  6
CONTINUOUS
 62
               4
100
AcDbCircle
 10
140.43461774429306
 20
15.805958508292477
 30
0.0
 40
0.5
100
AcDbArc
 50
0.0
 51
89.999999999999815
  0
ARC
  5
3CB
100
AcDbEntity
  8
0
  6
CONTINUOUS
 62
               4
100
AcDbCircle
 10
132.31061774429304
 20
15.805958508292477
 30
0.0
 40
0.5
100
AcDbArc
 50
89.999999999999815
 51
179.99999999999963
  0
LINE
  5
3CC
100
AcDbEntity
  8
0
  6
CONTINUOUS
 62
               4
100
AcDbLine
 10
131.81061774429304
 20
-0.3671843328465769
 30
0.0
 11
131.81061774429304
 21
15.805958508292477
 31
0.0
  0
LINE
  5
3CD
100
AcDbEntity
  8
0
  6
CONTINUOUS
 62
               4
100
AcDbLine
 10
140.93461774429306
 20
-0.3671843328465769
 30
0.0
 11
140.93461774429306
 21
15.805958508292477
 31
0.0
  0
LINE
  5
3CE
100
AcDbEntity
  8
0
  6
CONTINUOUS
 62
               4
100
AcDbLine
 10
132.31061774429304
 20
16.305958508292477
 30
0.0
 11
140.43461774429306
 21
16.305958508292477
 31
0.0
  0
ARC
  5
3CF
100
AcDbEntity
  8
0
  6
CONTINUOUS
 62
               4
100
AcDbCircle
 10
140.87258875257288
 20
18.132804985980115
 30
0.0
 40
0.5000106812873828
100
AcDbArc
 50
0.0012239461537743
 51
89.998776053845916
  0
ARC
  5
3D0
100
AcDbEntity
  8
0
  6
CONTINUOUS
 62
               4
100
AcDbCircle
 10
131.87259485622354
 20
18.13282024467604
 30
0.0
 40
0.4999954224983215
100
AcDbArc
 50
89.999475449742633
 51
180.00052455025664
  0
ARC
  5
3D1
100
AcDbEntity
  8
0
  6
CONTINUOUS
 62
               4
100
AcDbCircle
 10
140.87259485599537
 20
-0.3671797550957905
 30
0.0
 40
0.5000045777717621
100
AcDbArc
 50
270.00052456679839
 51
359.99947543319996
  0
ARC
  5
3D2
100
AcDbEntity
  8
0
  6
CONTINUOUS
 62
               4
100
AcDbCircle
 10
131.87258875261477
 20
-0.3671950139779625
 30
0.0
 40
0.4999893189827007
100
AcDbArc
 50
179.99877600635489
 51
270.00122399364443
  0
LINE
  5
3D3
100
AcDbEntity
  8
0
  6
CONTINUOUS
 62
               4
100
AcDbLine
 10
132.62259943374619
 20
-8.8671843328465769
 30
0.0
 11
140.12259943374619
 21
-8.8671843328465769
 31
0.0
  0
LINE
  5
3D4
100
AcDbEntity
  8
0
  6
CONTINUOUS
 62
               4
100
AcDbLine
 10
140.12259943374619
 20
-8.8671843328465769
 30
0.0
 11
140.12259943374619
 21
-0.8671843328465769
 31
0.0
  0
LINE
  5
3D5
100
AcDbEntity
  8
0
  6
CONTINUOUS
 62
               4
100
AcDbLine
 10
139.12259943374619
 20
-8.8671843328465769
 30
0.0
 11
139.12259943374619
 21
7.1328156671534231
 31
0.0
  0
LINE
  5
3D6
100
AcDbEntity
  8
0
  6
CONTINUOUS
 62
               4
100
AcDbLine
 10
133.62259943374619
 20
-7.3671843328465769
 30
0.0
 11
139.12259943374619
 21
-7.3671843328465769
 31
0.0
  0
LINE
  5
3D7
100
AcDbEntity
  8
0
  6
CONTINUOUS
 62
               4
100
AcDbLine
 10
132.62259943374619
 20
-8.8671843328465769
 30
0.0
 11
132.62259943374619
 21
-0.8671843328465769
 31
0.0
  0
LINE
  5
3D8
100
AcDbEntity
  8
0
  6
CONTINUOUS
 62
               4
100
AcDbLine
 10
133.62259943374619
 20
-8.8671843328465769
 30
0.0
 11
133.62259943374619
 21
7.1328156671534231
 31
0.0
  0
LINE
  5
3D9
100
AcDbEntity
  8
0
  6
PHANTOM
 62
             200
100
AcDbLine
 10
134.87259943374619
 20
101.13281567569184
 30
0.0
 11
137.87259943374619
 21
101.13281567569184
 31
0.0
  0
LINE
  5
3DA
100
AcDbEntity
  8
0
  6
PHANTOM
 62
             200
100
AcDbLine
 10
134.87259943374619
 20
99.132815675691845
 30
0.0
 11
137.87259943374619
 21
99.132815675691845
 31
0.0
  0
LINE
  5
3DB
100
AcDbEntity
  8
0
  6
PHANTOM
 62
             200
100
AcDbLine
 10
134.87259943374619
 20
101.13281567569184
 30
0.0
 11
134.87259943374619
 21
99.132815675691845
 31
0.0
  0
LINE
  5
3DC
100
AcDbEntity
  8
0
  6
PHANTOM
 62
             200
100
AcDbLine
 10
137.87259943374619
 20
101.13281567569184
 30
0.0
 11
137.87259943374619
 21
99.132815675691845
 31
0.0
  0
LINE
  5
3DD
100
AcDbEntity
  8
0
  6
CONTINUOUS
 62
             200
100
AcDbLine
 10
132.62259943374619
 20
126.65281567569185
 30
0.0
 11
140.12259943374619
 21
124.64281567569186
 31
0.0
  0
LINE
  5
3DE
100
AcDbEntity
  8
0
  6
CONTINUOUS
 62
             200
100
AcDbLine
 10
132.62259943374619
 20
125.61281567569186
 30
0.0
 11
140.12259943374619
 21
123.60281567569184
 31
0.0
  0
LINE
  5
3DF
100
AcDbEntity
  8
0
  6
CONTINUOUS
 62
               4
100
AcDbLine
 10
132.31061774429304
 20
95.959672834552791
 30
0.0
 11
140.43461774429306
 21
95.959672834552791
 31
0.0
  0
LINE
  5
3E0
100
AcDbEntity
  8
0
  6
CONTINUOUS
 62
               4
100
AcDbLine
 10
140.93461774429306
 20
112.63281567569184
 30
0.0
 11
140.93461774429306
 21
96.459672834552791
 31
0.0
  0
LINE
  5
3E1
100
AcDbEntity
  8
0
  6
CONTINUOUS
 62
               4
100
AcDbLine
 10
131.81061774429304
 20
112.63281567569184
 30
0.0
 11
131.81061774429304
 21
96.459672834552791
 31
0.0
  0
ARC
  5
3E2
100
AcDbEntity
  8
0
  6
CONTINUOUS
 62
               4
100
AcDbCircle
 10
132.31061774429304
 20
96.459672834552791
 30
0.0
 40
0.5
100
AcDbArc
 50
179.99999999999963
 51
269.99999999999937
  0
ARC
  5
3E3
100
AcDbEntity
  8
0
  6
CONTINUOUS
 62
               4
100
AcDbCircle
 10
140.43461774429306
 20
96.459672834552791
 30
0.0
 40
0.5
100
AcDbArc
 50
270.00000000000023
 51
0.0
  0
ARC
  5
3E4
100
AcDbEntity
  8
0
  6
CONTINUOUS
 62
               4
100
AcDbCircle
 10
140.43461774429306
 20
112.63281567569184
 30
0.0
 40
0.5
100
AcDbArc
 50
0.0
 51
89.999999999999815
  0
ARC
  5
3E5
100
AcDbEntity
  8
0
  6
CONTINUOUS
 62
               4
100
AcDbCircle
 10
132.31061774429304
 20
112.63281567569184
 30
0.0
 40
0.5
100
AcDbArc
 50
89.999999999999815
 51
179.99999999999963
  0
LINE
  5
3E6
100
AcDbEntity
  8
0
  6
CONTINUOUS
 62
               4
100
AcDbLine
 10
137.37259943374619
 20
132.12574494662533
 30
0.0
 11
137.87259943374619
 21
132.12574494662533
 31
0.0
  0
LINE
  5
3E7
100
AcDbEntity
  8
0
  6
CONTINUOUS
 62
               4
100
AcDbLine
 10
134.87259943374619
 20
132.12574494662533
 30
0.0
 11
135.37259943374619
 21
132.12574494662533
 31
0.0
  0
ARC
  5
3E8
100
AcDbEntity
  8
0
  6
CONTINUOUS
 62
               4
100
AcDbCircle
 10
140.87291459215726
 20
94.132518827827781
 30
0.0
 40
0.4997032403068001
100
AcDbArc
 50
269.96596353714654
 51
0.0340364628527164
  0
LINE
  5
3E9
100
AcDbEntity
  8
0
  6
CONTINUOUS
 62
               4
100
AcDbLine
 10
141.37261774429305
 20
116.13281567569199
 30
0.0
 11
141.37261774429305
 21
93.632815675691987
 31
0.0
  0
LINE
  5
3EA
100
AcDbEntity
  8
0
  6
CONTINUOUS
 62
               4
100
AcDbLine
 10
131.37261777338225
 20
116.13281567996135
 30
0.0
 11
132.62259943374619
 21
116.13281567996135
 31
0.0
  0
ARC
  5
3EB
100
AcDbEntity
  8
0
  6
CONTINUOUS
 62
               4
100
AcDbCircle
 10
140.57671289095123
 20
115.5329108266195
 30
0.0
 40
0.5999048608870732
100
AcDbArc
 50
359.99091272245295
 51
90.009087277546172
  0
ARC
  5
3EC
100
AcDbEntity
  8
0
  6
CONTINUOUS
 62
               4
100
AcDbCircle
 10
131.87261774429305
 20
115.53281567996133
 30
0.0
 40
0.5
100
AcDbArc
 50
89.999999999999815
 51
179.99999999999963
  0
LINE
  5
3ED
100
AcDbEntity
  8
0
  6
CONTINUOUS
 62
               4
100
AcDbLine
 10
136.97259943374615
 20
128.62574494862531
 30
0.0
 11
138.27259943374617
 21
128.62574494862531
 31
0.0
  0
LINE
  5
3EE
100
AcDbEntity
  8
0
  6
CONTINUOUS
 62
               4
100
AcDbLine
 10
134.47259943374615
 20
128.62574494862531
 30
0.0
 11
135.77259943374617
 21
128.62574494862531
 31
0.0
  0
LINE
  5
3EF
100
AcDbEntity
  8
0
  6
CONTINUOUS
 62
               4
100
AcDbLine
 10
135.77259943374617
 20
124.77281567569186
 30
0.0
 11
135.77259943374617
 21
121.13281567569184
 31
0.0
  0
LINE
  5
3F0
100
AcDbEntity
  8
0
  6
CONTINUOUS
 62
               4
100
AcDbLine
 10
137.37259943374619
 20
132.12574494662533
 30
0.0
 11
137.37259943374619
 21
128.62574494862531
 31
0.0
  0
LINE
  5
3F1
100
AcDbEntity
  8
0
  6
CONTINUOUS
 62
               4
100
AcDbLine
 10
137.87259943374619
 20
132.12574494662533
 30
0.0
 11
137.87259943374619
 21
128.62574494862531
 31
0.0
  0
LINE
  5
3F2
100
AcDbEntity
  8
0
  6
CONTINUOUS
 62
               4
100
AcDbLine
 10
134.47259943374615
 20
128.62574494862531
 30
0.0
 11
134.47259943374615
 21
126.15281567569185
 31
0.0
  0
LINE
  5
3F3
100
AcDbEntity
  8
0
  6
CONTINUOUS
 62
               4
100
AcDbLine
 10
135.77259943374617
 20
128.62574494862531
 30
0.0
 11
135.77259943374617
 21
125.80281567569186
 31
0.0
  0
LINE
  5
3F4
100
AcDbEntity
  8
0
  6
CONTINUOUS
 62
               4
100
AcDbLine
 10
134.47259943374615
 20
125.12281567569185
 30
0.0
 11
134.47259943374615
 21
121.13281567569184
 31
0.0
  0
LINE
  5
3F5
100
AcDbEntity
  8
0
  6
CONTINUOUS
 62
               4
100
AcDbLine
 10
136.97259943374615
 20
124.45281567569187
 30
0.0
 11
136.97259943374615
 21
121.13281567569184
 31
0.0
  0
LINE
  5
3F6
100
AcDbEntity
  8
0
  6
CONTINUOUS
 62
               4
100
AcDbLine
 10
138.27259943374617
 20
124.10281567569184
 30
0.0
 11
138.27259943374617
 21
121.13281567569184
 31
0.0
  0
LINE
  5
3F7
100
AcDbEntity
  8
0
  6
CONTINUOUS
 62
               4
100
AcDbLine
 10
134.87259943374619
 20
132.12574494662533
 30
0.0
 11
134.87259943374619
 21
128.62574494862531
 31
0.0
  0
LINE
  5
3F8
100
AcDbEntity
  8
0
  6
CONTINUOUS
 62
               4
100
AcDbLine
 10
135.37259943374619
 20
132.12574494662533
 30
0.0
 11
135.37259943374619
 21
128.62574494862531
 31
0.0
  0
LINE
  5
3F9
100
AcDbEntity
  8
0
  6
CONTINUOUS
 62
               4
100
AcDbLine
 10
136.97259943374615
 20
128.62574494862531
 30
0.0
 11
136.97259943374615
 21
125.48281567569187
 31
0.0
  0
LINE
  5
3FA
100
AcDbEntity
  8
0
  6
CONTINUOUS
 62
               4
100
AcDbLine
 10
138.27259943374617
 20
128.62574494862531
 30
0.0
 11
138.27259943374617
 21
125.13281567569184
 31
0.0
  0
ARC
  5
3FB
100
AcDbEntity
  8
0
  6
CONTINUOUS
 62
               4
100
AcDbCircle
 10
131.87259485622354
 20
94.132811098169228
 30
0.0
 40
0.4999954224983215
100
AcDbArc
 50
179.99947544974256
 51
270.00052455025656
  0
ARC
  5
3FC
100
AcDbEntity
  8
0
  6
CONTINUOUS
 62
               4
100
AcDbCircle
 10
140.87259485599537
 20
112.63281109794106
 30
0.0
 40
0.5000045777717621
100
AcDbArc
 50
0.0005245667992071
 51
89.9994754332008
  0
ARC
  5
3FD
100
AcDbEntity
  8
0
  6
CONTINUOUS
 62
               4
100
AcDbCircle
 10
131.87258875261477
 20
112.63282635682323
 30
0.0
 40
0.4999893189827007
100
AcDbArc
 50
89.998776006354774
 51
180.00122399364432
  0
LINE
  5
3FE
100
AcDbEntity
  8
0
  6
CONTINUOUS
 62
               4
100
AcDbLine
 10
132.62259943374619
 20
121.13281567569184
 30
0.0
 11
140.12259943374619
 21
121.13281567569184
 31
0.0
  0
LINE
  5
3FF
100
AcDbEntity
  8
0
  6
CONTINUOUS
 62
               4
100
AcDbLine
 10
140.12259943374619
 20
121.13281567569184
 30
0.0
 11
140.12259943374619
 21
113.13281567569184
 31
0.0
  0
LINE
  5
400
100
AcDbEntity
  8
0
  6
CONTINUOUS
 62
               4
100
AcDbLine
 10
139.12259943374619
 20
121.13281567569184
 30
0.0
 11
139.12259943374619
 21
105.13281567569184
 31
0.0
  0
LINE
  5
401
100
AcDbEntity
  8
0
  6
CONTINUOUS
 62
               4
100
AcDbLine
 10
133.62259943374619
 20
119.63281567569184
 30
0.0
 11
139.12259943374619
 21
119.63281567569184
 31
0.0
  0
LINE
  5
402
100
AcDbEntity
  8
0
  6
CONTINUOUS
 62
               4
100
AcDbLine
 10
132.62259943374619
 20
121.13281567569184
 30
0.0
 11
132.62259943374619
 21
113.13281567569184
 31
0.0
  0
LINE
  5
403
100
AcDbEntity
  8
0
  6
CONTINUOUS
 62
               4
100
AcDbLine
 10
133.62259943374619
 20
121.13281567569184
 30
0.0
 11
133.62259943374619
 21
105.13281567569184
 31
0.0
  0
LINE
  5
404
100
AcDbEntity
  8
0
  6
CONTINUOUS
 62
               4
100
AcDbLine
 10
139.12259943374619
 20
113.13281567569184
 30
0.0
 11
140.87259943374619
 21
113.13281567569184
 31
0.0
  0
LINE
  5
405
100
AcDbEntity
  8
0
  6
CONTINUOUS
 62
               4
100
AcDbLine
 10
133.62259943374619
 20
105.13281567569184
 30
0.0
 11
139.12259943374619
 21
105.13281567569184
 31
0.0
  0
LINE
  5
406
100
AcDbEntity
  8
0
  6
CONTINUOUS
 62
               4
100
AcDbLine
 10
140.87259943374619
 20
113.13281567569184
 30
0.0
 11
141.37259943374619
 21
113.13281567569184
 31
0.0
  0
LINE
  5
407
100
AcDbEntity
  8
0
  6
CONTINUOUS
 62
               4
100
AcDbLine
 10
131.87259943374619
 20
113.13281567569184
 30
0.0
 11
133.62259943374619
 21
113.13281567569184
 31
0.0
  0
LINE
  5
408
100
AcDbEntity
  8
0
  6
CONTINUOUS
 62
               4
100
AcDbLine
 10
131.37259943374619
 20
113.13281567569184
 30
0.0
 11
131.87259943374619
 21
113.13281567569184
 31
0.0
  0
LINE
  5
409
100
AcDbEntity
  8
0
  6
CONTINUOUS
 62
               4
100
AcDbLine
 10
131.37261774429305
 20
116.13281567996135
 30
0.0
 11
131.37261774429305
 21
93.632815679961354
 31
0.0
  0
LINE
  5
40A
100
AcDbEntity
  8
0
  6
CONTINUOUS
 62
               4
100
AcDbLine
 10
141.37261774429305
 20
115.53281567996133
 30
0.0
 11
140.12259943374619
 21
115.53281567996133
 31
0.0
  0
LINE
  5
40B
100
AcDbEntity
  8
0
  6
CONTINUOUS
 62
               4
100
AcDbLine
 10
141.37261774429305
 20
116.13281567996135
 30
0.0
 11
140.12259943374619
 21
116.13281567996135
 31
0.0
  0
LINE
  5
40C
100
AcDbEntity
  8
0
  6
CONTINUOUS
 62
               4
100
AcDbLine
 10
141.37261774429305
 20
114.53281567996133
 30
0.0
 11
140.12259943374619
 21
114.53281567996133
 31
0.0
  0
LINE
  5
40D
100
AcDbEntity
  8
0
  6
CONTINUOUS
 62
               4
100
AcDbLine
 10
132.62259943374619
 20
116.03281567996133
 30
0.0
 11
131.87261774429305
 21
116.03281567996133
 31
0.0
  0
LINE
  5
40E
100
AcDbEntity
  8
0
  6
CONTINUOUS
 62
               7
100
AcDbLine
 10
131.3226177442931
 20
18.632815667153238
 30
0.0
 11
141.42261774429295
 21
18.63281566715321
 31
0.0
  0
LINE
  5
40F
100
AcDbEntity
  8
0
  6
CONTINUOUS
 62
               7
100
AcDbLine
 10
141.42261774429295
 20
18.332815667153199
 30
0.0
 11
141.62261774429305
 21
18.13281566715321
 31
0.0
  0
LINE
  5
410
100
AcDbEntity
  8
0
  6
CONTINUOUS
 62
               7
100
AcDbLine
 10
131.3226177442931
 20
18.332815667153227
 30
0.0
 11
131.12261774429305
 21
18.132815667153238
 31
0.0
  0
LINE
  5
411
100
AcDbEntity
  8
0
  6
CONTINUOUS
 62
               7
100
AcDbLine
 10
131.3226177442931
 20
18.332815667153227
 30
0.0
 11
131.3226177442931
 21
18.632815667153238
 31
0.0
  0
LINE
  5
412
100
AcDbEntity
  8
0
  6
CONTINUOUS
 62
               7
100
AcDbLine
 10
141.42261774429295
 20
18.332815667153199
 30
0.0
 11
141.42261774429295
 21
18.63281566715321
 31
0.0
  0
LINE
  5
413
100
AcDbEntity
  8
0
  6
CONTINUOUS
 62
               7
100
AcDbLine
 10
142.07261774429307
 20
18.13281566715321
 30
0.0
 11
142.37261774429297
 21
18.432815667153221
 31
0.0
  0
LINE
  5
414
100
AcDbEntity
  8
0
  6
CONTINUOUS
 62
               7
100
AcDbLine
 10
130.67261774429298
 20
18.132815667153238
 30
0.0
 11
130.37261774429308
 21
18.432815667153221
 31
0.0
  0
LINE
  5
415
100
AcDbEntity
  8
0
  6
CONTINUOUS
 62
               7
100
AcDbLine
 10
130.67261774429298
 20
18.132815667153238
 30
0.0
 11
131.12261774429305
 21
18.132815667153238
 31
0.0
  0
CIRCLE
  5
416
100
AcDbEntity
  8
0
  6
CONTINUOUS
 62
               7
100
AcDbCircle
 10
136.3728677442931
 20
20.932815667153235
 30
0.0
 40
1.1500000000000001
  0
LINE
  5
417
100
AcDbEntity
  8
0
  6
CONTINUOUS
 62
               7
100
AcDbLine
 10
141.62261774429305
 20
18.13281566715321
 30
0.0
 11
142.07261774429307
 21
18.13281566715321
 31
0.0
  0
LINE
  5
418
100
AcDbEntity
  8
0
  6
CENTER
 62
               2
100
AcDbLine
 10
138.68754788001741
 20
20.93281565356628
 30
0.0
 11
134.1486735916173
 21
20.93281565356628
 31
0.0
  0
CIRCLE
  5
419
100
AcDbEntity
  8
0
  6
CONTINUOUS
 62
               7
100
AcDbCircle
 10
136.37261774429305
 20
20.93281565356628
 30
0.0
 40
1.1000000000000001
  0
CIRCLE
  5
41A
100
AcDbEntity
  8
0
  6
CONTINUOUS
 62
               7
100
AcDbCircle
 10
136.37261774429305
 20
20.93281565356628
 30
0.0
 40
0.75
  0
CIRCLE
  5
41B
100
AcDbEntity
  8
0
  6
CONTINUOUS
 62
               7
100
AcDbCircle
 10
136.37261774429305
 20
20.93281565356628
 30
0.0
 40
1.3999999999999997
  0
LINE
  5
41C
100
AcDbEntity
  8
0
  6
CONTINUOUS
 62
               7
100
AcDbLine
 10
149.47261774429305
 20
37.132815671422634
 30
0.0
 11
142.37261774429302
 21
37.132815671422634
 31
0.0
  0
LINE
  5
41D
100
AcDbEntity
  8
0
  6
CONTINUOUS
 62
               7
100
AcDbLine
 10
131.32261774429304
 20
93.632815675691987
 30
0.0
 11
141.42261774429304
 21
93.632815675691987
 31
0.0
  0
LINE
  5
41E
100
AcDbEntity
  8
0
  6
CONTINUOUS
 62
               7
100
AcDbLine
 10
130.37166925796487
 20
84.132815673445208
 30
0.0
 11
121.27261774722314
 21
84.132815673445208
 31
0.0
  0
CIRCLE
  5
41F
100
AcDbEntity
  8
0
  6
CONTINUOUS
 62
               7
100
AcDbCircle
 10
125.27261774429303
 20
43.132815479676495
 30
0.0
 40
2.25
  0
CIRCLE
  5
420
100
AcDbEntity
  8
0
  6
CONTINUOUS
 62
               7
100
AcDbCircle
 10
125.27261774429303
 20
78.132815865191375
 30
0.0
 40
2.25
  0
LINE
  5
421
100
AcDbEntity
  8
0
  6
CONTINUOUS
 62
               7
100
AcDbLine
 10
121.27261774429303
 20
37.132815671422634
 30
0.0
 11
121.27261774429303
 21
84.132815673445208
 31
0.0
  0
LINE
  5
422
100
AcDbEntity
  8
0
  6
CONTINUOUS
 62
               7
100
AcDbLine
 10
149.47261774429305
 20
37.132815671422634
 30
0.0
 11
149.47261774429305
 21
84.132815673445208
 31
0.0
  0
LINE
  5
423
100
AcDbEntity
  8
0
  6
CENTER
 62
               2
100
AcDbLine
 10
129.77993740498204
 20
43.132815479676495
 30
0.0
 11
120.98806387511695
 21
43.132815479676495
 31
0.0
  0
LINE
  5
424
100
AcDbEntity
  8
0
  6
CENTER
 62
               2
100
AcDbLine
 10
125.27261774429303
 20
39.132815479676495
 30
0.0
 11
125.27261774429303
 21
47.957622095877653
 31
0.0
  0
LINE
  5
425
100
AcDbEntity
  8
0
  6
CENTER
 62
               2
100
AcDbLine
 10
129.77993740498204
 20
78.132815865191375
 30
0.0
 11
120.98806387511695
 21
78.132815865191375
 31
0.0
  0
LINE
  5
426
100
AcDbEntity
  8
0
  6
CENTER
 62
               2
100
AcDbLine
 10
125.27261774429303
 20
82.132815865191361
 30
0.0
 11
125.27261774429303
 21
73.308009248990217
 31
0.0
  0
LINE
  5
427
100
AcDbEntity
  8
0
  6
CONTINUOUS
 62
               7
100
AcDbLine
 10
149.47261774429305
 20
84.132815673445208
 30
0.0
 11
142.37166925796487
 21
84.132815673445208
 31
0.0
  0
LINE
  5
428
100
AcDbEntity
  8
0
  6
CONTINUOUS
 62
               7
100
AcDbLine
 10
142.37261774429302
 20
18.432815667153221
 30
0.0
 11
142.37261774429302
 21
51.032815675691907
 31
0.0
  0
LINE
  5
429
100
AcDbEntity
  8
0
  6
CONTINUOUS
 62
               7
100
AcDbLine
 10
130.372617744293
 20
18.432815667153285
 30
0.0
 11
130.37261774429302
 21
68.432815675692098
 31
0.0
  0
LINE
  5
42A
100
AcDbEntity
  8
0
  6
CONTINUOUS
 62
               7
100
AcDbLine
 10
141.42261774429306
 20
93.932815675691984
 30
0.0
 11
141.62261774429305
 21
94.132815675691987
 31
0.0
  0
LINE
  5
42B
100
AcDbEntity
  8
0
  6
CONTINUOUS
 62
               7
100
AcDbLine
 10
131.32261774429304
 20
93.932815675691984
 30
0.0
 11
131.12261774429305
 21
94.132815675691987
 31
0.0
  0
LINE
  5
42C
100
AcDbEntity
  8
0
  6
CONTINUOUS
 62
               7
100
AcDbLine
 10
131.32261774429304
 20
93.932815675691984
 30
0.0
 11
131.32261774429304
 21
93.632815675691987
 31
0.0
  0
LINE
  5
42D
100
AcDbEntity
  8
0
  6
CONTINUOUS
 62
               7
100
AcDbLine
 10
141.42261774429306
 20
93.932815675691984
 30
0.0
 11
141.42261774429306
 21
93.632815675691987
 31
0.0
  0
LINE
  5
42E
100
AcDbEntity
  8
0
  6
CONTINUOUS
 62
               7
100
AcDbLine
 10
142.07261774429304
 20
94.132815675691987
 30
0.0
 11
142.37261774429305
 21
93.83281567569199
 31
0.0
  0
LINE
  5
42F
100
AcDbEntity
  8
0
  6
CONTINUOUS
 62
               7
100
AcDbLine
 10
130.67261774429304
 20
94.132815675691987
 30
0.0
 11
130.37261774429305
 21
93.83281567569199
 31
0.0
  0
LINE
  5
430
100
AcDbEntity
  8
0
  6
CONTINUOUS
 62
               7
100
AcDbLine
 10
130.67261774429304
 20
94.132815675691987
 30
0.0
 11
131.12261774429305
 21
94.132815675691987
 31
0.0
  0
CIRCLE
  5
431
100
AcDbEntity
  8
0
  6
CONTINUOUS
 62
               7
100
AcDbCircle
 10
136.37286774429305
 20
91.33281567569199
 30
0.0
 40
1.1500000000000001
  0
LINE
  5
432
100
AcDbEntity
  8
0
  6
CONTINUOUS
 62
               7
100
AcDbLine
 10
141.62261774429305
 20
94.132815675691987
 30
0.0
 11
142.07261774429304
 21
94.132815675691987
 31
0.0
  0
LINE
  5
433
100
AcDbEntity
  8
0
  6
CONTINUOUS
 62
               7
100
AcDbLine
 10
130.37261774429305
 20
41.132815675691987
 30
0.0
 11
142.37261774429302
 21
41.132815675691987
 31
0.0
  0
LINE
  5
434
100
AcDbEntity
  8
0
  6
CENTER
 62
               2
100
AcDbLine
 10
138.68754788001741
 20
91.332815689278959
 30
0.0
 11
134.14867359161741
 21
91.332815689278959
 31
0.0
  0
LINE
  5
435
100
AcDbEntity
  8
0
  6
CENTER
 62
               2
100
AcDbLine
 10
136.37261774429305
 20
124.03281537051625
 30
0.0
 11
136.37261774429305
 21
-11.995249596654148
 31
0.0
  0
CIRCLE
  5
436
100
AcDbEntity
  8
0
  6
CONTINUOUS
 62
               7
100
AcDbCircle
 10
136.37261774429305
 20
91.332815689278959
 30
0.0
 40
1.1000000000000001
  0
CIRCLE
  5
437
100
AcDbEntity
  8
0
  6
CONTINUOUS
 62
               7
100
AcDbCircle
 10
136.37261774429305
 20
91.332815689278959
 30
0.0
 40
0.75
  0
CIRCLE
  5
438
100
AcDbEntity
  8
0
  6
CONTINUOUS
 62
               7
100
AcDbCircle
 10
136.37261774429305
 20
91.332815689278959
 30
0.0
 40
1.3999999999999997
  0
LINE
  5
439
100
AcDbEntity
  8
0
  6
CONTINUOUS
 62
               7
100
AcDbLine
 10
130.47261774074099
 20
80.132815675692001
 30
0.0
 11
130.37261774429302
 21
80.032815679244067
 31
0.0
  0
LINE
  5
43A
100
AcDbEntity
  8
0
  6
CONTINUOUS
 62
               7
100
AcDbLine
 10
142.37261774429305
 20
80.032815675692007
 30
0.0
 11
142.27261774429303
 21
80.132815675692001
 31
0.0
  0
LINE
  5
43B
100
AcDbEntity
  8
0
  6
CONTINUOUS
 62
               7
100
AcDbLine
 10
130.37261774429302
 20
80.132815675692001
 30
0.0
 11
142.37261774429302
 21
80.132815675692001
 31
0.0
  0
LINE
  5
43C
100
AcDbEntity
  8
0
  6
CONTINUOUS
 62
               7
100
AcDbLine
 10
131.57261774429304
 20
67.682815675691984
 30
0.0
 11
130.37261774429305
 21
67.682815675691984
 31
0.0
  0
LINE
  5
43D
100
AcDbEntity
  8
0
  6
CONTINUOUS
 62
               7
100
AcDbLine
 10
131.57261774429304
 20
70.982815675691995
 30
0.0
 11
130.37261774429305
 21
70.982815675691995
 31
0.0
  0
ARC
  5
43E
100
AcDbEntity
  8
0
  6
CONTINUOUS
 62
               7
100
AcDbCircle
 10
131.57261774429304
 20
69.33281567569199
 30
0.0
 40
1.6499999999999999
100
AcDbArc
 50
269.99999999999937
 51
89.999999999999801
  0
LINE
  5
43F
100
AcDbEntity
  8
0
  6
CONTINUOUS
 62
               7
100
AcDbLine
 10
141.17261774429304
 20
50.282815675691992
 30
0.0
 11
142.37261774429302
 21
50.282815675691992
 31
0.0
  0
LINE
  5
440
100
AcDbEntity
  8
0
  6
CONTINUOUS
 62
               7
100
AcDbLine
 10
141.17261774429304
 20
53.58281567569199
 30
0.0
 11
142.37261774429302
 21
53.58281567569199
 31
0.0
  0
ARC
  5
441
100
AcDbEntity
  8
0
  6
CONTINUOUS
 62
               7
100
AcDbCircle
 10
141.17261774429304
 20
51.932815675691998
 30
0.0
 40
1.6499999999999999
100
AcDbArc
 50
89.999999999999815
 51
269.99999999999937
  0
LINE
  5
442
100
AcDbEntity
  8
0
  6
CONTINUOUS
 62
               7
100
AcDbLine
 10
130.372617744293
 20
37.132815671422634
 30
0.0
 11
121.27261774429303
 21
37.132815671422634
 31
0.0
  0
LINE
  5
443
100
AcDbEntity
  8
0
  6
CONTINUOUS
 62
               7
100
AcDbLine
 10
130.372617744293
 20
32.132815675691987
 30
0.0
 11
142.37261774429302
 21
32.132815675691987
 31
0.0
  0
LINE
  5
444
100
AcDbEntity
  8
0
  6
CONTINUOUS
 62
               7
100
AcDbLine
 10
130.37261774429302
 20
70.23281567569191
 30
0.0
 11
130.37261774429302
 21
93.83281567569199
 31
0.0
  0
LINE
  5
445
100
AcDbEntity
  8
0
  6
CONTINUOUS
 62
               7
100
AcDbLine
 10
142.37261774429302
 20
52.832815675692089
 30
0.0
 11
142.37261774429302
 21
93.83281567569199
 31
0.0
  0
LINE
  5
446
100
AcDbEntity
  8
0
  6
CONTINUOUS
 62
               7
100
AcDbLine
 10
130.86551096310654
 20
68.625708894505451
 30
0.0
 11
132.27972452547959
 21
70.039922456878543
 31
0.0
  0
LINE
  5
447
100
AcDbEntity
  8
0
  6
CONTINUOUS
 62
               7
100
AcDbLine
 10
132.27972452547959
 20
68.625708894505436
 30
0.0
 11
130.86551096310654
 21
70.039922456878543
 31
0.0
  0
CIRCLE
  5
448
100
AcDbEntity
  8
0
  6
CONTINUOUS
 62
               7
100
AcDbCircle
 10
131.5726177442931
 20
69.332815675692004
 30
0.0
 40
1.5
  0
LINE
  5
449
100
AcDbEntity
  8
0
  6
CONTINUOUS
 62
               7
100
AcDbLine
 10
140.46551096310654
 20
51.225708894505452
 30
0.0
 11
141.87972452547959
 21
52.639922456878537
 31
0.0
  0
LINE
  5
44A
100
AcDbEntity
  8
0
  6
CONTINUOUS
 62
               7
100
AcDbLine
 10
141.87972452547959
 20
51.225708894505445
 30
0.0
 11
140.46551096310654
 21
52.639922456878544
 31
0.0
  0
CIRCLE
  5
44B
100
AcDbEntity
  8
0
  6
CONTINUOUS
 62
               7
100
AcDbCircle
 10
141.17261774429309
 20
51.932815675691998
 30
0.0
 40
1.5
  0
ARC
  5
44C
100
AcDbEntity
  8
0
  6
DASHED
 62
             200
100
AcDbCircle
 10
177.97261774429305
 20
36.632815672433921
 30
0.0
 40
0.5
100
AcDbArc
 50
269.99999999999937
 51
0.0
  0
ARC
  5
44D
100
AcDbEntity
  8
0
  6
DASHED
 62
             200
100
AcDbCircle
 10
177.97261774429305
 20
51.632815672433921
 30
0.0
 40
0.5
100
AcDbArc
 50
0.0
 51
89.999999999999815
  0
LINE
  5
44E
100
AcDbEntity
  8
0
  6
DASHED
 62
             200
100
AcDbLine
 10
149.47261774429305
 20
39.274633854252116
 30
0.0
 11
151.47261774429305
 21
39.212815672433933
 31
0.0
  0
LINE
  5
44F
100
AcDbEntity
  8
0
  6
DASHED
 62
             200
100
AcDbLine
 10
149.47261774429305
 20
48.990997490615726
 30
0.0
 11
151.47261774429305
 21
49.052815672433908
 31
0.0
  0
LINE
  5
450
100
AcDbEntity
  8
0
  6
DASHED
 62
             200
100
AcDbLine
 10
169.97261774429305
 20
50.492815672433935
 30
0.0
 11
173.47261774429305
 21
50.632815672433921
 31
0.0
  0
LINE
  5
451
100
AcDbEntity
  8
0
  6
DASHED
 62
             200
100
AcDbLine
 10
165.22261774429305
 20
50.312815672433928
 30
0.0
 11
168.72261774429305
 21
50.442815672433923
 31
0.0
  0
LINE
  5
452
100
AcDbEntity
  8
0
  6
DASHED
 62
             200
100
AcDbLine
 10
169.97261774429305
 20
37.772815672433907
 30
0.0
 11
173.47261774429305
 21
37.632815672433921
 31
0.0
  0
LINE
  5
453
100
AcDbEntity
  8
0
  6
DASHED
 62
             200
100
AcDbLine
 10
165.22261774429305
 20
37.952815672433914
 30
0.0
 11
168.72261774429305
 21
37.822815672433919
 31
0.0
  0
LINE
  5
454
100
AcDbEntity
  8
0
  6
DASHED
 62
             200
100
AcDbLine
 10
160.47261774429305
 20
38.132815672433921
 30
0.0
 11
163.97261774429305
 21
38.002815672433925
 31
0.0
  0
LINE
  5
455
100
AcDbEntity
  8
0
  6
DASHED
 62
             200
100
AcDbLine
 10
160.47261774429305
 20
50.132815672433921
 30
0.0
 11
163.97261774429305
 21
50.262815672433916
 31
0.0
  0
LINE
  5
456
100
AcDbEntity
  8
0
  6
DASHED
 62
             200
100
AcDbLine
 10
168.72261774429305
 20
45.492815672433935
 30
0.0
 11
165.22261774429305
 21
45.762815672433916
 31
0.0
  0
LINE
  5
457
100
AcDbEntity
  8
0
  6
DASHED
 62
             200
100
AcDbLine
 10
168.72261774429305
 20
42.772815672433907
 30
0.0
 11
165.22261774429305
 21
42.502815672433925
 31
0.0
  0
LINE
  5
458
100
AcDbEntity
  8
0
  6
DASHED
 62
             200
100
AcDbLine
 10
163.97261774429305
 20
42.402815672433931
 30
0.0
 11
160.47261774429305
 21
42.132815672433921
 31
0.0
  0
LINE
  5
459
100
AcDbEntity
  8
0
  6
DASHED
 62
             200
100
AcDbLine
 10
163.97261774429305
 20
45.862815672433911
 30
0.0
 11
160.47261774429305
 21
46.132815672433921
 31
0.0
  0
LINE
  5
45A
100
AcDbEntity
  8
0
  6
DASHED
 62
             200
100
AcDbLine
 10
169.97261774429305
 20
42.87281567243393
 30
0.0
 11
169.97261774429305
 21
36.132815672433921
 31
0.0
  0
LINE
  5
45B
100
AcDbEntity
  8
0
  6
DASHED
 62
             200
100
AcDbLine
 10
173.47261774429305
 20
43.132815672433921
 30
0.0
 11
173.47261774429305
 21
36.132815672433921
 31
0.0
  0
LINE
  5
45C
100
AcDbEntity
  8
0
  6
DASHED
 62
             200
100
AcDbLine
 10
168.72261774429305
 20
42.772815672433907
 30
0.0
 11
168.72261774429305
 21
36.132815672433921
 31
0.0
  0
LINE
  5
45D
100
AcDbEntity
  8
0
  6
DASHED
 62
             200
100
AcDbLine
 10
165.22261774429305
 20
42.502815672433925
 30
0.0
 11
165.22261774429305
 21
36.132815672433921
 31
0.0
  0
LINE
  5
45E
100
AcDbEntity
  8
0
  6
DASHED
 62
             200
100
AcDbLine
 10
163.97261774429305
 20
42.402815672433931
 30
0.0
 11
163.97261774429305
 21
36.132815672433921
 31
0.0
  0
LINE
  5
45F
100
AcDbEntity
  8
0
  6
DASHED
 62
             200
100
AcDbLine
 10
160.47261774429305
 20
42.132815672433921
 30
0.0
 11
160.47261774429305
 21
36.132815672433921
 31
0.0
  0
LINE
  5
460
100
AcDbEntity
  8
0
  6
DASHED
 62
             200
100
AcDbLine
 10
165.22261774429305
 20
52.132815672433921
 30
0.0
 11
165.22261774429305
 21
45.762815672433916
 31
0.0
  0
LINE
  5
461
100
AcDbEntity
  8
0
  6
DASHED
 62
             200
100
AcDbLine
 10
168.72261774429305
 20
52.132815672433921
 30
0.0
 11
168.72261774429305
 21
45.492815672433935
 31
0.0
  0
LINE
  5
462
100
AcDbEntity
  8
0
  6
DASHED
 62
             200
100
AcDbLine
 10
169.97261774429305
 20
52.132815672433921
 30
0.0
 11
169.97261774429305
 21
45.392815672433912
 31
0.0
  0
LINE
  5
463
100
AcDbEntity
  8
0
  6
DASHED
 62
             200
100
AcDbLine
 10
163.97261774429305
 20
52.132815672433921
 30
0.0
 11
163.97261774429305
 21
45.862815672433911
 31
0.0
  0
LINE
  5
464
100
AcDbEntity
  8
0
  6
DASHED
 62
             200
100
AcDbLine
 10
173.47261774429305
 20
43.132815672433921
 30
0.0
 11
169.97261774429305
 21
42.87281567243393
 31
0.0
  0
LINE
  5
465
100
AcDbEntity
  8
0
  6
DASHED
 62
             200
100
AcDbLine
 10
173.47261774429305
 20
45.132815672433921
 30
0.0
 11
169.97261774429305
 21
45.392815672433912
 31
0.0
  0
LINE
  5
466
100
AcDbEntity
  8
0
  6
DASHED
 62
             200
100
AcDbLine
 10
176.47261774429305
 20
52.132815672433921
 30
0.0
 11
176.47261774429305
 21
36.132815672433921
 31
0.0
  0
LINE
  5
467
100
AcDbEntity
  8
0
  6
DASHED
 62
             200
100
AcDbLine
 10
160.47261774429305
 20
52.132815672433921
 30
0.0
 11
160.47261774429305
 21
46.132815672433921
 31
0.0
  0
LINE
  5
468
100
AcDbEntity
  8
0
  6
DASHED
 62
             200
100
AcDbLine
 10
173.47261774429305
 20
52.132815672433921
 30
0.0
 11
173.47261774429305
 21
45.132815672433921
 31
0.0
  0
LINE
  5
469
100
AcDbEntity
  8
0
  6
DASHED
 62
             200
100
AcDbLine
 10
158.47261774429305
 20
52.212815672433933
 30
0.0
 11
158.47261774429305
 21
36.052815672433937
 31
0.0
  0
LINE
  5
46A
100
AcDbEntity
  8
0
  6
DASHED
 62
             200
100
AcDbLine
 10
151.47261774429305
 20
36.052815672433937
 30
0.0
 11
158.47261774429305
 21
36.052815672433937
 31
0.0
  0
LINE
  5
46B
100
AcDbEntity
  8
0
  6
DASHED
 62
             200
100
AcDbLine
 10
151.47261774429305
 20
40.092815672433929
 30
0.0
 11
158.47261774429305
 21
40.092815672433929
 31
0.0
  0
LINE
  5
46C
100
AcDbEntity
  8
0
  6
DASHED
 62
             200
100
AcDbLine
 10
151.47261774429305
 20
48.172815672433913
 30
0.0
 11
158.47261774429305
 21
48.172815672433913
 31
0.0
  0
LINE
  5
46D
100
AcDbEntity
  8
0
  6
DASHED
 62
             200
100
AcDbLine
 10
151.47261774429305
 20
52.212815672433933
 30
0.0
 11
158.47261774429305
 21
52.212815672433933
 31
0.0
  0
LINE
  5
46E
100
AcDbEntity
  8
0
  6
DASHED
 62
             200
100
AcDbLine
 10
151.47261774429305
 20
52.212815672433933
 30
0.0
 11
151.47261774429305
 21
36.052815672433937
 31
0.0
  0
LINE
  5
46F
100
AcDbEntity
  8
0
  6
DASHED
 62
             200
100
AcDbLine
 10
178.47261774429305
 20
51.632815672433921
 30
0.0
 11
178.47261774429305
 21
36.632815672433921
 31
0.0
  0
LINE
  5
470
100
AcDbEntity
  8
0
  6
DASHED
 62
             200
100
AcDbLine
 10
158.47261774429305
 20
52.132815672433921
 30
0.0
 11
177.97261774429305
 21
52.132815672433921
 31
0.0
  0
LINE
  5
471
100
AcDbEntity
  8
0
  6
DASHED
 62
             200
100
AcDbLine
 10
158.47261774429305
 20
36.132815672433921
 30
0.0
 11
177.97261774429305
 21
36.132815672433921
 31
0.0
  0
LINE
  5
472
100
AcDbEntity
  8
0
  6
CONTINUOUS
 62
             200
100
AcDbLine
 10
147.96749726666167
 20
44.132815672433921
 30
0.0
 11
180.25261774429305
 21
44.132815672433921
 31
0.0
  0
ARC
  5
473
100
AcDbEntity
  8
0
  6
DASHED
 62
             200
100
AcDbCircle
 10
177.97261774429305
 20
69.632815672433921
 30
0.0
 40
0.5
100
AcDbArc
 50
269.99999999999937
 51
0.0
  0
ARC
  5
474
100
AcDbEntity
  8
0
  6
DASHED
 62
             200
100
AcDbCircle
 10
177.97261774429305
 20
84.632815672433921
 30
0.0
 40
0.5
100
AcDbArc
 50
0.0
 51
89.999999999999815
  0
LINE
  5
475
100
AcDbEntity
  8
0
  6
DASHED
 62
             200
100
AcDbLine
 10
149.47261774429305
 20
72.274633854252116
 30
0.0
 11
151.47261774429305
 21
72.212815672433933
 31
0.0
  0
LINE
  5
476
100
AcDbEntity
  8
0
  6
DASHED
 62
             200
100
AcDbLine
 10
149.47261774429305
 20
81.990997490615726
 30
0.0
 11
151.47261774429305
 21
82.052815672433908
 31
0.0
  0
LINE
  5
477
100
AcDbEntity
  8
0
  6
DASHED
 62
             200
100
AcDbLine
 10
169.97261774429305
 20
83.492815672433935
 30
0.0
 11
173.47261774429305
 21
83.632815672433921
 31
0.0
  0
LINE
  5
478
100
AcDbEntity
  8
0
  6
DASHED
 62
             200
100
AcDbLine
 10
165.22261774429305
 20
83.312815672433928
 30
0.0
 11
168.72261774429305
 21
83.442815672433923
 31
0.0
  0
LINE
  5
479
100
AcDbEntity
  8
0
  6
DASHED
 62
             200
100
AcDbLine
 10
169.97261774429305
 20
70.772815672433907
 30
0.0
 11
173.47261774429305
 21
70.632815672433921
 31
0.0
  0
LINE
  5
47A
100
AcDbEntity
  8
0
  6
DASHED
 62
             200
100
AcDbLine
 10
165.22261774429305
 20
70.952815672433914
 30
0.0
 11
168.72261774429305
 21
70.822815672433919
 31
0.0
  0
LINE
  5
47B
100
AcDbEntity
  8
0
  6
DASHED
 62
             200
100
AcDbLine
 10
160.47261774429305
 20
71.132815672433921
 30
0.0
 11
163.97261774429305
 21
71.002815672433925
 31
0.0
  0
LINE
  5
47C
100
AcDbEntity
  8
0
  6
DASHED
 62
             200
100
AcDbLine
 10
160.47261774429305
 20
83.132815672433921
 30
0.0
 11
163.97261774429305
 21
83.262815672433916
 31
0.0
  0
LINE
  5
47D
100
AcDbEntity
  8
0
  6
DASHED
 62
             200
100
AcDbLine
 10
168.72261774429305
 20
78.492815672433935
 30
0.0
 11
165.22261774429305
 21
78.762815672433916
 31
0.0
  0
LINE
  5
47E
100
AcDbEntity
  8
0
  6
DASHED
 62
             200
100
AcDbLine
 10
168.72261774429305
 20
75.772815672433907
 30
0.0
 11
165.22261774429305
 21
75.502815672433925
 31
0.0
  0
LINE
  5
47F
100
AcDbEntity
  8
0
  6
DASHED
 62
             200
100
AcDbLine
 10
163.97261774429305
 20
75.402815672433931
 30
0.0
 11
160.47261774429305
 21
75.132815672433921
 31
0.0
  0
LINE
  5
480
100
AcDbEntity
  8
0
  6
DASHED
 62
             200
100
AcDbLine
 10
163.97261774429305
 20
78.862815672433911
 30
0.0
 11
160.47261774429305
 21
79.132815672433921
 31
0.0
  0
LINE
  5
481
100
AcDbEntity
  8
0
  6
DASHED
 62
             200
100
AcDbLine
 10
169.97261774429305
 20
75.87281567243393
 30
0.0
 11
169.97261774429305
 21
69.132815672433921
 31
0.0
  0
LINE
  5
482
100
AcDbEntity
  8
0
  6
DASHED
 62
             200
100
AcDbLine
 10
173.47261774429305
 20
76.132815672433921
 30
0.0
 11
173.47261774429305
 21
69.132815672433921
 31
0.0
  0
LINE
  5
483
100
AcDbEntity
  8
0
  6
DASHED
 62
             200
100
AcDbLine
 10
168.72261774429305
 20
75.772815672433907
 30
0.0
 11
168.72261774429305
 21
69.132815672433921
 31
0.0
  0
LINE
  5
484
100
AcDbEntity
  8
0
  6
DASHED
 62
             200
100
AcDbLine
 10
165.22261774429305
 20
75.502815672433925
 30
0.0
 11
165.22261774429305
 21
69.132815672433921
 31
0.0
  0
LINE
  5
485
100
AcDbEntity
  8
0
  6
DASHED
 62
             200
100
AcDbLine
 10
163.97261774429305
 20
75.402815672433931
 30
0.0
 11
163.97261774429305
 21
69.132815672433921
 31
0.0
  0
LINE
  5
486
100
AcDbEntity
  8
0
  6
DASHED
 62
             200
100
AcDbLine
 10
160.47261774429305
 20
75.132815672433921
 30
0.0
 11
160.47261774429305
 21
69.132815672433921
 31
0.0
  0
LINE
  5
487
100
AcDbEntity
  8
0
  6
DASHED
 62
             200
100
AcDbLine
 10
165.22261774429305
 20
85.132815672433921
 30
0.0
 11
165.22261774429305
 21
78.762815672433916
 31
0.0
  0
LINE
  5
488
100
AcDbEntity
  8
0
  6
DASHED
 62
             200
100
AcDbLine
 10
168.72261774429305
 20
85.132815672433921
 30
0.0
 11
168.72261774429305
 21
78.492815672433935
 31
0.0
  0
LINE
  5
489
100
AcDbEntity
  8
0
  6
DASHED
 62
             200
100
AcDbLine
 10
169.97261774429305
 20
85.132815672433921
 30
0.0
 11
169.97261774429305
 21
78.392815672433912
 31
0.0
  0
LINE
  5
48A
100
AcDbEntity
  8
0
  6
DASHED
 62
             200
100
AcDbLine
 10
163.97261774429305
 20
85.132815672433921
 30
0.0
 11
163.97261774429305
 21
78.862815672433911
 31
0.0
  0
LINE
  5
48B
100
AcDbEntity
  8
0
  6
DASHED
 62
             200
100
AcDbLine
 10
173.47261774429305
 20
76.132815672433921
 30
0.0
 11
169.97261774429305
 21
75.87281567243393
 31
0.0
  0
LINE
  5
48C
100
AcDbEntity
  8
0
  6
DASHED
 62
             200
100
AcDbLine
 10
173.47261774429305
 20
78.132815672433921
 30
0.0
 11
169.97261774429305
 21
78.392815672433912
 31
0.0
  0
LINE
  5
48D
100
AcDbEntity
  8
0
  6
DASHED
 62
             200
100
AcDbLine
 10
176.47261774429305
 20
85.132815672433921
 30
0.0
 11
176.47261774429305
 21
69.132815672433921
 31
0.0
  0
LINE
  5
48E
100
AcDbEntity
  8
0
  6
DASHED
 62
             200
100
AcDbLine
 10
160.47261774429305
 20
85.132815672433921
 30
0.0
 11
160.47261774429305
 21
79.132815672433921
 31
0.0
  0
LINE
  5
48F
100
AcDbEntity
  8
0
  6
DASHED
 62
             200
100
AcDbLine
 10
173.47261774429305
 20
85.132815672433921
 30
0.0
 11
173.47261774429305
 21
78.132815672433921
 31
0.0
  0
LINE
  5
490
100
AcDbEntity
  8
0
  6
DASHED
 62
             200
100
AcDbLine
 10
158.47261774429305
 20
85.212815672433933
 30
0.0
 11
158.47261774429305
 21
69.052815672433937
 31
0.0
  0
LINE
  5
491
100
AcDbEntity
  8
0
  6
DASHED
 62
             200
100
AcDbLine
 10
151.47261774429305
 20
69.052815672433937
 30
0.0
 11
158.47261774429305
 21
69.052815672433937
 31
0.0
  0
LINE
  5
492
100
AcDbEntity
  8
0
  6
DASHED
 62
             200
100
AcDbLine
 10
151.47261774429305
 20
73.092815672433929
 30
0.0
 11
158.47261774429305
 21
73.092815672433929
 31
0.0
  0
LINE
  5
493
100
AcDbEntity
  8
0
  6
DASHED
 62
             200
100
AcDbLine
 10
151.47261774429305
 20
81.172815672433913
 30
0.0
 11
158.47261774429305
 21
81.172815672433913
 31
0.0
  0
LINE
  5
494
100
AcDbEntity
  8
0
  6
DASHED
 62
             200
100
AcDbLine
 10
151.47261774429305
 20
85.212815672433933
 30
0.0
 11
158.47261774429305
 21
85.212815672433933
 31
0.0
  0
LINE
  5
495
100
AcDbEntity
  8
0
  6
DASHED
 62
             200
100
AcDbLine
 10
151.47261774429305
 20
85.212815672433933
 30
0.0
 11
151.47261774429305
 21
69.052815672433937
 31
0.0
  0
LINE
  5
496
100
AcDbEntity
  8
0
  6
DASHED
 62
             200
100
AcDbLine
 10
178.47261774429305
 20
84.632815672433921
 30
0.0
 11
178.47261774429305
 21
69.632815672433921
 31
0.0
  0
LINE
  5
497
100
AcDbEntity
  8
0
  6
DASHED
 62
             200
100
AcDbLine
 10
158.47261774429305
 20
85.132815672433921
 30
0.0
 11
177.97261774429305
 21
85.132815672433921
 31
0.0
  0
LINE
  5
498
100
AcDbEntity
  8
0
  6
DASHED
 62
             200
100
AcDbLine
 10
158.47261774429305
 20
69.132815672433921
 30
0.0
 11
177.97261774429305
 21
69.132815672433921
 31
0.0
  0
LINE
  5
499
100
AcDbEntity
  8
0
  6
CONTINUOUS
 62
             200
100
AcDbLine
 10
147.96749726666167
 20
77.132815672433921
 30
0.0
 11
180.25261774429305
 21
77.132815672433921
 31
0.0
  0
LINE
  5
49A
100
AcDbEntity
  8
0
  6
CONTINUOUS
 62
               4
100
AcDbLine
 10
-99.131601974138221
 20
0.9772604311318247
 30
0.0
 11
-95.794228238671565
 21
0.9772604311318247
 31
0.0
  0
LINE
  5
49B
100
AcDbEntity
  8
0
  6
CONTINUOUS
 62
               4
100
AcDbLine
 10
-99.131601974138221
 20
2.2782705313984621
 30
0.0
 11
-96.543723187738237
 21
2.2782705313984621
 31
0.0
  0
LINE
  5
49C
100
AcDbEntity
  8
0
  6
CONTINUOUS
 62
               4
100
AcDbLine
 10
-99.131601974138221
 20
2.2782705313984621
 30
0.0
 11
-99.131601974138221
 21
0.9772604311318247
 31
0.0
  0
LINE
  5
49D
100
AcDbEntity
  8
0
  6
CONTINUOUS
 62
               4
100
AcDbLine
 10
-102.63160197213824
 20
1.3802907339318153
 30
0.0
 11
-99.131601974138221
 21
1.3802907339318295
 31
0.0
  0
LINE
  5
49E
100
AcDbEntity
  8
0
  6
CONTINUOUS
 62
               4
100
AcDbLine
 10
-102.63160197213824
 20
1.8823109356651457
 30
0.0
 11
-99.131601974138221
 21
1.8823109356651599
 31
0.0
  0
LINE
  5
49F
100
AcDbEntity
  8
0
  6
CONTINUOUS
 62
               4
100
AcDbLine
 10
-102.63160197213824
 20
1.8823109356651457
 30
0.0
 11
-102.63160197213824
 21
1.3802907339318153
 31
0.0
  0
LINE
  5
4A0
100
AcDbEntity
  8
0
  6
CONTINUOUS
 62
               4
100
AcDbLine
 10
-102.6316019721383
 20
110.38332040718008
 30
0.0
 11
-102.6316019721383
 21
110.88534060891341
 31
0.0
  0
LINE
  5
4A1
100
AcDbEntity
  8
0
  6
CONTINUOUS
 62
               4
100
AcDbLine
 10
-102.6316019721383
 20
110.38332040718008
 30
0.0
 11
-99.131601974138334
 21
110.38332040718008
 31
0.0
  0
LINE
  5
4A2
100
AcDbEntity
  8
0
  6
CONTINUOUS
 62
               4
100
AcDbLine
 10
-102.6316019721383
 20
110.88534060891341
 30
0.0
 11
-99.131601974138334
 21
110.88534060891341
 31
0.0
  0
LINE
  5
4A3
100
AcDbEntity
  8
0
  6
CONTINUOUS
 62
               4
100
AcDbLine
 10
-99.131601974138334
 20
109.98736081144678
 30
0.0
 11
-99.131601974138334
 21
111.28837091171341
 31
0.0
  0
LINE
  5
4A4
100
AcDbEntity
  8
0
  6
CONTINUOUS
 62
               4
100
AcDbLine
 10
-99.131601974138334
 20
109.98736081144678
 30
0.0
 11
-96.543723187738323
 21
109.98736081144678
 31
0.0
  0
LINE
  5
4A5
100
AcDbEntity
  8
0
  6
CONTINUOUS
 62
               4
100
AcDbLine
 10
-99.131601974138334
 20
111.28837091171341
 30
0.0
 11
-95.79422823867165
 21
111.28837091171341
 31
0.0
  0
LINE
  5
4A6
100
AcDbEntity
  8
0
  6
CONTINUOUS
 62
               7
100
AcDbLine
 10
-59.635642391604989
 20
18.43281567142273
 30
0.0
 11
-59.635642391605018
 21
93.832815671422566
 31
0.0
  0
LINE
  5
4A7
100
AcDbEntity
  8
0
  6
CONTINUOUS
 62
               7
100
AcDbLine
 10
-77.635642391605018
 20
18.132815671422719
 30
0.0
 11
-77.635642391605018
 21
94.132815671422549
 31
0.0
  0
LINE
  5
4A8
100
AcDbEntity
  8
0
  6
CENTER
 62
               2
100
AcDbLine
 10
-68.635642391604989
 20
118.76206641725885
 30
0.0
 11
-68.635642391605018
 21
-5.9952495966542045
 31
0.0
  0
LINE
  5
4A9
100
AcDbEntity
  8
0
  6
CONTINUOUS
 62
               4
100
AcDbLine
 10
-76.929581784804981
 20
113.23281535504675
 30
0.0
 11
-76.929581784804981
 21
113.13382545611343
 31
0.0
  0
ARC
  5
4AA
100
AcDbEntity
  8
0
  6
CONTINUOUS
 62
               4
100
AcDbCircle
 10
-75.935642391604944
 20
113.93685575851345
 30
0.0
 40
0.3
100
AcDbArc
 50
0.0
 51
89.999999999999815
  0
LINE
  5
4AB
100
AcDbEntity
  8
0
  6
CONTINUOUS
 62
               7
100
AcDbLine
 10
-59.935642391605001
 20
94.132815671422549
 30
0.0
 11
-59.635642391604989
 21
93.832815671422566
 31
0.0
  0
LINE
  5
4AC
100
AcDbEntity
  8
0
  6
CONTINUOUS
 62
               4
100
AcDbLine
 10
-61.635642391605018
 20
94.13281566921583
 30
0.0
 11
-61.635642391605018
 21
115.53281536117902
 31
0.0
  0
LINE
  5
4AD
100
AcDbEntity
  8
0
  6
CONTINUOUS
 62
               4
100
AcDbLine
 10
-75.635642391604989
 20
115.53281536624675
 30
0.0
 11
-75.635642391605018
 21
94.132815671422549
 31
0.0
  0
ARC
  5
4AE
100
AcDbEntity
  8
0
  6
CONTINUOUS
 62
               4
100
AcDbCircle
 10
-74.952737538263165
 20
115.53291051290495
 30
0.0
 40
0.5999048608870732
100
AcDbArc
 50
89.99091272245343
 51
123.56005066674096
  0
ARC
  5
4AF
100
AcDbEntity
  8
0
  6
CONTINUOUS
 62
               4
100
AcDbCircle
 10
-75.135642391604989
 20
115.53281536624678
 30
0.0
 40
0.5
100
AcDbArc
 50
114.73039869685056
 51
179.99999999999963
  0
ARC
  5
4B0
100
AcDbEntity
  8
0
  6
CONTINUOUS
 62
               4
100
AcDbCircle
 10
-62.135642391604989
 20
115.53281536624675
 30
0.0
 40
0.5
100
AcDbArc
 50
0.0
 51
89.999999999999815
  0
LINE
  5
4B1
100
AcDbEntity
  8
0
  6
CONTINUOUS
 62
               4
100
AcDbLine
 10
-62.135642391604989
 20
116.03281536624675
 30
0.0
 11
-63.635642391604989
 21
116.03281536624675
 31
0.0
  0
LINE
  5
4B2
100
AcDbEntity
  8
0
  6
CONTINUOUS
 62
               4
100
AcDbLine
 10
-75.635642391604989
 20
114.53281536624685
 30
0.0
 11
-63.635639575078216
 21
114.53281536624685
 31
0.0
  0
LINE
  5
4B3
100
AcDbEntity
  8
0
  6
CONTINUOUS
 62
               4
100
AcDbLine
 10
-63.635639575078216
 20
116.13281536624683
 30
0.0
 11
-63.635639575078216
 21
114.53281536624685
 31
0.0
  0
LINE
  5
4B4
100
AcDbEntity
  8
0
  6
CONTINUOUS
 62
               4
100
AcDbLine
 10
-75.635642391604989
 20
115.53281536624687
 30
0.0
 11
-71.935642391605001
 21
115.53281536624687
 31
0.0
  0
ARC
  5
4B5
100
AcDbEntity
  8
0
  6
CONTINUOUS
 62
               4
100
AcDbCircle
 10
-74.952737538263165
 20
115.53291051290495
 30
0.0
 40
0.5999048608870732
100
AcDbArc
 50
123.56005066674096
 51
180.00908727754583
  0
ARC
  5
4B6
100
AcDbEntity
  8
0
  6
CONTINUOUS
 62
               4
100
AcDbCircle
 10
-73.151554386367962
 20
115.53390337148377
 30
0.0
 40
0.5989129830170392
100
AcDbArc
 50
359.89591452477293
 51
90.104085475226867
  0
LINE
  5
4B7
100
AcDbEntity
  8
0
  6
CONTINUOUS
 62
               4
100
AcDbLine
 10
-74.952737538263193
 20
116.13281536624676
 30
0.0
 11
-63.635639575078216
 21
116.13281536624683
 31
0.0
  0
LINE
  5
4B8
100
AcDbEntity
  8
0
  6
CONTINUOUS
 62
               4
100
AcDbLine
 10
-71.935642391605001
 20
115.53281536624687
 30
0.0
 11
-71.935642391605001
 21
116.13281536624677
 31
0.0
  0
LINE
  5
4B9
100
AcDbEntity
  8
0
  6
CONTINUOUS
 62
               7
100
AcDbLine
 10
-59.935642391605001
 20
94.132815671422549
 30
0.0
 11
-77.635642391605018
 21
94.132815671422549
 31
0.0
  0
LINE
  5
4BA
100
AcDbEntity
  8
0
  6
CONTINUOUS
 62
               4
100
AcDbLine
 10
-77.635642391605018
 20
93.63281536624676
 30
0.0
 11
-78.522632841732616
 21
93.63281536624676
 31
0.0
  0
LINE
  5
4BB
100
AcDbEntity
  8
0
  6
CONTINUOUS
 62
               4
100
AcDbLine
 10
-75.635642391605018
 20
113.13382545611343
 30
0.0
 11
-83.130591882271659
 21
113.13382545611343
 31
0.0
  0
LINE
  5
4BC
100
AcDbEntity
  8
0
  6
CONTINUOUS
 62
               4
100
AcDbLine
 10
-82.6285716805383
 20
113.23281535504675
 30
0.0
 11
-76.929581784804981
 21
113.23281535504675
 31
0.0
  0
LINE
  5
4BD
100
AcDbEntity
  8
0
  6
CONTINUOUS
 62
               4
100
AcDbLine
 10
-85.025541376138307
 20
114.23685575851344
 30
0.0
 11
-75.932612088404966
 21
114.23685575851344
 31
0.0
  0
LINE
  5
4BE
100
AcDbEntity
  8
0
  6
CONTINUOUS
 62
               4
100
AcDbLine
 10
-91.62958177640499
 20
109.73281535704676
 30
0.0
 11
-83.63261208400499
 21
109.73281535704676
 31
0.0
  0
LINE
  5
4BF
100
AcDbEntity
  8
0
  6
CONTINUOUS
 62
               4
100
AcDbLine
 10
-91.62958177640499
 20
111.53584565904676
 30
0.0
 11
-83.63261208400499
 21
111.53584565904676
 31
0.0
  0
LINE
  5
4C0
100
AcDbEntity
  8
0
  6
CONTINUOUS
 62
               4
100
AcDbLine
 10
-91.62958177640499
 20
112.23584565864674
 30
0.0
 11
-84.035642386804966
 21
112.23584565864674
 31
0.0
  0
LINE
  5
4C1
100
AcDbEntity
  8
0
  6
CONTINUOUS
 62
               4
100
AcDbLine
 10
-91.332612079604985
 20
112.53281535544677
 30
0.0
 11
-85.428571678938283
 21
112.53281535544677
 31
0.0
  0
LINE
  5
4C2
100
AcDbEntity
  8
0
  6
CONTINUOUS
 62
               4
100
AcDbLine
 10
-90.632612080004947
 20
108.73584566064677
 30
0.0
 11
-85.633622183871637
 21
108.73584566064677
 31
0.0
  0
LINE
  5
4C3
100
AcDbEntity
  8
0
  6
CONTINUOUS
 62
               4
100
AcDbLine
 10
-83.964935316138281
 20
113.03483555718007
 30
0.0
 11
-90.227075703814165
 21
114.13786585958009
 31
0.0
  0
LINE
  5
4C4
100
AcDbEntity
  8
0
  6
CONTINUOUS
 62
               4
100
AcDbLine
 10
-85.025541376138307
 20
114.23685575851344
 30
0.0
 11
-90.130591878271673
 21
115.1348355559801
 31
0.0
  0
ARC
  5
4C5
100
AcDbEntity
  8
0
  6
CONTINUOUS
 62
               4
100
AcDbCircle
 10
-84.03647643095934
 20
112.63971000560112
 30
0.0
 40
0.403865208170398
100
AcDbArc
 50
270.11832473551306
 51
359.88167526448416
  0
ARC
  5
4C6
100
AcDbEntity
  8
0
  6
CONTINUOUS
 62
               4
100
AcDbCircle
 10
-84.035538317983992
 20
112.63814259785126
 30
0.0
 40
0.4029269013737999
100
AcDbArc
 50
0.1042835857490746
 51
79.908228442603601
  0
ARC
  5
4C7
100
AcDbEntity
  8
0
  6
CONTINUOUS
 62
               4
100
AcDbCircle
 10
-82.635554905742168
 20
112.73784969133946
 30
0.0
 40
0.4950149226876425
100
AcDbArc
 50
89.19169587542109
 51
126.87687525883487
  0
ARC
  5
4C8
100
AcDbEntity
  8
0
  6
CONTINUOUS
 62
               4
100
AcDbCircle
 10
-83.135975232526306
 20
112.63718860463477
 30
0.0
 40
0.4966660273328702
100
AcDbArc
 50
89.378960363565895
 51
180.6210396364358
  0
ARC
  5
4C9
100
AcDbEntity
  8
0
  6
CONTINUOUS
 62
               4
100
AcDbCircle
 10
-83.132899761161752
 20
96.28533782678592
 30
0.0
 40
0.4997133381008655
100
AcDbArc
 50
180.11549557964247
 51
245.17378469018985
  0
LINE
  5
4CA
100
AcDbEntity
  8
0
  6
CONTINUOUS
 62
               4
100
AcDbLine
 10
-78.520490874804949
 20
93.63281536624676
 30
0.0
 11
-78.520490874804949
 21
113.13382545611343
 31
0.0
  0
LINE
  5
4CB
100
AcDbEntity
  8
0
  6
CONTINUOUS
 62
               4
100
AcDbLine
 10
-83.63261208400499
 20
108.13483555998006
 30
0.0
 11
-85.633622183871637
 21
108.13483555998006
 31
0.0
  0
LINE
  5
4CC
100
AcDbEntity
  8
0
  6
CONTINUOUS
 62
               4
100
AcDbLine
 10
-85.131601982138335
 20
112.23584565864674
 30
0.0
 11
-85.428571678938283
 21
112.53281535544677
 31
0.0
  0
LINE
  5
4CD
100
AcDbEntity
  8
0
  6
CONTINUOUS
 62
               4
100
AcDbLine
 10
-85.633622183871637
 20
108.13483555998006
 30
0.0
 11
-85.633622183871637
 21
108.73584566064677
 31
0.0
  0
LINE
  5
4CE
100
AcDbEntity
  8
0
  6
CONTINUOUS
 62
               4
100
AcDbLine
 10
-78.734187286115599
 20
93.679775945156493
 30
0.0
 11
-83.34271309427163
 21
95.831805263980087
 31
0.0
  0
LINE
  5
4CF
100
AcDbEntity
  8
0
  6
CONTINUOUS
 62
               4
100
AcDbLine
 10
-83.63261208400499
 20
112.6318052543801
 30
0.0
 11
-83.63261208400499
 21
96.284330516246754
 31
0.0
  0
LINE
  5
4D0
100
AcDbEntity
  8
0
  6
CONTINUOUS
 62
               4
100
AcDbLine
 10
-90.632612080004947
 20
108.13483555998006
 30
0.0
 11
-91.62958177640499
 21
108.13483555998006
 31
0.0
  0
LINE
  5
4D1
100
AcDbEntity
  8
0
  6
CONTINUOUS
 62
               4
100
AcDbLine
 10
-91.62958177640499
 20
114.13786585958009
 30
0.0
 11
-90.222511070138324
 21
114.13786585958009
 31
0.0
  0
LINE
  5
4D2
100
AcDbEntity
  8
0
  6
CONTINUOUS
 62
               4
100
AcDbLine
 10
-91.62958177640499
 20
115.1348355559801
 30
0.0
 11
-90.130591878271673
 21
115.1348355559801
 31
0.0
  0
LINE
  5
4D3
100
AcDbEntity
  8
0
  6
CONTINUOUS
 62
               4
100
AcDbLine
 10
-95.447763592404982
 20
111.28837091171341
 30
0.0
 11
-91.62958177640499
 21
111.28837091171341
 31
0.0
  0
LINE
  5
4D4
100
AcDbEntity
  8
0
  6
CONTINUOUS
 62
               4
100
AcDbLine
 10
-90.632612080004947
 20
108.13483555998006
 30
0.0
 11
-90.632612080004947
 21
108.73584566064677
 31
0.0
  0
LINE
  5
4D5
100
AcDbEntity
  8
0
  6
CONTINUOUS
 62
               4
100
AcDbLine
 10
-91.62958177640499
 20
112.23584565864674
 30
0.0
 11
-91.332612079604985
 21
112.53281535544677
 31
0.0
  0
LINE
  5
4D6
100
AcDbEntity
  8
0
  6
CONTINUOUS
 62
               4
100
AcDbLine
 10
-91.62958177640499
 20
114.13786585958009
 30
0.0
 11
-91.62958177640499
 21
115.1348355559801
 31
0.0
  0
LINE
  5
4D7
100
AcDbEntity
  8
0
  6
CONTINUOUS
 62
               4
100
AcDbLine
 10
-91.62958177640499
 20
108.13483555998006
 30
0.0
 11
-91.62958177640499
 21
112.23584565864674
 31
0.0
  0
ARC
  5
4D8
100
AcDbEntity
  8
0
  6
CONTINUOUS
 62
               4
100
AcDbCircle
 10
-78.522632841732616
 20
94.132815366246746
 30
0.0
 40
0.5
100
AcDbArc
 50
244.96897918278108
 51
269.99999999999937
  0
LINE
  5
4D9
100
AcDbEntity
  8
0
  6
CONTINUOUS
 62
               4
100
AcDbLine
 10
-91.629581776404905
 20
2.5328159857984787
 30
0.0
 11
-83.632612084004904
 21
2.5328159857984929
 31
0.0
  0
LINE
  5
4DA
100
AcDbEntity
  8
0
  6
CONTINUOUS
 62
               4
100
AcDbLine
 10
-91.629581776404905
 20
0.7297856837984824
 30
0.0
 11
-83.632612084004904
 21
0.7297856837984966
 31
0.0
  0
LINE
  5
4DB
100
AcDbEntity
  8
0
  6
CONTINUOUS
 62
               4
100
AcDbLine
 10
-91.629581776404905
 20
0.0297856841985009
 30
0.0
 11
-84.035642386804852
 21
0.0297856841985151
 31
0.0
  0
LINE
  5
4DC
100
AcDbEntity
  8
0
  6
CONTINUOUS
 62
               4
100
AcDbLine
 10
-91.332612079604928
 20
-0.2671840126015326
 30
0.0
 11
-85.428571678938169
 21
-0.2671840126015184
 31
0.0
  0
LINE
  5
4DD
100
AcDbEntity
  8
0
  6
CONTINUOUS
 62
               4
100
AcDbLine
 10
-90.632612080004833
 20
4.1307957828651922
 30
0.0
 11
-91.629581776404905
 21
4.130795782865178
 31
0.0
  0
LINE
  5
4DE
100
AcDbEntity
  8
0
  6
CONTINUOUS
 62
               4
100
AcDbLine
 10
-91.629581776404905
 20
-1.8722345167348493
 30
0.0
 11
-90.222511070138239
 21
-1.8722345167348351
 31
0.0
  0
LINE
  5
4DF
100
AcDbEntity
  8
0
  6
CONTINUOUS
 62
               4
100
AcDbLine
 10
-91.629581776404905
 20
-2.8692042131348643
 30
0.0
 11
-90.130591878271616
 21
-2.8692042131348501
 31
0.0
  0
LINE
  5
4E0
100
AcDbEntity
  8
0
  6
CENTER
 62
               2
100
AcDbLine
 10
-39.435642400673999
 20
43.132815479676509
 30
0.0
 11
-44.435642400673999
 21
43.132815479676509
 31
0.0
  0
LINE
  5
4E1
100
AcDbEntity
  8
0
  6
CENTER
 62
               2
100
AcDbLine
 10
-39.435642400673999
 20
78.13281586519139
 30
0.0
 11
-44.435642400673999
 21
78.13281586519139
 31
0.0
  0
LINE
  5
4E2
100
AcDbEntity
  8
0
  6
DASHED
 62
               2
100
AcDbLine
 10
-59.635642391605018
 20
22.932815671422645
 30
0.0
 11
-61.235642391605012
 21
22.932815671422645
 31
0.0
  0
LINE
  5
4E3
100
AcDbEntity
  8
0
  6
CENTER
 62
               2
100
AcDbLine
 10
-62.05283474302513
 20
23.932815671422645
 30
0.0
 11
-58.770776337207053
 21
23.932815671422638
 31
0.0
  0
LINE
  5
4E4
100
AcDbEntity
  8
0
  6
DASHED
 62
               2
100
AcDbLine
 10
-59.635642391605018
 20
24.932815671422645
 30
0.0
 11
-61.235642391605012
 21
24.932815671422645
 31
0.0
  0
LINE
  5
4E5
100
AcDbEntity
  8
0
  6
CONTINUOUS
 62
               7
100
AcDbLine
 10
-77.635642391605018
 20
32.132815671422634
 30
0.0
 11
-59.635642391605018
 21
32.132815671422634
 31
0.0
  0
LINE
  5
4E6
100
AcDbEntity
  8
0
  6
CENTER
 62
               2
100
AcDbLine
 10
-50.435642391605001
 20
50.132815672433921
 30
0.0
 11
-50.435642391605001
 21
38.132815672433921
 31
0.0
  0
LINE
  5
4E7
100
AcDbEntity
  8
0
  6
CENTER
 62
               2
100
AcDbLine
 10
-50.435642391605001
 20
66.632815672433907
 30
0.0
 11
-50.435642391605001
 21
54.632815672433907
 31
0.0
  0
ARC
  5
4E8
100
AcDbEntity
  8
0
  6
CONTINUOUS
 62
               7
100
AcDbCircle
 10
-76.635737538263129
 20
52.83291081381148
 30
0.0
 40
0.5999048608870732
100
AcDbArc
 50
89.990912722453572
 51
180.00908727754597
  0
LINE
  5
4E9
100
AcDbEntity
  8
0
  6
CONTINUOUS
 62
               7
100
AcDbLine
 10
-77.235642391604955
 20
52.83291081381148
 30
0.0
 11
-77.235642391604955
 21
51.031727661916278
 31
0.0
  0
ARC
  5
4EA
100
AcDbEntity
  8
0
  6
CONTINUOUS
 62
               7
100
AcDbCircle
 10
-76.636730396841983
 20
51.031727661916278
 30
0.0
 40
0.5989129830170392
100
AcDbArc
 50
179.89591452477256
 51
270.1040854752265
  0
LINE
  5
4EB
100
AcDbEntity
  8
0
  6
CONTINUOUS
 62
               7
100
AcDbLine
 10
-76.635642391604989
 20
53.582815667153284
 30
0.0
 11
-76.635642391604989
 21
50.282815667153287
 31
0.0
  0
LINE
  5
4EC
100
AcDbEntity
  8
0
  6
CONTINUOUS
 62
               7
100
AcDbLine
 10
-76.635642400740039
 20
53.582815667153284
 30
0.0
 11
-77.635642391604989
 21
53.582815667153284
 31
0.0
  0
LINE
  5
4ED
100
AcDbEntity
  8
0
  6
CONTINUOUS
 62
               7
100
AcDbLine
 10
-76.635642400740039
 20
50.282815667153287
 30
0.0
 11
-77.635642391604989
 21
50.282815667153287
 31
0.0
  0
LINE
  5
4EE
100
AcDbEntity
  8
0
  6
CONTINUOUS
 62
               7
100
AcDbLine
 10
-77.635642391605018
 20
41.132815671422634
 30
0.0
 11
-59.635642391605018
 21
41.132815671422634
 31
0.0
  0
LINE
  5
4EF
100
AcDbEntity
  8
0
  6
CONTINUOUS
 62
               7
100
AcDbLine
 10
-59.635642391604989
 20
80.03281567142264
 30
0.0
 11
-59.735642391605012
 21
80.132815671422634
 31
0.0
  0
LINE
  5
4F0
100
AcDbEntity
  8
0
  6
CONTINUOUS
 62
               7
100
AcDbLine
 10
-59.735642391605012
 20
80.132815671422634
 30
0.0
 11
-77.635642391604989
 21
80.132815671422634
 31
0.0
  0
LINE
  5
4F1
100
AcDbEntity
  8
0
  6
CONTINUOUS
 62
               7
100
AcDbLine
 10
-59.635642391605018
 20
80.032815671422554
 30
0.0
 11
-59.735642391605012
 21
80.132815671422549
 31
0.0
  0
LINE
  5
4F2
100
AcDbEntity
  8
0
  6
CONTINUOUS
 62
               7
100
AcDbLine
 10
-41.935642391605001
 20
37.132815671422634
 30
0.0
 11
-41.935642391605001
 21
84.132815673445208
 31
0.0
  0
LINE
  5
4F3
100
AcDbEntity
  8
0
  6
CONTINUOUS
 62
               7
100
AcDbLine
 10
-41.935642396243878
 20
37.132815671422634
 30
0.0
 11
-58.935642391605001
 21
37.132815671422634
 31
0.0
  0
LINE
  5
4F4
100
AcDbEntity
  8
0
  6
CONTINUOUS
 62
               7
100
AcDbLine
 10
-41.935642396243878
 20
84.132815673445208
 30
0.0
 11
-58.935642391605001
 21
84.132815673445208
 31
0.0
  0
LINE
  5
4F5
100
AcDbEntity
  8
0
  6
CENTER
 62
               2
100
AcDbLine
 10
-56.435642391605001
 20
44.132815672433921
 30
0.0
 11
-44.435642391605001
 21
44.132815672433921
 31
0.0
  0
CIRCLE
  5
4F6
100
AcDbEntity
  8
0
  6
CONTINUOUS
 62
               2
100
AcDbCircle
 10
-50.435642391605001
 20
44.132815672433921
 30
0.0
 40
4.8639993667602539
  0
CIRCLE
  5
4F7
100
AcDbEntity
  8
0
  6
CONTINUOUS
 62
               7
100
AcDbCircle
 10
-50.435642391605001
 20
44.132815672433921
 30
0.0
 40
4.2779998779296875
  0
LINE
  5
4F8
100
AcDbEntity
  8
0
  6
CENTER
 62
               2
100
AcDbLine
 10
-56.435642391605001
 20
77.132815672433921
 30
0.0
 11
-44.435642391605001
 21
77.132815672433921
 31
0.0
  0
CIRCLE
  5
4F9
100
AcDbEntity
  8
0
  6
CONTINUOUS
 62
               2
100
AcDbCircle
 10
-50.435642391605001
 20
77.132815672433921
 30
0.0
 40
4.8639993667602539
  0
CIRCLE
  5
4FA
100
AcDbEntity
  8
0
  6
CONTINUOUS
 62
               7
100
AcDbCircle
 10
-50.435642391605001
 20
77.132815672433921
 30
0.0
 40
4.2779998779296875
  0
LINE
  5
4FB
100
AcDbEntity
  8
0
  6
CENTER
 62
               2
100
AcDbLine
 10
-56.435642391605001
 20
60.632815672433907
 30
0.0
 11
-44.435642391605001
 21
60.632815672433907
 31
0.0
  0
CIRCLE
  5
4FC
100
AcDbEntity
  8
0
  6
CONTINUOUS
 62
               2
100
AcDbCircle
 10
-50.435642391605001
 20
60.632815672433907
 30
0.0
 40
4.8639993667602539
  0
CIRCLE
  5
4FD
100
AcDbEntity
  8
0
  6
CONTINUOUS
 62
               7
100
AcDbCircle
 10
-50.435642391605001
 20
60.632815672433907
 30
0.0
 40
4.2779998779296875
  0
LINE
  5
4FE
100
AcDbEntity
  8
0
  6
CENTER
 62
               2
100
AcDbLine
 10
-50.435642391605001
 20
83.132815672433921
 30
0.0
 11
-50.435642391605001
 21
71.132815672433921
 31
0.0
  0
LINE
  5
4FF
100
AcDbEntity
  8
0
  6
CONTINUOUS
 62
               7
100
AcDbLine
 10
-58.935642391605001
 20
37.132815670949867
 30
0.0
 11
-58.935642391605001
 21
84.132815673445208
 31
0.0
  0
LINE
  5
500
100
AcDbEntity
  8
0
  6
CONTINUOUS
 62
               7
100
AcDbLine
 10
-59.635642391605018
 20
79.632815671422634
 30
0.0
 11
-58.935642391605001
 21
79.632815671422634
 31
0.0
  0
LINE
  5
501
100
AcDbEntity
  8
0
  6
CONTINUOUS
 62
               7
100
AcDbLine
 10
-58.935642391605001
 20
41.632815671422634
 30
0.0
 11
-59.635642391605018
 21
41.632815671422634
 31
0.0
  0
LINE
  5
502
100
AcDbEntity
  8
0
  6
DASHED
 62
               2
100
AcDbLine
 10
-59.635642391605018
 20
87.332815671422566
 30
0.0
 11
-61.235642391605012
 21
87.332815671422566
 31
0.0
  0
LINE
  5
503
100
AcDbEntity
  8
0
  6
CENTER
 62
               2
100
AcDbLine
 10
-62.05283474302513
 20
88.332815671422566
 30
0.0
 11
-58.770776337207053
 21
88.332815671422551
 31
0.0
  0
LINE
  5
504
100
AcDbEntity
  8
0
  6
DASHED
 62
               2
100
AcDbLine
 10
-59.635642391605018
 20
89.332815671422566
 30
0.0
 11
-61.235642391605012
 21
89.332815671422566
 31
0.0
  0
ARC
  5
505
100
AcDbEntity
  8
0
  6
CONTINUOUS
 62
               4
100
AcDbCircle
 10
-75.935642391604858
 20
-1.6712244156681777
 30
0.0
 40
0.3
100
AcDbArc
 50
269.99999999999949
 51
0.0000000000001018
  0
LINE
  5
506
100
AcDbEntity
  8
0
  6
CONTINUOUS
 62
               4
100
AcDbLine
 10
-76.929581784804896
 20
-0.9671840122014856
 30
0.0
 11
-76.929581784804896
 21
-0.8681941132681601
 31
0.0
  0
ARC
  5
507
100
AcDbEntity
  8
0
  6
CONTINUOUS
 62
               4
100
AcDbCircle
 10
-78.522632841732616
 20
18.132815976598522
 30
0.0
 40
0.5
100
AcDbArc
 50
89.999999999999901
 51
115.03102081721822
  0
LINE
  5
508
100
AcDbEntity
  8
0
  6
CONTINUOUS
 62
               4
100
AcDbLine
 10
-90.632612080004833
 20
4.1307957828651922
 30
0.0
 11
-90.632612080004833
 21
3.5297856821984794
 31
0.0
  0
LINE
  5
509
100
AcDbEntity
  8
0
  6
CONTINUOUS
 62
               4
100
AcDbLine
 10
-83.632612084004904
 20
-0.3661739115348439
 30
0.0
 11
-83.632612084005018
 21
15.981300826598499
 31
0.0
  0
LINE
  5
50A
100
AcDbEntity
  8
0
  6
CONTINUOUS
 62
               4
100
AcDbLine
 10
-78.734187286115628
 20
18.585855397688775
 30
0.0
 11
-83.34271309427163
 21
16.433826078865167
 31
0.0
  0
LINE
  5
50B
100
AcDbEntity
  8
0
  6
CONTINUOUS
 62
               4
100
AcDbLine
 10
-85.63362218387158
 20
4.1307957828651922
 30
0.0
 11
-85.63362218387158
 21
3.5297856821984794
 31
0.0
  0
LINE
  5
50C
100
AcDbEntity
  8
0
  6
CONTINUOUS
 62
               4
100
AcDbLine
 10
-85.13160198213825
 20
0.0297856841985151
 30
0.0
 11
-85.428571678938169
 21
-0.2671840126015184
 31
0.0
  0
LINE
  5
50D
100
AcDbEntity
  8
0
  6
CONTINUOUS
 62
               4
100
AcDbLine
 10
-83.632612084004904
 20
4.1307957828651922
 30
0.0
 11
-85.63362218387158
 21
4.1307957828651922
 31
0.0
  0
LINE
  5
50E
100
AcDbEntity
  8
0
  6
CONTINUOUS
 62
               4
100
AcDbLine
 10
-78.520490874804977
 20
18.632815976598508
 30
0.0
 11
-78.520490874804864
 21
-0.8681941132681601
 31
0.0
  0
ARC
  5
50F
100
AcDbEntity
  8
0
  6
CONTINUOUS
 62
               4
100
AcDbCircle
 10
-83.132899761161752
 20
15.980293516059334
 30
0.0
 40
0.4997133381008655
100
AcDbArc
 50
114.82621530980938
 51
179.88450442035676
  0
ARC
  5
510
100
AcDbEntity
  8
0
  6
CONTINUOUS
 62
               4
100
AcDbCircle
 10
-83.135975232526221
 20
-0.3715572617895191
 30
0.0
 40
0.4966660273328702
100
AcDbArc
 50
179.37896036356352
 51
270.62103963643341
  0
ARC
  5
511
100
AcDbEntity
  8
0
  6
CONTINUOUS
 62
               4
100
AcDbCircle
 10
-82.635554905742083
 20
-0.4722183484942093
 30
0.0
 40
0.4950149226876425
100
AcDbArc
 50
233.12312474116433
 51
270.80830412457811
  0
ARC
  5
512
100
AcDbEntity
  8
0
  6
CONTINUOUS
 62
               4
100
AcDbCircle
 10
-84.035538317983878
 20
-0.3725112550060032
 30
0.0
 40
0.4029269013737999
100
AcDbArc
 50
280.09177155739565
 51
359.89571641425016
  0
ARC
  5
513
100
AcDbEntity
  8
0
  6
CONTINUOUS
 62
               4
100
AcDbCircle
 10
-84.036476430959283
 20
-0.3740786627558634
 30
0.0
 40
0.403865208170398
100
AcDbArc
 50
0.118324735515159
 51
89.881675264486262
  0
LINE
  5
514
100
AcDbEntity
  8
0
  6
CONTINUOUS
 62
               4
100
AcDbLine
 10
-85.025541376138221
 20
-1.9712244156681891
 30
0.0
 11
-90.130591878271616
 21
-2.8692042131348501
 31
0.0
  0
LINE
  5
515
100
AcDbEntity
  8
0
  6
CONTINUOUS
 62
               4
100
AcDbLine
 10
-83.964935316138167
 20
-0.7692042143348203
 30
0.0
 11
-90.22707570381408
 21
-1.8722345167348351
 31
0.0
  0
LINE
  5
516
100
AcDbEntity
  8
0
  6
CONTINUOUS
 62
               4
100
AcDbLine
 10
-90.632612080004833
 20
3.5297856821984794
 30
0.0
 11
-85.63362218387158
 21
3.5297856821984794
 31
0.0
  0
LINE
  5
517
100
AcDbEntity
  8
0
  6
CONTINUOUS
 62
               4
100
AcDbLine
 10
-85.025541376138221
 20
-1.9712244156681891
 30
0.0
 11
-75.935642391604858
 21
-1.9712244156681749
 31
0.0
  0
LINE
  5
518
100
AcDbEntity
  8
0
  6
CONTINUOUS
 62
               4
100
AcDbLine
 10
-82.628571680538244
 20
-0.9671840122014999
 30
0.0
 11
-76.929581784804896
 21
-0.9671840122014856
 31
0.0
  0
LINE
  5
519
100
AcDbEntity
  8
0
  6
CONTINUOUS
 62
               4
100
AcDbLine
 10
-75.635642391604961
 20
-0.8681941132681601
 30
0.0
 11
-83.130591882271574
 21
-0.8681941132681743
 31
0.0
  0
LINE
  5
51A
100
AcDbEntity
  8
0
  6
CONTINUOUS
 62
               4
100
AcDbLine
 10
-77.635642391605074
 20
18.632815976598508
 30
0.0
 11
-78.522632841732616
 21
18.632815976598508
 31
0.0
  0
LINE
  5
51B
100
AcDbEntity
  8
0
  6
CONTINUOUS
 62
               7
100
AcDbLine
 10
-59.935642391605029
 20
18.132815671422719
 30
0.0
 11
-77.635642391605074
 21
18.132815671422719
 31
0.0
  0
LINE
  5
51C
100
AcDbEntity
  8
0
  6
CONTINUOUS
 62
               4
100
AcDbLine
 10
-65.335642391605063
 20
-3.2671840234015832
 30
0.0
 11
-65.335642391605063
 21
-3.8671840234014923
 31
0.0
  0
LINE
  5
51D
100
AcDbEntity
  8
0
  6
CONTINUOUS
 62
               4
100
AcDbLine
 10
-62.318547244946842
 20
-3.867184023401478
 30
0.0
 11
-73.635645208131848
 21
-3.8671840234015633
 31
0.0
  0
ARC
  5
51E
100
AcDbEntity
  8
0
  6
CONTINUOUS
 62
               4
100
AcDbCircle
 10
-64.119730396842101
 20
-3.2682720286384779
 30
0.0
 40
0.5989129830170392
100
AcDbArc
 50
179.89591452477256
 51
270.1040854752265
  0
ARC
  5
51F
100
AcDbEntity
  8
0
  6
CONTINUOUS
 62
               4
100
AcDbCircle
 10
-62.318547244946899
 20
-3.267279170059652
 30
0.0
 40
0.5999048608870732
100
AcDbArc
 50
303.56005066674135
 51
0.0090872775462214
  0
LINE
  5
520
100
AcDbEntity
  8
0
  6
CONTINUOUS
 62
               4
100
AcDbLine
 10
-61.635642391605074
 20
-3.267184023401569
 30
0.0
 11
-65.335642391605063
 21
-3.2671840234015832
 31
0.0
  0
LINE
  5
521
100
AcDbEntity
  8
0
  6
CONTINUOUS
 62
               4
100
AcDbLine
 10
-73.635645208131848
 20
-3.8671840234015633
 30
0.0
 11
-73.635645208131848
 21
-2.2671840234015832
 31
0.0
  0
LINE
  5
522
100
AcDbEntity
  8
0
  6
CONTINUOUS
 62
               4
100
AcDbLine
 10
-61.635642391605074
 20
-2.267184023401569
 30
0.0
 11
-73.635645208131848
 21
-2.2671840234015832
 31
0.0
  0
LINE
  5
523
100
AcDbEntity
  8
0
  6
CONTINUOUS
 62
               4
100
AcDbLine
 10
-75.135642391605074
 20
-3.7671840234014837
 30
0.0
 11
-73.635642391605074
 21
-3.7671840234014837
 31
0.0
  0
ARC
  5
524
100
AcDbEntity
  8
0
  6
CONTINUOUS
 62
               4
100
AcDbCircle
 10
-75.135642391605074
 20
-3.2671840234014837
 30
0.0
 40
0.5
100
AcDbArc
 50
179.99999999999963
 51
269.99999999999937
  0
ARC
  5
525
100
AcDbEntity
  8
0
  6
CONTINUOUS
 62
               4
100
AcDbCircle
 10
-62.135642391605074
 20
-3.2671840234014837
 30
0.0
 40
0.5
100
AcDbArc
 50
294.73039869685095
 51
0.0
  0
ARC
  5
526
100
AcDbEntity
  8
0
  6
CONTINUOUS
 62
               4
100
AcDbCircle
 10
-62.318547244946899
 20
-3.267279170059652
 30
0.0
 40
0.5999048608870732
100
AcDbArc
 50
269.990912722453
 51
303.56005066674055
  0
LINE
  5
527
100
AcDbEntity
  8
0
  6
CONTINUOUS
 62
               4
100
AcDbLine
 10
-61.635642391605074
 20
-3.2671840234014553
 30
0.0
 11
-61.635642391605074
 21
18.132815671422733
 31
0.0
  0
LINE
  5
528
100
AcDbEntity
  8
0
  6
CONTINUOUS
 62
               4
100
AcDbLine
 10
-75.635642391605074
 20
18.132815673629423
 30
0.0
 11
-75.635642391605018
 21
-3.2671840183337508
 31
0.0
  0
LINE
  5
529
100
AcDbEntity
  8
0
  6
CONTINUOUS
 62
               7
100
AcDbLine
 10
-59.935642391605029
 20
18.132815671422719
 30
0.0
 11
-59.635642391605018
 21
18.43281567142273
 31
0.0
  0
LINE
  5
52A
100
AcDbEntity
  8
0
  6
CONTINUOUS
 62
               4
100
AcDbLine
 10
-91.629581776404905
 20
4.130795782865178
 30
0.0
 11
-91.629581776404905
 21
0.0297856841985009
 31
0.0
  0
LINE
  5
52B
100
AcDbEntity
  8
0
  6
CONTINUOUS
 62
               4
100
AcDbLine
 10
-91.629581776404905
 20
-1.8722345167348493
 30
0.0
 11
-91.629581776404905
 21
-2.8692042131348643
 31
0.0
  0
LINE
  5
52C
100
AcDbEntity
  8
0
  6
CONTINUOUS
 62
               4
100
AcDbLine
 10
-91.629581776404905
 20
0.0297856841985009
 30
0.0
 11
-91.332612079604928
 21
-0.2671840126015326
 31
0.0
  0
LINE
  5
52D
100
AcDbEntity
  8
0
  6
CONTINUOUS
 62
               4
100
AcDbLine
 10
-95.447763592404897
 20
0.9772604311318247
 30
0.0
 11
-91.629581776404905
 21
0.9772604311318247
 31
0.0
  0
LINE
  5
52E
100
AcDbEntity
  8
0
  6
CONTINUOUS
 62
             200
100
AcDbLine
 10
-94.959884804804915
 20
0.128775583131798
 30
0.0
 11
-96.692208036138254
 21
3.1338260864651062
 31
0.0
  0
LINE
  5
52F
100
AcDbEntity
  8
0
  6
CONTINUOUS
 62
               4
100
AcDbLine
 10
-96.19725854147157
 20
2.2782705313984621
 30
0.0
 11
-91.629581776404905
 21
2.2782705313984621
 31
0.0
  0
LINE
  5
530
100
AcDbEntity
  8
0
  6
CONTINUOUS
 62
             200
100
AcDbLine
 10
-95.306349451071583
 20
0.128775583131798
 30
0.0
 11
-97.038672682404922
 21
3.1267553793984604
 31
0.0
  0
LINE
  5
531
100
AcDbEntity
  8
0
  6
CONTINUOUS
 62
             200
100
AcDbLine
 10
-95.30634945107164
 20
112.13685575971344
 30
0.0
 11
-97.038672682404979
 21
109.13887596344678
 31
0.0
  0
LINE
  5
532
100
AcDbEntity
  8
0
  6
CONTINUOUS
 62
               4
100
AcDbLine
 10
-96.197258541471655
 20
109.98736081144678
 30
0.0
 11
-91.62958177640499
 21
109.98736081144678
 31
0.0
  0
LINE
  5
533
100
AcDbEntity
  8
0
  6
CONTINUOUS
 62
             200
100
AcDbLine
 10
-94.959884804805
 20
112.13685575971344
 30
0.0
 11
-96.692208036138311
 21
109.13180525638013
 31
0.0
  0
LINE
  5
534
100
AcDbEntity
  8
0
  6
CENTER
 62
               2
100
AcDbLine
 10
-247.16897562172608
 20
43.132815479676495
 30
0.0
 11
-242.16897562172605
 21
43.132815479676495
 31
0.0
  0
LINE
  5
535
100
AcDbEntity
  8
0
  6
CENTER
 62
               2
100
AcDbLine
 10
-247.16897562172608
 20
78.132815865191375
 30
0.0
 11
-242.16897562172605
 21
78.132815865191375
 31
0.0
  0
LINE
  5
536
100
AcDbEntity
  8
0
  6
CONTINUOUS
 62
               7
100
AcDbLine
 10
-208.96897563543388
 20
32.132815671422634
 30
0.0
 11
-226.96897563543388
 21
32.132815671422662
 31
0.0
  0
LINE
  5
537
100
AcDbEntity
  8
0
  6
CENTER
 62
               2
100
AcDbLine
 10
-236.16897563079505
 20
62.832815672433895
 30
0.0
 11
-236.16897563079505
 21
74.832815672433895
 31
0.0
  0
LINE
  5
538
100
AcDbEntity
  8
0
  6
CONTINUOUS
 62
               7
100
AcDbLine
 10
-209.96897563543391
 20
67.682815675691984
 30
0.0
 11
-209.96897563543391
 21
70.982815675691981
 31
0.0
  0
ARC
  5
539
100
AcDbEntity
  8
0
  6
CONTINUOUS
 62
               7
100
AcDbCircle
 10
-209.96788763019691
 20
70.233903680928989
 30
0.0
 40
0.5989129830170392
100
AcDbArc
 50
359.89591452477219
 51
90.104085475226924
  0
LINE
  5
53A
100
AcDbEntity
  8
0
  6
CONTINUOUS
 62
               7
100
AcDbLine
 10
-209.36897563543394
 20
68.432720529033787
 30
0.0
 11
-209.36897563543394
 21
70.233903680928989
 31
0.0
  0
ARC
  5
53B
100
AcDbEntity
  8
0
  6
CONTINUOUS
 62
               7
100
AcDbCircle
 10
-209.96888048877577
 20
68.432720529033787
 30
0.0
 40
0.5999048608870732
100
AcDbArc
 50
269.99091272245317
 51
0.0090872775463741
  0
LINE
  5
53C
100
AcDbEntity
  8
0
  6
CONTINUOUS
 62
               7
100
AcDbLine
 10
-209.96897562629886
 20
67.682815675691984
 30
0.0
 11
-208.96897563543391
 21
67.682815675691984
 31
0.0
  0
LINE
  5
53D
100
AcDbEntity
  8
0
  6
CONTINUOUS
 62
               7
100
AcDbLine
 10
-209.96897562629886
 20
70.982815675691981
 30
0.0
 11
-208.96897563543391
 21
70.982815675691981
 31
0.0
  0
LINE
  5
53E
100
AcDbEntity
  8
0
  6
CENTER
 62
               2
100
AcDbLine
 10
-230.16897563079505
 20
68.832815672433895
 30
0.0
 11
-242.16897563079505
 21
68.832815672433895
 31
0.0
  0
LINE
  5
53F
100
AcDbEntity
  8
0
  6
CONTINUOUS
 62
               7
100
AcDbLine
 10
-226.96897563543388
 20
79.632815671422648
 30
0.0
 11
-227.6689756354339
 21
79.632815671422648
 31
0.0
  0
LINE
  5
540
100
AcDbEntity
  8
0
  6
CONTINUOUS
 62
               7
100
AcDbLine
 10
-244.66897563079505
 20
84.132815673445194
 30
0.0
 11
-227.66897563543392
 21
84.132815673445194
 31
0.0
  0
ARC
  5
541
100
AcDbEntity
  8
0
  6
CONTINUOUS
 62
               4
100
AcDbCircle
 10
-208.08198518530628
 20
94.132815366246774
 30
0.0
 40
0.5
100
AcDbArc
 50
269.99999999999937
 51
295.03102081721772
  0
LINE
  5
542
100
AcDbEntity
  8
0
  6
CONTINUOUS
 62
               4
100
AcDbLine
 10
-187.47301605290056
 20
111.28837091171341
 30
0.0
 11
-190.81038978836725
 21
111.28837091171341
 31
0.0
  0
LINE
  5
543
100
AcDbEntity
  8
0
  6
CONTINUOUS
 62
               4
100
AcDbLine
 10
-187.47301605290056
 20
109.98736081144678
 30
0.0
 11
-190.06089483930057
 21
109.98736081144678
 31
0.0
  0
LINE
  5
544
100
AcDbEntity
  8
0
  6
CONTINUOUS
 62
             200
100
AcDbLine
 10
-191.29826857596726
 20
112.13685575971344
 30
0.0
 11
-189.56594534463392
 21
109.13887596344678
 31
0.0
  0
LINE
  5
545
100
AcDbEntity
  8
0
  6
CONTINUOUS
 62
               4
100
AcDbLine
 10
-194.97503625063391
 20
108.13483555998006
 30
0.0
 11
-194.97503625063391
 21
112.23584565864674
 31
0.0
  0
LINE
  5
546
100
AcDbEntity
  8
0
  6
CONTINUOUS
 62
               4
100
AcDbLine
 10
-194.97503625063391
 20
114.13786585958009
 30
0.0
 11
-194.97503625063391
 21
115.1348355559801
 31
0.0
  0
LINE
  5
547
100
AcDbEntity
  8
0
  6
CONTINUOUS
 62
               4
100
AcDbLine
 10
-194.97503625063391
 20
112.23584565864674
 30
0.0
 11
-195.27200594743391
 21
112.53281535544677
 31
0.0
  0
LINE
  5
548
100
AcDbEntity
  8
0
  6
CONTINUOUS
 62
               4
100
AcDbLine
 10
-195.97200594703395
 20
108.13483555998006
 30
0.0
 11
-195.97200594703395
 21
108.73584566064677
 31
0.0
  0
LINE
  5
549
100
AcDbEntity
  8
0
  6
CONTINUOUS
 62
               4
100
AcDbLine
 10
-190.40735948556724
 20
109.98736081144678
 30
0.0
 11
-194.97503625063391
 21
109.98736081144678
 31
0.0
  0
LINE
  5
54A
100
AcDbEntity
  8
0
  6
CONTINUOUS
 62
             200
100
AcDbLine
 10
-191.6447332222339
 20
112.13685575971344
 30
0.0
 11
-189.91240999090058
 21
109.13180525638013
 31
0.0
  0
LINE
  5
54B
100
AcDbEntity
  8
0
  6
CONTINUOUS
 62
               4
100
AcDbLine
 10
-191.15685443463391
 20
111.28837091171341
 30
0.0
 11
-194.97503625063391
 21
111.28837091171341
 31
0.0
  0
LINE
  5
54C
100
AcDbEntity
  8
0
  6
CONTINUOUS
 62
               4
100
AcDbLine
 10
-194.97503625063391
 20
115.1348355559801
 30
0.0
 11
-196.47402614876722
 21
115.1348355559801
 31
0.0
  0
LINE
  5
54D
100
AcDbEntity
  8
0
  6
CONTINUOUS
 62
               4
100
AcDbLine
 10
-194.97503625063391
 20
114.13786585958009
 30
0.0
 11
-196.38210695690057
 21
114.13786585958009
 31
0.0
  0
LINE
  5
54E
100
AcDbEntity
  8
0
  6
CONTINUOUS
 62
               4
100
AcDbLine
 10
-195.97200594703395
 20
108.13483555998006
 30
0.0
 11
-194.97503625063391
 21
108.13483555998006
 31
0.0
  0
LINE
  5
54F
100
AcDbEntity
  8
0
  6
CONTINUOUS
 62
               4
100
AcDbLine
 10
-187.47301605290056
 20
109.98736081144678
 30
0.0
 11
-187.47301605290056
 21
111.28837091171341
 31
0.0
  0
LINE
  5
550
100
AcDbEntity
  8
0
  6
CONTINUOUS
 62
               4
100
AcDbLine
 10
-183.9730160549006
 20
110.88534060891341
 30
0.0
 11
-187.47301605290056
 21
110.88534060891341
 31
0.0
  0
LINE
  5
551
100
AcDbEntity
  8
0
  6
CONTINUOUS
 62
               4
100
AcDbLine
 10
-183.9730160549006
 20
110.38332040718008
 30
0.0
 11
-187.47301605290056
 21
110.38332040718008
 31
0.0
  0
LINE
  5
552
100
AcDbEntity
  8
0
  6
CONTINUOUS
 62
               4
100
AcDbLine
 10
-183.9730160549006
 20
110.38332040718008
 30
0.0
 11
-183.9730160549006
 21
110.88534060891341
 31
0.0
  0
LINE
  5
553
100
AcDbEntity
  8
0
  6
CONTINUOUS
 62
               4
100
AcDbLine
 10
-202.97200594303391
 20
112.6318052543801
 30
0.0
 11
-202.97200594303391
 21
96.284330516246769
 31
0.0
  0
LINE
  5
554
100
AcDbEntity
  8
0
  6
CONTINUOUS
 62
               4
100
AcDbLine
 10
-207.87043074092327
 20
93.679775945156507
 30
0.0
 11
-203.26190493276727
 21
95.831805263980101
 31
0.0
  0
LINE
  5
555
100
AcDbEntity
  8
0
  6
CONTINUOUS
 62
               4
100
AcDbLine
 10
-200.97099584316726
 20
108.13483555998006
 30
0.0
 11
-200.97099584316726
 21
108.73584566064677
 31
0.0
  0
LINE
  5
556
100
AcDbEntity
  8
0
  6
CONTINUOUS
 62
               4
100
AcDbLine
 10
-201.47301604490056
 20
112.23584565864674
 30
0.0
 11
-201.17604634810061
 21
112.53281535544677
 31
0.0
  0
LINE
  5
557
100
AcDbEntity
  8
0
  6
CONTINUOUS
 62
               4
100
AcDbLine
 10
-202.97200594303391
 20
108.13483555998006
 30
0.0
 11
-200.97099584316726
 21
108.13483555998006
 31
0.0
  0
LINE
  5
558
100
AcDbEntity
  8
0
  6
CONTINUOUS
 62
               4
100
AcDbLine
 10
-208.08412715223395
 20
93.632815366246774
 30
0.0
 11
-208.08412715223395
 21
113.13382545611343
 31
0.0
  0
ARC
  5
559
100
AcDbEntity
  8
0
  6
CONTINUOUS
 62
               4
100
AcDbCircle
 10
-203.47171826587714
 20
96.285337826785934
 30
0.0
 40
0.4997133381008655
100
AcDbArc
 50
294.82621530980896
 51
359.88450442035634
  0
ARC
  5
55A
100
AcDbEntity
  8
0
  6
CONTINUOUS
 62
               4
100
AcDbCircle
 10
-203.46864279451259
 20
112.63718860463477
 30
0.0
 40
0.4966660273328702
100
AcDbArc
 50
359.37896036356381
 51
90.621039636433693
  0
ARC
  5
55B
100
AcDbEntity
  8
0
  6
CONTINUOUS
 62
               4
100
AcDbCircle
 10
-203.96906312129673
 20
112.73784969133946
 30
0.0
 40
0.4950149226876425
100
AcDbArc
 50
53.12312474116473
 51
90.808304124578541
  0
ARC
  5
55C
100
AcDbEntity
  8
0
  6
CONTINUOUS
 62
               4
100
AcDbCircle
 10
-202.5690797090549
 20
112.63814259785126
 30
0.0
 40
0.4029269013737999
100
AcDbArc
 50
100.09177155739594
 51
179.89571641425047
  0
ARC
  5
55D
100
AcDbEntity
  8
0
  6
CONTINUOUS
 62
               4
100
AcDbCircle
 10
-202.56814159607956
 20
112.63971000560112
 30
0.0
 40
0.403865208170398
100
AcDbArc
 50
180.11832473551465
 51
269.88167526448575
  0
LINE
  5
55E
100
AcDbEntity
  8
0
  6
CONTINUOUS
 62
               4
100
AcDbLine
 10
-201.57907665090059
 20
114.23685575851344
 30
0.0
 11
-196.47402614876722
 21
115.1348355559801
 31
0.0
  0
LINE
  5
55F
100
AcDbEntity
  8
0
  6
CONTINUOUS
 62
               4
100
AcDbLine
 10
-202.63968271090062
 20
113.03483555718007
 30
0.0
 11
-196.37754232322473
 21
114.13786585958009
 31
0.0
  0
LINE
  5
560
100
AcDbEntity
  8
0
  6
CONTINUOUS
 62
               4
100
AcDbLine
 10
-195.97200594703395
 20
108.73584566064677
 30
0.0
 11
-200.97099584316726
 21
108.73584566064677
 31
0.0
  0
LINE
  5
561
100
AcDbEntity
  8
0
  6
CONTINUOUS
 62
               4
100
AcDbLine
 10
-195.27200594743391
 20
112.53281535544677
 30
0.0
 11
-201.17604634810061
 21
112.53281535544677
 31
0.0
  0
LINE
  5
562
100
AcDbEntity
  8
0
  6
CONTINUOUS
 62
               4
100
AcDbLine
 10
-194.97503625063391
 20
112.23584565864674
 30
0.0
 11
-202.56897564023393
 21
112.23584565864674
 31
0.0
  0
LINE
  5
563
100
AcDbEntity
  8
0
  6
CONTINUOUS
 62
               4
100
AcDbLine
 10
-194.97503625063391
 20
111.53584565904676
 30
0.0
 11
-202.97200594303391
 21
111.53584565904676
 31
0.0
  0
LINE
  5
564
100
AcDbEntity
  8
0
  6
CONTINUOUS
 62
               4
100
AcDbLine
 10
-194.97503625063391
 20
109.73281535704676
 30
0.0
 11
-202.97200594303391
 21
109.73281535704676
 31
0.0
  0
LINE
  5
565
100
AcDbEntity
  8
0
  6
CONTINUOUS
 62
               4
100
AcDbLine
 10
-201.57907665090059
 20
114.23685575851344
 30
0.0
 11
-210.66897563543392
 21
114.23685575851344
 31
0.0
  0
LINE
  5
566
100
AcDbEntity
  8
0
  6
CONTINUOUS
 62
               4
100
AcDbLine
 10
-203.9760463465006
 20
113.23281535504675
 30
0.0
 11
-209.67503624223392
 21
113.23281535504675
 31
0.0
  0
LINE
  5
567
100
AcDbEntity
  8
0
  6
CONTINUOUS
 62
               4
100
AcDbLine
 10
-210.96897563543388
 20
113.13382545611343
 30
0.0
 11
-203.47402614476724
 21
113.13382545611343
 31
0.0
  0
LINE
  5
568
100
AcDbEntity
  8
0
  6
CONTINUOUS
 62
               4
100
AcDbLine
 10
-208.96897563543388
 20
93.632815366246774
 30
0.0
 11
-208.08198518530628
 21
93.632815366246774
 31
0.0
  0
LINE
  5
569
100
AcDbEntity
  8
0
  6
CONTINUOUS
 62
               7
100
AcDbLine
 10
-226.6689756354339
 20
94.132815671422577
 30
0.0
 11
-208.96897563543388
 21
94.132815671422577
 31
0.0
  0
LINE
  5
56A
100
AcDbEntity
  8
0
  6
CONTINUOUS
 62
               4
100
AcDbLine
 10
-221.26897563543389
 20
115.53281536624687
 30
0.0
 11
-221.26897563543389
 21
116.13281536624677
 31
0.0
  0
LINE
  5
56B
100
AcDbEntity
  8
0
  6
CONTINUOUS
 62
               4
100
AcDbLine
 10
-224.28607078209211
 20
116.13281536624676
 30
0.0
 11
-212.96897281890713
 21
116.13281536624683
 31
0.0
  0
ARC
  5
56C
100
AcDbEntity
  8
0
  6
CONTINUOUS
 62
               4
100
AcDbCircle
 10
-222.48488763019688
 20
115.53390337148377
 30
0.0
 40
0.5989129830170392
100
AcDbArc
 50
359.89591452477293
 51
90.104085475226867
  0
ARC
  5
56D
100
AcDbEntity
  8
0
  6
CONTINUOUS
 62
               4
100
AcDbCircle
 10
-224.28607078209211
 20
115.53291051290495
 30
0.0
 40
0.5999048608870732
100
AcDbArc
 50
123.56005066674096
 51
180.00908727754583
  0
LINE
  5
56E
100
AcDbEntity
  8
0
  6
CONTINUOUS
 62
               4
100
AcDbLine
 10
-224.96897563543388
 20
115.53281536624687
 30
0.0
 11
-221.26897563543389
 21
115.53281536624687
 31
0.0
  0
LINE
  5
56F
100
AcDbEntity
  8
0
  6
CONTINUOUS
 62
               4
100
AcDbLine
 10
-212.96897281890713
 20
116.13281536624683
 30
0.0
 11
-212.96897281890713
 21
114.53281536624688
 31
0.0
  0
LINE
  5
570
100
AcDbEntity
  8
0
  6
CONTINUOUS
 62
               4
100
AcDbLine
 10
-224.96897563543394
 20
114.53281536624685
 30
0.0
 11
-212.96897281890713
 21
114.53281536624688
 31
0.0
  0
LINE
  5
571
100
AcDbEntity
  8
0
  6
CONTINUOUS
 62
               4
100
AcDbLine
 10
-211.46897563543391
 20
116.03281536624675
 30
0.0
 11
-212.96897563543388
 21
116.03281536624675
 31
0.0
  0
ARC
  5
572
100
AcDbEntity
  8
0
  6
CONTINUOUS
 62
               4
100
AcDbCircle
 10
-211.46897563543391
 20
115.53281536624675
 30
0.0
 40
0.5
100
AcDbArc
 50
0.0
 51
89.999999999999815
  0
ARC
  5
573
100
AcDbEntity
  8
0
  6
CONTINUOUS
 62
               4
100
AcDbCircle
 10
-224.46897563543388
 20
115.53281536624678
 30
0.0
 40
0.5
100
AcDbArc
 50
114.73039869685056
 51
179.99999999999963
  0
ARC
  5
574
100
AcDbEntity
  8
0
  6
CONTINUOUS
 62
               4
100
AcDbCircle
 10
-224.28607078209211
 20
115.53291051290495
 30
0.0
 40
0.5999048608870732
100
AcDbArc
 50
89.99091272245343
 51
123.56005066674096
  0
LINE
  5
575
100
AcDbEntity
  8
0
  6
CONTINUOUS
 62
               4
100
AcDbLine
 10
-224.96897563543394
 20
115.53281536624675
 30
0.0
 11
-224.96897563543394
 21
94.132815671422577
 31
0.0
  0
LINE
  5
576
100
AcDbEntity
  8
0
  6
CONTINUOUS
 62
               4
100
AcDbLine
 10
-210.96897563543394
 20
94.132815669215859
 30
0.0
 11
-210.96897563543394
 21
115.53281536117905
 31
0.0
  0
LINE
  5
577
100
AcDbEntity
  8
0
  6
CONTINUOUS
 62
               7
100
AcDbLine
 10
-226.96897563543388
 20
80.032815671422568
 30
0.0
 11
-226.86897563543388
 21
80.132815671422563
 31
0.0
  0
LINE
  5
578
100
AcDbEntity
  8
0
  6
CONTINUOUS
 62
               7
100
AcDbLine
 10
-226.6689756354339
 20
94.132815671422577
 30
0.0
 11
-226.96897563543391
 21
93.832815671422566
 31
0.0
  0
LINE
  5
579
100
AcDbEntity
  8
0
  6
CONTINUOUS
 62
               7
100
AcDbLine
 10
-226.86897563543388
 20
80.132815671422648
 30
0.0
 11
-208.96897563543391
 21
80.132815671422648
 31
0.0
  0
LINE
  5
57A
100
AcDbEntity
  8
0
  6
CONTINUOUS
 62
               7
100
AcDbLine
 10
-226.96897563543391
 20
80.032815671422654
 30
0.0
 11
-226.86897563543388
 21
80.132815671422648
 31
0.0
  0
ARC
  5
57B
100
AcDbEntity
  8
0
  6
CONTINUOUS
 62
               4
100
AcDbCircle
 10
-210.66897563543392
 20
113.93685575851345
 30
0.0
 40
0.3
100
AcDbArc
 50
89.999999999999815
 51
179.99999999999963
  0
LINE
  5
57C
100
AcDbEntity
  8
0
  6
CONTINUOUS
 62
               4
100
AcDbLine
 10
-209.67503624223392
 20
113.23281535504675
 30
0.0
 11
-209.67503624223392
 21
113.13382545611343
 31
0.0
  0
LINE
  5
57D
100
AcDbEntity
  8
0
  6
CENTER
 62
               2
100
AcDbLine
 10
-230.16897563079505
 20
52.33281567243391
 30
0.0
 11
-242.16897563079505
 21
52.33281567243391
 31
0.0
  0
CIRCLE
  5
57E
100
AcDbEntity
  8
0
  6
CONTINUOUS
 62
               2
100
AcDbCircle
 10
-236.16897563079505
 20
52.33281567243391
 30
0.0
 40
4.8639993667602539
  0
CIRCLE
  5
57F
100
AcDbEntity
  8
0
  6
CONTINUOUS
 62
               7
100
AcDbCircle
 10
-236.16897563079505
 20
52.33281567243391
 30
0.0
 40
4.2779998779296875
  0
LINE
  5
580
100
AcDbEntity
  8
0
  6
CONTINUOUS
 62
               7
100
AcDbLine
 10
-227.66897563543392
 20
41.632815671422662
 30
0.0
 11
-226.96897563543388
 21
41.632815671422662
 31
0.0
  0
LINE
  5
581
100
AcDbEntity
  8
0
  6
CONTINUOUS
 62
               7
100
AcDbLine
 10
-244.66897563079505
 20
37.132815671422634
 30
0.0
 11
-227.66897563543392
 21
37.132815671422634
 31
0.0
  0
LINE
  5
582
100
AcDbEntity
  8
0
  6
CONTINUOUS
 62
               7
100
AcDbLine
 10
-208.96897563543388
 20
41.132815671422634
 30
0.0
 11
-226.96897563543388
 21
41.132815671422662
 31
0.0
  0
LINE
  5
583
100
AcDbEntity
  8
0
  6
CONTINUOUS
 62
               7
100
AcDbLine
 10
-244.66897563079505
 20
37.132815671422634
 30
0.0
 11
-227.66897563543392
 21
37.132815671422634
 31
0.0
  0
LINE
  5
584
100
AcDbEntity
  8
0
  6
CONTINUOUS
 62
               7
100
AcDbLine
 10
-226.96897563543394
 20
18.43281567142273
 30
0.0
 11
-226.96897563543388
 21
93.832815671422566
 31
0.0
  0
LINE
  5
585
100
AcDbEntity
  8
0
  6
CENTER
 62
               2
100
AcDbLine
 10
-217.96897563543391
 20
118.76206641725891
 30
0.0
 11
-217.96897563543391
 21
-5.9952495966541619
 31
0.0
  0
LINE
  5
586
100
AcDbEntity
  8
0
  6
CONTINUOUS
 62
               7
100
AcDbLine
 10
-208.96897563543388
 20
18.132815671422719
 30
0.0
 11
-208.96897563543388
 21
94.132815671422577
 31
0.0
  0
LINE
  5
587
100
AcDbEntity
  8
0
  6
CONTINUOUS
 62
               7
100
AcDbLine
 10
-244.66897563543392
 20
37.132815671422634
 30
0.0
 11
-244.66897563543392
 21
84.132815673445194
 31
0.0
  0
LINE
  5
588
100
AcDbEntity
  8
0
  6
CONTINUOUS
 62
               7
100
AcDbLine
 10
-227.66897563543392
 20
37.132815670949867
 30
0.0
 11
-227.66897563543392
 21
84.132815673445194
 31
0.0
  0
CIRCLE
  5
589
100
AcDbEntity
  8
0
  6
CONTINUOUS
 62
               7
100
AcDbCircle
 10
-236.16897563079505
 20
68.832815672433895
 30
0.0
 40
4.2779998779296875
  0
CIRCLE
  5
58A
100
AcDbEntity
  8
0
  6
CONTINUOUS
 62
               2
100
AcDbCircle
 10
-236.16897563079505
 20
68.832815672433895
 30
0.0
 40
4.8639993667602539
  0
LINE
  5
58B
100
AcDbEntity
  8
0
  6
CENTER
 62
               2
100
AcDbLine
 10
-236.16897563079505
 20
46.33281567243391
 30
0.0
 11
-236.16897563079505
 21
58.33281567243391
 31
0.0
  0
LINE
  5
58C
100
AcDbEntity
  8
0
  6
CONTINUOUS
 62
               7
100
AcDbLine
 10
-226.6689756354339
 20
18.132815671422719
 30
0.0
 11
-226.96897563543391
 21
18.43281567142273
 31
0.0
  0
LINE
  5
58D
100
AcDbEntity
  8
0
  6
CONTINUOUS
 62
               4
100
AcDbLine
 10
-224.96897563543399
 20
18.132815673629423
 30
0.0
 11
-224.96897563543388
 21
-3.2671840183337508
 31
0.0
  0
LINE
  5
58E
100
AcDbEntity
  8
0
  6
CONTINUOUS
 62
               4
100
AcDbLine
 10
-210.96897563543394
 20
-3.2671840234014553
 30
0.0
 11
-210.96897563543399
 21
18.132815671422733
 31
0.0
  0
ARC
  5
58F
100
AcDbEntity
  8
0
  6
CONTINUOUS
 62
               4
100
AcDbCircle
 10
-211.65188048877576
 20
-3.267279170059652
 30
0.0
 40
0.5999048608870732
100
AcDbArc
 50
269.990912722453
 51
303.56005066674055
  0
ARC
  5
590
100
AcDbEntity
  8
0
  6
CONTINUOUS
 62
               4
100
AcDbCircle
 10
-211.46897563543394
 20
-3.2671840234014837
 30
0.0
 40
0.5
100
AcDbArc
 50
294.73039869685095
 51
0.0
  0
ARC
  5
591
100
AcDbEntity
  8
0
  6
CONTINUOUS
 62
               4
100
AcDbCircle
 10
-224.46897563543394
 20
-3.2671840234014837
 30
0.0
 40
0.5
100
AcDbArc
 50
179.99999999999963
 51
269.99999999999937
  0
LINE
  5
592
100
AcDbEntity
  8
0
  6
CONTINUOUS
 62
               4
100
AcDbLine
 10
-224.46897563543394
 20
-3.7671840234014837
 30
0.0
 11
-222.96897563543394
 21
-3.7671840234014837
 31
0.0
  0
LINE
  5
593
100
AcDbEntity
  8
0
  6
CONTINUOUS
 62
               4
100
AcDbLine
 10
-210.96897563543394
 20
-2.267184023401569
 30
0.0
 11
-222.96897845196071
 21
-2.2671840234015832
 31
0.0
  0
LINE
  5
594
100
AcDbEntity
  8
0
  6
CONTINUOUS
 62
               4
100
AcDbLine
 10
-222.96897845196071
 20
-3.8671840234015633
 30
0.0
 11
-222.96897845196071
 21
-2.2671840234015832
 31
0.0
  0
LINE
  5
595
100
AcDbEntity
  8
0
  6
CONTINUOUS
 62
               4
100
AcDbLine
 10
-210.96897563543394
 20
-3.267184023401569
 30
0.0
 11
-214.66897563543392
 21
-3.2671840234015832
 31
0.0
  0
ARC
  5
596
100
AcDbEntity
  8
0
  6
CONTINUOUS
 62
               4
100
AcDbCircle
 10
-211.65188048877576
 20
-3.267279170059652
 30
0.0
 40
0.5999048608870732
100
AcDbArc
 50
303.56005066674135
 51
0.0090872775462214
  0
ARC
  5
597
100
AcDbEntity
  8
0
  6
CONTINUOUS
 62
               4
100
AcDbCircle
 10
-213.45306364067096
 20
-3.2682720286384779
 30
0.0
 40
0.5989129830170392
100
AcDbArc
 50
179.89591452477256
 51
270.1040854752265
  0
LINE
  5
598
100
AcDbEntity
  8
0
  6
CONTINUOUS
 62
               4
100
AcDbLine
 10
-211.6518804887757
 20
-3.867184023401478
 30
0.0
 11
-222.96897845196071
 21
-3.8671840234015633
 31
0.0
  0
LINE
  5
599
100
AcDbEntity
  8
0
  6
CONTINUOUS
 62
               4
100
AcDbLine
 10
-214.66897563543392
 20
-3.2671840234015832
 30
0.0
 11
-214.66897563543392
 21
-3.8671840234014923
 31
0.0
  0
LINE
  5
59A
100
AcDbEntity
  8
0
  6
CONTINUOUS
 62
               7
100
AcDbLine
 10
-226.6689756354339
 20
18.132815671422719
 30
0.0
 11
-208.96897563543385
 21
18.132815671422719
 31
0.0
  0
LINE
  5
59B
100
AcDbEntity
  8
0
  6
CONTINUOUS
 62
               4
100
AcDbLine
 10
-208.96897563543385
 20
18.632815976598508
 30
0.0
 11
-208.08198518530631
 21
18.632815976598508
 31
0.0
  0
LINE
  5
59C
100
AcDbEntity
  8
0
  6
CONTINUOUS
 62
               4
100
AcDbLine
 10
-210.96897563543396
 20
-0.8681941132681601
 30
0.0
 11
-203.47402614476735
 21
-0.8681941132681743
 31
0.0
  0
LINE
  5
59D
100
AcDbEntity
  8
0
  6
CONTINUOUS
 62
               4
100
AcDbLine
 10
-203.97604634650068
 20
-0.9671840122014999
 30
0.0
 11
-209.67503624223403
 21
-0.9671840122014856
 31
0.0
  0
LINE
  5
59E
100
AcDbEntity
  8
0
  6
CONTINUOUS
 62
               4
100
AcDbLine
 10
-201.5790766509007
 20
-1.9712244156681891
 30
0.0
 11
-210.66897563543407
 21
-1.9712244156681749
 31
0.0
  0
LINE
  5
59F
100
AcDbEntity
  8
0
  6
CONTINUOUS
 62
               4
100
AcDbLine
 10
-194.97503625063402
 20
2.5328159857984787
 30
0.0
 11
-202.97200594303402
 21
2.5328159857984929
 31
0.0
  0
LINE
  5
5A0
100
AcDbEntity
  8
0
  6
CONTINUOUS
 62
               4
100
AcDbLine
 10
-194.97503625063402
 20
0.7297856837984824
 30
0.0
 11
-202.97200594303402
 21
0.7297856837984966
 31
0.0
  0
LINE
  5
5A1
100
AcDbEntity
  8
0
  6
CONTINUOUS
 62
               4
100
AcDbLine
 10
-194.97503625063402
 20
0.0297856841985009
 30
0.0
 11
-202.56897564023407
 21
0.0297856841985151
 31
0.0
  0
LINE
  5
5A2
100
AcDbEntity
  8
0
  6
CONTINUOUS
 62
               4
100
AcDbLine
 10
-195.272005947434
 20
-0.2671840126015326
 30
0.0
 11
-201.17604634810075
 21
-0.2671840126015184
 31
0.0
  0
LINE
  5
5A3
100
AcDbEntity
  8
0
  6
CONTINUOUS
 62
               4
100
AcDbLine
 10
-195.97200594703409
 20
3.5297856821984794
 30
0.0
 11
-200.97099584316734
 21
3.5297856821984794
 31
0.0
  0
LINE
  5
5A4
100
AcDbEntity
  8
0
  6
CONTINUOUS
 62
               4
100
AcDbLine
 10
-202.63968271090076
 20
-0.7692042143348203
 30
0.0
 11
-196.37754232322484
 21
-1.8722345167348351
 31
0.0
  0
LINE
  5
5A5
100
AcDbEntity
  8
0
  6
CONTINUOUS
 62
               4
100
AcDbLine
 10
-201.5790766509007
 20
-1.9712244156681891
 30
0.0
 11
-196.47402614876731
 21
-2.8692042131348501
 31
0.0
  0
ARC
  5
5A6
100
AcDbEntity
  8
0
  6
CONTINUOUS
 62
               4
100
AcDbCircle
 10
-202.56814159607964
 20
-0.3740786627558634
 30
0.0
 40
0.403865208170398
100
AcDbArc
 50
90.118324735513326
 51
179.88167526448447
  0
ARC
  5
5A7
100
AcDbEntity
  8
0
  6
CONTINUOUS
 62
               4
100
AcDbCircle
 10
-202.56907970905505
 20
-0.3725112550060032
 30
0.0
 40
0.4029269013737999
100
AcDbArc
 50
180.10428358574862
 51
259.90822844260316
  0
ARC
  5
5A8
100
AcDbEntity
  8
0
  6
CONTINUOUS
 62
               4
100
AcDbCircle
 10
-203.96906312129684
 20
-0.4722183484942093
 30
0.0
 40
0.4950149226876425
100
AcDbArc
 50
269.19169587542069
 51
306.87687525883445
  0
ARC
  5
5A9
100
AcDbEntity
  8
0
  6
CONTINUOUS
 62
               4
100
AcDbCircle
 10
-203.4686427945127
 20
-0.3715572617895191
 30
0.0
 40
0.4966660273328702
100
AcDbArc
 50
269.3789603635654
 51
0.6210396364360893
  0
ARC
  5
5AA
100
AcDbEntity
  8
0
  6
CONTINUOUS
 62
               4
100
AcDbCircle
 10
-203.47171826587717
 20
15.980293516059334
 30
0.0
 40
0.4997133381008655
100
AcDbArc
 50
0.1154955796428247
 51
65.173784690190203
  0
LINE
  5
5AB
100
AcDbEntity
  8
0
  6
CONTINUOUS
 62
               4
100
AcDbLine
 10
-208.08412715223395
 20
18.632815976598508
 30
0.0
 11
-208.08412715223406
 21
-0.8681941132681601
 31
0.0
  0
LINE
  5
5AC
100
AcDbEntity
  8
0
  6
CONTINUOUS
 62
               4
100
AcDbLine
 10
-202.97200594303402
 20
4.1307957828651922
 30
0.0
 11
-200.97099584316734
 21
4.1307957828651922
 31
0.0
  0
LINE
  5
5AD
100
AcDbEntity
  8
0
  6
CONTINUOUS
 62
               4
100
AcDbLine
 10
-201.47301604490067
 20
0.0297856841985151
 30
0.0
 11
-201.17604634810075
 21
-0.2671840126015184
 31
0.0
  0
LINE
  5
5AE
100
AcDbEntity
  8
0
  6
CONTINUOUS
 62
               4
100
AcDbLine
 10
-200.97099584316734
 20
4.1307957828651922
 30
0.0
 11
-200.97099584316734
 21
3.5297856821984794
 31
0.0
  0
LINE
  5
5AF
100
AcDbEntity
  8
0
  6
CONTINUOUS
 62
               4
100
AcDbLine
 10
-207.8704307409233
 20
18.585855397688775
 30
0.0
 11
-203.26190493276729
 21
16.433826078865167
 31
0.0
  0
LINE
  5
5B0
100
AcDbEntity
  8
0
  6
CONTINUOUS
 62
               4
100
AcDbLine
 10
-202.97200594303402
 20
-0.3661739115348439
 30
0.0
 11
-202.97200594303391
 21
15.981300826598499
 31
0.0
  0
LINE
  5
5B1
100
AcDbEntity
  8
0
  6
CONTINUOUS
 62
               4
100
AcDbLine
 10
-183.97301605490068
 20
1.8823109356651457
 30
0.0
 11
-183.97301605490068
 21
1.3802907339318153
 31
0.0
  0
LINE
  5
5B2
100
AcDbEntity
  8
0
  6
CONTINUOUS
 62
               4
100
AcDbLine
 10
-183.97301605490068
 20
1.8823109356651457
 30
0.0
 11
-187.4730160529007
 21
1.8823109356651599
 31
0.0
  0
LINE
  5
5B3
100
AcDbEntity
  8
0
  6
CONTINUOUS
 62
               4
100
AcDbLine
 10
-183.97301605490068
 20
1.3802907339318153
 30
0.0
 11
-187.4730160529007
 21
1.3802907339318295
 31
0.0
  0
LINE
  5
5B4
100
AcDbEntity
  8
0
  6
CONTINUOUS
 62
               4
100
AcDbLine
 10
-187.4730160529007
 20
2.2782705313984621
 30
0.0
 11
-187.4730160529007
 21
0.9772604311318247
 31
0.0
  0
LINE
  5
5B5
100
AcDbEntity
  8
0
  6
CONTINUOUS
 62
               4
100
AcDbLine
 10
-195.97200594703409
 20
4.1307957828651922
 30
0.0
 11
-194.97503625063402
 21
4.130795782865178
 31
0.0
  0
LINE
  5
5B6
100
AcDbEntity
  8
0
  6
CONTINUOUS
 62
               4
100
AcDbLine
 10
-194.97503625063402
 20
-1.8722345167348493
 30
0.0
 11
-196.38210695690069
 21
-1.8722345167348351
 31
0.0
  0
LINE
  5
5B7
100
AcDbEntity
  8
0
  6
CONTINUOUS
 62
               4
100
AcDbLine
 10
-194.97503625063402
 20
-2.8692042131348643
 30
0.0
 11
-196.47402614876731
 21
-2.8692042131348501
 31
0.0
  0
LINE
  5
5B8
100
AcDbEntity
  8
0
  6
CONTINUOUS
 62
               4
100
AcDbLine
 10
-191.15685443463403
 20
0.9772604311318247
 30
0.0
 11
-194.97503625063402
 21
0.9772604311318247
 31
0.0
  0
LINE
  5
5B9
100
AcDbEntity
  8
0
  6
CONTINUOUS
 62
             200
100
AcDbLine
 10
-191.64473322223401
 20
0.128775583131798
 30
0.0
 11
-189.91240999090067
 21
3.1338260864651062
 31
0.0
  0
LINE
  5
5BA
100
AcDbEntity
  8
0
  6
CONTINUOUS
 62
               4
100
AcDbLine
 10
-190.40735948556735
 20
2.2782705313984621
 30
0.0
 11
-194.97503625063402
 21
2.2782705313984621
 31
0.0
  0
LINE
  5
5BB
100
AcDbEntity
  8
0
  6
CONTINUOUS
 62
               4
100
AcDbLine
 10
-195.97200594703409
 20
4.1307957828651922
 30
0.0
 11
-195.97200594703409
 21
3.5297856821984794
 31
0.0
  0
LINE
  5
5BC
100
AcDbEntity
  8
0
  6
CONTINUOUS
 62
               4
100
AcDbLine
 10
-194.97503625063402
 20
0.0297856841985009
 30
0.0
 11
-195.272005947434
 21
-0.2671840126015326
 31
0.0
  0
LINE
  5
5BD
100
AcDbEntity
  8
0
  6
CONTINUOUS
 62
               4
100
AcDbLine
 10
-194.97503625063402
 20
-1.8722345167348493
 30
0.0
 11
-194.97503625063402
 21
-2.8692042131348643
 31
0.0
  0
LINE
  5
5BE
100
AcDbEntity
  8
0
  6
CONTINUOUS
 62
               4
100
AcDbLine
 10
-194.97503625063402
 20
4.130795782865178
 30
0.0
 11
-194.97503625063402
 21
0.0297856841985009
 31
0.0
  0
LINE
  5
5BF
100
AcDbEntity
  8
0
  6
CONTINUOUS
 62
             200
100
AcDbLine
 10
-191.29826857596734
 20
0.128775583131798
 30
0.0
 11
-189.565945344634
 21
3.1267553793984604
 31
0.0
  0
LINE
  5
5C0
100
AcDbEntity
  8
0
  6
CONTINUOUS
 62
               4
100
AcDbLine
 10
-187.4730160529007
 20
2.2782705313984621
 30
0.0
 11
-190.06089483930069
 21
2.2782705313984621
 31
0.0
  0
LINE
  5
5C1
100
AcDbEntity
  8
0
  6
CONTINUOUS
 62
               4
100
AcDbLine
 10
-187.4730160529007
 20
0.9772604311318247
 30
0.0
 11
-190.81038978836736
 21
0.9772604311318247
 31
0.0
  0
ARC
  5
5C2
100
AcDbEntity
  8
0
  6
CONTINUOUS
 62
               4
100
AcDbCircle
 10
-208.08198518530631
 20
18.132815976598522
 30
0.0
 40
0.5
100
AcDbArc
 50
64.968979182781382
 51
89.999999999999702
  0
LINE
  5
5C3
100
AcDbEntity
  8
0
  6
CONTINUOUS
 62
               4
100
AcDbLine
 10
-209.67503624223403
 20
-0.9671840122014856
 30
0.0
 11
-209.67503624223403
 21
-0.8681941132681601
 31
0.0
  0
ARC
  5
5C4
100
AcDbEntity
  8
0
  6
CONTINUOUS
 62
               4
100
AcDbCircle
 10
-210.66897563543407
 20
-1.6712244156681777
 30
0.0
 40
0.3
100
AcDbArc
 50
179.99999999999949
 51
269.99999999999932
  0
LINE
  5
5C5
100
AcDbEntity
  8
0
  6
DASHED
 62
             200
100
AcDbLine
 10
-103.20230901351945
 20
84.632815672433921
 30
0.0
 11
-103.20230901351945
 21
69.632815672433921
 31
0.0
  0
ARC
  5
5C6
100
AcDbEntity
  8
0
  6
DASHED
 62
             200
100
AcDbCircle
 10
-103.70230901351945
 20
84.632815672433921
 30
0.0
 40
0.5
100
AcDbArc
 50
0.0
 51
89.999999999999815
  0
ARC
  5
5C7
100
AcDbEntity
  8
0
  6
DASHED
 62
             200
100
AcDbCircle
 10
-103.70230901351945
 20
69.632815672433921
 30
0.0
 40
0.5
100
AcDbArc
 50
269.99999999999937
 51
0.0
  0
LINE
  5
5C8
100
AcDbEntity
  8
0
  6
DASHED
 62
             200
100
AcDbLine
 10
-103.20230901351945
 20
51.632815672433921
 30
0.0
 11
-103.20230901351945
 21
36.632815672433921
 31
0.0
  0
ARC
  5
5C9
100
AcDbEntity
  8
0
  6
DASHED
 62
             200
100
AcDbCircle
 10
-103.70230901351945
 20
51.632815672433921
 30
0.0
 40
0.5
100
AcDbArc
 50
0.0
 51
89.999999999999815
  0
ARC
  5
5CA
100
AcDbEntity
  8
0
  6
DASHED
 62
             200
100
AcDbCircle
 10
-103.70230901351945
 20
36.632815672433921
 30
0.0
 40
0.5
100
AcDbArc
 50
269.99999999999937
 51
0.0
  0
LINE
  5
5CB
100
AcDbEntity
  8
0
  6
DASHED
 62
             200
100
AcDbLine
 10
-111.70230901351945
 20
50.492815672433935
 30
0.0
 11
-108.20230901351945
 21
50.632815672433921
 31
0.0
  0
LINE
  5
5CC
100
AcDbEntity
  8
0
  6
DASHED
 62
             200
100
AcDbLine
 10
-111.70230901351945
 20
37.772815672433907
 30
0.0
 11
-108.20230901351945
 21
37.632815672433921
 31
0.0
  0
LINE
  5
5CD
100
AcDbEntity
  8
0
  6
DASHED
 62
             200
100
AcDbLine
 10
-108.20230901351945
 20
43.132815672433921
 30
0.0
 11
-111.70230901351945
 21
42.87281567243393
 31
0.0
  0
LINE
  5
5CE
100
AcDbEntity
  8
0
  6
DASHED
 62
             200
100
AcDbLine
 10
-108.20230901351945
 20
45.132815672433921
 30
0.0
 11
-111.70230901351945
 21
45.392815672433912
 31
0.0
  0
LINE
  5
5CF
100
AcDbEntity
  8
0
  6
DASHED
 62
             200
100
AcDbLine
 10
-111.70230901351945
 20
83.492815672433935
 30
0.0
 11
-108.20230901351945
 21
83.632815672433921
 31
0.0
  0
LINE
  5
5D0
100
AcDbEntity
  8
0
  6
DASHED
 62
             200
100
AcDbLine
 10
-111.70230901351945
 20
70.772815672433907
 30
0.0
 11
-108.20230901351945
 21
70.632815672433921
 31
0.0
  0
LINE
  5
5D1
100
AcDbEntity
  8
0
  6
DASHED
 62
             200
100
AcDbLine
 10
-108.20230901351945
 20
76.132815672433921
 30
0.0
 11
-111.70230901351945
 21
75.87281567243393
 31
0.0
  0
LINE
  5
5D2
100
AcDbEntity
  8
0
  6
DASHED
 62
             200
100
AcDbLine
 10
-108.20230901351945
 20
78.132815672433921
 30
0.0
 11
-111.70230901351945
 21
78.392815672433912
 31
0.0
  0
LINE
  5
5D3
100
AcDbEntity
  8
0
  6
DASHED
 62
             200
100
AcDbLine
 10
-130.20230901351945
 20
85.212815672433933
 30
0.0
 11
-130.20230901351945
 21
69.052815672433937
 31
0.0
  0
LINE
  5
5D4
100
AcDbEntity
  8
0
  6
DASHED
 62
             200
100
AcDbLine
 10
-130.20230901351945
 20
85.212815672433933
 30
0.0
 11
-123.20230901351945
 21
85.212815672433933
 31
0.0
  0
LINE
  5
5D5
100
AcDbEntity
  8
0
  6
DASHED
 62
             200
100
AcDbLine
 10
-130.20230901351945
 20
81.172815672433913
 30
0.0
 11
-123.20230901351945
 21
81.172815672433913
 31
0.0
  0
LINE
  5
5D6
100
AcDbEntity
  8
0
  6
DASHED
 62
             200
100
AcDbLine
 10
-130.20230901351945
 20
73.092815672433929
 30
0.0
 11
-123.20230901351945
 21
73.092815672433929
 31
0.0
  0
LINE
  5
5D7
100
AcDbEntity
  8
0
  6
DASHED
 62
             200
100
AcDbLine
 10
-130.20230901351945
 20
69.052815672433937
 30
0.0
 11
-123.20230901351945
 21
69.052815672433937
 31
0.0
  0
LINE
  5
5D8
100
AcDbEntity
  8
0
  6
DASHED
 62
             200
100
AcDbLine
 10
-123.20230901351945
 20
85.212815672433933
 30
0.0
 11
-123.20230901351945
 21
69.052815672433937
 31
0.0
  0
LINE
  5
5D9
100
AcDbEntity
  8
0
  6
DASHED
 62
             200
100
AcDbLine
 10
-121.20230901351945
 20
85.132815672433921
 30
0.0
 11
-121.20230901351945
 21
79.132815672433921
 31
0.0
  0
LINE
  5
5DA
100
AcDbEntity
  8
0
  6
DASHED
 62
             200
100
AcDbLine
 10
-117.70230901351945
 20
85.132815672433921
 30
0.0
 11
-117.70230901351945
 21
78.862815672433911
 31
0.0
  0
LINE
  5
5DB
100
AcDbEntity
  8
0
  6
DASHED
 62
             200
100
AcDbLine
 10
-111.70230901351945
 20
85.132815672433921
 30
0.0
 11
-111.70230901351945
 21
78.392815672433912
 31
0.0
  0
LINE
  5
5DC
100
AcDbEntity
  8
0
  6
DASHED
 62
             200
100
AcDbLine
 10
-112.95230901351945
 20
85.132815672433921
 30
0.0
 11
-112.95230901351945
 21
78.492815672433935
 31
0.0
  0
LINE
  5
5DD
100
AcDbEntity
  8
0
  6
DASHED
 62
             200
100
AcDbLine
 10
-116.45230901351945
 20
85.132815672433921
 30
0.0
 11
-116.45230901351945
 21
78.762815672433916
 31
0.0
  0
LINE
  5
5DE
100
AcDbEntity
  8
0
  6
DASHED
 62
             200
100
AcDbLine
 10
-121.20230901351945
 20
75.132815672433921
 30
0.0
 11
-121.20230901351945
 21
69.132815672433921
 31
0.0
  0
LINE
  5
5DF
100
AcDbEntity
  8
0
  6
DASHED
 62
             200
100
AcDbLine
 10
-117.70230901351945
 20
75.402815672433931
 30
0.0
 11
-117.70230901351945
 21
69.132815672433921
 31
0.0
  0
LINE
  5
5E0
100
AcDbEntity
  8
0
  6
DASHED
 62
             200
100
AcDbLine
 10
-116.45230901351945
 20
75.502815672433925
 30
0.0
 11
-116.45230901351945
 21
69.132815672433921
 31
0.0
  0
LINE
  5
5E1
100
AcDbEntity
  8
0
  6
DASHED
 62
             200
100
AcDbLine
 10
-112.95230901351945
 20
75.772815672433907
 30
0.0
 11
-112.95230901351945
 21
69.132815672433921
 31
0.0
  0
LINE
  5
5E2
100
AcDbEntity
  8
0
  6
DASHED
 62
             200
100
AcDbLine
 10
-111.70230901351945
 20
75.87281567243393
 30
0.0
 11
-111.70230901351945
 21
69.132815672433921
 31
0.0
  0
LINE
  5
5E3
100
AcDbEntity
  8
0
  6
DASHED
 62
             200
100
AcDbLine
 10
-117.70230901351945
 20
78.862815672433911
 30
0.0
 11
-121.20230901351945
 21
79.132815672433921
 31
0.0
  0
LINE
  5
5E4
100
AcDbEntity
  8
0
  6
DASHED
 62
             200
100
AcDbLine
 10
-117.70230901351945
 20
75.402815672433931
 30
0.0
 11
-121.20230901351945
 21
75.132815672433921
 31
0.0
  0
LINE
  5
5E5
100
AcDbEntity
  8
0
  6
DASHED
 62
             200
100
AcDbLine
 10
-112.95230901351945
 20
75.772815672433907
 30
0.0
 11
-116.45230901351945
 21
75.502815672433925
 31
0.0
  0
LINE
  5
5E6
100
AcDbEntity
  8
0
  6
DASHED
 62
             200
100
AcDbLine
 10
-112.95230901351945
 20
78.492815672433935
 30
0.0
 11
-116.45230901351945
 21
78.762815672433916
 31
0.0
  0
LINE
  5
5E7
100
AcDbEntity
  8
0
  6
DASHED
 62
             200
100
AcDbLine
 10
-121.20230901351945
 20
83.132815672433921
 30
0.0
 11
-117.70230901351945
 21
83.262815672433916
 31
0.0
  0
LINE
  5
5E8
100
AcDbEntity
  8
0
  6
DASHED
 62
             200
100
AcDbLine
 10
-121.20230901351945
 20
71.132815672433921
 30
0.0
 11
-117.70230901351945
 21
71.002815672433925
 31
0.0
  0
LINE
  5
5E9
100
AcDbEntity
  8
0
  6
DASHED
 62
             200
100
AcDbLine
 10
-116.45230901351945
 20
70.952815672433914
 30
0.0
 11
-112.95230901351945
 21
70.822815672433919
 31
0.0
  0
LINE
  5
5EA
100
AcDbEntity
  8
0
  6
DASHED
 62
             200
100
AcDbLine
 10
-116.45230901351945
 20
83.312815672433928
 30
0.0
 11
-112.95230901351945
 21
83.442815672433923
 31
0.0
  0
LINE
  5
5EB
100
AcDbEntity
  8
0
  6
DASHED
 62
             200
100
AcDbLine
 10
-132.20230901351945
 20
81.990997490615726
 30
0.0
 11
-130.20230901351945
 21
82.052815672433908
 31
0.0
  0
LINE
  5
5EC
100
AcDbEntity
  8
0
  6
DASHED
 62
             200
100
AcDbLine
 10
-132.20230901351945
 20
72.274633854252116
 30
0.0
 11
-130.20230901351945
 21
72.212815672433933
 31
0.0
  0
LINE
  5
5ED
100
AcDbEntity
  8
0
  6
DASHED
 62
             200
100
AcDbLine
 10
-130.20230901351945
 20
52.212815672433933
 30
0.0
 11
-130.20230901351945
 21
36.052815672433937
 31
0.0
  0
LINE
  5
5EE
100
AcDbEntity
  8
0
  6
DASHED
 62
             200
100
AcDbLine
 10
-130.20230901351945
 20
52.212815672433933
 30
0.0
 11
-123.20230901351945
 21
52.212815672433933
 31
0.0
  0
LINE
  5
5EF
100
AcDbEntity
  8
0
  6
DASHED
 62
             200
100
AcDbLine
 10
-130.20230901351945
 20
48.172815672433913
 30
0.0
 11
-123.20230901351945
 21
48.172815672433913
 31
0.0
  0
LINE
  5
5F0
100
AcDbEntity
  8
0
  6
DASHED
 62
             200
100
AcDbLine
 10
-130.20230901351945
 20
40.092815672433929
 30
0.0
 11
-123.20230901351945
 21
40.092815672433929
 31
0.0
  0
LINE
  5
5F1
100
AcDbEntity
  8
0
  6
DASHED
 62
             200
100
AcDbLine
 10
-130.20230901351945
 20
36.052815672433937
 30
0.0
 11
-123.20230901351945
 21
36.052815672433937
 31
0.0
  0
LINE
  5
5F2
100
AcDbEntity
  8
0
  6
DASHED
 62
             200
100
AcDbLine
 10
-123.20230901351945
 20
52.212815672433933
 30
0.0
 11
-123.20230901351945
 21
36.052815672433937
 31
0.0
  0
LINE
  5
5F3
100
AcDbEntity
  8
0
  6
DASHED
 62
             200
100
AcDbLine
 10
-121.20230901351945
 20
52.132815672433921
 30
0.0
 11
-121.20230901351945
 21
46.132815672433921
 31
0.0
  0
LINE
  5
5F4
100
AcDbEntity
  8
0
  6
DASHED
 62
             200
100
AcDbLine
 10
-117.70230901351945
 20
52.132815672433921
 30
0.0
 11
-117.70230901351945
 21
45.862815672433911
 31
0.0
  0
LINE
  5
5F5
100
AcDbEntity
  8
0
  6
DASHED
 62
             200
100
AcDbLine
 10
-111.70230901351945
 20
52.132815672433921
 30
0.0
 11
-111.70230901351945
 21
45.392815672433912
 31
0.0
  0
LINE
  5
5F6
100
AcDbEntity
  8
0
  6
DASHED
 62
             200
100
AcDbLine
 10
-112.95230901351945
 20
52.132815672433921
 30
0.0
 11
-112.95230901351945
 21
45.492815672433935
 31
0.0
  0
LINE
  5
5F7
100
AcDbEntity
  8
0
  6
DASHED
 62
             200
100
AcDbLine
 10
-116.45230901351945
 20
52.132815672433921
 30
0.0
 11
-116.45230901351945
 21
45.762815672433916
 31
0.0
  0
LINE
  5
5F8
100
AcDbEntity
  8
0
  6
DASHED
 62
             200
100
AcDbLine
 10
-121.20230901351945
 20
42.132815672433921
 30
0.0
 11
-121.20230901351945
 21
36.132815672433921
 31
0.0
  0
LINE
  5
5F9
100
AcDbEntity
  8
0
  6
DASHED
 62
             200
100
AcDbLine
 10
-117.70230901351945
 20
42.402815672433931
 30
0.0
 11
-117.70230901351945
 21
36.132815672433921
 31
0.0
  0
LINE
  5
5FA
100
AcDbEntity
  8
0
  6
DASHED
 62
             200
100
AcDbLine
 10
-116.45230901351945
 20
42.502815672433925
 30
0.0
 11
-116.45230901351945
 21
36.132815672433921
 31
0.0
  0
LINE
  5
5FB
100
AcDbEntity
  8
0
  6
DASHED
 62
             200
100
AcDbLine
 10
-112.95230901351945
 20
42.772815672433907
 30
0.0
 11
-112.95230901351945
 21
36.132815672433921
 31
0.0
  0
LINE
  5
5FC
100
AcDbEntity
  8
0
  6
DASHED
 62
             200
100
AcDbLine
 10
-111.70230901351945
 20
42.87281567243393
 30
0.0
 11
-111.70230901351945
 21
36.132815672433921
 31
0.0
  0
LINE
  5
5FD
100
AcDbEntity
  8
0
  6
DASHED
 62
             200
100
AcDbLine
 10
-117.70230901351945
 20
45.862815672433911
 30
0.0
 11
-121.20230901351945
 21
46.132815672433921
 31
0.0
  0
LINE
  5
5FE
100
AcDbEntity
  8
0
  6
DASHED
 62
             200
100
AcDbLine
 10
-117.70230901351945
 20
42.402815672433931
 30
0.0
 11
-121.20230901351945
 21
42.132815672433921
 31
0.0
  0
LINE
  5
5FF
100
AcDbEntity
  8
0
  6
DASHED
 62
             200
100
AcDbLine
 10
-112.95230901351945
 20
42.772815672433907
 30
0.0
 11
-116.45230901351945
 21
42.502815672433925
 31
0.0
  0
LINE
  5
600
100
AcDbEntity
  8
0
  6
DASHED
 62
             200
100
AcDbLine
 10
-112.95230901351945
 20
45.492815672433935
 30
0.0
 11
-116.45230901351945
 21
45.762815672433916
 31
0.0
  0
LINE
  5
601
100
AcDbEntity
  8
0
  6
DASHED
 62
             200
100
AcDbLine
 10
-121.20230901351945
 20
50.132815672433921
 30
0.0
 11
-117.70230901351945
 21
50.262815672433916
 31
0.0
  0
LINE
  5
602
100
AcDbEntity
  8
0
  6
DASHED
 62
             200
100
AcDbLine
 10
-121.20230901351945
 20
38.132815672433921
 30
0.0
 11
-117.70230901351945
 21
38.002815672433925
 31
0.0
  0
LINE
  5
603
100
AcDbEntity
  8
0
  6
DASHED
 62
             200
100
AcDbLine
 10
-116.45230901351945
 20
37.952815672433914
 30
0.0
 11
-112.95230901351945
 21
37.822815672433919
 31
0.0
  0
LINE
  5
604
100
AcDbEntity
  8
0
  6
DASHED
 62
             200
100
AcDbLine
 10
-116.45230901351945
 20
50.312815672433928
 30
0.0
 11
-112.95230901351945
 21
50.442815672433923
 31
0.0
  0
LINE
  5
605
100
AcDbEntity
  8
0
  6
DASHED
 62
             200
100
AcDbLine
 10
-132.20230901351945
 20
48.990997490615726
 30
0.0
 11
-130.20230901351945
 21
49.052815672433908
 31
0.0
  0
LINE
  5
606
100
AcDbEntity
  8
0
  6
DASHED
 62
             200
100
AcDbLine
 10
-132.20230901351945
 20
39.274633854252116
 30
0.0
 11
-130.20230901351945
 21
39.212815672433933
 31
0.0
  0
CIRCLE
  5
607
100
AcDbEntity
  8
0
  6
CONTINUOUS
 62
               7
100
AcDbCircle
 10
-140.50230901351941
 20
51.932815675691998
 30
0.0
 40
1.5
  0
LINE
  5
608
100
AcDbEntity
  8
0
  6
CONTINUOUS
 62
               7
100
AcDbLine
 10
-139.79520223233291
 20
51.225708894505445
 30
0.0
 11
-141.20941579470596
 21
52.639922456878544
 31
0.0
  0
LINE
  5
609
100
AcDbEntity
  8
0
  6
CONTINUOUS
 62
               7
100
AcDbLine
 10
-141.20941579470596
 20
51.225708894505452
 30
0.0
 11
-139.79520223233291
 21
52.639922456878537
 31
0.0
  0
CIRCLE
  5
60A
100
AcDbEntity
  8
0
  6
CONTINUOUS
 62
               7
100
AcDbCircle
 10
-150.1023090135194
 20
69.332815675692004
 30
0.0
 40
1.5
  0
LINE
  5
60B
100
AcDbEntity
  8
0
  6
CONTINUOUS
 62
               7
100
AcDbLine
 10
-149.39520223233291
 20
68.625708894505436
 30
0.0
 11
-150.80941579470596
 21
70.039922456878543
 31
0.0
  0
LINE
  5
60C
100
AcDbEntity
  8
0
  6
CONTINUOUS
 62
               7
100
AcDbLine
 10
-150.80941579470596
 20
68.625708894505451
 30
0.0
 11
-149.39520223233291
 21
70.039922456878543
 31
0.0
  0
LINE
  5
60D
100
AcDbEntity
  8
0
  6
CONTINUOUS
 62
               7
100
AcDbLine
 10
-139.30230901351948
 20
52.832815675692089
 30
0.0
 11
-139.30230901351948
 21
93.83281567569199
 31
0.0
  0
LINE
  5
60E
100
AcDbEntity
  8
0
  6
CONTINUOUS
 62
               7
100
AcDbLine
 10
-151.30230901351948
 20
70.23281567569191
 30
0.0
 11
-151.30230901351948
 21
93.83281567569199
 31
0.0
  0
LINE
  5
60F
100
AcDbEntity
  8
0
  6
CONTINUOUS
 62
               7
100
AcDbLine
 10
-151.3023090135195
 20
32.132815675691987
 30
0.0
 11
-139.30230901351948
 21
32.132815675691987
 31
0.0
  0
LINE
  5
610
100
AcDbEntity
  8
0
  6
CONTINUOUS
 62
               7
100
AcDbLine
 10
-151.3023090135195
 20
37.132815671422634
 30
0.0
 11
-160.40230901351947
 21
37.132815671422634
 31
0.0
  0
ARC
  5
611
100
AcDbEntity
  8
0
  6
CONTINUOUS
 62
               4
100
AcDbCircle
 10
-141.24030901351944
 20
112.63481567569201
 30
0.0
 40
0.5
100
AcDbArc
 50
0.0
 51
89.999999999999815
  0
LINE
  5
612
100
AcDbEntity
  8
0
  6
CONTINUOUS
 62
               4
100
AcDbLine
 10
-140.74030901351944
 20
112.63481567569201
 30
0.0
 11
-140.74030901351944
 21
96.459672834552805
 31
0.0
  0
ARC
  5
613
100
AcDbEntity
  8
0
  6
CONTINUOUS
 62
               4
100
AcDbCircle
 10
-141.24030901351944
 20
96.459672834552805
 30
0.0
 40
0.5
100
AcDbArc
 50
270.00000000000023
 51
0.0
  0
ARC
  5
614
100
AcDbEntity
  8
0
  6
CONTINUOUS
 62
               4
100
AcDbCircle
 10
-149.36430901351946
 20
96.459672834552805
 30
0.0
 40
0.5
100
AcDbArc
 50
179.99999999999963
 51
269.99999999999937
  0
LINE
  5
615
100
AcDbEntity
  8
0
  6
CONTINUOUS
 62
               4
100
AcDbLine
 10
-149.36430901351943
 20
95.959672834552805
 30
0.0
 11
-141.24030901351944
 21
95.959672834552805
 31
0.0
  0
LINE
  5
616
100
AcDbEntity
  8
0
  6
CONTINUOUS
 62
               4
100
AcDbLine
 10
-149.86430901351946
 20
112.63481567569201
 30
0.0
 11
-149.86430901351946
 21
96.459672834552805
 31
0.0
  0
ARC
  5
617
100
AcDbEntity
  8
0
  6
CONTINUOUS
 62
               4
100
AcDbCircle
 10
-149.36430901351946
 20
112.63481567569201
 30
0.0
 40
0.5
100
AcDbArc
 50
89.999999999999815
 51
179.99999999999963
  0
ARC
  5
618
100
AcDbEntity
  8
0
  6
CONTINUOUS
 62
               7
100
AcDbCircle
 10
-140.50230901351946
 20
51.932815675691998
 30
0.0
 40
1.6499999999999999
100
AcDbArc
 50
89.999999999999815
 51
269.99999999999937
  0
LINE
  5
619
100
AcDbEntity
  8
0
  6
CONTINUOUS
 62
               7
100
AcDbLine
 10
-140.50230901351946
 20
53.58281567569199
 30
0.0
 11
-139.30230901351948
 21
53.58281567569199
 31
0.0
  0
LINE
  5
61A
100
AcDbEntity
  8
0
  6
CONTINUOUS
 62
               7
100
AcDbLine
 10
-140.50230901351946
 20
50.282815675691992
 30
0.0
 11
-139.30230901351948
 21
50.282815675691992
 31
0.0
  0
ARC
  5
61B
100
AcDbEntity
  8
0
  6
CONTINUOUS
 62
               7
100
AcDbCircle
 10
-150.10230901351946
 20
69.33281567569199
 30
0.0
 40
1.6499999999999999
100
AcDbArc
 50
269.99999999999937
 51
89.999999999999801
  0
LINE
  5
61C
100
AcDbEntity
  8
0
  6
CONTINUOUS
 62
               7
100
AcDbLine
 10
-150.10230901351946
 20
70.982815675691995
 30
0.0
 11
-151.30230901351945
 21
70.982815675691995
 31
0.0
  0
LINE
  5
61D
100
AcDbEntity
  8
0
  6
CONTINUOUS
 62
               7
100
AcDbLine
 10
-150.10230901351946
 20
67.682815675691984
 30
0.0
 11
-151.30230901351945
 21
67.682815675691984
 31
0.0
  0
LINE
  5
61E
100
AcDbEntity
  8
0
  6
CONTINUOUS
 62
               7
100
AcDbLine
 10
-151.30230901351948
 20
80.132815675692001
 30
0.0
 11
-139.30230901351948
 21
80.132815675692001
 31
0.0
  0
LINE
  5
61F
100
AcDbEntity
  8
0
  6
CONTINUOUS
 62
               7
100
AcDbLine
 10
-139.30230901351945
 20
80.032815675692007
 30
0.0
 11
-139.40230901351947
 21
80.132815675692001
 31
0.0
  0
LINE
  5
620
100
AcDbEntity
  8
0
  6
CONTINUOUS
 62
               7
100
AcDbLine
 10
-151.20230901707151
 20
80.132815675692001
 30
0.0
 11
-151.30230901351948
 21
80.032815679244067
 31
0.0
  0
CIRCLE
  5
621
100
AcDbEntity
  8
0
  6
CONTINUOUS
 62
               7
100
AcDbCircle
 10
-145.30230901351945
 20
91.332815689278959
 30
0.0
 40
1.3999999999999997
  0
CIRCLE
  5
622
100
AcDbEntity
  8
0
  6
CONTINUOUS
 62
               7
100
AcDbCircle
 10
-145.30230901351945
 20
91.332815689278959
 30
0.0
 40
0.75
  0
CIRCLE
  5
623
100
AcDbEntity
  8
0
  6
CONTINUOUS
 62
               7
100
AcDbCircle
 10
-145.30230901351945
 20
91.332815689278959
 30
0.0
 40
1.1000000000000001
  0
LINE
  5
624
100
AcDbEntity
  8
0
  6
CENTER
 62
               2
100
AcDbLine
 10
-145.30230901351945
 20
118.03281537051625
 30
0.0
 11
-145.30230901351945
 21
-5.9952495966541619
 31
0.0
  0
LINE
  5
625
100
AcDbEntity
  8
0
  6
CENTER
 62
               2
100
AcDbLine
 10
-142.98737887779509
 20
91.332815689278959
 30
0.0
 11
-147.52625316619509
 21
91.332815689278959
 31
0.0
  0
LINE
  5
626
100
AcDbEntity
  8
0
  6
CONTINUOUS
 62
               7
100
AcDbLine
 10
-151.30230901351945
 20
41.132815675691987
 30
0.0
 11
-139.30230901351948
 21
41.132815675691987
 31
0.0
  0
LINE
  5
627
100
AcDbEntity
  8
0
  6
CONTINUOUS
 62
               7
100
AcDbLine
 10
-140.05230901351945
 20
94.132815675691987
 30
0.0
 11
-139.60230901351946
 21
94.132815675691987
 31
0.0
  0
CIRCLE
  5
628
100
AcDbEntity
  8
0
  6
CONTINUOUS
 62
               7
100
AcDbCircle
 10
-145.30205901351945
 20
91.33281567569199
 30
0.0
 40
1.1500000000000001
  0
LINE
  5
629
100
AcDbEntity
  8
0
  6
CONTINUOUS
 62
               7
100
AcDbLine
 10
-151.00230901351946
 20
94.132815675691987
 30
0.0
 11
-150.55230901351945
 21
94.132815675691987
 31
0.0
  0
LINE
  5
62A
100
AcDbEntity
  8
0
  6
CONTINUOUS
 62
               7
100
AcDbLine
 10
-151.00230901351946
 20
94.132815675691987
 30
0.0
 11
-151.30230901351945
 21
93.83281567569199
 31
0.0
  0
LINE
  5
62B
100
AcDbEntity
  8
0
  6
CONTINUOUS
 62
               7
100
AcDbLine
 10
-139.60230901351946
 20
94.132815675691987
 30
0.0
 11
-139.30230901351945
 21
93.83281567569199
 31
0.0
  0
LINE
  5
62C
100
AcDbEntity
  8
0
  6
CONTINUOUS
 62
               7
100
AcDbLine
 10
-140.25230901351944
 20
93.932815675691984
 30
0.0
 11
-140.25230901351944
 21
93.632815675691987
 31
0.0
  0
LINE
  5
62D
100
AcDbEntity
  8
0
  6
CONTINUOUS
 62
               7
100
AcDbLine
 10
-150.35230901351946
 20
93.932815675691984
 30
0.0
 11
-150.35230901351946
 21
93.632815675691987
 31
0.0
  0
LINE
  5
62E
100
AcDbEntity
  8
0
  6
CONTINUOUS
 62
               7
100
AcDbLine
 10
-150.35230901351946
 20
93.932815675691984
 30
0.0
 11
-150.55230901351945
 21
94.132815675691987
 31
0.0
  0
LINE
  5
62F
100
AcDbEntity
  8
0
  6
CONTINUOUS
 62
               7
100
AcDbLine
 10
-140.25230901351944
 20
93.932815675691984
 30
0.0
 11
-140.05230901351945
 21
94.132815675691987
 31
0.0
  0
LINE
  5
630
100
AcDbEntity
  8
0
  6
CONTINUOUS
 62
               7
100
AcDbLine
 10
-151.3023090135195
 20
18.432815667153285
 30
0.0
 11
-151.30230901351948
 21
68.432815675692098
 31
0.0
  0
LINE
  5
631
100
AcDbEntity
  8
0
  6
CONTINUOUS
 62
               7
100
AcDbLine
 10
-139.30230901351948
 20
18.432815667153221
 30
0.0
 11
-139.30230901351948
 21
51.032815675691907
 31
0.0
  0
LINE
  5
632
100
AcDbEntity
  8
0
  6
CONTINUOUS
 62
               7
100
AcDbLine
 10
-132.20230901351945
 20
84.132815673445208
 30
0.0
 11
-139.30325749984763
 21
84.132815673445208
 31
0.0
  0
LINE
  5
633
100
AcDbEntity
  8
0
  6
CENTER
 62
               2
100
AcDbLine
 10
-156.40230901351947
 20
82.132815865191361
 30
0.0
 11
-156.40230901351947
 21
73.308009248990217
 31
0.0
  0
LINE
  5
634
100
AcDbEntity
  8
0
  6
CENTER
 62
               2
100
AcDbLine
 10
-151.89498935283046
 20
78.132815865191375
 30
0.0
 11
-160.68686288269555
 21
78.132815865191375
 31
0.0
  0
LINE
  5
635
100
AcDbEntity
  8
0
  6
CENTER
 62
               2
100
AcDbLine
 10
-156.40230901351947
 20
39.132815479676495
 30
0.0
 11
-156.40230901351947
 21
47.957622095877653
 31
0.0
  0
LINE
  5
636
100
AcDbEntity
  8
0
  6
CENTER
 62
               2
100
AcDbLine
 10
-151.89498935283046
 20
43.132815479676495
 30
0.0
 11
-160.68686288269555
 21
43.132815479676495
 31
0.0
  0
LINE
  5
637
100
AcDbEntity
  8
0
  6
CONTINUOUS
 62
               7
100
AcDbLine
 10
-132.20230901351945
 20
37.132815671422634
 30
0.0
 11
-132.20230901351945
 21
84.132815673445208
 31
0.0
  0
LINE
  5
638
100
AcDbEntity
  8
0
  6
CONTINUOUS
 62
               7
100
AcDbLine
 10
-160.40230901351947
 20
37.132815671422634
 30
0.0
 11
-160.40230901351947
 21
84.132815673445208
 31
0.0
  0
CIRCLE
  5
639
100
AcDbEntity
  8
0
  6
CONTINUOUS
 62
               7
100
AcDbCircle
 10
-156.40230901351947
 20
78.132815865191375
 30
0.0
 40
2.25
  0
CIRCLE
  5
63A
100
AcDbEntity
  8
0
  6
CONTINUOUS
 62
               7
100
AcDbCircle
 10
-156.40230901351947
 20
43.132815479676495
 30
0.0
 40
2.25
  0
LINE
  5
63B
100
AcDbEntity
  8
0
  6
CONTINUOUS
 62
               7
100
AcDbLine
 10
-151.30325749984763
 20
84.132815673445208
 30
0.0
 11
-160.40230901058936
 21
84.132815673445208
 31
0.0
  0
LINE
  5
63C
100
AcDbEntity
  8
0
  6
CONTINUOUS
 62
               4
100
AcDbLine
 10
-140.30230901351945
 20
116.13281567569197
 30
0.0
 11
-150.30230901351945
 21
116.13281567569197
 31
0.0
  0
LINE
  5
63D
100
AcDbEntity
  8
0
  6
CONTINUOUS
 62
               4
100
AcDbLine
 10
-140.30230901351945
 20
114.53081567569197
 30
0.0
 11
-142.55230901351945
 21
114.53081567569197
 31
0.0
  0
LINE
  5
63E
100
AcDbEntity
  8
0
  6
CONTINUOUS
 62
               4
100
AcDbLine
 10
-143.50230901351946
 20
116.030815675692
 30
0.0
 11
-149.80230901351945
 21
116.030815675692
 31
0.0
  0
LINE
  5
63F
100
AcDbEntity
  8
0
  6
CONTINUOUS
 62
               4
100
AcDbLine
 10
-143.50230901351946
 20
116.030815675692
 30
0.0
 11
-143.50230901351946
 21
115.234815675692
 31
0.0
  0
ARC
  5
640
100
AcDbEntity
  8
0
  6
CONTINUOUS
 62
               4
100
AcDbCircle
 10
-149.80230901351945
 20
115.530815675692
 30
0.0
 40
0.5
100
AcDbArc
 50
89.999999999999815
 51
179.99999999999963
  0
LINE
  5
641
100
AcDbEntity
  8
0
  6
CONTINUOUS
 62
               4
100
AcDbLine
 10
-140.30230901351945
 20
115.53281567569198
 30
0.0
 11
-143.50230901351944
 21
115.53281567569198
 31
0.0
  0
ARC
  5
642
100
AcDbEntity
  8
0
  6
CONTINUOUS
 62
               4
100
AcDbCircle
 10
-141.09821386686124
 20
115.53291082235015
 30
0.0
 40
0.5999048608870732
100
AcDbArc
 50
359.99091272245295
 51
90.009087277546172
  0
ARC
  5
643
100
AcDbEntity
  8
0
  6
CONTINUOUS
 62
               4
100
AcDbCircle
 10
-142.89939701875647
 20
115.533903680929
 30
0.0
 40
0.5989129830170392
100
AcDbArc
 50
89.895914524772735
 51
180.10408547522667
  0
LINE
  5
644
100
AcDbEntity
  8
0
  6
CONTINUOUS
 62
               4
100
AcDbLine
 10
-140.30230901351945
 20
116.13281567569197
 30
0.0
 11
-140.30230901351945
 21
93.632815675691987
 31
0.0
  0
LINE
  5
645
100
AcDbEntity
  8
0
  6
CONTINUOUS
 62
               4
100
AcDbLine
 10
-150.30230901351945
 20
116.13281567569197
 30
0.0
 11
-150.30230901351945
 21
93.632815675691987
 31
0.0
  0
ARC
  5
646
100
AcDbEntity
  8
0
  6
CONTINUOUS
 62
               4
100
AcDbCircle
 10
-140.80201216565524
 20
94.132518827827781
 30
0.0
 40
0.4997032403068001
100
AcDbArc
 50
269.96596353714654
 51
0.0340364628527164
  0
ARC
  5
647
100
AcDbEntity
  8
0
  6
CONTINUOUS
 62
               4
100
AcDbCircle
 10
-149.80201198931331
 20
94.133112699898092
 30
0.0
 40
0.5002971123771115
100
AcDbArc
 50
180.03401625554557
 51
269.96598374445358
  0
LINE
  5
648
100
AcDbEntity
  8
0
  6
CONTINUOUS
 62
               4
100
AcDbLine
 10
-147.72230901351946
 20
112.53481567569199
 30
0.0
 11
-142.89230901351945
 21
112.53481567569199
 31
0.0
  0
LINE
  5
649
100
AcDbEntity
  8
0
  6
CONTINUOUS
 62
               4
100
AcDbLine
 10
-148.02230901351942
 20
112.234815675692
 30
0.0
 11
-142.59230901351947
 21
112.234815675692
 31
0.0
  0
LINE
  5
64A
100
AcDbEntity
  8
0
  6
CONTINUOUS
 62
               4
100
AcDbLine
 10
-148.05230901351945
 20
113.234815675692
 30
0.0
 11
-142.55230901351945
 21
113.234815675692
 31
0.0
  0
LINE
  5
64B
100
AcDbEntity
  8
0
  6
CONTINUOUS
 62
               4
100
AcDbLine
 10
-148.05230901351945
 20
114.234815675692
 30
0.0
 11
-142.55230901351945
 21
114.234815675692
 31
0.0
  0
LINE
  5
64C
100
AcDbEntity
  8
0
  6
CONTINUOUS
 62
               4
100
AcDbLine
 10
-148.05230901351945
 20
115.234815675692
 30
0.0
 11
-142.55230901351945
 21
115.234815675692
 31
0.0
  0
CIRCLE
  5
64D
100
AcDbEntity
  8
0
  6
CONTINUOUS
 62
               4
100
AcDbCircle
 10
-146.55230901351945
 20
110.73480041690294
 30
0.0
 40
0.8499675393104554
  0
LINE
  5
64E
100
AcDbEntity
  8
0
  6
CONTINUOUS
 62
               4
100
AcDbLine
 10
-147.50230901351944
 20
111.88481567569201
 30
0.0
 11
-145.60230901351946
 21
111.88481567569201
 31
0.0
  0
LINE
  5
64F
100
AcDbEntity
  8
0
  6
CONTINUOUS
 62
               4
100
AcDbLine
 10
-147.50230901351944
 20
111.68481567569199
 30
0.0
 11
-145.60230901351946
 21
111.68481567569199
 31
0.0
  0
ARC
  5
650
100
AcDbEntity
  8
0
  6
CONTINUOUS
 62
               4
100
AcDbCircle
 10
-149.80229833234614
 20
112.6348049945187
 30
0.0
 40
0.5000106812873828
100
AcDbArc
 50
90.001223946153161
 51
179.9987760538454
  0
LINE
  5
651
100
AcDbEntity
  8
0
  6
CONTINUOUS
 62
               4
100
AcDbLine
 10
-147.50230901351944
 20
111.88481567569201
 30
0.0
 11
-147.50230901351944
 21
109.78481567569199
 31
0.0
  0
LINE
  5
652
100
AcDbEntity
  8
0
  6
CONTINUOUS
 62
               4
100
AcDbLine
 10
-149.05230901351945
 20
109.734815675692
 30
0.0
 11
-149.05230901351945
 21
111.53481567569199
 31
0.0
  0
LINE
  5
653
100
AcDbEntity
  8
0
  6
CONTINUOUS
 62
               4
100
AcDbLine
 10
-149.15230901351941
 20
111.63481567569201
 30
0.0
 11
-149.15230901351941
 21
109.63481567569201
 31
0.0
  0
LINE
  5
654
100
AcDbEntity
  8
0
  6
CONTINUOUS
 62
               4
100
AcDbLine
 10
-149.80230901351945
 20
113.13481567569201
 30
0.0
 11
-148.05230901351945
 21
113.13481567569201
 31
0.0
  0
LINE
  5
655
100
AcDbEntity
  8
0
  6
CONTINUOUS
 62
               4
100
AcDbLine
 10
-148.15230901351941
 20
113.13481567569201
 30
0.0
 11
-148.15230901351941
 21
111.63481567569201
 31
0.0
  0
LINE
  5
656
100
AcDbEntity
  8
0
  6
CONTINUOUS
 62
               4
100
AcDbLine
 10
-148.05230901351945
 20
112.19481567569201
 30
0.0
 11
-147.72230901351946
 21
112.53481567569199
 31
0.0
  0
LINE
  5
657
100
AcDbEntity
  8
0
  6
CONTINUOUS
 62
               4
100
AcDbLine
 10
-149.15230901351941
 20
111.63481567569201
 30
0.0
 11
-148.15230901351941
 21
111.63481567569201
 31
0.0
  0
LINE
  5
658
100
AcDbEntity
  8
0
  6
CONTINUOUS
 62
               4
100
AcDbLine
 10
-149.05230901351945
 20
111.53481567569199
 30
0.0
 11
-148.05230901351945
 21
111.53481567569199
 31
0.0
  0
LINE
  5
659
100
AcDbEntity
  8
0
  6
CONTINUOUS
 62
               4
100
AcDbLine
 10
-148.05230901351945
 20
115.234815675692
 30
0.0
 11
-148.05230901351945
 21
111.53481567569199
 31
0.0
  0
LINE
  5
65A
100
AcDbEntity
  8
0
  6
PHANTOM
 62
             200
100
AcDbLine
 10
-146.80230901351945
 20
101.13481567569198
 30
0.0
 11
-143.80230901351945
 21
101.13481567569198
 31
0.0
  0
LINE
  5
65B
100
AcDbEntity
  8
0
  6
PHANTOM
 62
             200
100
AcDbLine
 10
-146.80230901351945
 20
99.134815675691982
 30
0.0
 11
-143.80230901351945
 21
99.134815675691982
 31
0.0
  0
LINE
  5
65C
100
AcDbEntity
  8
0
  6
PHANTOM
 62
             200
100
AcDbLine
 10
-146.80230901351945
 20
101.13481567569198
 30
0.0
 11
-146.80230901351945
 21
99.134815675691982
 31
0.0
  0
LINE
  5
65D
100
AcDbEntity
  8
0
  6
CONTINUOUS
 62
               4
100
AcDbLine
 10
-148.15230901351941
 20
108.13481567569201
 30
0.0
 11
-142.45230901351945
 21
108.13481567569201
 31
0.0
  0
LINE
  5
65E
100
AcDbEntity
  8
0
  6
CONTINUOUS
 62
               4
100
AcDbLine
 10
-148.05230901351945
 20
108.234815675692
 30
0.0
 11
-142.55230901351945
 21
108.234815675692
 31
0.0
  0
LINE
  5
65F
100
AcDbEntity
  8
0
  6
CONTINUOUS
 62
               4
100
AcDbLine
 10
-146.05230901351945
 20
109.78481567569199
 30
0.0
 11
-146.05230901351945
 21
109.484815675692
 31
0.0
  0
LINE
  5
660
100
AcDbEntity
  8
0
  6
CONTINUOUS
 62
               4
100
AcDbLine
 10
-145.60230901351946
 20
111.88481567569201
 30
0.0
 11
-145.60230901351946
 21
109.78481567569199
 31
0.0
  0
LINE
  5
661
100
AcDbEntity
  8
0
  6
CONTINUOUS
 62
               4
100
AcDbLine
 10
-148.05230901351945
 20
109.734815675692
 30
0.0
 11
-148.05230901351945
 21
108.234815675692
 31
0.0
  0
LINE
  5
662
100
AcDbEntity
  8
0
  6
CONTINUOUS
 62
               4
100
AcDbLine
 10
-147.05230901351945
 20
109.78481567569199
 30
0.0
 11
-147.05230901351945
 21
109.484815675692
 31
0.0
  0
LINE
  5
663
100
AcDbEntity
  8
0
  6
CONTINUOUS
 62
               4
100
AcDbLine
 10
-148.15230901351941
 20
109.63481567569201
 30
0.0
 11
-148.15230901351941
 21
108.13481567569201
 31
0.0
  0
LINE
  5
664
100
AcDbEntity
  8
0
  6
CONTINUOUS
 62
               4
100
AcDbLine
 10
-149.15230901351941
 20
109.63481567569201
 30
0.0
 11
-148.15230901351941
 21
109.63481567569201
 31
0.0
  0
LINE
  5
665
100
AcDbEntity
  8
0
  6
CONTINUOUS
 62
               4
100
AcDbLine
 10
-149.05230901351945
 20
109.734815675692
 30
0.0
 11
-148.05230901351945
 21
109.734815675692
 31
0.0
  0
LINE
  5
666
100
AcDbEntity
  8
0
  6
CONTINUOUS
 62
               4
100
AcDbLine
 10
-147.05230901351945
 20
109.484815675692
 30
0.0
 11
-146.05230901351945
 21
109.484815675692
 31
0.0
  0
LINE
  5
667
100
AcDbEntity
  8
0
  6
CONTINUOUS
 62
               4
100
AcDbLine
 10
-147.50230901351944
 20
109.78481567569199
 30
0.0
 11
-145.60230901351946
 21
109.78481567569199
 31
0.0
  0
LINE
  5
668
100
AcDbEntity
  8
0
  6
CONTINUOUS
 62
               4
100
AcDbLine
 10
-142.55230901351945
 20
115.234815675692
 30
0.0
 11
-142.55230901351945
 21
111.53481567569199
 31
0.0
  0
LINE
  5
669
100
AcDbEntity
  8
0
  6
CONTINUOUS
 62
               4
100
AcDbLine
 10
-142.45230901351945
 20
109.63481567569201
 30
0.0
 11
-142.45230901351945
 21
108.13481567569201
 31
0.0
  0
LINE
  5
66A
100
AcDbEntity
  8
0
  6
CONTINUOUS
 62
               4
100
AcDbLine
 10
-142.45230901351945
 20
113.13481567569201
 30
0.0
 11
-142.45230901351945
 21
111.63481567569201
 31
0.0
  0
LINE
  5
66B
100
AcDbEntity
  8
0
  6
CONTINUOUS
 62
               4
100
AcDbLine
 10
-144.55230901351945
 20
109.78481567569199
 30
0.0
 11
-144.55230901351945
 21
109.484815675692
 31
0.0
  0
LINE
  5
66C
100
AcDbEntity
  8
0
  6
CONTINUOUS
 62
               4
100
AcDbLine
 10
-145.00230901351944
 20
111.88481567569201
 30
0.0
 11
-145.00230901351944
 21
109.78481567569199
 31
0.0
  0
LINE
  5
66D
100
AcDbEntity
  8
0
  6
CONTINUOUS
 62
               4
100
AcDbLine
 10
-141.55230901351945
 20
109.734815675692
 30
0.0
 11
-141.55230901351945
 21
111.53481567569199
 31
0.0
  0
LINE
  5
66E
100
AcDbEntity
  8
0
  6
CONTINUOUS
 62
               4
100
AcDbLine
 10
-141.45230901351945
 20
111.63481567569201
 30
0.0
 11
-141.45230901351945
 21
109.63481567569201
 31
0.0
  0
LINE
  5
66F
100
AcDbEntity
  8
0
  6
CONTINUOUS
 62
               4
100
AcDbLine
 10
-142.55230901351945
 20
111.53481567569199
 30
0.0
 11
-141.55230901351945
 21
111.53481567569199
 31
0.0
  0
LINE
  5
670
100
AcDbEntity
  8
0
  6
CONTINUOUS
 62
               4
100
AcDbLine
 10
-142.45230901351945
 20
111.63481567569201
 30
0.0
 11
-141.45230901351945
 21
111.63481567569201
 31
0.0
  0
LINE
  5
671
100
AcDbEntity
  8
0
  6
CONTINUOUS
 62
               4
100
AcDbLine
 10
-142.45230901351945
 20
109.63481567569201
 30
0.0
 11
-141.45230901351945
 21
109.63481567569201
 31
0.0
  0
LINE
  5
672
100
AcDbEntity
  8
0
  6
CONTINUOUS
 62
               4
100
AcDbLine
 10
-142.55230901351945
 20
109.734815675692
 30
0.0
 11
-141.55230901351945
 21
109.734815675692
 31
0.0
  0
LINE
  5
673
100
AcDbEntity
  8
0
  6
CONTINUOUS
 62
               4
100
AcDbLine
 10
-142.55230901351945
 20
109.734815675692
 30
0.0
 11
-142.55230901351945
 21
108.234815675692
 31
0.0
  0
LINE
  5
674
100
AcDbEntity
  8
0
  6
CONTINUOUS
 62
               4
100
AcDbLine
 10
-143.55230901351945
 20
109.78481567569199
 30
0.0
 11
-143.55230901351945
 21
109.484815675692
 31
0.0
  0
LINE
  5
675
100
AcDbEntity
  8
0
  6
CONTINUOUS
 62
               4
100
AcDbLine
 10
-142.59230901351947
 20
112.234815675692
 30
0.0
 11
-142.89230901351945
 21
112.53481567569199
 31
0.0
  0
LINE
  5
676
100
AcDbEntity
  8
0
  6
CONTINUOUS
 62
               4
100
AcDbLine
 10
-143.10230901351946
 20
111.88481567569201
 30
0.0
 11
-143.10230901351946
 21
109.78481567569199
 31
0.0
  0
LINE
  5
677
100
AcDbEntity
  8
0
  6
CONTINUOUS
 62
               4
100
AcDbLine
 10
-144.55230901351945
 20
109.484815675692
 30
0.0
 11
-143.55230901351945
 21
109.484815675692
 31
0.0
  0
LINE
  5
678
100
AcDbEntity
  8
0
  6
CONTINUOUS
 62
               4
100
AcDbLine
 10
-145.00230901351944
 20
111.68481567569199
 30
0.0
 11
-143.10230901351946
 21
111.68481567569199
 31
0.0
  0
LINE
  5
679
100
AcDbEntity
  8
0
  6
CONTINUOUS
 62
               4
100
AcDbLine
 10
-145.00230901351944
 20
109.78481567569199
 30
0.0
 11
-143.10230901351946
 21
109.78481567569199
 31
0.0
  0
LINE
  5
67A
100
AcDbEntity
  8
0
  6
CONTINUOUS
 62
               4
100
AcDbLine
 10
-145.00230901351944
 20
111.88481567569201
 30
0.0
 11
-143.10230901351946
 21
111.88481567569201
 31
0.0
  0
CIRCLE
  5
67B
100
AcDbEntity
  8
0
  6
CONTINUOUS
 62
               4
100
AcDbCircle
 10
-144.05230901351945
 20
110.73480041690294
 30
0.0
 40
0.8499675393104554
  0
ARC
  5
67C
100
AcDbEntity
  8
0
  6
CONTINUOUS
 62
               4
100
AcDbCircle
 10
-140.8023044359968
 20
112.63482025321463
 30
0.0
 40
0.4999954224983215
100
AcDbArc
 50
359.99947544974214
 51
90.000524550256856
  0
LINE
  5
67D
100
AcDbEntity
  8
0
  6
CONTINUOUS
 62
               4
100
AcDbLine
 10
-142.55230901351945
 20
113.13481567569201
 30
0.0
 11
-140.80230901351945
 21
113.13481567569201
 31
0.0
  0
LINE
  5
67E
100
AcDbEntity
  8
0
  6
PHANTOM
 62
             200
100
AcDbLine
 10
-143.80230901351945
 20
101.13481567569198
 30
0.0
 11
-143.80230901351945
 21
99.134815675691982
 31
0.0
  0
LINE
  5
67F
100
AcDbEntity
  8
0
  6
CONTINUOUS
 62
               7
100
AcDbLine
 10
-150.35230901351946
 20
93.632815675691987
 30
0.0
 11
-140.25230901351946
 21
93.632815675691987
 31
0.0
  0
LINE
  5
680
100
AcDbEntity
  8
0
  6
CONTINUOUS
 62
               7
100
AcDbLine
 10
-132.20230901351945
 20
37.132815671422634
 30
0.0
 11
-139.30230901351948
 21
37.132815671422634
 31
0.0
  0
ARC
  5
681
100
AcDbEntity
  8
0
  6
CONTINUOUS
 62
               4
100
AcDbCircle
 10
-149.36430901351949
 20
-0.3691843243080371
 30
0.0
 40
0.5
100
AcDbArc
 50
179.99999999999963
 51
269.99999999999937
  0
LINE
  5
682
100
AcDbEntity
  8
0
  6
CONTINUOUS
 62
               4
100
AcDbLine
 10
-149.86430901351949
 20
-0.3691843243080371
 30
0.0
 11
-149.86430901351949
 21
15.805958516831183
 31
0.0
  0
ARC
  5
683
100
AcDbEntity
  8
0
  6
CONTINUOUS
 62
               4
100
AcDbCircle
 10
-149.36430901351949
 20
15.805958516831183
 30
0.0
 40
0.5
100
AcDbArc
 50
89.999999999999815
 51
179.99999999999963
  0
ARC
  5
684
100
AcDbEntity
  8
0
  6
CONTINUOUS
 62
               4
100
AcDbCircle
 10
-141.24030901351946
 20
15.805958516831183
 30
0.0
 40
0.5
100
AcDbArc
 50
0.0
 51
89.999999999999815
  0
LINE
  5
685
100
AcDbEntity
  8
0
  6
CONTINUOUS
 62
               4
100
AcDbLine
 10
-149.36430901351946
 20
16.305958516831183
 30
0.0
 11
-141.24030901351946
 21
16.305958516831183
 31
0.0
  0
LINE
  5
686
100
AcDbEntity
  8
0
  6
CONTINUOUS
 62
               4
100
AcDbLine
 10
-140.74030901351946
 20
-0.3691843243080371
 30
0.0
 11
-140.74030901351946
 21
15.805958516831183
 31
0.0
  0
ARC
  5
687
100
AcDbEntity
  8
0
  6
CONTINUOUS
 62
               4
100
AcDbCircle
 10
-141.24030901351946
 20
-0.3691843243080371
 30
0.0
 40
0.5
100
AcDbArc
 50
270.00000000000023
 51
0.0
  0
CIRCLE
  5
688
100
AcDbEntity
  8
0
  6
CONTINUOUS
 62
               7
100
AcDbCircle
 10
-145.30230901351945
 20
20.93281565356628
 30
0.0
 40
1.3999999999999997
  0
CIRCLE
  5
689
100
AcDbEntity
  8
0
  6
CONTINUOUS
 62
               7
100
AcDbCircle
 10
-145.30230901351945
 20
20.93281565356628
 30
0.0
 40
0.75
  0
CIRCLE
  5
68A
100
AcDbEntity
  8
0
  6
CONTINUOUS
 62
               7
100
AcDbCircle
 10
-145.30230901351945
 20
20.93281565356628
 30
0.0
 40
1.1000000000000001
  0
LINE
  5
68B
100
AcDbEntity
  8
0
  6
CENTER
 62
               2
100
AcDbLine
 10
-142.98737887779509
 20
20.93281565356628
 30
0.0
 11
-147.5262531661952
 21
20.93281565356628
 31
0.0
  0
LINE
  5
68C
100
AcDbEntity
  8
0
  6
CONTINUOUS
 62
               7
100
AcDbLine
 10
-140.05230901351945
 20
18.13281566715321
 30
0.0
 11
-139.60230901351943
 21
18.13281566715321
 31
0.0
  0
CIRCLE
  5
68D
100
AcDbEntity
  8
0
  6
CONTINUOUS
 62
               7
100
AcDbCircle
 10
-145.3020590135194
 20
20.932815667153235
 30
0.0
 40
1.1500000000000001
  0
LINE
  5
68E
100
AcDbEntity
  8
0
  6
CONTINUOUS
 62
               7
100
AcDbLine
 10
-151.00230901351952
 20
18.132815667153238
 30
0.0
 11
-150.55230901351945
 21
18.132815667153238
 31
0.0
  0
LINE
  5
68F
100
AcDbEntity
  8
0
  6
CONTINUOUS
 62
               7
100
AcDbLine
 10
-151.00230901351952
 20
18.132815667153238
 30
0.0
 11
-151.30230901351942
 21
18.432815667153221
 31
0.0
  0
LINE
  5
690
100
AcDbEntity
  8
0
  6
CONTINUOUS
 62
               7
100
AcDbLine
 10
-139.60230901351943
 20
18.13281566715321
 30
0.0
 11
-139.30230901351953
 21
18.432815667153221
 31
0.0
  0
LINE
  5
691
100
AcDbEntity
  8
0
  6
CONTINUOUS
 62
               7
100
AcDbLine
 10
-140.25230901351955
 20
18.332815667153199
 30
0.0
 11
-140.25230901351955
 21
18.63281566715321
 31
0.0
  0
LINE
  5
692
100
AcDbEntity
  8
0
  6
CONTINUOUS
 62
               7
100
AcDbLine
 10
-150.3523090135194
 20
18.332815667153227
 30
0.0
 11
-150.3523090135194
 21
18.632815667153238
 31
0.0
  0
LINE
  5
693
100
AcDbEntity
  8
0
  6
CONTINUOUS
 62
               7
100
AcDbLine
 10
-150.3523090135194
 20
18.332815667153227
 30
0.0
 11
-150.55230901351945
 21
18.132815667153238
 31
0.0
  0
LINE
  5
694
100
AcDbEntity
  8
0
  6
CONTINUOUS
 62
               7
100
AcDbLine
 10
-140.25230901351955
 20
18.332815667153199
 30
0.0
 11
-140.05230901351945
 21
18.13281566715321
 31
0.0
  0
LINE
  5
695
100
AcDbEntity
  8
0
  6
CONTINUOUS
 62
               4
100
AcDbLine
 10
-150.30230901351933
 20
-3.8671843328467617
 30
0.0
 11
-140.30230901351939
 21
-3.8671843328467617
 31
0.0
  0
LINE
  5
696
100
AcDbEntity
  8
0
  6
CONTINUOUS
 62
               4
100
AcDbLine
 10
-150.30230901351933
 20
-2.2651843328467578
 30
0.0
 11
-148.05230901351933
 21
-2.2651843328467578
 31
0.0
  0
LINE
  5
697
100
AcDbEntity
  8
0
  6
CONTINUOUS
 62
               4
100
AcDbLine
 10
-147.10230901351935
 20
-3.7651843328467862
 30
0.0
 11
-140.80230901351939
 21
-3.7651843328467862
 31
0.0
  0
LINE
  5
698
100
AcDbEntity
  8
0
  6
CONTINUOUS
 62
               4
100
AcDbLine
 10
-147.10230901351935
 20
-3.7651843328467862
 30
0.0
 11
-147.10230901351935
 21
-2.969184332846794
 31
0.0
  0
ARC
  5
699
100
AcDbEntity
  8
0
  6
CONTINUOUS
 62
               4
100
AcDbCircle
 10
-140.80230901351939
 20
-3.2651843328467862
 30
0.0
 40
0.5
100
AcDbArc
 50
269.99999999999949
 51
0.0000000000001018
  0
LINE
  5
69A
100
AcDbEntity
  8
0
  6
CONTINUOUS
 62
               4
100
AcDbLine
 10
-150.30230901351933
 20
-3.2671843328467673
 30
0.0
 11
-147.1023090135194
 21
-3.2671843328467673
 31
0.0
  0
ARC
  5
69B
100
AcDbEntity
  8
0
  6
CONTINUOUS
 62
               4
100
AcDbCircle
 10
-149.50640416017757
 20
-3.2672794795049356
 30
0.0
 40
0.5999048608870732
100
AcDbArc
 50
179.99091272245349
 51
270.00908727754586
  0
ARC
  5
69C
100
AcDbEntity
  8
0
  6
CONTINUOUS
 62
               4
100
AcDbCircle
 10
-147.70522100828236
 20
-3.2682723380837899
 30
0.0
 40
0.5989129830170392
100
AcDbArc
 50
269.89591452477248
 51
0.1040854752272227
  0
LINE
  5
69D
100
AcDbEntity
  8
0
  6
CONTINUOUS
 62
               4
100
AcDbLine
 10
-150.30230901351933
 20
-3.8671843328467617
 30
0.0
 11
-150.30230901351945
 21
18.63281566715321
 31
0.0
  0
LINE
  5
69E
100
AcDbEntity
  8
0
  6
CONTINUOUS
 62
               4
100
AcDbLine
 10
-140.30230901351939
 20
-3.8671843328467617
 30
0.0
 11
-140.30230901351939
 21
18.632815667153238
 31
0.0
  0
ARC
  5
69F
100
AcDbEntity
  8
0
  6
CONTINUOUS
 62
               4
100
AcDbCircle
 10
-140.80201216565524
 20
18.133112515017416
 30
0.0
 40
0.4997032403068001
100
AcDbArc
 50
359.96596353714716
 51
90.034036462852569
  0
ARC
  5
6A0
100
AcDbEntity
  8
0
  6
CONTINUOUS
 62
               4
100
AcDbCircle
 10
-149.80201198931331
 20
18.132518642947133
 30
0.0
 40
0.5002971123771115
100
AcDbArc
 50
90.034016255545509
 51
179.96598374445352
  0
LINE
  5
6A1
100
AcDbEntity
  8
0
  6
CONTINUOUS
 62
               4
100
AcDbLine
 10
-142.88230901351938
 20
-0.2691843328467769
 30
0.0
 11
-147.71230901351936
 21
-0.2691843328467769
 31
0.0
  0
LINE
  5
6A2
100
AcDbEntity
  8
0
  6
CONTINUOUS
 62
               4
100
AcDbLine
 10
-142.58230901351936
 20
0.0308156671532061
 30
0.0
 11
-148.01230901351937
 21
0.0308156671532061
 31
0.0
  0
LINE
  5
6A3
100
AcDbEntity
  8
0
  6
CONTINUOUS
 62
               4
100
AcDbLine
 10
-142.55230901351939
 20
-0.969184332846794
 30
0.0
 11
-148.05230901351933
 21
-0.969184332846794
 31
0.0
  0
LINE
  5
6A4
100
AcDbEntity
  8
0
  6
CONTINUOUS
 62
               4
100
AcDbLine
 10
-142.55230901351939
 20
-1.969184332846794
 30
0.0
 11
-148.05230901351933
 21
-1.969184332846794
 31
0.0
  0
LINE
  5
6A5
100
AcDbEntity
  8
0
  6
CONTINUOUS
 62
               4
100
AcDbLine
 10
-142.55230901351939
 20
-2.969184332846794
 30
0.0
 11
-148.05230901351933
 21
-2.969184332846794
 31
0.0
  0
CIRCLE
  5
6A6
100
AcDbEntity
  8
0
  6
CONTINUOUS
 62
               4
100
AcDbCircle
 10
-144.05230901351939
 20
1.5308309259422685
 30
0.0
 40
0.8499675393104554
  0
LINE
  5
6A7
100
AcDbEntity
  8
0
  6
CONTINUOUS
 62
               4
100
AcDbLine
 10
-143.1023090135194
 20
0.3808156671532004
 30
0.0
 11
-145.00230901351938
 21
0.3808156671532004
 31
0.0
  0
LINE
  5
6A8
100
AcDbEntity
  8
0
  6
CONTINUOUS
 62
               4
100
AcDbLine
 10
-143.1023090135194
 20
0.5808156671532174
 30
0.0
 11
-145.00230901351938
 21
0.5808156671532174
 31
0.0
  0
ARC
  5
6A9
100
AcDbEntity
  8
0
  6
CONTINUOUS
 62
               4
100
AcDbCircle
 10
-140.8023196946927
 20
-0.369173651673492
 30
0.0
 40
0.5000106812873828
100
AcDbArc
 50
270.00122394615289
 51
359.99877605384523
  0
LINE
  5
6AA
100
AcDbEntity
  8
0
  6
CONTINUOUS
 62
               4
100
AcDbLine
 10
-143.1023090135194
 20
0.3808156671532004
 30
0.0
 11
-143.1023090135194
 21
2.4808156671532231
 31
0.0
  0
LINE
  5
6AB
100
AcDbEntity
  8
0
  6
CONTINUOUS
 62
               4
100
AcDbLine
 10
-141.55230901351939
 20
2.530815667153206
 30
0.0
 11
-141.55230901351939
 21
0.7308156671532231
 31
0.0
  0
LINE
  5
6AC
100
AcDbEntity
  8
0
  6
CONTINUOUS
 62
               4
100
AcDbLine
 10
-141.45230901351937
 20
0.6308156671532004
 30
0.0
 11
-141.45230901351937
 21
2.6308156671532004
 31
0.0
  0
LINE
  5
6AD
100
AcDbEntity
  8
0
  6
CONTINUOUS
 62
               4
100
AcDbLine
 10
-140.80230901351939
 20
-0.8691843328467996
 30
0.0
 11
-142.55230901351939
 21
-0.8691843328467996
 31
0.0
  0
LINE
  5
6AE
100
AcDbEntity
  8
0
  6
CONTINUOUS
 62
               4
100
AcDbLine
 10
-142.45230901351937
 20
-0.8691843328467996
 30
0.0
 11
-142.45230901351937
 21
0.6308156671532004
 31
0.0
  0
LINE
  5
6AF
100
AcDbEntity
  8
0
  6
CONTINUOUS
 62
               4
100
AcDbLine
 10
-142.55230901351939
 20
0.0708156671531981
 30
0.0
 11
-142.88230901351938
 21
-0.2691843328467769
 31
0.0
  0
LINE
  5
6B0
100
AcDbEntity
  8
0
  6
CONTINUOUS
 62
               4
100
AcDbLine
 10
-141.45230901351937
 20
0.6308156671532004
 30
0.0
 11
-142.45230901351937
 21
0.6308156671532004
 31
0.0
  0
LINE
  5
6B1
100
AcDbEntity
  8
0
  6
CONTINUOUS
 62
               4
100
AcDbLine
 10
-141.55230901351939
 20
0.7308156671532231
 30
0.0
 11
-142.55230901351939
 21
0.7308156671532231
 31
0.0
  0
LINE
  5
6B2
100
AcDbEntity
  8
0
  6
CONTINUOUS
 62
               4
100
AcDbLine
 10
-142.55230901351939
 20
-2.969184332846794
 30
0.0
 11
-142.55230901351939
 21
0.7308156671532231
 31
0.0
  0
LINE
  5
6B3
100
AcDbEntity
  8
0
  6
PHANTOM
 62
             200
100
AcDbLine
 10
-143.80230901351939
 20
11.130815667153243
 30
0.0
 11
-146.80230901351945
 21
11.130815667153243
 31
0.0
  0
LINE
  5
6B4
100
AcDbEntity
  8
0
  6
PHANTOM
 62
             200
100
AcDbLine
 10
-143.80230901351939
 20
13.130815667153243
 30
0.0
 11
-146.80230901351945
 21
13.130815667153243
 31
0.0
  0
LINE
  5
6B5
100
AcDbEntity
  8
0
  6
PHANTOM
 62
             200
100
AcDbLine
 10
-143.80230901351939
 20
11.130815667153243
 30
0.0
 11
-143.80230901351939
 21
13.130815667153243
 31
0.0
  0
LINE
  5
6B6
100
AcDbEntity
  8
0
  6
CONTINUOUS
 62
               4
100
AcDbLine
 10
-142.45230901351937
 20
4.1308156671532004
 30
0.0
 11
-148.15230901351936
 21
4.1308156671532004
 31
0.0
  0
LINE
  5
6B7
100
AcDbEntity
  8
0
  6
CONTINUOUS
 62
               4
100
AcDbLine
 10
-142.55230901351939
 20
4.030815667153206
 30
0.0
 11
-148.05230901351933
 21
4.030815667153206
 31
0.0
  0
LINE
  5
6B8
100
AcDbEntity
  8
0
  6
CONTINUOUS
 62
               4
100
AcDbLine
 10
-144.55230901351939
 20
2.4808156671532231
 30
0.0
 11
-144.55230901351939
 21
2.780815667153206
 31
0.0
  0
LINE
  5
6B9
100
AcDbEntity
  8
0
  6
CONTINUOUS
 62
               4
100
AcDbLine
 10
-145.00230901351938
 20
0.3808156671532004
 30
0.0
 11
-145.00230901351938
 21
2.4808156671532231
 31
0.0
  0
LINE
  5
6BA
100
AcDbEntity
  8
0
  6
CONTINUOUS
 62
               4
100
AcDbLine
 10
-142.55230901351939
 20
2.530815667153206
 30
0.0
 11
-142.55230901351939
 21
4.030815667153206
 31
0.0
  0
LINE
  5
6BB
100
AcDbEntity
  8
0
  6
CONTINUOUS
 62
               4
100
AcDbLine
 10
-143.55230901351939
 20
2.4808156671532231
 30
0.0
 11
-143.55230901351939
 21
2.780815667153206
 31
0.0
  0
LINE
  5
6BC
100
AcDbEntity
  8
0
  6
CONTINUOUS
 62
               4
100
AcDbLine
 10
-142.45230901351937
 20
2.6308156671532004
 30
0.0
 11
-142.45230901351937
 21
4.1308156671532004
 31
0.0
  0
LINE
  5
6BD
100
AcDbEntity
  8
0
  6
CONTINUOUS
 62
               4
100
AcDbLine
 10
-141.45230901351937
 20
2.6308156671532004
 30
0.0
 11
-142.45230901351937
 21
2.6308156671532004
 31
0.0
  0
LINE
  5
6BE
100
AcDbEntity
  8
0
  6
CONTINUOUS
 62
               4
100
AcDbLine
 10
-141.55230901351939
 20
2.530815667153206
 30
0.0
 11
-142.55230901351939
 21
2.530815667153206
 31
0.0
  0
LINE
  5
6BF
100
AcDbEntity
  8
0
  6
CONTINUOUS
 62
               4
100
AcDbLine
 10
-143.55230901351939
 20
2.780815667153206
 30
0.0
 11
-144.55230901351939
 21
2.780815667153206
 31
0.0
  0
LINE
  5
6C0
100
AcDbEntity
  8
0
  6
CONTINUOUS
 62
               4
100
AcDbLine
 10
-143.1023090135194
 20
2.4808156671532231
 30
0.0
 11
-145.00230901351938
 21
2.4808156671532231
 31
0.0
  0
LINE
  5
6C1
100
AcDbEntity
  8
0
  6
CONTINUOUS
 62
               4
100
AcDbLine
 10
-148.05230901351933
 20
-2.969184332846794
 30
0.0
 11
-148.05230901351933
 21
0.7308156671532231
 31
0.0
  0
LINE
  5
6C2
100
AcDbEntity
  8
0
  6
CONTINUOUS
 62
               4
100
AcDbLine
 10
-148.15230901351936
 20
2.6308156671532004
 30
0.0
 11
-148.15230901351936
 21
4.1308156671532004
 31
0.0
  0
LINE
  5
6C3
100
AcDbEntity
  8
0
  6
CONTINUOUS
 62
               4
100
AcDbLine
 10
-148.15230901351936
 20
-0.8691843328467996
 30
0.0
 11
-148.15230901351936
 21
0.6308156671532004
 31
0.0
  0
LINE
  5
6C4
100
AcDbEntity
  8
0
  6
CONTINUOUS
 62
               4
100
AcDbLine
 10
-146.05230901351933
 20
2.4808156671532231
 30
0.0
 11
-146.05230901351933
 21
2.780815667153206
 31
0.0
  0
LINE
  5
6C5
100
AcDbEntity
  8
0
  6
CONTINUOUS
 62
               4
100
AcDbLine
 10
-145.6023090135194
 20
0.3808156671532004
 30
0.0
 11
-145.6023090135194
 21
2.4808156671532231
 31
0.0
  0
LINE
  5
6C6
100
AcDbEntity
  8
0
  6
CONTINUOUS
 62
               4
100
AcDbLine
 10
-149.05230901351933
 20
2.530815667153206
 30
0.0
 11
-149.05230901351933
 21
0.7308156671532231
 31
0.0
  0
LINE
  5
6C7
100
AcDbEntity
  8
0
  6
CONTINUOUS
 62
               4
100
AcDbLine
 10
-149.15230901351936
 20
0.6308156671532004
 30
0.0
 11
-149.15230901351936
 21
2.6308156671532004
 31
0.0
  0
LINE
  5
6C8
100
AcDbEntity
  8
0
  6
CONTINUOUS
 62
               4
100
AcDbLine
 10
-148.05230901351933
 20
0.7308156671532231
 30
0.0
 11
-149.05230901351933
 21
0.7308156671532231
 31
0.0
  0
LINE
  5
6C9
100
AcDbEntity
  8
0
  6
CONTINUOUS
 62
               4
100
AcDbLine
 10
-148.15230901351936
 20
0.6308156671532004
 30
0.0
 11
-149.15230901351936
 21
0.6308156671532004
 31
0.0
  0
LINE
  5
6CA
100
AcDbEntity
  8
0
  6
CONTINUOUS
 62
               4
100
AcDbLine
 10
-148.15230901351936
 20
2.6308156671532004
 30
0.0
 11
-149.15230901351936
 21
2.6308156671532004
 31
0.0
  0
LINE
  5
6CB
100
AcDbEntity
  8
0
  6
CONTINUOUS
 62
               4
100
AcDbLine
 10
-148.05230901351933
 20
2.530815667153206
 30
0.0
 11
-149.05230901351933
 21
2.530815667153206
 31
0.0
  0
LINE
  5
6CC
100
AcDbEntity
  8
0
  6
CONTINUOUS
 62
               4
100
AcDbLine
 10
-148.05230901351933
 20
2.530815667153206
 30
0.0
 11
-148.05230901351933
 21
4.030815667153206
 31
0.0
  0
LINE
  5
6CD
100
AcDbEntity
  8
0
  6
CONTINUOUS
 62
               4
100
AcDbLine
 10
-147.05230901351933
 20
2.4808156671532231
 30
0.0
 11
-147.05230901351933
 21
2.780815667153206
 31
0.0
  0
LINE
  5
6CE
100
AcDbEntity
  8
0
  6
CONTINUOUS
 62
               4
100
AcDbLine
 10
-148.01230901351937
 20
0.0308156671532061
 30
0.0
 11
-147.71230901351936
 21
-0.2691843328467769
 31
0.0
  0
LINE
  5
6CF
100
AcDbEntity
  8
0
  6
CONTINUOUS
 62
               4
100
AcDbLine
 10
-147.50230901351938
 20
0.3808156671532004
 30
0.0
 11
-147.50230901351938
 21
2.4808156671532231
 31
0.0
  0
LINE
  5
6D0
100
AcDbEntity
  8
0
  6
CONTINUOUS
 62
               4
100
AcDbLine
 10
-146.05230901351933
 20
2.780815667153206
 30
0.0
 11
-147.05230901351933
 21
2.780815667153206
 31
0.0
  0
LINE
  5
6D1
100
AcDbEntity
  8
0
  6
CONTINUOUS
 62
               4
100
AcDbLine
 10
-145.6023090135194
 20
0.5808156671532174
 30
0.0
 11
-147.50230901351938
 21
0.5808156671532174
 31
0.0
  0
LINE
  5
6D2
100
AcDbEntity
  8
0
  6
CONTINUOUS
 62
               4
100
AcDbLine
 10
-145.6023090135194
 20
2.4808156671532231
 30
0.0
 11
-147.50230901351938
 21
2.4808156671532231
 31
0.0
  0
LINE
  5
6D3
100
AcDbEntity
  8
0
  6
CONTINUOUS
 62
               4
100
AcDbLine
 10
-145.6023090135194
 20
0.3808156671532004
 30
0.0
 11
-147.50230901351938
 21
0.3808156671532004
 31
0.0
  0
CIRCLE
  5
6D4
100
AcDbEntity
  8
0
  6
CONTINUOUS
 62
               4
100
AcDbCircle
 10
-146.55230901351933
 20
1.5308309259422685
 30
0.0
 40
0.8499675393104554
  0
ARC
  5
6D5
100
AcDbEntity
  8
0
  6
CONTINUOUS
 62
               4
100
AcDbCircle
 10
-149.80231359104198
 20
-0.3691889103694166
 30
0.0
 40
0.4999954224983215
100
AcDbArc
 50
179.99947544974265
 51
270.00052455025656
  0
LINE
  5
6D6
100
AcDbEntity
  8
0
  6
CONTINUOUS
 62
               4
100
AcDbLine
 10
-148.05230901351933
 20
-0.8691843328467996
 30
0.0
 11
-149.80230901351933
 21
-0.8691843328467996
 31
0.0
  0
LINE
  5
6D7
100
AcDbEntity
  8
0
  6
PHANTOM
 62
             200
100
AcDbLine
 10
-146.80230901351945
 20
11.130815667153243
 30
0.0
 11
-146.80230901351945
 21
13.130815667153243
 31
0.0
  0
LINE
  5
6D8
100
AcDbEntity
  8
0
  6
CONTINUOUS
 62
               7
100
AcDbLine
 10
-150.3523090135194
 20
18.632815667153238
 30
0.0
 11
-140.25230901351955
 21
18.63281566715321
 31
0.0
  0
LINE
  5
6D9
100
AcDbEntity
  8
0
  6
DASHED
 62
             200
100
AcDbLine
 10
-108.20230901351945
 20
85.132815672433921
 30
0.0
 11
-108.20230901351945
 21
78.132815672433921
 31
0.0
  0
LINE
  5
6DA
100
AcDbEntity
  8
0
  6
DASHED
 62
             200
100
AcDbLine
 10
-105.20230901351945
 20
85.132815672433921
 30
0.0
 11
-105.20230901351945
 21
69.132815672433921
 31
0.0
  0
LINE
  5
6DB
100
AcDbEntity
  8
0
  6
DASHED
 62
             200
100
AcDbLine
 10
-108.20230901351945
 20
76.132815672433921
 30
0.0
 11
-108.20230901351945
 21
69.132815672433921
 31
0.0
  0
LINE
  5
6DC
100
AcDbEntity
  8
0
  6
DASHED
 62
             200
100
AcDbLine
 10
-108.20230901351945
 20
52.132815672433921
 30
0.0
 11
-108.20230901351945
 21
45.132815672433921
 31
0.0
  0
LINE
  5
6DD
100
AcDbEntity
  8
0
  6
DASHED
 62
             200
100
AcDbLine
 10
-105.20230901351945
 20
52.132815672433921
 30
0.0
 11
-105.20230901351945
 21
36.132815672433921
 31
0.0
  0
LINE
  5
6DE
100
AcDbEntity
  8
0
  6
DASHED
 62
             200
100
AcDbLine
 10
-108.20230901351945
 20
43.132815672433921
 30
0.0
 11
-108.20230901351945
 21
36.132815672433921
 31
0.0
  0
LINE
  5
6DF
100
AcDbEntity
  8
0
  6
CONTINUOUS
 62
             200
100
AcDbLine
 10
-133.70742949115083
 20
77.132815672433921
 30
0.0
 11
-101.42230901351945
 21
77.132815672433921
 31
0.0
  0
LINE
  5
6E0
100
AcDbEntity
  8
0
  6
DASHED
 62
             200
100
AcDbLine
 10
-123.20230901351945
 20
69.132815672433921
 30
0.0
 11
-103.70230901351945
 21
69.132815672433921
 31
0.0
  0
LINE
  5
6E1
100
AcDbEntity
  8
0
  6
DASHED
 62
             200
100
AcDbLine
 10
-123.20230901351945
 20
85.132815672433921
 30
0.0
 11
-103.70230901351945
 21
85.132815672433921
 31
0.0
  0
LINE
  5
6E2
100
AcDbEntity
  8
0
  6
CONTINUOUS
 62
             200
100
AcDbLine
 10
-133.70742949115083
 20
44.132815672433921
 30
0.0
 11
-101.42230901351945
 21
44.132815672433921
 31
0.0
  0
LINE
  5
6E3
100
AcDbEntity
  8
0
  6
DASHED
 62
             200
100
AcDbLine
 10
-123.20230901351945
 20
36.132815672433921
 30
0.0
 11
-103.70230901351945
 21
36.132815672433921
 31
0.0
  0
LINE
  5
6E4
100
AcDbEntity
  8
0
  6
DASHED
 62
             200
100
AcDbLine
 10
-123.20230901351945
 20
52.132815672433921
 30
0.0
 11
-103.70230901351945
 21
52.132815672433921
 31
0.0
  0
ENDSEC
  0
SECTION
  2
OBJECTS
  0
DICTIONARY
  5
19
100
AcDbDictionary
  3
ACAD_GROUP
350
1A
  3
ACAD_MLINESTYLE
350
1B
  0
DICTIONARY
  5
1A
102
{ACAD_REACTORS
330
19
102
}
100
AcDbDictionary
  0
DICTIONARY
  5
1B
102
{ACAD_REACTORS
330
19
102
}
100
AcDbDictionary
  3
STANDARD
350
1C
  0
MLINESTYLE
  5
1C
102
{ACAD_REACTORS
330
1B
102
}
100
AcDbMlineStyle
  2
Standard
 70
               0
  3

 62
               0
 51
90.0
 52
90.0
 71
               2
 49
0.5
 62
             256
  6
ByLayer
 49
-0.5
 62
             256
  6
ByLayer
  0
ENDSEC
  0
EOF
