  0
SECTION
  2
HEADER
  9
$ACADVER
  1
AC1012
  9
$DWGCODEPAGE
  3
dos932
  9
$INSBASE
 10
0.0
 20
0.0
 30
0.0
  9
$EXTMIN
 10
-281.25
 20
-195.0
 30
0.0
  9
$EXTMAX
 10
285.6319057062413
 20
195.5
 30
0.0
  9
$LIMMIN
 10
-281.25
 20
-195.0
  9
$LIMMAX
 10
285.6319057062413
 20
195.5
  9
$ORTHOMODE
 70
               0
  9
$REGENMODE
 70
               1
  9
$FILLMODE
 70
               1
  9
$QTEXTMODE
 70
               0
  9
$MIRRTEXT
 70
               1
  9
$DRAGMODE
 70
               2
  9
$LTSCALE
 40
1.0
  9
$OSMODE
 70
               0
  9
$ATTMODE
 70
               1
  9
$TEXTSIZE
 40
3.2000000476837158
  9
$TRACEWID
 40
0.05
  9
$TEXTSTYLE
  7
MX_NOTE_STANDARD
  9
$CLAYER
  8
0
  9
$CELTYPE
  6
CONTINUOUS
  9
$CECOLOR
 62
             256
  9
$CELTSCALE
 40
1.0
  9
$DELOBJ
 70
               1
  9
$DISPSILH
 70
               0
  9
$DIMSCALE
 40
1.0
  9
$DIMASZ
 40
2.5
  9
$DIMEXO
 40
1.5
  9
$DIMDLI
 40
3.75
  9
$DIMRND
 40
0.0
  9
$DIMDLE
 40
0.0
  9
$DIMEXE
 40
1.5
  9
$DIMTP
 40
0.0
  9
$DIMTM
 40
0.0
  9
$DIMTXT
 40
3.2000000476837158
  9
$DIMCEN
 40
2.5
  9
$DIMTSZ
 40
0.0
  9
$DIMTOL
 70
               0
  9
$DIMLIM
 70
               0
  9
$DIMTIH
 70
               0
  9
$DIMTOH
 70
               0
  9
$DIMSE1
 70
               0
  9
$DIMSE2
 70
               0
  9
$DIMTAD
 70
               1
  9
$DIMZIN
 70
               8
  9
$DIMBLK
  1

  9
$DIMASO
 70
               1
  9
$DIMSHO
 70
               1
  9
$DIMPOST
  1

  9
$DIMAPOST
  1

  9
$DIMALT
 70
               0
  9
$DIMALTD
 70
               4
  9
$DIMALTF
 40
0.03937007874016
  9
$DIMLFAC
 40
1.0
  9
$DIMTOFL
 70
               1
  9
$DIMTVP
 40
0.0
  9
$DIMTIX
 70
               0
  9
$DIMSOXD
 70
               0
  9
$DIMSAH
 70
               0
  9
$DIMBLK1
  1

  9
$DIMBLK2
  1

  9
$DIMSTYLE
  2
MXDIMSTYLE
  9
$DIMCLRD
 70
               0
  9
$DIMCLRE
 70
               0
  9
$DIMCLRT
 70
               0
  9
$DIMTFAC
 40
1.0
  9
$DIMGAP
 40
1.0
  9
$DIMJUST
 70
               0
  9
$DIMSD1
 70
               0
  9
$DIMSD2
 70
               0
  9
$DIMTOLJ
 70
               1
  9
$DIMTZIN
 70
               0
  9
$DIMALTZ
 70
               0
  9
$DIMALTTZ
 70
               0
  9
$DIMFIT
 70
               3
  9
$DIMUPT
 70
               1
  9
$DIMUNIT
 70
               2
  9
$DIMDEC
 70
               4
  9
$DIMTDEC
 70
               4
  9
$DIMALTU
 70
               2
  9
$DIMALTTD
 70
               4
  9
$DIMTXSTY
  7
MX_NOTE_STANDARD
  9
$DIMAUNIT
 70
               0
  9
$LUNITS
 70
               2
  9
$LUPREC
 70
               4
  9
$SKETCHINC
 40
0.1
  9
$FILLETRAD
 40
0.0
  9
$AUNITS
 70
               0
  9
$AUPREC
 70
               0
  9
$MENU
  1
acad
  9
$ELEVATION
 40
0.0
  9
$PELEVATION
 40
0.0
  9
$THICKNESS
 40
0.0
  9
$LIMCHECK
 70
               0
  9
$BLIPMODE
 70
               1
  9
$CHAMFERA
 40
0.0
  9
$CHAMFERB
 40
0.0
  9
$CHAMFERC
 40
0.0
  9
$CHAMFERD
 40
0.0
  9
$SKPOLY
 70
               0
  9
$TDCREATE
 40
2453378.356620370
  9
$TDUPDATE
 40
2453378.356620370
  9
$TDINDWG
 40
0.0000000000
  9
$TDUSRTIMER
 40
0.0000000000
  9
$USRTIMER
 70
               1
  9
$ANGBASE
 50
0.0
  9
$ANGDIR
 70
               0
  9
$PDMODE
 70
               0
  9
$PDSIZE
 40
0.0
  9
$PLINEWID
 40
0.0
  9
$COORDS
 70
               1
  9
$SPLFRAME
 70
               0
  9
$SPLINETYPE
 70
               6
  9
$SPLINESEGS
 70
               8
  9
$ATTDIA
 70
               0
  9
$ATTREQ
 70
               1
  9
$HANDLING
 70
               1
  9
$HANDSEED
  5
595
  9
$SURFTAB1
 70
               6
  9
$SURFTAB2
 70
               6
  9
$SURFTYPE
 70
               6
  9
$SURFU
 70
               6
  9
$SURFV
 70
               6
  9
$UCSNAME
  2

  9
$UCSORG
 10
0.0
 20
0.0
 30
0.0
  9
$UCSXDIR
 10
1.0
 20
0.0
 30
0.0
  9
$UCSYDIR
 10
0.0
 20
1.0
 30
0.0
  9
$PUCSNAME
  2

  9
$PUCSORG
 10
0.0
 20
0.0
 30
0.0
  9
$PUCSXDIR
 10
1.0
 20
0.0
 30
0.0
  9
$PUCSYDIR
 10
0.0
 20
1.0
 30
0.0
  9
$USERI1
 70
               0
  9
$USERI2
 70
               0
  9
$USERI3
 70
               0
  9
$USERI4
 70
               0
  9
$USERI5
 70
               0
  9
$USERR1
 40
0.0
  9
$USERR2
 40
0.0
  9
$USERR3
 40
0.0
  9
$USERR4
 40
0.0
  9
$USERR5
 40
0.0
  9
$WORLDVIEW
 70
               1
  9
$SHADEDGE
 70
               3
  9
$SHADEDIF
 70
              70
  9
$TILEMODE
 70
               1
  9
$MAXACTVP
 70
              16
  9
$PINSBASE
 10
0.0
 20
0.0
 30
0.0
  9
$PLIMCHECK
 70
               0
  9
$PEXTMIN
 10
1.0000000000000000E+20
 20
1.0000000000000000E+20
 30
1.0000000000000000E+20
  9
$PEXTMAX
 10
-1.0000000000000000E+20
 20
-1.0000000000000000E+20
 30
-1.0000000000000000E+20
  9
$PLIMMIN
 10
0.0
 20
0.0
  9
$PLIMMAX
 10
12.0
 20
9.0
  9
$UNITMODE
 70
               0
  9
$VISRETAIN
 70
               0
  9
$PLINEGEN
 70
               1
  9
$PSLTSCALE
 70
               0
  9
$TREEDEPTH
 70
            3020
  9
$PICKSTYLE
 70
               1
  9
$CMLSTYLE
  2
Standard
  9
$CMLJUST
 70
               0
  9
$CMLSCALE
 40
1.0
  9
$SAVEIMAGES
 70
               0
  0
ENDSEC
  0
SECTION
  2
CLASSES
  0
CLASS
  1
LWPOLYLINE
  2
AcDbPolyline
  3
"AutoCAD"
 90
        0
280
               0
281
               1
  0
CLASS
  1
IMAGE
  2
AcDbRasterImage
  3
ISM
 90
      127
280
               0
281
               1
  0
CLASS
  1
OLE2FRAME
  2
AcDbOle2Frame
  3
""
 90
        0
280
               0
281
               1
  0
CLASS
  1
HATCH
  2
AcDbHatch
  3
"ACAD_SEDONA"
 90
        0
280
               0
281
               1
  0
CLASS
  1
DICTIONARYVAR
  2
AcDbDictionaryVar
  3
"AutoCAD"
 90
        0
280
               0
281
               0
  0
CLASS
  1
RASTERVARIABLES
  2
AcDbRasterVariables
  3
ISM
 90
        0
280
               0
281
               0
  0
CLASS
  1
IMAGEDEF
  2
AcDbRasterImageDef
  3
ISM
 90
        0
280
               0
281
               0
  0
CLASS
  1
IMAGEDEF_REACTOR
  2
AcDbRasterImageDefReactor
  3
ISM
 90
        1
280
               0
281
               0
  0
CLASS
  1
IDBUFFER
  2
AcDbIdBuffer
  3
"Acad"
 90
        0
280
               0
281
               0
  0
CLASS
  1
SPATIAL_FILTER
  2
AcDbSpatialFilter
  3
"Acad"
 90
        0
280
               0
281
               0
  0
CLASS
  1
XRECORD
  2
AcDbXrecord
  3
"<Built In>"
 90
        0
280
               0
281
               0
  0
CLASS
  1
SORTENTSTABLE
  2
AcDbSortentsTable
  3
"AutoCAD"
 90
        0
280
               0
281
               0
  0
CLASS
  1
LAYER_INDEX
  2
AcDbLayerIndex
  3
"Acad"
 90
        0
280
               0
281
               0
  0
CLASS
  1
SPATIAL_INDEX
  2
AcDbSpatialIndex
  3
"Acad"
 90
        0
280
               0
281
               0
  0
CLASS
  1
OBJECT_PTR
  2
CAseDLPNTableRecord
  3
"ASE-LPNTableRecord"
 90
        1
280
               0
281
               0
  0
CLASS
  1
LAYOUT
  2
AcDbLayout
  3
"AutoCAD 2000"
 90
        1
280
               0
281
               0
  0
CLASS
  1
PLOTSETTINGS
  2
AcDbPlotSettings
  3
"AutoCAD 2000"
 90
        1
280
               0
281
               0
  0
CLASS
  1
ACDBDICTIONARYWDFLT
  2
AcDbDictionaryWithDefault
  3
"AutoCAD 2000"
 90
        1
280
               0
281
               0
  0
CLASS
  1
ACDBPLACEHOLDER
  2
AcDbPlaceHolder
  3
"AutoCAD 2000"
 90
        1
280
               0
281
               0
  0
ENDSEC
  0
SECTION
  2
TABLES
  0
TABLE
  2
VPORT
  5
7
100
AcDbSymbolTable
 70
               1
  0
VPORT
  5
15
100
AcDbSymbolTableRecord
100
AcDbViewportTableRecord
  2
*ACTIVE
 70
               0
 10
0.0
 20
0.0
 11
1.0
 21
1.0
 12
2.1909528531206206
 22
0.25
 13
0.0
 23
0.0
 14
1.0
 24
1.0
 15
0.0
 25
0.0
 16
0.0
 26
0.0
 36
1.0
 17
0.0
 27
0.0
 37
0.0
 40
394.40500000000003
 41
1.7320508075688772
 42
50.0
 43
0.0
 44
0.0
 50
0.0
 51
0.0
 71
               0
 72
             100
 73
               1
 74
               1
 75
               0
 76
               0
 77
               0
 78
               0
  0
ENDTAB
  0
TABLE
  2
LTYPE
  5
4
100
AcDbSymbolTable
 70
               6
  0
LTYPE
  5
11
100
AcDbSymbolTableRecord
100
AcDbLinetypeTableRecord
  2
BYBLOCK
 70
              64
  3

 72
              65
 73
               0
 40
0.0
  0
LTYPE
  5
12
100
AcDbSymbolTableRecord
100
AcDbLinetypeTableRecord
  2
BYLAYER
 70
              64
  3

 72
              65
 73
               0
 40
0.0
  0
LTYPE
  5
13
100
AcDbSymbolTableRecord
100
AcDbLinetypeTableRecord
  2
CONTINUOUS
 70
              64
  3
Solid line
 72
              65
 73
               0
 40
0.0
  0
LTYPE
  5
36
100
AcDbSymbolTableRecord
100
AcDbLinetypeTableRecord
  2
CENTER
 70
              64
  3
Center ____ _ ____ _ ____ _ ____ _ ____ _ ____
 72
              65
 73
               4
 40
26.0
 49
20.0
 74
               0
 49
-2.0
 74
               0
 49
2.0
 74
               0
 49
-2.0
 74
               0
  0
LTYPE
  5
38
100
AcDbSymbolTableRecord
100
AcDbLinetypeTableRecord
  2
PHANTOM
 70
              64
  3
Phantom ______  __  __  ______  __  __  ______
 72
              65
 73
               6
 40
30.0
 49
20.0
 74
               0
 49
-2.0
 74
               0
 49
2.0
 74
               0
 49
-2.0
 74
               0
 49
2.0
 74
               0
 49
-2.0
 74
               0
  0
LTYPE
  5
164
100
AcDbSymbolTableRecord
100
AcDbLinetypeTableRecord
  2
DASHED
 70
              64
  3
Dashed __ __ __ __ __ __ __ __ __ __ __ __ __ _
 72
              65
 73
               2
 40
4.0
 49
2.0
 74
               0
 49
-2.0
 74
               0
  0
ENDTAB
  0
TABLE
  2
LAYER
  5
2
100
AcDbSymbolTable
 70
               2
  0
LAYER
  5
14
100
AcDbSymbolTableRecord
100
AcDbLayerTableRecord
  2
0
 70
               0
 62
               7
  6
CONTINUOUS
  0
LAYER
  5
1D
100
AcDbSymbolTableRecord
100
AcDbLayerTableRecord
  2
DEFPOINTS
 70
               0
 62
               7
  6
CONTINUOUS
  0
ENDTAB
  0
TABLE
  2
STYLE
  5
3
100
AcDbSymbolTable
 70
               1
  0
STYLE
  5
17
100
AcDbSymbolTableRecord
100
AcDbTextStyleTableRecord
  2
MX_NOTE_STANDARD
 70
               0
 40
0.0
 41
1.0
 50
0.0
 71
               0
 42
3.2000000476837158
  3
txt.shx
  4
extfont.shx
  0
ENDTAB
  0
TABLE
  2
VIEW
  5
5
100
AcDbSymbolTable
 70
               0
  0
ENDTAB
  0
TABLE
  2
UCS
  5
6
100
AcDbSymbolTable
 70
               0
  0
ENDTAB
  0
TABLE
  2
APPID
  5
8
100
AcDbSymbolTable
 70
               1
  0
APPID
  5
16
100
AcDbSymbolTableRecord
100
AcDbRegAppTableRecord
  2
ACAD
 70
               0
  0
ENDTAB
  0
TABLE
  2
DIMSTYLE
  5
9
100
AcDbSymbolTable
 70
               1
  0
DIMSTYLE
105
18
100
AcDbSymbolTableRecord
100
AcDbDimStyleTableRecord
  2
MXDIMSTYLE
 70
               0
  3

  4

  5

  6

  7

 40
1.0
 41
2.5
 42
1.5
 43
3.75
 44
1.5
 45
0.0
 46
0.0
 47
0.0
 48
0.0
 71
               0
 72
               0
 73
               0
 74
               0
 75
               0
 76
               0
 77
               1
 78
               8
140
3.2000000476837158
141
2.5
142
0.0
143
0.03937007874016
144
1.0
145
0.0
146
1.0
147
1.0
170
               0
171
               4
172
               1
173
               0
174
               0
175
               0
176
               0
177
               0
178
               0
270
               2
271
               4
272
               4
273
               2
274
               4
275
               0
280
               0
281
               0
282
               0
283
               1
284
               0
285
               0
286
               0
287
               3
288
               1
340
17
  0
ENDTAB
  0
TABLE
  2
BLOCK_RECORD
  5
1
100
AcDbSymbolTable
 70
               0
  0
BLOCK_RECORD
  5
A
100
AcDbSymbolTableRecord
100
AcDbBlockTableRecord
  2
*MODEL_SPACE
  0
BLOCK_RECORD
  5
B
100
AcDbSymbolTableRecord
100
AcDbBlockTableRecord
  2
*PAPER_SPACE
  0
ENDTAB
  0
ENDSEC
  0
SECTION
  2
BLOCKS
  0
BLOCK
  5
D
100
AcDbEntity
  8
0
100
AcDbBlockBegin
  2
*MODEL_SPACE
 70
               0
 10
0.0
 20
0.0
 30
0.0
  3
*MODEL_SPACE
  1

  0
ENDBLK
  5
E
100
AcDbEntity
  8
0
100
AcDbBlockEnd
  0
BLOCK
  5
F
100
AcDbEntity
 67
               1
  8
0
100
AcDbBlockBegin
  2
*PAPER_SPACE
 70
               0
 10
0.0
 20
0.0
 30
0.0
  3
*PAPER_SPACE
  1

  0
ENDBLK
  5
10
100
AcDbEntity
 67
               1
  8
0
100
AcDbBlockEnd
  0
ENDSEC
  0
SECTION
  2
ENTITIES
  0
LINE
  5
1E
100
AcDbEntity
  8
0
  6
CONTINUOUS
 62
               7
100
AcDbLine
 10
-281.25
 20
-195.0
 30
0.0
 11
282.099853515625
 21
-195.0
 31
0.0
  0
LINE
  5
1F
100
AcDbEntity
  8
0
  6
CONTINUOUS
 62
               7
100
AcDbLine
 10
-281.25
 20
195.5
 30
0.0
 11
-281.25
 21
-195.0
 31
0.0
  0
LINE
  5
20
100
AcDbEntity
  8
0
  6
CONTINUOUS
 62
               7
100
AcDbLine
 10
-281.25
 20
195.5
 30
0.0
 11
282.099853515625
 21
195.5
 31
0.0
  0
LINE
  5
21
100
AcDbEntity
  8
0
  6
CONTINUOUS
 62
               7
100
AcDbLine
 10
282.099853515625
 20
195.5
 30
0.0
 11
282.099853515625
 21
-195.0
 31
0.0
  0
LINE
  5
22
100
AcDbEntity
  8
0
  6
CONTINUOUS
 62
               7
100
AcDbLine
 10
162.0999755859375
 20
195.5
 30
0.0
 11
162.0999755859375
 21
175.5
 31
0.0
  0
LINE
  5
23
100
AcDbEntity
  8
0
  6
CONTINUOUS
 62
               7
100
AcDbLine
 10
162.0999755859375
 20
175.5
 30
0.0
 11
282.099853515625
 21
175.5
 31
0.0
  0
MTEXT
  5
24
100
AcDbEntity
  8
0
  6
CONTINUOUS
 62
               7
100
AcDbMText
 10
198.27702406779611
 20
185.5
 30
0.0
 40
6.3000001907348633
 41
0.0
 71
               4
 72
               1
  1
\W1.311;\A1;Ver. 1.0
  0
MTEXT
  5
25
100
AcDbEntity
  8
0
  6
CONTINUOUS
 62
               7
100
AcDbMText
 10
170.28099805280428
 20
-185.0
 30
0.0
 40
9.0
 41
0.0
 71
               4
 72
               1
  1
\W1.121;\A1;KOGANEI CORP.
  0
LINE
  5
26
100
AcDbEntity
  8
0
  6
CONTINUOUS
 62
               7
100
AcDbLine
 10
162.0999755859375
 20
-175.0
 30
0.0
 11
282.099853515625
 21
-175.0
 31
0.0
  0
LINE
  5
27
100
AcDbEntity
  8
0
  6
CONTINUOUS
 62
               7
100
AcDbLine
 10
162.0999755859375
 20
-175.0
 30
0.0
 11
162.0999755859375
 21
-195.0
 31
0.0
  0
MTEXT
  5
28
100
AcDbEntity
  8
0
  6
CONTINUOUS
 62
               7
100
AcDbMText
 10
-257.88333446177035
 20
185.5
 30
0.0
 40
6.3000001907348633
 41
0.0
 71
               4
 72
               1
  1
\W1.111;\A1;JC･JE SERIES
  0
LINE
  5
29
100
AcDbEntity
  8
0
  6
CONTINUOUS
 62
               7
100
AcDbLine
 10
-281.25
 20
175.5
 30
0.0
 11
-161.25
 21
175.5
 31
0.0
  0
LINE
  5
2A
100
AcDbEntity
  8
0
  6
CONTINUOUS
 62
               7
100
AcDbLine
 10
-161.25
 20
195.5
 30
0.0
 11
-161.25
 21
175.5
 31
0.0
  0
LINE
  5
2B
100
AcDbEntity
  8
0
  6
CONTINUOUS
 62
               7
100
AcDbLine
 10
0.4249267578125
 20
-38.799999999999983
 30
0.0
 11
0.4249267578125
 21
195.5
 31
0.0
  0
LINE
  5
2C
100
AcDbEntity
  8
0
  6
CONTINUOUS
 62
               7
100
AcDbLine
 10
-281.25
 20
-38.799999999999983
 30
0.0
 11
282.099853515625
 21
-38.799999999999983
 31
0.0
  0
MTEXT
  5
2D
100
AcDbEntity
  8
0
  6
CONTINUOUS
 62
               7
100
AcDbMText
 10
-268.2882353765595
 20
-53.799999999999983
 30
0.0
 40
6.3000001907348633
 41
0.0
 71
               4
 72
               1
  1
\W1.059;\A1;MODEL:JE12F7-22-GL
  0
MTEXT
  5
2E
100
AcDbEntity
  8
0
  6
CONTINUOUS
 62
               7
100
AcDbMText
 10
13.386691381253012
 20
160.5
 30
0.0
 40
6.3000001907348633
 41
0.0
 71
               4
 72
               1
  1
\W1.059;\A1;MODEL:JE12F7-22-PS
  0
MTEXT
  5
2F
100
AcDbEntity
  8
0
  6
CONTINUOUS
 62
               7
100
AcDbMText
 10
51.152559329728497
 20
140.5
 30
0.0
 40
6.3000001907348633
 41
0.0
 71
               4
 72
               1
  1
\W1.026;\A1;JE12SF7-22-PS
  0
MTEXT
  5
30
100
AcDbEntity
  8
0
  6
CONTINUOUS
 62
               7
100
AcDbMText
 10
51.152559329728497
 20
150.5
 30
0.0
 40
6.3000001907348633
 41
0.0
 71
               4
 72
               1
  1
\W1.026;\A1;JE12LF7-22-PS
  0
MTEXT
  5
31
100
AcDbEntity
  8
0
  6
CONTINUOUS
 62
               7
100
AcDbMText
 10
-268.2882353765595
 20
160.5
 30
0.0
 40
6.3000001907348633
 41
0.0
 71
               4
 72
               1
  1
\W1.059;\A1;MODEL:JE12F7-22-PL
  0
MTEXT
  5
32
100
AcDbEntity
  8
0
  6
CONTINUOUS
 62
               7
100
AcDbMText
 10
-230.52236742808401
 20
150.5
 30
0.0
 40
6.3000001907348633
 41
0.0
 71
               4
 72
               1
  1
\W1.026;\A1;JE12LF7-22-PL
  0
MTEXT
  5
33
100
AcDbEntity
  8
0
  6
CONTINUOUS
 62
               7
100
AcDbMText
 10
-230.52236742808401
 20
140.5
 30
0.0
 40
6.3000001907348633
 41
0.0
 71
               4
 72
               1
  1
\W1.026;\A1;JE12SF7-22-PL
  0
LINE
  5
34
100
AcDbEntity
  8
0
  6
CONTINUOUS
 62
               7
100
AcDbLine
 10
94.316569010416686
 20
-195.0
 30
0.0
 11
94.316569010416686
 21
-38.800000011920929
 31
0.0
  0
MTEXT
  5
35
100
AcDbEntity
  8
0
  6
CONTINUOUS
 62
               7
100
AcDbMText
 10
107.21656894683839
 20
-53.799999999999983
 30
0.0
 40
6.3000001907348633
 41
0.0
 71
               4
 72
               1
  1
\A1;-84
  0
LINE
  5
37
100
AcDbEntity
  8
0
  6
CENTER
 62
               2
100
AcDbLine
 10
140.65554777949077
 20
-76.073299737922014
 30
0.0
 11
140.65554777949077
 21
-133.20133035905843
 31
0.0
  0
LINE
  5
39
100
AcDbEntity
  8
0
  6
PHANTOM
 62
               2
100
AcDbLine
 10
117.15318741250189
 20
-101.05799580664024
 30
0.0
 11
166.10472187002293
 21
-87.941471680483176
 31
0.0
  0
LINE
  5
3A
100
AcDbEntity
  8
0
  6
PHANTOM
 62
               2
100
AcDbLine
 10
117.15318747210654
 20
-124.84324913770541
 30
0.0
 11
166.10472187002293
 21
-111.72672502751942
 31
0.0
  0
LINE
  5
3B
100
AcDbEntity
  8
0
  6
PHANTOM
 62
               2
100
AcDbLine
 10
205.14270104813727
 20
-126.29263667315826
 30
0.0
 11
241.16804389840649
 21
-116.63967514937428
 31
0.0
  0
LINE
  5
3C
100
AcDbEntity
  8
0
  6
PHANTOM
 62
               2
100
AcDbLine
 10
205.14270104813727
 20
-102.50738332719192
 30
0.0
 11
241.16804389840649
 21
-92.854421803407945
 31
0.0
  0
ARC
  5
3D
100
AcDbEntity
  8
0
  6
CONTINUOUS
 62
               4
100
AcDbCircle
 10
152.75508615149957
 20
-99.671423564217889
 30
0.0
 40
0.5004652055472239
100
AcDbArc
 50
295.12116424320402
 51
0.0999197646782735
  0
LINE
  5
3E
100
AcDbEntity
  8
0
  6
CONTINUOUS
 62
               4
100
AcDbLine
 10
153.25555059601757
 20
-91.384396746762093
 30
0.0
 11
153.25555059601757
 21
-99.670550788934179
 31
0.0
  0
LINE
  5
3F
100
AcDbEntity
  8
0
  6
CONTINUOUS
 62
               4
100
AcDbLine
 10
149.6555477794908
 20
-101.20255078893416
 30
0.0
 11
150.65555059601755
 21
-101.20255078893416
 31
0.0
  0
LINE
  5
40
100
AcDbEntity
  8
0
  6
CONTINUOUS
 62
               4
100
AcDbLine
 10
150.65555059601755
 20
-101.20255078893416
 30
0.0
 11
152.96755059601756
 21
-100.12455078893419
 31
0.0
  0
LINE
  5
41
100
AcDbEntity
  8
0
  6
CONTINUOUS
 62
               4
100
AcDbLine
 10
150.65555059601755
 20
-101.20255078893416
 30
0.0
 11
150.65555059601755
 21
-92.081064647082997
 31
0.0
  0
LINE
  5
42
100
AcDbEntity
  8
0
  6
CONTINUOUS
 62
               4
100
AcDbLine
 10
133.65554777949077
 20
-96.636201673098185
 30
0.0
 11
133.65554777949077
 21
-100.70255048375839
 31
0.0
  0
LINE
  5
43
100
AcDbEntity
  8
0
  6
CONTINUOUS
 62
               4
100
AcDbLine
 10
147.65554777949077
 20
-100.70255048375839
 30
0.0
 11
147.65554777949077
 21
-92.884912979062449
 31
0.0
  0
LINE
  5
44
100
AcDbEntity
  8
0
  6
CONTINUOUS
 62
               7
100
AcDbLine
 10
131.65554777949077
 20
-120.95735340499664
 30
0.0
 11
131.65554777949077
 21
-101.00255048375834
 31
0.0
  0
LINE
  5
45
100
AcDbEntity
  8
0
  6
CONTINUOUS
 62
               7
100
AcDbLine
 10
149.6555477794908
 20
-116.13426794123643
 30
0.0
 11
149.6555477794908
 21
-100.70255048375839
 31
0.0
  0
LINE
  5
46
100
AcDbEntity
  8
0
  6
CONTINUOUS
 62
               7
100
AcDbLine
 10
131.95554777949079
 20
-100.70255048375839
 30
0.0
 11
149.6555477794908
 21
-100.70255048375839
 31
0.0
  0
LINE
  5
47
100
AcDbEntity
  8
0
  6
CONTINUOUS
 62
               7
100
AcDbLine
 10
131.6555477794908
 20
-114.80255048375835
 30
0.0
 11
131.7555477794908
 21
-114.70255048375839
 31
0.0
  0
LINE
  5
48
100
AcDbEntity
  8
0
  6
CONTINUOUS
 62
               7
100
AcDbLine
 10
131.95554777949079
 20
-100.70255048375839
 30
0.0
 11
131.65554777949077
 21
-101.0025504837584
 31
0.0
  0
LINE
  5
49
100
AcDbEntity
  8
0
  6
CONTINUOUS
 62
               7
100
AcDbLine
 10
131.7555477794908
 20
-114.70255048375833
 30
0.0
 11
149.65554777949077
 21
-114.70255048375833
 31
0.0
  0
ARC
  5
4A
100
AcDbEntity
  8
0
  6
CONTINUOUS
 62
               4
100
AcDbCircle
 10
218.65566953918378
 20
-100.70225345528286
 30
0.0
 40
0.5002971123771115
100
AcDbArc
 50
180.03401625554557
 51
269.96598374445358
  0
LINE
  5
4B
100
AcDbEntity
  8
0
  6
CONTINUOUS
 62
               4
100
AcDbLine
 10
218.15537251497764
 20
-99.020648516280517
 30
0.0
 11
218.15537251497764
 21
-101.20255047948893
 31
0.0
  0
ARC
  5
4C
100
AcDbEntity
  8
0
  6
CONTINUOUS
 62
               4
100
AcDbCircle
 10
227.65566936284185
 20
-100.70284732735314
 30
0.0
 40
0.4997032403068001
100
AcDbArc
 50
269.96596353714654
 51
0.0340364628527164
  0
LINE
  5
4D
100
AcDbEntity
  8
0
  6
CONTINUOUS
 62
               4
100
AcDbLine
 10
228.15537251497764
 20
-96.341156591969309
 30
0.0
 11
228.15537251497764
 21
-101.20255047948893
 31
0.0
  0
LINE
  5
4E
100
AcDbEntity
  8
0
  6
CONTINUOUS
 62
               4
100
AcDbLine
 10
218.88537251497763
 20
-99.990266746734221
 30
0.0
 11
227.42537251497765
 21
-99.990266746734221
 31
0.0
  0
LINE
  5
4F
100
AcDbEntity
  8
0
  6
CONTINUOUS
 62
               4
100
AcDbLine
 10
227.92537251497765
 20
-96.402784906228419
 30
0.0
 11
227.92537251497765
 21
-99.490266746734221
 31
0.0
  0
LINE
  5
50
100
AcDbEntity
  8
0
  6
CONTINUOUS
 62
               4
100
AcDbLine
 10
218.38537251497763
 20
-98.95902020202135
 30
0.0
 11
218.38537251497763
 21
-99.490266746734221
 31
0.0
  0
ARC
  5
51
100
AcDbEntity
  8
0
  6
CONTINUOUS
 62
               4
100
AcDbCircle
 10
227.42537251497765
 20
-99.490266746734221
 30
0.0
 40
0.5
100
AcDbArc
 50
269.99999999999937
 51
0.0
  0
ARC
  5
52
100
AcDbEntity
  8
0
  6
CONTINUOUS
 62
               4
100
AcDbCircle
 10
218.88537251497763
 20
-99.490266746734221
 30
0.0
 40
0.5
100
AcDbArc
 50
179.99999999999963
 51
269.99999999999937
  0
LINE
  5
53
100
AcDbEntity
  8
0
  6
CONTINUOUS
 62
               7
100
AcDbLine
 10
229.15537251497767
 20
-119.85846074550449
 30
0.0
 11
229.15537251497767
 21
-101.00255047948895
 31
0.0
  0
LINE
  5
54
100
AcDbEntity
  8
0
  6
CONTINUOUS
 62
               7
100
AcDbLine
 10
217.15537251497764
 20
-123.07385105467796
 30
0.0
 11
217.15537251497767
 21
-101.00255047948895
 31
0.0
  0
LINE
  5
55
100
AcDbEntity
  8
0
  6
CONTINUOUS
 62
               7
100
AcDbLine
 10
217.15537251497767
 20
-114.70255047948893
 30
0.0
 11
229.15537251497767
 21
-114.70255047948893
 31
0.0
  0
LINE
  5
56
100
AcDbEntity
  8
0
  6
CONTINUOUS
 62
               7
100
AcDbLine
 10
229.15537251497764
 20
-114.80255047948896
 30
0.0
 11
229.05537251497762
 21
-114.70255047948893
 31
0.0
  0
LINE
  5
57
100
AcDbEntity
  8
0
  6
CONTINUOUS
 62
               7
100
AcDbLine
 10
217.25537251142558
 20
-114.70255047948893
 30
0.0
 11
217.15537251497761
 21
-114.80255047593687
 31
0.0
  0
LINE
  5
58
100
AcDbEntity
  8
0
  6
CONTINUOUS
 62
               7
100
AcDbLine
 10
228.40537251497764
 20
-100.70255047948893
 30
0.0
 11
228.85537251497763
 21
-100.70255047948893
 31
0.0
  0
LINE
  5
59
100
AcDbEntity
  8
0
  6
CONTINUOUS
 62
               7
100
AcDbLine
 10
217.45537251497763
 20
-100.70255047948893
 30
0.0
 11
217.90537251497764
 21
-100.70255047948893
 31
0.0
  0
LINE
  5
5A
100
AcDbEntity
  8
0
  6
CONTINUOUS
 62
               7
100
AcDbLine
 10
217.45537251497763
 20
-100.70255047948893
 30
0.0
 11
217.15537251497764
 21
-101.00255047948895
 31
0.0
  0
LINE
  5
5B
100
AcDbEntity
  8
0
  6
CONTINUOUS
 62
               7
100
AcDbLine
 10
228.85537251497763
 20
-100.70255047948893
 30
0.0
 11
229.15537251497764
 21
-101.00255047948895
 31
0.0
  0
LINE
  5
5C
100
AcDbEntity
  8
0
  6
CONTINUOUS
 62
               7
100
AcDbLine
 10
228.20537251497763
 20
-100.90255047948898
 30
0.0
 11
228.20537251497763
 21
-101.20255047948893
 31
0.0
  0
LINE
  5
5D
100
AcDbEntity
  8
0
  6
CONTINUOUS
 62
               7
100
AcDbLine
 10
218.10537251497766
 20
-100.90255047948898
 30
0.0
 11
218.10537251497766
 21
-101.20255047948893
 31
0.0
  0
LINE
  5
5E
100
AcDbEntity
  8
0
  6
CONTINUOUS
 62
               7
100
AcDbLine
 10
218.10537251497766
 20
-100.90255047948898
 30
0.0
 11
217.90537251497764
 21
-100.70255047948893
 31
0.0
  0
LINE
  5
5F
100
AcDbEntity
  8
0
  6
CONTINUOUS
 62
               7
100
AcDbLine
 10
228.20537251497763
 20
-100.90255047948898
 30
0.0
 11
228.40537251497764
 21
-100.70255047948893
 31
0.0
  0
LINE
  5
60
100
AcDbEntity
  8
0
  6
CONTINUOUS
 62
               7
100
AcDbLine
 10
218.10537251497766
 20
-101.20255047948893
 30
0.0
 11
228.20537251497763
 21
-101.20255047948893
 31
0.0
  0
MTEXT
  5
61
100
AcDbEntity
  8
0
  6
CONTINUOUS
 62
               7
100
AcDbMText
 10
107.21656894683839
 20
-53.799999999999983
 30
0.0
 40
6.3000001907348633
 41
0.0
 71
               4
 72
               1
  1
\A1;-84
  0
LINE
  5
62
100
AcDbEntity
  8
0
  6
CENTER
 62
             200
100
AcDbLine
 10
154.17061296756253
 20
-103.502550465902
 30
0.0
 11
148.45171886897498
 21
-103.502550465902
 31
0.0
  0
LINE
  5
63
100
AcDbEntity
  8
0
  6
CONTINUOUS
 62
               4
100
AcDbLine
 10
150.75554777949077
 20
-102.40255046590198
 30
0.0
 11
149.6555477794908
 21
-102.40255046590198
 31
0.0
  0
LINE
  5
64
100
AcDbEntity
  8
0
  6
CONTINUOUS
 62
               4
100
AcDbLine
 10
150.75554777949077
 20
-104.60255046590197
 30
0.0
 11
150.57553778359596
 21
-104.60255046590197
 31
0.0
  0
ARC
  5
65
100
AcDbEntity
  8
0
  6
CONTINUOUS
 62
               4
100
AcDbCircle
 10
152.75554777949077
 20
-107.87286986159677
 30
0.0
 40
0.5
100
AcDbArc
 50
270.00000000000023
 51
0.0
  0
ARC
  5
66
100
AcDbEntity
  8
0
  6
CONTINUOUS
 62
               4
100
AcDbCircle
 10
152.75554777949077
 20
-102.20255046590199
 30
0.0
 40
0.5
100
AcDbArc
 50
0.0
 51
89.999999999999815
  0
ARC
  5
67
100
AcDbEntity
  8
0
  6
CONTINUOUS
 62
               4
100
AcDbCircle
 10
150.85554777949079
 20
-101.80255046590196
 30
0.0
 40
0.1
100
AcDbArc
 50
89.999999999999815
 51
179.99999999999963
  0
ARC
  5
68
100
AcDbEntity
  8
0
  6
CONTINUOUS
 62
               4
100
AcDbCircle
 10
150.85554777949079
 20
-105.20255046590199
 30
0.0
 40
0.1
100
AcDbArc
 50
179.99999999999963
 51
269.99999999999937
  0
LINE
  5
69
100
AcDbEntity
  8
0
  6
CONTINUOUS
 62
               4
100
AcDbLine
 10
152.75554777949077
 20
-108.37286986159677
 30
0.0
 11
151.85554777949079
 21
-108.37286986159677
 31
0.0
  0
LINE
  5
6A
100
AcDbEntity
  8
0
  6
CONTINUOUS
 62
               4
100
AcDbLine
 10
150.85554777949079
 20
-105.30255046590196
 30
0.0
 11
151.85554777949079
 21
-105.30255046590196
 31
0.0
  0
LINE
  5
6B
100
AcDbEntity
  8
0
  6
CONTINUOUS
 62
               4
100
AcDbLine
 10
153.25554777949077
 20
-107.87286986159677
 30
0.0
 11
153.25554777949077
 21
-102.20255046590199
 31
0.0
  0
LINE
  5
6C
100
AcDbEntity
  8
0
  6
CONTINUOUS
 62
               4
100
AcDbLine
 10
151.85554777949079
 20
-108.37286986159677
 30
0.0
 11
151.85554777949079
 21
-105.30255046590196
 31
0.0
  0
LINE
  5
6D
100
AcDbEntity
  8
0
  6
CONTINUOUS
 62
               4
100
AcDbLine
 10
150.85554777949079
 20
-101.70255046590199
 30
0.0
 11
152.75554777949077
 21
-101.70255046590199
 31
0.0
  0
LINE
  5
6E
100
AcDbEntity
  8
0
  6
CONTINUOUS
 62
               4
100
AcDbLine
 10
150.75554777949077
 20
-105.20255046590199
 30
0.0
 11
150.75554777949077
 21
-101.80255046590196
 31
0.0
  0
LINE
  5
6F
100
AcDbEntity
  8
0
  6
CONTINUOUS
 62
               4
100
AcDbLine
 10
153.25554780187531
 20
-107.58267747948071
 30
0.0
 11
152.65554777803345
 21
-107.58267747948071
 31
0.0
  0
LINE
  5
70
100
AcDbEntity
  8
0
  6
CONTINUOUS
 62
               4
100
AcDbLine
 10
153.20939878644867
 20
-108.08267748208669
 30
0.0
 11
152.65554777803345
 21
-108.08267748208669
 31
0.0
  0
LINE
  5
71
100
AcDbEntity
  8
0
  6
CONTINUOUS
 62
               4
100
AcDbLine
 10
152.6555477794908
 20
-107.58267747948071
 30
0.0
 11
152.6555477794908
 21
-108.08267748208669
 31
0.0
  0
ARC
  5
72
100
AcDbEntity
  8
0
  6
CONTINUOUS
 62
               4
100
AcDbCircle
 10
150.27016589157307
 20
-104.5025504837584
 30
0.0
 40
0.3
100
AcDbArc
 50
2.8609771159547184
 51
89.999999999999815
  0
LINE
  5
73
100
AcDbEntity
  8
0
  6
CONTINUOUS
 62
               4
100
AcDbLine
 10
150.75554777949083
 20
-108.2045504837584
 30
0.0
 11
150.56979196655527
 21
-104.48757666691773
 31
0.0
  0
ARC
  5
74
100
AcDbEntity
  8
0
  6
CONTINUOUS
 62
               4
100
AcDbCircle
 10
150.32843289805169
 20
-113.94370473649064
 30
0.0
 40
0.1
100
AcDbArc
 50
269.99999999999937
 51
344.99999994881006
  0
ARC
  5
75
100
AcDbEntity
  8
0
  6
CONTINUOUS
 62
               4
100
AcDbCircle
 10
150.38202273672943
 20
-113.7437047364906
 30
0.0
 40
0.1
100
AcDbArc
 50
344.99999994881091
 51
89.999999999999801
  0
ARC
  5
76
100
AcDbEntity
  8
0
  6
CONTINUOUS
 62
               4
100
AcDbCircle
 10
150.4892024140849
 20
-113.34370473649062
 30
0.0
 40
0.1
100
AcDbArc
 50
269.99999999999937
 51
344.99999994880994
  0
ARC
  5
77
100
AcDbEntity
  8
0
  6
CONTINUOUS
 62
               4
100
AcDbCircle
 10
150.54279225276264
 20
-113.14370473649063
 30
0.0
 40
0.1
100
AcDbArc
 50
344.99999994881108
 51
89.999999999999801
  0
ARC
  5
78
100
AcDbEntity
  8
0
  6
CONTINUOUS
 62
               4
100
AcDbCircle
 10
150.64997193011811
 20
-112.7437047364906
 30
0.0
 40
0.1
100
AcDbArc
 50
269.99999999999937
 51
344.99999994881006
  0
ARC
  5
79
100
AcDbEntity
  8
0
  6
CONTINUOUS
 62
               4
100
AcDbCircle
 10
150.70356176879585
 20
-112.54370473649061
 30
0.0
 40
0.1
100
AcDbArc
 50
344.99999994881091
 51
89.999999999999801
  0
ARC
  5
7A
100
AcDbEntity
  8
0
  6
CONTINUOUS
 62
               4
100
AcDbCircle
 10
150.81074144615133
 20
-112.14370473649063
 30
0.0
 40
0.1
100
AcDbArc
 50
269.99999999999937
 51
344.99999994880994
  0
ARC
  5
7B
100
AcDbEntity
  8
0
  6
CONTINUOUS
 62
               4
100
AcDbCircle
 10
150.86433128482906
 20
-111.94370473649064
 30
0.0
 40
0.1
100
AcDbArc
 50
344.99999994881108
 51
89.999999999999801
  0
ARC
  5
7C
100
AcDbEntity
  8
0
  6
CONTINUOUS
 62
               4
100
AcDbCircle
 10
150.97151096218454
 20
-111.54370473649061
 30
0.0
 40
0.1
100
AcDbArc
 50
269.99999999999937
 51
344.99999994881006
  0
ARC
  5
7D
100
AcDbEntity
  8
0
  6
CONTINUOUS
 62
               4
100
AcDbCircle
 10
151.02510080086228
 20
-111.34370473649062
 30
0.0
 40
0.1
100
AcDbArc
 50
344.99999994881091
 51
89.999999999999801
  0
LINE
  5
7E
100
AcDbEntity
  8
0
  6
CONTINUOUS
 62
               4
100
AcDbLine
 10
150.19811035916939
 20
-114.04370473649061
 30
0.0
 11
150.32843289897573
 21
-114.04370473649061
 31
0.0
  0
LINE
  5
7F
100
AcDbEntity
  8
0
  6
CONTINUOUS
 62
               4
100
AcDbLine
 10
150.30529003665578
 20
-113.64370473649063
 30
0.0
 11
150.38202273771896
 21
-113.64370473649063
 31
0.0
  0
LINE
  5
80
100
AcDbEntity
  8
0
  6
CONTINUOUS
 62
               4
100
AcDbLine
 10
150.358879875399
 20
-113.44370473649064
 30
0.0
 11
150.4892024152054
 21
-113.44370473649064
 31
0.0
  0
LINE
  5
81
100
AcDbEntity
  8
0
  6
CONTINUOUS
 62
               4
100
AcDbLine
 10
150.46605955288544
 20
-113.04370473649061
 30
0.0
 11
150.54279225394856
 21
-113.04370473649061
 31
0.0
  0
LINE
  5
82
100
AcDbEntity
  8
0
  6
CONTINUOUS
 62
               4
100
AcDbLine
 10
150.51964939162866
 20
-112.84370473649062
 30
0.0
 11
150.649971931435
 21
-112.84370473649062
 31
0.0
  0
LINE
  5
83
100
AcDbEntity
  8
0
  6
CONTINUOUS
 62
               4
100
AcDbLine
 10
150.62682906911505
 20
-112.44370473649064
 30
0.0
 11
150.70356177017823
 21
-112.44370473649064
 31
0.0
  0
LINE
  5
84
100
AcDbEntity
  8
0
  6
CONTINUOUS
 62
               4
100
AcDbLine
 10
150.68041890785827
 20
-112.2437047364906
 30
0.0
 11
150.81074144766461
 21
-112.2437047364906
 31
0.0
  0
LINE
  5
85
100
AcDbEntity
  8
0
  6
CONTINUOUS
 62
               4
100
AcDbLine
 10
150.78759858534471
 20
-111.84370473649062
 30
0.0
 11
150.86433128640783
 21
-111.84370473649062
 31
0.0
  0
LINE
  5
86
100
AcDbEntity
  8
0
  6
CONTINUOUS
 62
               4
100
AcDbLine
 10
150.84118842408787
 20
-111.64370473649063
 30
0.0
 11
150.97151096389427
 21
-111.64370473649063
 31
0.0
  0
LINE
  5
87
100
AcDbEntity
  8
0
  6
CONTINUOUS
 62
               4
100
AcDbLine
 10
150.94836810157432
 20
-111.2437047364906
 30
0.0
 11
151.0251008026375
 21
-111.2437047364906
 31
0.0
  0
LINE
  5
88
100
AcDbEntity
  8
0
  6
CONTINUOUS
 62
               4
100
AcDbLine
 10
150.42502548065744
 20
-113.96958664108718
 30
0.0
 11
150.47861531933523
 21
-113.76958664108719
 31
0.0
  0
LINE
  5
89
100
AcDbEntity
  8
0
  6
CONTINUOUS
 62
               4
100
AcDbLine
 10
150.58579499669071
 20
-113.36958664108715
 30
0.0
 11
150.63938483536839
 21
-113.16958664108716
 31
0.0
  0
LINE
  5
8A
100
AcDbEntity
  8
0
  6
CONTINUOUS
 62
               4
100
AcDbLine
 10
150.74656451272386
 20
-112.76958664108719
 30
0.0
 11
150.80015435140166
 21
-112.5695866410872
 31
0.0
  0
LINE
  5
8B
100
AcDbEntity
  8
0
  6
CONTINUOUS
 62
               4
100
AcDbLine
 10
150.90733402875713
 20
-112.16958664108716
 30
0.0
 11
150.96092386743481
 21
-111.96958664108718
 31
0.0
  0
LINE
  5
8C
100
AcDbEntity
  8
0
  6
CONTINUOUS
 62
               4
100
AcDbLine
 10
151.06810354479029
 20
-111.5695866410872
 30
0.0
 11
151.12169338346808
 21
-111.36958664108715
 31
0.0
  0
LINE
  5
8D
100
AcDbEntity
  8
0
  6
CONTINUOUS
 62
               4
100
AcDbLine
 10
150.21512744490786
 20
-113.98019611365953
 30
0.0
 11
151.04532550935431
 21
-110.88185476787248
 31
0.0
  0
ARC
  5
8E
100
AcDbEntity
  8
0
  6
CONTINUOUS
 62
               4
100
AcDbCircle
 10
150.75554777949083
 20
-110.80420898183615
 30
0.0
 40
0.3
100
AcDbArc
 50
344.99999159956064
 51
0.0
  0
ARC
  5
8F
100
AcDbEntity
  8
0
  6
CONTINUOUS
 62
               4
100
AcDbCircle
 10
149.9253496775795
 20
-113.90255048375838
 30
0.0
 40
0.3
100
AcDbArc
 50
269.99999999999937
 51
345.00001052269107
  0
LINE
  5
90
100
AcDbEntity
  8
0
  6
CONTINUOUS
 62
               4
100
AcDbLine
 10
149.6555477794908
 20
-114.20255048375839
 30
0.0
 11
149.9253496775795
 21
-114.20255048375839
 31
0.0
  0
LINE
  5
91
100
AcDbEntity
  8
0
  6
CONTINUOUS
 62
               4
100
AcDbLine
 10
149.65554778192922
 20
-104.20255048375844
 30
0.0
 11
150.27016589157307
 21
-104.20255048375844
 31
0.0
  0
LINE
  5
92
100
AcDbEntity
  8
0
  6
CONTINUOUS
 62
               4
100
AcDbLine
 10
151.05554777949084
 20
-108.50455048375841
 30
0.0
 11
151.05554777949084
 21
-110.80420898183615
 31
0.0
  0
ARC
  5
93
100
AcDbEntity
  8
0
  6
CONTINUOUS
 62
               4
100
AcDbCircle
 10
150.75554777949083
 20
-108.50455048375841
 30
0.0
 40
0.3
100
AcDbArc
 50
0.0
 51
89.999999999999815
  0
LINE
  5
94
100
AcDbEntity
  8
0
  6
CONTINUOUS
 62
               4
100
AcDbLine
 10
217.85537251535538
 20
-114.20255048374273
 30
0.0
 11
228.45537251535541
 21
-114.20255048336853
 31
0.0
  0
LINE
  5
95
100
AcDbEntity
  8
0
  6
CONTINUOUS
 62
               4
100
AcDbLine
 10
226.34819283554319
 20
-107.43267747961971
 30
0.0
 11
224.96255219059123
 21
-108.23267748180152
 31
0.0
  0
LINE
  5
96
100
AcDbEntity
  8
0
  6
CONTINUOUS
 62
               4
100
AcDbLine
 10
226.34819283489779
 20
-107.43267747999232
 30
0.0
 11
224.26126062885166
 21
-103.81800486746319
 31
0.0
  0
ARC
  5
97
100
AcDbEntity
  8
0
  6
CONTINUOUS
 62
               4
100
AcDbCircle
 10
224.71255218985831
 20
-107.79966478033248
 30
0.0
 40
0.5
100
AcDbArc
 50
210.00000000202218
 51
300.00000008741563
  0
LINE
  5
98
100
AcDbEntity
  8
0
  6
CONTINUOUS
 62
               4
100
AcDbLine
 10
226.53120553676592
 20
-106.7496647780936
 30
0.0
 11
224.83854296006675
 21
-103.81788719541923
 31
0.0
  0
ARC
  5
99
100
AcDbEntity
  8
0
  6
CONTINUOUS
 62
               4
100
AcDbCircle
 10
223.15537251497764
 20
-103.50255046569924
 30
0.0
 40
1.6500000000000001
100
AcDbArc
 50
355.13616201929131
 51
244.86383791664005
  0
LINE
  5
9A
100
AcDbEntity
  8
0
  6
CONTINUOUS
 62
               4
100
AcDbLine
 10
224.27953948797492
 20
-108.04966478034775
 30
0.0
 11
222.58687690913237
 21
-105.117887193961
 31
0.0
  0
LINE
  5
9B
100
AcDbEntity
  8
0
  6
CONTINUOUS
 62
               4
100
AcDbLine
 10
226.08838521539437
 20
-107.58267747957868
 30
0.0
 11
222.80217595823089
 21
-101.89079608233239
 31
0.0
  0
LINE
  5
9C
100
AcDbEntity
  8
0
  6
CONTINUOUS
 62
               4
100
AcDbLine
 10
225.22235980998374
 20
-108.08267748202299
 30
0.0
 11
221.93615055226496
 21
-102.39079608381492
 31
0.0
  0
ARC
  5
9D
100
AcDbEntity
  8
0
  6
CONTINUOUS
 62
               4
100
AcDbCircle
 10
222.32706928800235
 20
-105.26788719397015
 30
0.0
 40
0.3
100
AcDbArc
 50
30.000000002022531
 51
64.863837916640307
  0
ARC
  5
9E
100
AcDbEntity
  8
0
  6
CONTINUOUS
 62
               4
100
AcDbCircle
 10
225.09835058119677
 20
-103.66788719541002
 30
0.0
 40
0.3
100
AcDbArc
 50
175.13616201929182
 51
210.00000000202243
  0
LINE
  5
9F
100
AcDbEntity
  8
0
  6
CONTINUOUS
 62
               4
100
AcDbLine
 10
224.96255218939893
 20
-108.2326774797364
 30
0.0
 11
222.87561998335278
 21
-104.61800486720732
 31
0.0
  0
ARC
  5
A0
100
AcDbEntity
  8
0
  6
CONTINUOUS
 62
               4
100
AcDbCircle
 10
223.15537251454774
 20
-103.50255046594742
 30
0.0
 40
1.1500000000000001
100
AcDbArc
 50
145.77146180160696
 51
255.92079019249044
  0
ARC
  5
A1
100
AcDbEntity
  8
0
  6
CONTINUOUS
 62
               4
100
AcDbCircle
 10
226.0981928348825
 20
-106.99966477810888
 30
0.0
 40
0.5
100
AcDbArc
 50
300.00000008741654
 51
30.000000002022595
  0
ARC
  5
A2
100
AcDbEntity
  8
0
  6
CONTINUOUS
 62
               4
100
AcDbCircle
 10
223.1553725149777
 20
-103.50255046569924
 30
0.0
 40
1.1500000000000001
100
AcDbArc
 50
344.07920981155343
 51
94.22853820243769
  0
ARC
  5
A3
100
AcDbEntity
  8
0
  6
CONTINUOUS
 62
               4
100
AcDbCircle
 10
228.45537251534481
 20
-113.90255048336857
 30
0.0
 40
0.3
100
AcDbArc
 50
270.00000000202203
 51
0.0000000020226292
  0
ARC
  5
A4
100
AcDbEntity
  8
0
  6
CONTINUOUS
 62
               4
100
AcDbCircle
 10
217.85537251534478
 20
-113.90255048374271
 30
0.0
 40
0.3
100
AcDbArc
 50
180.00000000202223
 51
270.00000000202203
  0
LINE
  5
A5
100
AcDbEntity
  8
0
  6
CONTINUOUS
 62
               4
100
AcDbLine
 10
228.75537250837635
 20
-110.84370473609016
 30
0.0
 11
217.5553725143368
 21
-110.84370473648556
 31
0.0
  0
ARC
  5
A6
100
AcDbEntity
  8
0
  6
CONTINUOUS
 62
               4
100
AcDbCircle
 10
226.4553725152636
 20
-111.6025504834391
 30
0.0
 40
0.3
100
AcDbArc
 50
0.0000000020226547
 51
90.00000000202246
  0
ARC
  5
A7
100
AcDbEntity
  8
0
  6
CONTINUOUS
 62
               4
100
AcDbCircle
 10
219.85537251526361
 20
-111.6025504836721
 30
0.0
 40
0.3
100
AcDbArc
 50
90.00000000202246
 51
180.00000000202226
  0
LINE
  5
A8
100
AcDbEntity
  8
0
  6
CONTINUOUS
 62
               4
100
AcDbLine
 10
225.45537251500235
 20
-104.20255048347454
 30
0.0
 11
227.75537251500236
 21
-104.20255048339334
 31
0.0
  0
LINE
  5
A9
100
AcDbEntity
  8
0
  6
CONTINUOUS
 62
               4
100
AcDbLine
 10
226.45537251525303
 20
-111.30255048343915
 30
0.0
 11
219.85537251525304
 21
-111.30255048367215
 31
0.0
  0
LINE
  5
AA
100
AcDbEntity
  8
0
  6
CONTINUOUS
 62
               4
100
AcDbLine
 10
226.75537251534223
 20
-113.82934537154621
 30
0.0
 11
226.75537251526362
 21
-111.60255048342852
 31
0.0
  0
LINE
  5
AB
100
AcDbEntity
  8
0
  6
CONTINUOUS
 62
               4
100
AcDbLine
 10
219.55537251534221
 20
-113.82934537180039
 30
0.0
 11
219.55537251526363
 21
-111.60255048368269
 31
0.0
  0
LINE
  5
AC
100
AcDbEntity
  8
0
  6
CONTINUOUS
 62
               4
100
AcDbLine
 10
228.75537251534482
 20
-113.90255048335797
 30
0.0
 11
228.75537251503769
 21
-105.20255048335804
 31
0.0
  0
LINE
  5
AD
100
AcDbEntity
  8
0
  6
CONTINUOUS
 62
               4
100
AcDbLine
 10
217.5553725153448
 20
-113.90255048375332
 30
0.0
 11
217.55537251503767
 21
-105.20255048375344
 31
0.0
  0
LINE
  5
AE
100
AcDbEntity
  8
0
  6
CONTINUOUS
 62
               4
100
AcDbLine
 10
220.85537251500236
 20
-104.20255048363694
 30
0.0
 11
218.55537251500238
 21
-104.20255048371814
 31
0.0
  0
LINE
  5
AF
100
AcDbEntity
  8
0
  6
CONTINUOUS
 62
               4
100
AcDbLine
 10
228.75537252023881
 20
-108.20455048335799
 30
0.0
 11
225.01126958055934
 21
-108.20455048349018
 31
0.0
  0
LINE
  5
B0
100
AcDbEntity
  8
0
  6
CONTINUOUS
 62
               4
100
AcDbLine
 10
217.55537251079869
 20
-111.24370473648554
 30
0.0
 11
228.75537251079868
 21
-111.24370473609014
 31
0.0
  0
LINE
  5
B1
100
AcDbEntity
  8
0
  6
CONTINUOUS
 62
               4
100
AcDbLine
 10
226.75537251526507
 20
-111.64370473616079
 30
0.0
 11
228.7553725108128
 21
-111.64370473609017
 31
0.0
  0
LINE
  5
B2
100
AcDbEntity
  8
0
  6
CONTINUOUS
 62
               4
100
AcDbLine
 10
226.75537251527214
 20
-111.84370473616077
 30
0.0
 11
228.75537251081988
 21
-111.84370473609016
 31
0.0
  0
LINE
  5
B3
100
AcDbEntity
  8
0
  6
CONTINUOUS
 62
               4
100
AcDbLine
 10
226.75537251528627
 20
-112.24370473616075
 30
0.0
 11
228.75537251083401
 21
-112.24370473609014
 31
0.0
  0
LINE
  5
B4
100
AcDbEntity
  8
0
  6
CONTINUOUS
 62
               4
100
AcDbLine
 10
226.75537251529332
 20
-112.4437047361608
 30
0.0
 11
228.75537251084106
 21
-112.44370473609018
 31
0.0
  0
LINE
  5
B5
100
AcDbEntity
  8
0
  6
CONTINUOUS
 62
               4
100
AcDbLine
 10
226.75537251530744
 20
-112.84370473616077
 30
0.0
 11
228.75537251085518
 21
-112.84370473609016
 31
0.0
  0
LINE
  5
B6
100
AcDbEntity
  8
0
  6
CONTINUOUS
 62
               4
100
AcDbLine
 10
226.75537251531449
 20
-113.04370473616076
 30
0.0
 11
228.75537251086223
 21
-113.04370473609015
 31
0.0
  0
LINE
  5
B7
100
AcDbEntity
  8
0
  6
CONTINUOUS
 62
               4
100
AcDbLine
 10
226.75537251532862
 20
-113.4437047361608
 30
0.0
 11
228.75537251087636
 21
-113.44370473609018
 31
0.0
  0
LINE
  5
B8
100
AcDbEntity
  8
0
  6
CONTINUOUS
 62
               4
100
AcDbLine
 10
226.75537251533569
 20
-113.64370473616079
 30
0.0
 11
228.75537251088343
 21
-113.64370473609017
 31
0.0
  0
LINE
  5
B9
100
AcDbEntity
  8
0
  6
CONTINUOUS
 62
               4
100
AcDbLine
 10
217.59065478467122
 20
-114.0437047364843
 30
0.0
 11
228.72009024475756
 21
-114.0437047360914
 31
0.0
  0
LINE
  5
BA
100
AcDbEntity
  8
0
  6
CONTINUOUS
 62
               4
100
AcDbLine
 10
219.55537251526505
 20
-111.64370473641496
 30
0.0
 11
217.55537251971728
 21
-111.64370473648557
 31
0.0
  0
LINE
  5
BB
100
AcDbEntity
  8
0
  6
CONTINUOUS
 62
               4
100
AcDbLine
 10
219.55537251527213
 20
-111.84370473641495
 30
0.0
 11
217.55537251972436
 21
-111.84370473648556
 31
0.0
  0
LINE
  5
BC
100
AcDbEntity
  8
0
  6
CONTINUOUS
 62
               4
100
AcDbLine
 10
219.55537251528625
 20
-112.24370473641493
 30
0.0
 11
217.55537251973848
 21
-112.24370473648554
 31
0.0
  0
LINE
  5
BD
100
AcDbEntity
  8
0
  6
CONTINUOUS
 62
               4
100
AcDbLine
 10
219.5553725152933
 20
-112.44370473641497
 30
0.0
 11
217.55537251974553
 21
-112.44370473648559
 31
0.0
  0
LINE
  5
BE
100
AcDbEntity
  8
0
  6
CONTINUOUS
 62
               4
100
AcDbLine
 10
219.55537251530743
 20
-112.84370473641495
 30
0.0
 11
217.55537251975966
 21
-112.84370473648556
 31
0.0
  0
LINE
  5
BF
100
AcDbEntity
  8
0
  6
CONTINUOUS
 62
               4
100
AcDbLine
 10
219.55537251531447
 20
-113.04370473641494
 30
0.0
 11
217.55537251976671
 21
-113.04370473648555
 31
0.0
  0
LINE
  5
C0
100
AcDbEntity
  8
0
  6
CONTINUOUS
 62
               4
100
AcDbLine
 10
219.5553725153286
 20
-113.44370473641497
 30
0.0
 11
217.55537251978083
 21
-113.44370473648559
 31
0.0
  0
LINE
  5
C1
100
AcDbEntity
  8
0
  6
CONTINUOUS
 62
               4
100
AcDbLine
 10
219.55537251533568
 20
-113.64370473641496
 30
0.0
 11
217.55537251978791
 21
-113.64370473648557
 31
0.0
  0
ARC
  5
C2
100
AcDbEntity
  8
0
  6
CONTINUOUS
 62
               4
100
AcDbCircle
 10
223.15537251506237
 20
-105.90255048355573
 30
0.0
 40
1.3
100
AcDbArc
 50
180.00000000202232
 51
295.58827457679422
  0
LINE
  5
C3
100
AcDbEntity
  8
0
  6
CONTINUOUS
 62
               4
100
AcDbLine
 10
221.85537251506238
 20
-105.90255048394366
 30
0.0
 11
221.85537251503769
 21
-105.20255048394361
 31
0.0
  0
ARC
  5
C4
100
AcDbEntity
  8
0
  6
CONTINUOUS
 62
               4
100
AcDbCircle
 10
220.85537251503769
 20
-105.20255048363694
 30
0.0
 40
1.0
100
AcDbArc
 50
0.000000002022731
 51
90.000000002022531
  0
ARC
  5
C5
100
AcDbEntity
  8
0
  6
CONTINUOUS
 62
               4
100
AcDbCircle
 10
225.45537251503768
 20
-105.20255048347454
 30
0.0
 40
1.0
100
AcDbArc
 50
90.000000002022531
 51
110.90095671103151
  0
ARC
  5
C6
100
AcDbEntity
  8
0
  6
CONTINUOUS
 62
               4
100
AcDbCircle
 10
227.75537251503769
 20
-105.20255048339334
 30
0.0
 40
1.0
100
AcDbArc
 50
0.000000002022731
 51
90.000000002022531
  0
ARC
  5
C7
100
AcDbEntity
  8
0
  6
CONTINUOUS
 62
               4
100
AcDbCircle
 10
218.55537251503767
 20
-105.20255048371814
 30
0.0
 40
1.0
100
AcDbArc
 50
90.000000002022531
 51
180.00000000202232
  0
LINE
  5
C8
100
AcDbEntity
  8
0
  6
CONTINUOUS
 62
               4
100
AcDbLine
 10
219.55537251088998
 20
-113.82934537180039
 30
0.0
 11
226.75537251088997
 21
-113.82934537154621
 31
0.0
  0
LINE
  5
C9
100
AcDbEntity
  8
0
  6
CONTINUOUS
 62
               4
100
AcDbLine
 10
224.41917944510919
 20
-108.20455048351107
 30
0.0
 11
217.55537251514363
 21
-108.20455048375334
 31
0.0
  0
LINE
  5
CA
100
AcDbEntity
  8
0
  6
CENTER
 62
             200
100
AcDbLine
 10
225.470302650702
 20
-103.50255046561752
 30
0.0
 11
220.85537251497769
 21
-103.50255046618472
 31
0.0
  0
LINE
  5
CB
100
AcDbEntity
  8
0
  6
CENTER
 62
               2
100
AcDbLine
 10
223.15537251403504
 20
-76.802550784664675
 30
0.0
 11
223.15537251602612
 21
-133.20133035905843
 31
0.0
  0
LINE
  5
CC
100
AcDbEntity
  8
0
  6
CONTINUOUS
 62
               7
100
AcDbLine
 10
-135.23712056336277
 20
-127.39035517023341
 30
0.0
 11
-147.23712056336274
 21
-127.39035517023341
 31
0.0
  0
LINE
  5
CD
100
AcDbEntity
  8
0
  6
CONTINUOUS
 62
               7
100
AcDbLine
 10
-147.23712056336268
 20
-150.09035517023347
 30
0.0
 11
-147.23712056336274
 21
-74.690355170233417
 31
0.0
  0
LINE
  5
CE
100
AcDbEntity
  8
0
  6
CENTER
 62
               2
100
AcDbLine
 10
-141.23712056336274
 20
-50.490355475409146
 30
0.0
 11
-141.23712056336274
 21
-174.62944542035416
 31
0.0
  0
LINE
  5
CF
100
AcDbEntity
  8
0
  6
CONTINUOUS
 62
               7
100
AcDbLine
 10
-146.93712056336273
 20
-74.390355170233406
 30
0.0
 11
-147.23712056336274
 21
-74.690355170233417
 31
0.0
  0
LINE
  5
D0
100
AcDbEntity
  8
0
  6
CONTINUOUS
 62
               7
100
AcDbLine
 10
-135.53712056336278
 20
-74.390355170233406
 30
0.0
 11
-135.23712056336277
 21
-74.690355170233417
 31
0.0
  0
LINE
  5
D1
100
AcDbEntity
  8
0
  6
CONTINUOUS
 62
               7
100
AcDbLine
 10
-146.93712056336273
 20
-74.390355170233406
 30
0.0
 11
-135.53712056336278
 21
-74.390355170233406
 31
0.0
  0
LINE
  5
D2
100
AcDbEntity
  8
0
  6
CONTINUOUS
 62
               7
100
AcDbLine
 10
-135.3371205598107
 20
-88.390355170233406
 30
0.0
 11
-135.23712056336277
 21
-88.49035516668134
 31
0.0
  0
LINE
  5
D3
100
AcDbEntity
  8
0
  6
CONTINUOUS
 62
               7
100
AcDbLine
 10
-147.23712056336274
 20
-88.4903551702334
 30
0.0
 11
-147.13712056336271
 21
-88.390355170233406
 31
0.0
  0
LINE
  5
D4
100
AcDbEntity
  8
0
  6
CONTINUOUS
 62
               7
100
AcDbLine
 10
-135.23712056336277
 20
-88.390355170233406
 30
0.0
 11
-147.23712056336274
 21
-88.390355170233406
 31
0.0
  0
LINE
  5
D5
100
AcDbEntity
  8
0
  6
CONTINUOUS
 62
               4
100
AcDbLine
 10
-146.23712056336274
 20
-52.390355170233434
 30
0.0
 11
-146.23712056336274
 21
-74.390355170233406
 31
0.0
  0
LINE
  5
D6
100
AcDbEntity
  8
0
  6
CONTINUOUS
 62
               4
100
AcDbLine
 10
-139.43712056336278
 20
-52.490355170233457
 30
0.0
 11
-145.73712056336274
 21
-52.490355170233457
 31
0.0
  0
LINE
  5
D7
100
AcDbEntity
  8
0
  6
CONTINUOUS
 62
               4
100
AcDbLine
 10
-136.23712056336274
 20
-52.390355170233434
 30
0.0
 11
-146.23712056336274
 21
-52.390355170233434
 31
0.0
  0
ARC
  5
D8
100
AcDbEntity
  8
0
  6
CONTINUOUS
 62
               4
100
AcDbCircle
 10
-145.73712056336274
 20
-52.990355170233457
 30
0.0
 40
0.5
100
AcDbArc
 50
89.999999999999829
 51
179.99999999999963
  0
LINE
  5
D9
100
AcDbEntity
  8
0
  6
CONTINUOUS
 62
               4
100
AcDbLine
 10
-136.23712056336274
 20
-52.390355170233434
 30
0.0
 11
-136.23712056336274
 21
-74.390355170233406
 31
0.0
  0
LINE
  5
DA
100
AcDbEntity
  8
0
  6
CENTER
 62
             200
100
AcDbLine
 10
-137.93312056336276
 20
-54.788355170233459
 30
0.0
 11
-137.93312056336276
 21
-51.568355170233431
 31
0.0
  0
LINE
  5
DB
100
AcDbEntity
  8
0
  6
CONTINUOUS
 62
               4
100
AcDbLine
 10
-136.23712056336274
 20
-52.990355170233457
 30
0.0
 11
-139.43712056336278
 21
-52.990355170233457
 31
0.0
  0
LINE
  5
DC
100
AcDbEntity
  8
0
  6
CONTINUOUS
 62
               4
100
AcDbLine
 10
-136.23712056336274
 20
-53.990355170233457
 30
0.0
 11
-139.43712056336278
 21
-53.990355170233457
 31
0.0
  0
LINE
  5
DD
100
AcDbEntity
  8
0
  6
CONTINUOUS
 62
               4
100
AcDbLine
 10
-139.43712056336278
 20
-52.490355170233457
 30
0.0
 11
-139.43712056336278
 21
-53.990355170233457
 31
0.0
  0
ARC
  5
DE
100
AcDbEntity
  8
0
  6
CONTINUOUS
 62
               4
100
AcDbCircle
 10
-137.03302541670462
 20
-52.99026002357526
 30
0.0
 40
0.5999048608870732
100
AcDbArc
 50
359.99091272245295
 51
90.009087277546172
  0
ARC
  5
DF
100
AcDbEntity
  8
0
  6
CONTINUOUS
 62
               4
100
AcDbCircle
 10
-138.83420856859982
 20
-52.989267164996434
 30
0.0
 40
0.5989129830170392
100
AcDbArc
 50
89.895914524772749
 51
180.1040854752267
  0
LINE
  5
E0
100
AcDbEntity
  8
0
  6
CONTINUOUS
 62
               7
100
AcDbLine
 10
-135.23712056336277
 20
-136.39035517023342
 30
0.0
 11
-147.23712056336274
 21
-136.39035517023342
 31
0.0
  0
LINE
  5
E1
100
AcDbEntity
  8
0
  6
CENTER
 62
               2
100
AcDbLine
 10
-139.23712056336274
 20
-144.59035517023352
 30
0.0
 11
-143.23712056336274
 21
-144.59035517023352
 31
0.0
  0
CIRCLE
  5
E2
100
AcDbEntity
  8
0
  6
CONTINUOUS
 62
               7
100
AcDbCircle
 10
-141.23712056336274
 20
-144.59035517023352
 30
0.0
 40
1.0
  0
LINE
  5
E3
100
AcDbEntity
  8
0
  6
CONTINUOUS
 62
               7
100
AcDbLine
 10
-146.93712056336273
 20
-150.39035517023342
 30
0.0
 11
-147.23712056336274
 21
-150.09035517023347
 31
0.0
  0
LINE
  5
E4
100
AcDbEntity
  8
0
  6
CONTINUOUS
 62
               7
100
AcDbLine
 10
-135.53712056336278
 20
-150.39035517023342
 30
0.0
 11
-135.23712056336277
 21
-150.09035517023347
 31
0.0
  0
LINE
  5
E5
100
AcDbEntity
  8
0
  6
CONTINUOUS
 62
               7
100
AcDbLine
 10
-146.93712056336273
 20
-150.39035517023342
 30
0.0
 11
-135.53712056336278
 21
-150.39035517023342
 31
0.0
  0
LINE
  5
E6
100
AcDbEntity
  8
0
  6
CONTINUOUS
 62
               4
100
AcDbLine
 10
-136.23712056336274
 20
-172.39035517023342
 30
0.0
 11
-136.23712056336274
 21
-150.39035517023342
 31
0.0
  0
LINE
  5
E7
100
AcDbEntity
  8
0
  6
CONTINUOUS
 62
               4
100
AcDbLine
 10
-143.03712056336269
 20
-172.2903551702334
 30
0.0
 11
-136.73712056336274
 21
-172.2903551702334
 31
0.0
  0
LINE
  5
E8
100
AcDbEntity
  8
0
  6
CONTINUOUS
 62
               4
100
AcDbLine
 10
-146.23712056336274
 20
-172.39035517023342
 30
0.0
 11
-136.23712056336274
 21
-172.39035517023342
 31
0.0
  0
ARC
  5
E9
100
AcDbEntity
  8
0
  6
CONTINUOUS
 62
               4
100
AcDbCircle
 10
-136.73712056336274
 20
-171.7903551702334
 30
0.0
 40
0.5
100
AcDbArc
 50
269.99999999999937
 51
0.0
  0
LINE
  5
EA
100
AcDbEntity
  8
0
  6
CONTINUOUS
 62
               4
100
AcDbLine
 10
-146.23712056336274
 20
-172.39035517023342
 30
0.0
 11
-146.23712056336274
 21
-150.39035517023342
 31
0.0
  0
LINE
  5
EB
100
AcDbEntity
  8
0
  6
CONTINUOUS
 62
               4
100
AcDbLine
 10
-146.23712056336274
 20
-171.7903551702334
 30
0.0
 11
-143.03712056336269
 21
-171.7903551702334
 31
0.0
  0
LINE
  5
EC
100
AcDbEntity
  8
0
  6
CONTINUOUS
 62
               4
100
AcDbLine
 10
-146.23712056336274
 20
-170.7903551702334
 30
0.0
 11
-143.03712056336269
 21
-170.7903551702334
 31
0.0
  0
LINE
  5
ED
100
AcDbEntity
  8
0
  6
CONTINUOUS
 62
               4
100
AcDbLine
 10
-143.03712056336269
 20
-172.2903551702334
 30
0.0
 11
-143.03712056336269
 21
-170.7903551702334
 31
0.0
  0
ARC
  5
EE
100
AcDbEntity
  8
0
  6
CONTINUOUS
 62
               4
100
AcDbCircle
 10
-145.44121571002086
 20
-171.79045031689162
 30
0.0
 40
0.5999048608870732
100
AcDbArc
 50
179.99091272245337
 51
270.00908727754575
  0
ARC
  5
EF
100
AcDbEntity
  8
0
  6
CONTINUOUS
 62
               4
100
AcDbCircle
 10
-143.64003255812565
 20
-171.79144317547042
 30
0.0
 40
0.5989129830170392
100
AcDbArc
 50
269.89591452477237
 51
0.104085475227121
  0
LINE
  5
F0
100
AcDbEntity
  8
0
  6
CENTER
 62
               2
100
AcDbLine
 10
-137.73712056336274
 20
-96.290355170233411
 30
0.0
 11
-144.73712056336274
 21
-96.290355170233411
 31
0.0
  0
LINE
  5
F1
100
AcDbEntity
  8
0
  6
CENTER
 62
               2
100
AcDbLine
 10
-137.73712056336274
 20
-119.49035517023343
 30
0.0
 11
-144.73712056336274
 21
-119.49035517023343
 31
0.0
  0
CIRCLE
  5
F2
100
AcDbEntity
  8
0
  6
CONTINUOUS
 62
               7
100
AcDbCircle
 10
-141.23712056336274
 20
-119.49035517023343
 30
0.0
 40
2.1000000000000001
  0
CIRCLE
  5
F3
100
AcDbEntity
  8
0
  6
CONTINUOUS
 62
               2
100
AcDbCircle
 10
-141.23712056336274
 20
-119.49035517023343
 30
0.0
 40
2.5
  0
CIRCLE
  5
F4
100
AcDbEntity
  8
0
  6
CONTINUOUS
 62
               7
100
AcDbCircle
 10
-141.23712056336274
 20
-96.290355170233411
 30
0.0
 40
2.1000000000000001
  0
CIRCLE
  5
F5
100
AcDbEntity
  8
0
  6
CONTINUOUS
 62
               2
100
AcDbCircle
 10
-141.23712056336274
 20
-96.290355170233411
 30
0.0
 40
2.5
  0
LINE
  5
F6
100
AcDbEntity
  8
0
  6
CENTER
 62
               2
100
AcDbLine
 10
-137.73712056336274
 20
-107.89035517023343
 30
0.0
 11
-144.73712056336274
 21
-107.89035517023343
 31
0.0
  0
CIRCLE
  5
F7
100
AcDbEntity
  8
0
  6
CONTINUOUS
 62
               7
100
AcDbCircle
 10
-141.23712056336274
 20
-107.89035517023343
 30
0.0
 40
2.1000000000000001
  0
CIRCLE
  5
F8
100
AcDbEntity
  8
0
  6
CONTINUOUS
 62
               2
100
AcDbCircle
 10
-141.23712056336274
 20
-107.89035517023343
 30
0.0
 40
2.5
  0
LINE
  5
F9
100
AcDbEntity
  8
0
  6
CENTER
 62
               2
100
AcDbLine
 10
-135.03712056336275
 20
-99.190355170233389
 30
0.0
 11
-138.03712056336275
 21
-99.190355170233389
 31
0.0
  0
CIRCLE
  5
FA
100
AcDbEntity
  8
0
  6
CONTINUOUS
 62
               7
100
AcDbCircle
 10
-136.53712056336275
 20
-99.190355170233389
 30
0.0
 40
1.075
  0
LINE
  5
FB
100
AcDbEntity
  8
0
  6
CENTER
 62
               2
100
AcDbLine
 10
-136.53712056336275
 20
-100.69035517023339
 30
0.0
 11
-136.53712056336275
 21
-97.690355170233389
 31
0.0
  0
LINE
  5
FC
100
AcDbEntity
  8
0
  6
CENTER
 62
               2
100
AcDbLine
 10
-147.43712056336273
 20
-116.59035517023345
 30
0.0
 11
-144.43712056336273
 21
-116.59035517023348
 31
0.0
  0
CIRCLE
  5
FD
100
AcDbEntity
  8
0
  6
CONTINUOUS
 62
               7
100
AcDbCircle
 10
-145.93712056336273
 20
-116.59035517023347
 30
0.0
 40
1.075
  0
LINE
  5
FE
100
AcDbEntity
  8
0
  6
CENTER
 62
               2
100
AcDbLine
 10
-145.93712056336273
 20
-115.09035517023347
 30
0.0
 11
-145.93712056336273
 21
-118.09035517023347
 31
0.0
  0
LINE
  5
FF
100
AcDbEntity
  8
0
  6
CENTER
 62
               2
100
AcDbLine
 10
-139.23712056336274
 20
-80.190355170233332
 30
0.0
 11
-143.23712056336274
 21
-80.190355170233332
 31
0.0
  0
CIRCLE
  5
100
100
AcDbEntity
  8
0
  6
CONTINUOUS
 62
               7
100
AcDbCircle
 10
-141.23712056336274
 20
-80.190355170233332
 30
0.0
 40
1.0
  0
LINE
  5
101
100
AcDbEntity
  8
0
  6
CONTINUOUS
 62
               7
100
AcDbLine
 10
-135.23712056336277
 20
-150.09035517023347
 30
0.0
 11
-135.23712056336277
 21
-74.690355170233417
 31
0.0
  0
LINE
  5
102
100
AcDbEntity
  8
0
  6
CONTINUOUS
 62
               4
100
AcDbLine
 10
-135.23712056336277
 20
-95.387355174502787
 30
0.0
 11
-132.93712057132464
 21
-95.387355174502787
 31
0.0
  0
LINE
  5
103
100
AcDbEntity
  8
0
  6
CONTINUOUS
 62
               4
100
AcDbLine
 10
-135.23712056336277
 20
-120.38735517450279
 30
0.0
 11
-132.93712057132453
 21
-120.38735517450279
 31
0.0
  0
LINE
  5
104
100
AcDbEntity
  8
0
  6
CONTINUOUS
 62
               4
100
AcDbLine
 10
-132.93712057132453
 20
-120.38735516649395
 30
0.0
 11
-132.93712057132464
 21
-95.387355166493947
 31
0.0
  0
LINE
  5
105
100
AcDbEntity
  8
0
  6
CENTER
 62
               2
100
AcDbLine
 10
-137.73712056336277
 20
-101.89035517450279
 30
0.0
 11
-130.43712057132458
 21
-101.89035517450279
 31
0.0
  0
LINE
  5
106
100
AcDbEntity
  8
0
  6
CENTER
 62
               2
100
AcDbLine
 10
-137.73712056336277
 20
-113.89035517450279
 30
0.0
 11
-130.43712057132458
 21
-113.89035517450279
 31
0.0
  0
LINE
  5
107
100
AcDbEntity
  8
0
  6
CONTINUOUS
 62
             200
100
AcDbLine
 10
-26.139550002243908
 20
-166.13835486932686
 30
0.0
 11
-24.695550002243948
 21
-163.63835486932686
 31
0.0
  0
LINE
  5
108
100
AcDbEntity
  8
0
  6
CONTINUOUS
 62
             200
100
AcDbLine
 10
-26.639550002243908
 20
-166.13835486932686
 30
0.0
 11
-25.195550002243948
 21
-163.63835486932686
 31
0.0
  0
LINE
  5
109
100
AcDbEntity
  8
0
  6
CONTINUOUS
 62
               4
100
AcDbLine
 10
-28.970451124921482
 20
-162.38835486932686
 30
0.0
 11
-28.270451124921493
 21
-162.38835486932686
 31
0.0
  0
LINE
  5
10A
100
AcDbEntity
  8
0
  6
CONTINUOUS
 62
               4
100
AcDbLine
 10
-22.273550002243923
 20
-165.53753748651428
 30
0.0
 11
-22.273550002243923
 21
-164.23753748651433
 31
0.0
  0
LINE
  5
10B
100
AcDbEntity
  8
0
  6
CONTINUOUS
 62
               4
100
AcDbLine
 10
-25.793550002243904
 20
-165.53835486932684
 30
0.0
 11
-22.273550002243923
 21
-165.53835486932684
 31
0.0
  0
LINE
  5
10C
100
AcDbEntity
  8
0
  6
CONTINUOUS
 62
               4
100
AcDbLine
 10
-25.043550002243904
 20
-164.23835486932683
 30
0.0
 11
-22.273550002243923
 21
-164.23835486932683
 31
0.0
  0
LINE
  5
10D
100
AcDbEntity
  8
0
  6
CONTINUOUS
 62
               4
100
AcDbLine
 10
-28.970451124921482
 20
-167.88835486932686
 30
0.0
 11
-28.970451124921482
 21
-167.38835486932686
 31
0.0
  0
ARC
  5
10E
100
AcDbEntity
  8
0
  6
CONTINUOUS
 62
               4
100
AcDbCircle
 10
-29.470915569439484
 20
-151.42148209404314
 30
0.0
 40
0.5004652055472239
100
AcDbArc
 50
359.90008023532084
 51
64.878835756795922
  0
ARC
  5
10F
100
AcDbEntity
  8
0
  6
CONTINUOUS
 62
               4
100
AcDbCircle
 10
-29.470413600916089
 20
-167.88839239333225
 30
0.0
 40
0.4999624774027422
100
AcDbArc
 50
269.99569974300039
 51
0.0043002569990523
  0
LINE
  5
110
100
AcDbEntity
  8
0
  6
CONTINUOUS
 62
               4
100
AcDbLine
 10
-34.570451124921505
 20
-168.38835486932686
 30
0.0
 11
-29.470451124921482
 21
-168.38835486932686
 31
0.0
  0
LINE
  5
111
100
AcDbEntity
  8
0
  6
CONTINUOUS
 62
               4
100
AcDbLine
 10
-27.770451124921493
 20
-164.23835486932683
 30
0.0
 11
-25.543550002243904
 21
-164.23835486932683
 31
0.0
  0
LINE
  5
112
100
AcDbEntity
  8
0
  6
CONTINUOUS
 62
               4
100
AcDbLine
 10
-27.770451124921493
 20
-165.53835486932684
 30
0.0
 11
-26.293550002243904
 21
-165.53835486932684
 31
0.0
  0
LINE
  5
113
100
AcDbEntity
  8
0
  6
CONTINUOUS
 62
               4
100
AcDbLine
 10
-28.970451124921482
 20
-167.38835486932686
 30
0.0
 11
-28.970451124921482
 21
-151.42235486932685
 31
0.0
  0
LINE
  5
114
100
AcDbEntity
  8
0
  6
CONTINUOUS
 62
               4
100
AcDbLine
 10
-44.870453941448289
 20
-171.79035486932696
 30
0.0
 11
-44.870453941448289
 21
-172.39035486932687
 31
0.0
  0
LINE
  5
115
100
AcDbEntity
  8
0
  6
CONTINUOUS
 62
               4
100
AcDbLine
 10
-47.88754908810651
 20
-172.39035486932687
 30
0.0
 11
-36.570451124921505
 21
-172.39035486932693
 31
0.0
  0
ARC
  5
116
100
AcDbEntity
  8
0
  6
CONTINUOUS
 62
               4
100
AcDbCircle
 10
-46.086365936211251
 20
-171.79144287456387
 30
0.0
 40
0.5989129830170392
100
AcDbArc
 50
269.89591452477231
 51
0.1040854752270701
  0
ARC
  5
117
100
AcDbEntity
  8
0
  6
CONTINUOUS
 62
               4
100
AcDbCircle
 10
-47.887549088106454
 20
-171.79045001598507
 30
0.0
 40
0.5999048608870732
100
AcDbArc
 50
179.99091272245337
 51
236.43994933325826
  0
LINE
  5
118
100
AcDbEntity
  8
0
  6
CONTINUOUS
 62
               4
100
AcDbLine
 10
-48.570453941448221
 20
-171.79035486932696
 30
0.0
 11
-44.870453941448289
 21
-171.79035486932696
 31
0.0
  0
LINE
  5
119
100
AcDbEntity
  8
0
  6
CONTINUOUS
 62
               4
100
AcDbLine
 10
-36.570451124921505
 20
-172.39035486932693
 30
0.0
 11
-36.570451124921505
 21
-170.79035486932696
 31
0.0
  0
LINE
  5
11A
100
AcDbEntity
  8
0
  6
CONTINUOUS
 62
               4
100
AcDbLine
 10
-48.570453941448278
 20
-170.79035486932696
 30
0.0
 11
-36.570451124921505
 21
-170.79035486932696
 31
0.0
  0
LINE
  5
11B
100
AcDbEntity
  8
0
  6
CONTINUOUS
 62
               4
100
AcDbLine
 10
-35.070453941448221
 20
-172.29035486932685
 30
0.0
 11
-36.570453941448221
 21
-172.29035486932685
 31
0.0
  0
ARC
  5
11C
100
AcDbEntity
  8
0
  6
CONTINUOUS
 62
               4
100
AcDbCircle
 10
-35.070453941448221
 20
-171.79035486932685
 30
0.0
 40
0.5
100
AcDbArc
 50
270.00000000000023
 51
0.0
  0
ARC
  5
11D
100
AcDbEntity
  8
0
  6
CONTINUOUS
 62
               4
100
AcDbCircle
 10
-48.070453941448221
 20
-171.79035486932685
 30
0.0
 40
0.5
100
AcDbArc
 50
179.99999999999963
 51
245.26960130313901
  0
ARC
  5
11E
100
AcDbEntity
  8
0
  6
CONTINUOUS
 62
               4
100
AcDbCircle
 10
-47.887549088106454
 20
-171.79045001598507
 30
0.0
 40
0.5999048608870732
100
AcDbArc
 50
236.43994933325826
 51
270.00908727754575
  0
LINE
  5
11F
100
AcDbEntity
  8
0
  6
CONTINUOUS
 62
               4
100
AcDbLine
 10
-18.773550002243923
 20
-165.1375374865143
 30
0.0
 11
-18.773550002243923
 21
-164.6375374865143
 31
0.0
  0
LINE
  5
120
100
AcDbEntity
  8
0
  6
CONTINUOUS
 62
               4
100
AcDbLine
 10
-32.57045394144825
 20
-149.89035486932687
 30
0.0
 11
-31.570451124921505
 21
-149.89035486932687
 31
0.0
  0
LINE
  5
121
100
AcDbEntity
  8
0
  6
CONTINUOUS
 62
               4
100
AcDbLine
 10
-27.770451124921493
 20
-162.88835486932686
 30
0.0
 11
-27.770451124921493
 21
-166.88835486932686
 31
0.0
  0
LINE
  5
122
100
AcDbEntity
  8
0
  6
CONTINUOUS
 62
               4
100
AcDbLine
 10
-28.970451124921482
 20
-167.38835486932686
 30
0.0
 11
-28.270451124921493
 21
-167.38835486932686
 31
0.0
  0
ARC
  5
123
100
AcDbEntity
  8
0
  6
CONTINUOUS
 62
               4
100
AcDbCircle
 10
-28.270451124921493
 20
-162.88835486932686
 30
0.0
 40
0.5
100
AcDbArc
 50
0.0
 51
89.999999999999815
  0
ARC
  5
124
100
AcDbEntity
  8
0
  6
CONTINUOUS
 62
               4
100
AcDbCircle
 10
-28.270451124921493
 20
-166.88835486932686
 30
0.0
 40
0.5
100
AcDbArc
 50
269.99999999999937
 51
0.0
  0
LINE
  5
125
100
AcDbEntity
  8
0
  6
CONTINUOUS
 62
               4
100
AcDbLine
 10
-22.273550002243923
 20
-164.6375374865143
 30
0.0
 11
-18.773550002243923
 21
-164.6375374865143
 31
0.0
  0
LINE
  5
126
100
AcDbEntity
  8
0
  6
CONTINUOUS
 62
               4
100
AcDbLine
 10
-22.273550002243923
 20
-165.1375374865143
 30
0.0
 11
-18.773550002243923
 21
-165.1375374865143
 31
0.0
  0
LINE
  5
127
100
AcDbEntity
  8
0
  6
CONTINUOUS
 62
               4
100
AcDbLine
 10
-31.570451124921505
 20
-149.89035486932687
 30
0.0
 11
-29.258451124921493
 21
-150.96835486932684
 31
0.0
  0
LINE
  5
128
100
AcDbEntity
  8
0
  6
CONTINUOUS
 62
               4
100
AcDbLine
 10
-31.570451124921505
 20
-149.89035486932687
 30
0.0
 11
-31.570451124921505
 21
-168.38835486932686
 31
0.0
  0
LINE
  5
129
100
AcDbEntity
  8
0
  6
CONTINUOUS
 62
               4
100
AcDbLine
 10
-48.570453941448278
 20
-171.79035486932685
 30
0.0
 11
-48.570453941448278
 21
-150.39035517450264
 31
0.0
  0
LINE
  5
12A
100
AcDbEntity
  8
0
  6
CONTINUOUS
 62
               4
100
AcDbLine
 10
-34.570453941448278
 20
-150.39035517450264
 30
0.0
 11
-34.570453941448278
 21
-171.79035486425914
 31
0.0
  0
LINE
  5
12B
100
AcDbEntity
  8
0
  6
CONTINUOUS
 62
             200
100
AcDbLine
 10
-26.139550002243908
 20
-58.642355479678585
 30
0.0
 11
-24.695550002243948
 21
-61.142355479678614
 31
0.0
  0
LINE
  5
12C
100
AcDbEntity
  8
0
  6
CONTINUOUS
 62
             200
100
AcDbLine
 10
-26.639550002243908
 20
-58.642355479678585
 30
0.0
 11
-25.195550002243948
 21
-61.142355479678614
 31
0.0
  0
LINE
  5
12D
100
AcDbEntity
  8
0
  6
CONTINUOUS
 62
               4
100
AcDbLine
 10
-22.273550002243923
 20
-59.243172862491164
 30
0.0
 11
-22.273550002243923
 21
-60.543172862491119
 31
0.0
  0
LINE
  5
12E
100
AcDbEntity
  8
0
  6
CONTINUOUS
 62
               4
100
AcDbLine
 10
-28.970451124921482
 20
-62.392355479678614
 30
0.0
 11
-28.270451124921493
 21
-62.392355479678614
 31
0.0
  0
LINE
  5
12F
100
AcDbEntity
  8
0
  6
CONTINUOUS
 62
               4
100
AcDbLine
 10
-25.793550002243904
 20
-59.242355479678608
 30
0.0
 11
-22.273550002243923
 21
-59.242355479678608
 31
0.0
  0
LINE
  5
130
100
AcDbEntity
  8
0
  6
CONTINUOUS
 62
               4
100
AcDbLine
 10
-25.043550002243904
 20
-60.542355479678619
 30
0.0
 11
-22.273550002243923
 21
-60.542355479678619
 31
0.0
  0
LINE
  5
131
100
AcDbEntity
  8
0
  6
CONTINUOUS
 62
               4
100
AcDbLine
 10
-28.970451124921482
 20
-56.892355479678585
 30
0.0
 11
-28.970451124921482
 21
-57.392355479678585
 31
0.0
  0
ARC
  5
132
100
AcDbEntity
  8
0
  6
CONTINUOUS
 62
               4
100
AcDbCircle
 10
-29.470915569439484
 20
-73.359228254962332
 30
0.0
 40
0.5004652055472239
100
AcDbArc
 50
295.12116424320402
 51
0.0999197646782735
  0
ARC
  5
133
100
AcDbEntity
  8
0
  6
CONTINUOUS
 62
               4
100
AcDbCircle
 10
-29.470413600916089
 20
-56.892317955673192
 30
0.0
 40
0.4999624774027422
100
AcDbArc
 50
359.99569974300096
 51
90.004300256998803
  0
LINE
  5
134
100
AcDbEntity
  8
0
  6
CONTINUOUS
 62
               4
100
AcDbLine
 10
-34.570451124921505
 20
-56.392355479678585
 30
0.0
 11
-29.470451124921482
 21
-56.392355479678585
 31
0.0
  0
LINE
  5
135
100
AcDbEntity
  8
0
  6
CONTINUOUS
 62
               4
100
AcDbLine
 10
-27.770451124921493
 20
-60.542355479678619
 30
0.0
 11
-25.543550002243904
 21
-60.542355479678619
 31
0.0
  0
LINE
  5
136
100
AcDbEntity
  8
0
  6
CONTINUOUS
 62
               4
100
AcDbLine
 10
-27.770451124921493
 20
-59.242355479678608
 30
0.0
 11
-26.293550002243904
 21
-59.242355479678608
 31
0.0
  0
LINE
  5
137
100
AcDbEntity
  8
0
  6
CONTINUOUS
 62
               4
100
AcDbLine
 10
-28.970451124921482
 20
-57.392355479678585
 30
0.0
 11
-28.970451124921482
 21
-73.358355479678622
 31
0.0
  0
LINE
  5
138
100
AcDbEntity
  8
0
  6
CONTINUOUS
 62
               4
100
AcDbLine
 10
-44.870453941448289
 20
-52.990355479678485
 30
0.0
 11
-44.870453941448289
 21
-52.390355479678576
 31
0.0
  0
LINE
  5
139
100
AcDbEntity
  8
0
  6
CONTINUOUS
 62
               4
100
AcDbLine
 10
-47.88754908810651
 20
-52.390355479678604
 30
0.0
 11
-36.570451124921505
 21
-52.390355479678519
 31
0.0
  0
ARC
  5
13A
100
AcDbEntity
  8
0
  6
CONTINUOUS
 62
               4
100
AcDbCircle
 10
-46.086365936211251
 20
-52.989267474441576
 30
0.0
 40
0.5989129830170392
100
AcDbArc
 50
359.89591452477293
 51
90.104085475226867
  0
ARC
  5
13B
100
AcDbEntity
  8
0
  6
CONTINUOUS
 62
               4
100
AcDbCircle
 10
-47.887549088106454
 20
-52.990260333020402
 30
0.0
 40
0.5999048608870732
100
AcDbArc
 50
123.56005066674096
 51
180.00908727754583
  0
LINE
  5
13C
100
AcDbEntity
  8
0
  6
CONTINUOUS
 62
               4
100
AcDbLine
 10
-48.570453941448221
 20
-52.990355479678485
 30
0.0
 11
-44.870453941448289
 21
-52.990355479678485
 31
0.0
  0
LINE
  5
13D
100
AcDbEntity
  8
0
  6
CONTINUOUS
 62
               4
100
AcDbLine
 10
-36.570451124921505
 20
-52.390355479678519
 30
0.0
 11
-36.570451124921505
 21
-53.990355479678513
 31
0.0
  0
LINE
  5
13E
100
AcDbEntity
  8
0
  6
CONTINUOUS
 62
               4
100
AcDbLine
 10
-48.570453941448278
 20
-53.990355479678513
 30
0.0
 11
-36.570451124921505
 21
-53.990355479678513
 31
0.0
  0
LINE
  5
13F
100
AcDbEntity
  8
0
  6
CONTINUOUS
 62
               4
100
AcDbLine
 10
-35.070453941448221
 20
-52.490355479678598
 30
0.0
 11
-36.570453941448221
 21
-52.490355479678598
 31
0.0
  0
ARC
  5
140
100
AcDbEntity
  8
0
  6
CONTINUOUS
 62
               4
100
AcDbCircle
 10
-35.070453941448221
 20
-52.990355479678598
 30
0.0
 40
0.5
100
AcDbArc
 50
0.0
 51
89.999999999999815
  0
ARC
  5
141
100
AcDbEntity
  8
0
  6
CONTINUOUS
 62
               4
100
AcDbCircle
 10
-48.070453941448221
 20
-52.990355479678598
 30
0.0
 40
0.5
100
AcDbArc
 50
114.73039869686018
 51
179.99999999999963
  0
ARC
  5
142
100
AcDbEntity
  8
0
  6
CONTINUOUS
 62
               4
100
AcDbCircle
 10
-47.887549088106454
 20
-52.990260333020402
 30
0.0
 40
0.5999048608870732
100
AcDbArc
 50
89.99091272245343
 51
123.56005066674096
  0
LINE
  5
143
100
AcDbEntity
  8
0
  6
CONTINUOUS
 62
               4
100
AcDbLine
 10
-18.773550002243923
 20
-59.643172862491141
 30
0.0
 11
-18.773550002243923
 21
-60.143172862491141
 31
0.0
  0
LINE
  5
144
100
AcDbEntity
  8
0
  6
CONTINUOUS
 62
               4
100
AcDbLine
 10
-32.57045394144825
 20
-74.890355479678604
 30
0.0
 11
-31.570451124921505
 21
-74.890355479678604
 31
0.0
  0
LINE
  5
145
100
AcDbEntity
  8
0
  6
CONTINUOUS
 62
               4
100
AcDbLine
 10
-27.770451124921493
 20
-61.892355479678614
 30
0.0
 11
-27.770451124921493
 21
-57.892355479678585
 31
0.0
  0
LINE
  5
146
100
AcDbEntity
  8
0
  6
CONTINUOUS
 62
               4
100
AcDbLine
 10
-28.970451124921482
 20
-57.392355479678585
 30
0.0
 11
-28.270451124921493
 21
-57.392355479678585
 31
0.0
  0
ARC
  5
147
100
AcDbEntity
  8
0
  6
CONTINUOUS
 62
               4
100
AcDbCircle
 10
-28.270451124921493
 20
-61.892355479678614
 30
0.0
 40
0.5
100
AcDbArc
 50
270.00000000000023
 51
0.0
  0
ARC
  5
148
100
AcDbEntity
  8
0
  6
CONTINUOUS
 62
               4
100
AcDbCircle
 10
-28.270451124921493
 20
-57.892355479678585
 30
0.0
 40
0.5
100
AcDbArc
 50
0.0
 51
89.999999999999815
  0
LINE
  5
149
100
AcDbEntity
  8
0
  6
CONTINUOUS
 62
               4
100
AcDbLine
 10
-22.273550002243923
 20
-60.143172862491141
 30
0.0
 11
-18.773550002243923
 21
-60.143172862491141
 31
0.0
  0
LINE
  5
14A
100
AcDbEntity
  8
0
  6
CONTINUOUS
 62
               4
100
AcDbLine
 10
-22.273550002243923
 20
-59.643172862491141
 30
0.0
 11
-18.773550002243923
 21
-59.643172862491141
 31
0.0
  0
LINE
  5
14B
100
AcDbEntity
  8
0
  6
CONTINUOUS
 62
               4
100
AcDbLine
 10
-31.570451124921505
 20
-74.890355479678604
 30
0.0
 11
-29.258451124921493
 21
-73.812355479678601
 31
0.0
  0
LINE
  5
14C
100
AcDbEntity
  8
0
  6
CONTINUOUS
 62
               4
100
AcDbLine
 10
-31.570451124921505
 20
-74.890355479678604
 30
0.0
 11
-31.570451124921505
 21
-56.392355479678585
 31
0.0
  0
LINE
  5
14D
100
AcDbEntity
  8
0
  6
CONTINUOUS
 62
               4
100
AcDbLine
 10
-48.570453941448278
 20
-52.990355479678598
 30
0.0
 11
-48.570453941448278
 21
-74.390355174502815
 31
0.0
  0
LINE
  5
14E
100
AcDbEntity
  8
0
  6
CONTINUOUS
 62
               4
100
AcDbLine
 10
-34.570453941448278
 20
-74.390355174502815
 30
0.0
 11
-34.570453941448278
 21
-52.990355484746331
 31
0.0
  0
LINE
  5
14F
100
AcDbEntity
  8
0
  6
CONTINUOUS
 62
               7
100
AcDbLine
 10
-32.570453941448292
 20
-127.39035517450274
 30
0.0
 11
-50.570453941448292
 21
-127.39035517450274
 31
0.0
  0
LINE
  5
150
100
AcDbEntity
  8
0
  6
CONTINUOUS
 62
               7
100
AcDbLine
 10
-50.47045394144827
 20
-88.390355174502744
 30
0.0
 11
-32.570453941448292
 21
-88.390355174502744
 31
0.0
  0
LINE
  5
151
100
AcDbEntity
  8
0
  6
CONTINUOUS
 62
               7
100
AcDbLine
 10
-50.270453941448281
 20
-74.390355174502801
 30
0.0
 11
-50.570453941448292
 21
-74.690355174502812
 31
0.0
  0
LINE
  5
152
100
AcDbEntity
  8
0
  6
CONTINUOUS
 62
               7
100
AcDbLine
 10
-50.570453941448235
 20
-88.490355174502824
 30
0.0
 11
-50.47045394144827
 21
-88.39035517450283
 31
0.0
  0
LINE
  5
153
100
AcDbEntity
  8
0
  6
CONTINUOUS
 62
               7
100
AcDbLine
 10
-50.270453941448281
 20
-74.390355174502801
 30
0.0
 11
-32.570453941448235
 21
-74.39035517450283
 31
0.0
  0
LINE
  5
154
100
AcDbEntity
  8
0
  6
CENTER
 62
               2
100
AcDbLine
 10
-41.570453941448292
 20
-50.490355475409174
 30
0.0
 11
-41.570453941448378
 21
-174.22322901175943
 31
0.0
  0
LINE
  5
155
100
AcDbEntity
  8
0
  6
CONTINUOUS
 62
               7
100
AcDbLine
 10
-32.570453941448292
 20
-150.39035517450264
 30
0.0
 11
-32.570453941448292
 21
-74.39035517450283
 31
0.0
  0
LINE
  5
156
100
AcDbEntity
  8
0
  6
CONTINUOUS
 62
               7
100
AcDbLine
 10
-50.570453941448378
 20
-150.09035517450263
 30
0.0
 11
-50.570453941448292
 21
-74.690355174502812
 31
0.0
  0
LINE
  5
157
100
AcDbEntity
  8
0
  6
PHANTOM
 62
               7
100
AcDbLine
 10
-50.570453937328338
 20
-144.39035518365904
 30
0.0
 11
-50.570453937328338
 21
-139.39035517450282
 31
0.0
  0
LINE
  5
158
100
AcDbEntity
  8
0
  6
CONTINUOUS
 62
               7
100
AcDbLine
 10
-50.270453941448281
 20
-150.39035517450264
 30
0.0
 11
-32.570453941448235
 21
-150.39035517450264
 31
0.0
  0
LINE
  5
159
100
AcDbEntity
  8
0
  6
CONTINUOUS
 62
               7
100
AcDbLine
 10
-50.270453941448281
 20
-150.39035517450264
 30
0.0
 11
-50.570453941448292
 21
-150.09035517450263
 31
0.0
  0
LINE
  5
15A
100
AcDbEntity
  8
0
  6
CONTINUOUS
 62
               7
100
AcDbLine
 10
-32.570453941448292
 20
-136.39035517450276
 30
0.0
 11
-50.570453941448292
 21
-136.39035517450276
 31
0.0
  0
LINE
  5
15B
100
AcDbEntity
  8
0
  6
CONTINUOUS
 62
               7
100
AcDbLine
 10
-32.570453941448292
 20
-100.84035517023345
 30
0.0
 11
-33.570453941448292
 21
-100.84035517023345
 31
0.0
  0
LINE
  5
15C
100
AcDbEntity
  8
0
  6
CONTINUOUS
 62
               7
100
AcDbLine
 10
-32.570453941448292
 20
-97.54035517023344
 30
0.0
 11
-33.570453941448292
 21
-97.54035517023344
 31
0.0
  0
LINE
  5
15D
100
AcDbEntity
  8
0
  6
CONTINUOUS
 62
               7
100
AcDbLine
 10
-33.570453941448292
 20
-97.54035517023344
 30
0.0
 11
-33.570453941448292
 21
-100.83668018244038
 31
0.0
  0
LINE
  5
15E
100
AcDbEntity
  8
0
  6
CENTER
 62
               2
100
AcDbLine
 10
-47.770453941448338
 20
-110.89035517450277
 30
0.0
 11
-47.770453941448338
 21
-116.89035517450277
 31
0.0
  0
LINE
  5
15F
100
AcDbEntity
  8
0
  6
CENTER
 62
               2
100
AcDbLine
 10
-47.770453941448281
 20
-98.890355174502773
 30
0.0
 11
-47.770453941448338
 21
-104.89035517450277
 31
0.0
  0
CIRCLE
  5
160
100
AcDbEntity
  8
0
  6
CONTINUOUS
 62
               4
100
AcDbCircle
 10
-47.770453941448281
 20
-101.89035517450277
 30
0.0
 40
1.75
  0
CIRCLE
  5
161
100
AcDbEntity
  8
0
  6
CONTINUOUS
 62
               4
100
AcDbCircle
 10
-47.770453941448338
 20
-113.89035517450277
 30
0.0
 40
1.75
  0
LINE
  5
162
100
AcDbEntity
  8
0
  6
CENTER
 62
               2
100
AcDbLine
 10
-44.770453941448281
 20
-101.89035517450277
 30
0.0
 11
-50.770453941448281
 21
-101.89035517450277
 31
0.0
  0
LINE
  5
163
100
AcDbEntity
  8
0
  6
CENTER
 62
               2
100
AcDbLine
 10
-44.770453941448338
 20
-113.89035517450277
 30
0.0
 11
-50.770453941448338
 21
-113.89035517450277
 31
0.0
  0
LINE
  5
165
100
AcDbEntity
  8
0
  6
DASHED
 62
             200
100
AcDbLine
 10
-62.070453941448292
 20
-94.690355170233417
 30
0.0
 11
-64.070453941448292
 21
-94.690355170233417
 31
0.0
  0
LINE
  5
166
100
AcDbEntity
  8
0
  6
DASHED
 62
             200
100
AcDbLine
 10
-62.070453941448292
 20
-95.590355170233423
 30
0.0
 11
-64.070453941448292
 21
-95.590355170233423
 31
0.0
  0
LINE
  5
167
100
AcDbEntity
  8
0
  6
DASHED
 62
             200
100
AcDbLine
 10
-62.070453941448292
 20
-93.79035517023344
 30
0.0
 11
-64.070453941448292
 21
-93.79035517023344
 31
0.0
  0
LINE
  5
168
100
AcDbEntity
  8
0
  6
DASHED
 62
             200
100
AcDbLine
 10
-62.070453941448292
 20
-93.090355170233423
 30
0.0
 11
-64.070453941448292
 21
-93.090355170233423
 31
0.0
  0
LINE
  5
169
100
AcDbEntity
  8
0
  6
DASHED
 62
             200
100
AcDbLine
 10
-62.070453941448292
 20
-92.590355170233423
 30
0.0
 11
-64.070453941448292
 21
-92.590355170233423
 31
0.0
  0
LINE
  5
16A
100
AcDbEntity
  8
0
  6
DASHED
 62
             200
100
AcDbLine
 10
-62.070453941448292
 20
-96.990355170233428
 30
0.0
 11
-64.070453941448292
 21
-96.990355170233428
 31
0.0
  0
LINE
  5
16B
100
AcDbEntity
  8
0
  6
DASHED
 62
             200
100
AcDbLine
 10
-64.070453941448292
 20
-92.29035517023344
 30
0.0
 11
-64.070453941448292
 21
-100.29035517023344
 31
0.0
  0
LINE
  5
16C
100
AcDbEntity
  8
0
  6
DASHED
 62
             200
100
AcDbLine
 10
-62.070453941448292
 20
-97.890355170233434
 30
0.0
 11
-64.070453941448292
 21
-97.890355170233434
 31
0.0
  0
LINE
  5
16D
100
AcDbEntity
  8
0
  6
DASHED
 62
             200
100
AcDbLine
 10
-62.070453941448292
 20
-98.79035517023344
 30
0.0
 11
-64.070453941448292
 21
-98.79035517023344
 31
0.0
  0
LINE
  5
16E
100
AcDbEntity
  8
0
  6
DASHED
 62
             200
100
AcDbLine
 10
-62.070453941448292
 20
-99.490355170233428
 30
0.0
 11
-64.070453941448292
 21
-99.490355170233428
 31
0.0
  0
LINE
  5
16F
100
AcDbEntity
  8
0
  6
DASHED
 62
             200
100
AcDbLine
 10
-62.070453941448292
 20
-99.990355170233428
 30
0.0
 11
-64.070453941448292
 21
-99.990355170233428
 31
0.0
  0
LINE
  5
170
100
AcDbEntity
  8
0
  6
DASHED
 62
             200
100
AcDbLine
 10
-62.070453941448292
 20
-92.29035517023344
 30
0.0
 11
-62.070453941448292
 21
-100.29035517023344
 31
0.0
  0
LINE
  5
171
100
AcDbEntity
  8
0
  6
DASHED
 62
             200
100
AcDbLine
 10
-50.570453941448292
 20
-100.29035517023344
 30
0.0
 11
-64.070453941448292
 21
-100.29035517023344
 31
0.0
  0
LINE
  5
172
100
AcDbEntity
  8
0
  6
DASHED
 62
             200
100
AcDbLine
 10
-50.570453941448292
 20
-92.29035517023344
 30
0.0
 11
-64.070453941448292
 21
-92.29035517023344
 31
0.0
  0
LINE
  5
173
100
AcDbEntity
  8
0
  6
CENTER
 62
             200
100
AcDbLine
 10
-49.400103941448279
 20
-96.29035517023344
 30
0.0
 11
-65.700453941448288
 21
-96.29035517023344
 31
0.0
  0
LINE
  5
174
100
AcDbEntity
  8
0
  6
DASHED
 62
             200
100
AcDbLine
 10
-64.570453941448292
 20
-92.79035517023344
 30
0.0
 11
-64.570453941448292
 21
-99.79035517023344
 31
0.0
  0
LINE
  5
175
100
AcDbEntity
  8
0
  6
DASHED
 62
               7
100
AcDbLine
 10
-50.570453941448292
 20
-92.29035517023344
 30
0.0
 11
-50.570453941448292
 21
-100.29035517023344
 31
0.0
  0
ARC
  5
176
100
AcDbEntity
  8
0
  6
DASHED
 62
             200
100
AcDbCircle
 10
-64.070453941448292
 20
-99.79035517023344
 30
0.0
 40
0.5
100
AcDbArc
 50
179.99999999999963
 51
269.99999999999937
  0
ARC
  5
177
100
AcDbEntity
  8
0
  6
DASHED
 62
             200
100
AcDbCircle
 10
-64.070453941448292
 20
-92.79035517023344
 30
0.0
 40
0.5
100
AcDbArc
 50
89.999999999999815
 51
179.99999999999963
  0
LINE
  5
178
100
AcDbEntity
  8
0
  6
DASHED
 62
             200
100
AcDbLine
 10
-62.070453941448349
 20
-117.89035517023345
 30
0.0
 11
-64.070453941448349
 21
-117.89035517023345
 31
0.0
  0
LINE
  5
179
100
AcDbEntity
  8
0
  6
DASHED
 62
             200
100
AcDbLine
 10
-62.070453941448349
 20
-118.79035517023344
 30
0.0
 11
-64.070453941448349
 21
-118.79035517023344
 31
0.0
  0
LINE
  5
17A
100
AcDbEntity
  8
0
  6
DASHED
 62
             200
100
AcDbLine
 10
-62.070453941448349
 20
-116.99035517023346
 30
0.0
 11
-64.070453941448349
 21
-116.99035517023346
 31
0.0
  0
LINE
  5
17B
100
AcDbEntity
  8
0
  6
DASHED
 62
             200
100
AcDbLine
 10
-62.070453941448349
 20
-116.29035517023344
 30
0.0
 11
-64.070453941448349
 21
-116.29035517023344
 31
0.0
  0
LINE
  5
17C
100
AcDbEntity
  8
0
  6
DASHED
 62
             200
100
AcDbLine
 10
-62.070453941448349
 20
-115.79035517023344
 30
0.0
 11
-64.070453941448349
 21
-115.79035517023344
 31
0.0
  0
LINE
  5
17D
100
AcDbEntity
  8
0
  6
DASHED
 62
             200
100
AcDbLine
 10
-62.070453941448349
 20
-120.19035517023345
 30
0.0
 11
-64.070453941448349
 21
-120.19035517023345
 31
0.0
  0
LINE
  5
17E
100
AcDbEntity
  8
0
  6
DASHED
 62
             200
100
AcDbLine
 10
-64.070453941448349
 20
-115.49035517023346
 30
0.0
 11
-64.070453941448349
 21
-123.49035517023346
 31
0.0
  0
LINE
  5
17F
100
AcDbEntity
  8
0
  6
DASHED
 62
             200
100
AcDbLine
 10
-62.070453941448349
 20
-121.09035517023345
 30
0.0
 11
-64.070453941448349
 21
-121.09035517023345
 31
0.0
  0
LINE
  5
180
100
AcDbEntity
  8
0
  6
DASHED
 62
             200
100
AcDbLine
 10
-62.070453941448349
 20
-121.99035517023346
 30
0.0
 11
-64.070453941448349
 21
-121.99035517023346
 31
0.0
  0
LINE
  5
181
100
AcDbEntity
  8
0
  6
DASHED
 62
             200
100
AcDbLine
 10
-62.070453941448349
 20
-122.69035517023345
 30
0.0
 11
-64.070453941448349
 21
-122.69035517023345
 31
0.0
  0
LINE
  5
182
100
AcDbEntity
  8
0
  6
DASHED
 62
             200
100
AcDbLine
 10
-62.070453941448349
 20
-123.19035517023345
 30
0.0
 11
-64.070453941448349
 21
-123.19035517023345
 31
0.0
  0
LINE
  5
183
100
AcDbEntity
  8
0
  6
DASHED
 62
             200
100
AcDbLine
 10
-62.070453941448349
 20
-115.49035517023346
 30
0.0
 11
-62.070453941448349
 21
-123.49035517023346
 31
0.0
  0
LINE
  5
184
100
AcDbEntity
  8
0
  6
DASHED
 62
             200
100
AcDbLine
 10
-50.570453941448349
 20
-123.49035517023346
 30
0.0
 11
-64.070453941448349
 21
-123.49035517023346
 31
0.0
  0
LINE
  5
185
100
AcDbEntity
  8
0
  6
DASHED
 62
             200
100
AcDbLine
 10
-50.570453941448349
 20
-115.49035517023346
 30
0.0
 11
-64.070453941448349
 21
-115.49035517023346
 31
0.0
  0
LINE
  5
186
100
AcDbEntity
  8
0
  6
CENTER
 62
             200
100
AcDbLine
 10
-49.400103941448336
 20
-119.49035517023346
 30
0.0
 11
-65.700453941448345
 21
-119.49035517023346
 31
0.0
  0
LINE
  5
187
100
AcDbEntity
  8
0
  6
DASHED
 62
             200
100
AcDbLine
 10
-64.570453941448349
 20
-115.99035517023346
 30
0.0
 11
-64.570453941448349
 21
-122.99035517023346
 31
0.0
  0
LINE
  5
188
100
AcDbEntity
  8
0
  6
DASHED
 62
               7
100
AcDbLine
 10
-50.570453941448349
 20
-115.49035517023346
 30
0.0
 11
-50.570453941448349
 21
-123.49035517023346
 31
0.0
  0
ARC
  5
189
100
AcDbEntity
  8
0
  6
DASHED
 62
             200
100
AcDbCircle
 10
-64.070453941448349
 20
-122.99035517023346
 30
0.0
 40
0.5
100
AcDbArc
 50
179.99999999999963
 51
269.99999999999937
  0
ARC
  5
18A
100
AcDbEntity
  8
0
  6
DASHED
 62
             200
100
AcDbCircle
 10
-64.070453941448349
 20
-115.99035517023346
 30
0.0
 40
0.5
100
AcDbArc
 50
89.999999999999815
 51
179.99999999999963
  0
ARC
  5
18B
100
AcDbEntity
  8
0
  6
CONTINUOUS
 62
               4
100
AcDbCircle
 10
-49.170453941448287
 20
-96.390355174502773
 30
0.0
 40
1.0
100
AcDbArc
 50
89.999999999999815
 51
179.99999999999963
  0
LINE
  5
18C
100
AcDbEntity
  8
0
  6
CONTINUOUS
 62
               4
100
AcDbLine
 10
-49.170453941448287
 20
-95.390355174502773
 30
0.0
 11
-39.170453941448287
 21
-95.390355174502773
 31
0.0
  0
ARC
  5
18D
100
AcDbEntity
  8
0
  6
CONTINUOUS
 62
               4
100
AcDbCircle
 10
-39.170453941448287
 20
-96.390355174502773
 30
0.0
 40
1.0
100
AcDbArc
 50
0.0
 51
89.999999999999815
  0
LINE
  5
18E
100
AcDbEntity
  8
0
  6
CONTINUOUS
 62
               4
100
AcDbLine
 10
-38.170453941448287
 20
-119.39035517450277
 30
0.0
 11
-38.170453941448287
 21
-96.390355174502773
 31
0.0
  0
ARC
  5
18F
100
AcDbEntity
  8
0
  6
CONTINUOUS
 62
               4
100
AcDbCircle
 10
-39.170453941448287
 20
-119.39035517450277
 30
0.0
 40
1.0
100
AcDbArc
 50
270.00000000000023
 51
0.0
  0
LINE
  5
190
100
AcDbEntity
  8
0
  6
CONTINUOUS
 62
               4
100
AcDbLine
 10
-49.170453941448287
 20
-120.39035517450277
 30
0.0
 11
-39.170453941448287
 21
-120.39035517450277
 31
0.0
  0
ARC
  5
191
100
AcDbEntity
  8
0
  6
CONTINUOUS
 62
               4
100
AcDbCircle
 10
-49.170453941448287
 20
-119.39035517450277
 30
0.0
 40
1.0
100
AcDbArc
 50
179.99999999999963
 51
269.99999999999937
  0
LINE
  5
192
100
AcDbEntity
  8
0
  6
CONTINUOUS
 62
               4
100
AcDbLine
 10
-50.170453941448287
 20
-119.39035517450277
 30
0.0
 11
-50.170453941448287
 21
-96.390355174502773
 31
0.0
  0
LINE
  5
193
100
AcDbEntity
  8
0
  6
PHANTOM
 62
             200
100
AcDbLine
 10
47.596194369919225
 20
-157.39035517450253
 30
0.0
 11
47.596194369919232
 21
-155.39035517450253
 31
0.0
  0
LINE
  5
194
100
AcDbEntity
  8
0
  6
PHANTOM
 62
             200
100
AcDbLine
 10
44.596194369919232
 20
-155.39035517450253
 30
0.0
 11
47.596194369919232
 21
-155.39035517450253
 31
0.0
  0
LINE
  5
195
100
AcDbEntity
  8
0
  6
PHANTOM
 62
             200
100
AcDbLine
 10
44.596194369919225
 20
-157.39035517450253
 30
0.0
 11
47.596194369919225
 21
-157.39035517450253
 31
0.0
  0
LINE
  5
196
100
AcDbEntity
  8
0
  6
PHANTOM
 62
             200
100
AcDbLine
 10
44.596212680466117
 20
-157.39235517877202
 30
0.0
 11
44.596212680466124
 21
-155.39235517877202
 31
0.0
  0
LINE
  5
197
100
AcDbEntity
  8
0
  6
CONTINUOUS
 62
               4
100
AcDbLine
 10
50.596212680466081
 20
-168.39035517877204
 30
0.0
 11
41.596212680466074
 21
-168.39035517877204
 31
0.0
  0
LINE
  5
198
100
AcDbEntity
  8
0
  6
CONTINUOUS
 62
               4
100
AcDbLine
 10
51.096212680466074
 20
-170.79035517877202
 30
0.0
 11
47.896212680466029
 21
-170.79035517877202
 31
0.0
  0
LINE
  5
199
100
AcDbEntity
  8
0
  6
CONTINUOUS
 62
               4
100
AcDbLine
 10
51.096212680466074
 20
-172.39035517877204
 30
0.0
 11
41.096212680466074
 21
-172.39035517877204
 31
0.0
  0
LINE
  5
19A
100
AcDbEntity
  8
0
  6
CONTINUOUS
 62
               4
100
AcDbLine
 10
51.096212680466074
 20
-171.79035517877202
 30
0.0
 11
47.896212680466029
 21
-171.79035517877202
 31
0.0
  0
ARC
  5
19B
100
AcDbEntity
  8
0
  6
CONTINUOUS
 62
               4
100
AcDbCircle
 10
41.596509704672229
 20
-150.39065220297812
 30
0.0
 40
0.5002971123771115
100
AcDbArc
 50
90.034016255545609
 51
179.96598374445364
  0
ARC
  5
19C
100
AcDbEntity
  8
0
  6
CONTINUOUS
 62
               4
100
AcDbCircle
 10
41.826212680466071
 20
-167.89035517877204
 30
0.0
 40
0.5
100
AcDbArc
 50
179.99999999999963
 51
269.99999999999937
  0
ARC
  5
19D
100
AcDbEntity
  8
0
  6
CONTINUOUS
 62
               4
100
AcDbCircle
 10
50.366212680466091
 20
-167.89035517877204
 30
0.0
 40
0.5
100
AcDbArc
 50
269.99999999999932
 51
359.99999999999915
  0
ARC
  5
19E
100
AcDbEntity
  8
0
  6
CONTINUOUS
 62
               4
100
AcDbCircle
 10
41.826212680466085
 20
-151.60263891152675
 30
0.0
 40
0.5
100
AcDbArc
 50
89.999999999999815
 51
179.99999999999963
  0
ARC
  5
19F
100
AcDbEntity
  8
0
  6
CONTINUOUS
 62
               4
100
AcDbCircle
 10
50.366212680466106
 20
-151.60263891152675
 30
0.0
 40
0.5
100
AcDbArc
 50
359.99999999999994
 51
89.999999999999744
  0
LINE
  5
1A0
100
AcDbEntity
  8
0
  6
CONTINUOUS
 62
               4
100
AcDbLine
 10
41.326212680466071
 20
-167.89035517877204
 30
0.0
 11
41.326212680466085
 21
-151.60263891152675
 31
0.0
  0
LINE
  5
1A1
100
AcDbEntity
  8
0
  6
CONTINUOUS
 62
               4
100
AcDbLine
 10
50.866212680466091
 20
-167.89035517877204
 30
0.0
 11
50.866212680466106
 21
-151.60263891152675
 31
0.0
  0
LINE
  5
1A2
100
AcDbEntity
  8
0
  6
CONTINUOUS
 62
               4
100
AcDbLine
 10
41.826212680466085
 20
-151.10263891152675
 30
0.0
 11
50.366212680466106
 21
-151.10263891152675
 31
0.0
  0
LINE
  5
1A3
100
AcDbEntity
  8
0
  6
CONTINUOUS
 62
               4
100
AcDbLine
 10
51.096212680466074
 20
-172.39035517877204
 30
0.0
 11
51.096212680466095
 21
-149.89035517877204
 31
0.0
  0
ARC
  5
1A4
100
AcDbEntity
  8
0
  6
CONTINUOUS
 62
               4
100
AcDbCircle
 10
50.30030782712425
 20
-171.79045032543019
 30
0.0
 40
0.5999048608870732
100
AcDbArc
 50
269.9909127224538
 51
0.0090872775461705
  0
ARC
  5
1A5
100
AcDbEntity
  8
0
  6
CONTINUOUS
 62
               4
100
AcDbCircle
 10
50.596509528330287
 20
-167.89065202663619
 30
0.0
 40
0.4997032403068001
100
AcDbArc
 50
269.96596353714722
 51
0.0340364628526146
  0
ARC
  5
1A6
100
AcDbEntity
  8
0
  6
CONTINUOUS
 62
               4
100
AcDbCircle
 10
50.596509528330301
 20
-150.39005833090783
 30
0.0
 40
0.4997032403068001
100
AcDbArc
 50
359.96596353714722
 51
90.034036462852612
  0
LINE
  5
1A7
100
AcDbEntity
  8
0
  6
CONTINUOUS
 62
               4
100
AcDbLine
 10
41.096212680466074
 20
-172.39035517877204
 30
0.0
 11
41.096212680466095
 21
-149.89035517877204
 31
0.0
  0
ARC
  5
1A8
100
AcDbEntity
  8
0
  6
CONTINUOUS
 62
               4
100
AcDbCircle
 10
48.499124675228991
 20
-171.79144318400904
 30
0.0
 40
0.5989129830170392
100
AcDbArc
 50
179.89591452477248
 51
270.10408547522644
  0
ARC
  5
1A9
100
AcDbEntity
  8
0
  6
CONTINUOUS
 62
               4
100
AcDbCircle
 10
41.596509704672215
 20
-167.89005815456591
 30
0.0
 40
0.5002971123771114
100
AcDbArc
 50
180.03401625554557
 51
269.96598374445352
  0
ARC
  5
1AA
100
AcDbEntity
  8
0
  6
CONTINUOUS
 62
               4
100
AcDbCircle
 10
41.596212680466074
 20
-171.79035517877202
 30
0.0
 40
0.5
100
AcDbArc
 50
179.99999999999949
 51
269.99999999999932
  0
LINE
  5
1AB
100
AcDbEntity
  8
0
  6
CONTINUOUS
 62
               4
100
AcDbLine
 10
47.896212680466029
 20
-172.29035517877202
 30
0.0
 11
47.896212680466029
 21
-170.79035517877202
 31
0.0
  0
LINE
  5
1AC
100
AcDbEntity
  8
0
  6
CONTINUOUS
 62
               4
100
AcDbLine
 10
47.896212680466029
 20
-172.29035517877202
 30
0.0
 11
41.596212680466074
 21
-172.29035517877202
 31
0.0
  0
CIRCLE
  5
1AD
100
AcDbEntity
  8
0
  6
CONTINUOUS
 62
               4
100
AcDbCircle
 10
44.846806552536421
 20
-164.89035517877204
 30
0.0
 40
0.7250000000000001
  0
CIRCLE
  5
1AE
100
AcDbEntity
  8
0
  6
CONTINUOUS
 62
               4
100
AcDbCircle
 10
47.346806552536421
 20
-164.89035517877204
 30
0.0
 40
0.7250000000000001
  0
LINE
  5
1AF
100
AcDbEntity
  8
0
  6
CONTINUOUS
 62
               4
100
AcDbLine
 10
47.346212680466081
 20
-162.89035517877204
 30
0.0
 11
44.846212680466081
 21
-162.89035517877204
 31
0.0
  0
LINE
  5
1B0
100
AcDbEntity
  8
0
  6
CONTINUOUS
 62
               4
100
AcDbLine
 10
47.346212680466081
 20
-166.89035517877204
 30
0.0
 11
44.846212680466081
 21
-166.89035517877204
 31
0.0
  0
ARC
  5
1B1
100
AcDbEntity
  8
0
  6
CONTINUOUS
 62
               4
100
AcDbCircle
 10
44.846212680466081
 20
-164.89035517877204
 30
0.0
 40
2.0000000881710065
100
AcDbArc
 50
89.999999999999702
 51
269.99999999999932
  0
ARC
  5
1B2
100
AcDbEntity
  8
0
  6
CONTINUOUS
 62
               4
100
AcDbCircle
 10
47.346212680466081
 20
-164.89035517877204
 30
0.0
 40
2.0000000881710065
100
AcDbArc
 50
270.00000000000017
 51
89.999999999999744
  0
CIRCLE
  5
1B3
100
AcDbEntity
  8
0
  6
CONTINUOUS
 62
               4
100
AcDbCircle
 10
44.846806552536421
 20
-164.89035517877204
 30
0.0
 40
0.25
  0
CIRCLE
  5
1B4
100
AcDbEntity
  8
0
  6
CONTINUOUS
 62
               4
100
AcDbCircle
 10
47.346806552536421
 20
-164.89035517877204
 30
0.0
 40
0.25
  0
LINE
  5
1B5
100
AcDbEntity
  8
0
  6
PHANTOM
 62
             200
100
AcDbLine
 10
44.596212680466223
 20
-67.388355170233439
 30
0.0
 11
44.596212680466216
 21
-69.388355170233439
 31
0.0
  0
LINE
  5
1B6
100
AcDbEntity
  8
0
  6
PHANTOM
 62
             200
100
AcDbLine
 10
47.596194369919331
 20
-67.390355174502915
 30
0.0
 11
47.596194369919324
 21
-69.390355174502915
 31
0.0
  0
LINE
  5
1B7
100
AcDbEntity
  8
0
  6
PHANTOM
 62
             200
100
AcDbLine
 10
44.596194369919324
 20
-69.390355174502901
 30
0.0
 11
47.596194369919324
 21
-69.390355174502915
 31
0.0
  0
LINE
  5
1B8
100
AcDbEntity
  8
0
  6
PHANTOM
 62
             200
100
AcDbLine
 10
44.596194369919331
 20
-67.390355174502901
 30
0.0
 11
47.596194369919331
 21
-67.390355174502915
 31
0.0
  0
LINE
  5
1B9
100
AcDbEntity
  8
0
  6
CONTINUOUS
 62
               4
100
AcDbLine
 10
47.896212680466164
 20
-52.490355170233457
 30
0.0
 11
41.596212680466209
 21
-52.49035517023345
 31
0.0
  0
LINE
  5
1BA
100
AcDbEntity
  8
0
  6
CONTINUOUS
 62
               4
100
AcDbLine
 10
47.896212680466164
 20
-52.490355170233457
 30
0.0
 11
47.896212680466164
 21
-53.990355170233457
 31
0.0
  0
ARC
  5
1BB
100
AcDbEntity
  8
0
  6
CONTINUOUS
 62
               4
100
AcDbCircle
 10
41.596212680466209
 20
-52.99035517023345
 30
0.0
 40
0.5
100
AcDbArc
 50
89.999999999999744
 51
179.99999999999955
  0
ARC
  5
1BC
100
AcDbEntity
  8
0
  6
CONTINUOUS
 62
               4
100
AcDbCircle
 10
41.596509704672336
 20
-56.890652194439561
 30
0.0
 40
0.5002971123771114
100
AcDbArc
 50
90.034016255545566
 51
179.96598374445352
  0
ARC
  5
1BD
100
AcDbEntity
  8
0
  6
CONTINUOUS
 62
               4
100
AcDbCircle
 10
48.499124675229126
 20
-52.989267164996434
 30
0.0
 40
0.5989129830170392
100
AcDbArc
 50
89.895914524772678
 51
180.10408547522661
  0
LINE
  5
1BE
100
AcDbEntity
  8
0
  6
CONTINUOUS
 62
               4
100
AcDbLine
 10
41.096212680466209
 20
-52.390355170233427
 30
0.0
 11
41.096212680466181
 21
-74.89035517023342
 31
0.0
  0
ARC
  5
1BF
100
AcDbEntity
  8
0
  6
CONTINUOUS
 62
               4
100
AcDbCircle
 10
50.596509528330387
 20
-74.39065201809764
 30
0.0
 40
0.4997032403068001
100
AcDbArc
 50
269.96596353714654
 51
0.0340364628527164
  0
ARC
  5
1C0
100
AcDbEntity
  8
0
  6
CONTINUOUS
 62
               4
100
AcDbCircle
 10
50.596509528330408
 20
-56.890058322369256
 30
0.0
 40
0.4997032403068001
100
AcDbArc
 50
359.96596353714642
 51
90.034036462852612
  0
ARC
  5
1C1
100
AcDbEntity
  8
0
  6
CONTINUOUS
 62
               4
100
AcDbCircle
 10
50.300307827124385
 20
-52.99026002357526
 30
0.0
 40
0.5999048608870732
100
AcDbArc
 50
359.99091272245295
 51
90.009087277546172
  0
LINE
  5
1C2
100
AcDbEntity
  8
0
  6
CONTINUOUS
 62
               4
100
AcDbLine
 10
51.096212680466209
 20
-52.390355170233434
 30
0.0
 11
51.096212680466181
 21
-74.890355170233434
 31
0.0
  0
LINE
  5
1C3
100
AcDbEntity
  8
0
  6
CONTINUOUS
 62
               4
100
AcDbLine
 10
41.82621268046617
 20
-73.678071437478678
 30
0.0
 11
50.366212680466191
 21
-73.678071437478692
 31
0.0
  0
LINE
  5
1C4
100
AcDbEntity
  8
0
  6
CONTINUOUS
 62
               4
100
AcDbLine
 10
50.866212680466212
 20
-56.890355170233434
 30
0.0
 11
50.866212680466191
 21
-73.178071437478692
 31
0.0
  0
LINE
  5
1C5
100
AcDbEntity
  8
0
  6
CONTINUOUS
 62
               4
100
AcDbLine
 10
41.326212680466192
 20
-56.890355170233427
 30
0.0
 11
41.326212680466178
 21
-73.178071437478678
 31
0.0
  0
ARC
  5
1C6
100
AcDbEntity
  8
0
  6
CONTINUOUS
 62
               4
100
AcDbCircle
 10
50.366212680466191
 20
-73.178071437478692
 30
0.0
 40
0.5
100
AcDbArc
 50
269.99999999999932
 51
359.99999999999909
  0
ARC
  5
1C7
100
AcDbEntity
  8
0
  6
CONTINUOUS
 62
               4
100
AcDbCircle
 10
41.826212680466178
 20
-73.178071437478678
 30
0.0
 40
0.5
100
AcDbArc
 50
179.99999999999963
 51
269.99999999999937
  0
ARC
  5
1C8
100
AcDbEntity
  8
0
  6
CONTINUOUS
 62
               4
100
AcDbCircle
 10
50.366212680466212
 20
-56.890355170233434
 30
0.0
 40
0.5
100
AcDbArc
 50
359.99999999999915
 51
89.999999999999744
  0
ARC
  5
1C9
100
AcDbEntity
  8
0
  6
CONTINUOUS
 62
               4
100
AcDbCircle
 10
41.826212680466192
 20
-56.890355170233427
 30
0.0
 40
0.5
100
AcDbArc
 50
89.999999999999815
 51
179.99999999999963
  0
ARC
  5
1CA
100
AcDbEntity
  8
0
  6
CONTINUOUS
 62
               4
100
AcDbCircle
 10
41.596509704672314
 20
-74.390058146027314
 30
0.0
 40
0.5002971123771115
100
AcDbArc
 50
180.03401625554557
 51
269.96598374445358
  0
LINE
  5
1CB
100
AcDbEntity
  8
0
  6
CONTINUOUS
 62
               4
100
AcDbLine
 10
51.096212680466209
 20
-52.990355170233457
 30
0.0
 11
47.896212680466164
 21
-52.990355170233457
 31
0.0
  0
LINE
  5
1CC
100
AcDbEntity
  8
0
  6
CONTINUOUS
 62
               4
100
AcDbLine
 10
51.096212680466209
 20
-52.390355170233434
 30
0.0
 11
41.096212680466209
 21
-52.390355170233427
 31
0.0
  0
LINE
  5
1CD
100
AcDbEntity
  8
0
  6
CONTINUOUS
 62
               4
100
AcDbLine
 10
51.096212680466209
 20
-53.990355170233457
 30
0.0
 11
47.896212680466164
 21
-53.990355170233457
 31
0.0
  0
LINE
  5
1CE
100
AcDbEntity
  8
0
  6
CONTINUOUS
 62
               4
100
AcDbLine
 10
50.596212680466202
 20
-56.390355170233434
 30
0.0
 11
41.596212680466202
 21
-56.390355170233427
 31
0.0
  0
CIRCLE
  5
1CF
100
AcDbEntity
  8
0
  6
CONTINUOUS
 62
               4
100
AcDbCircle
 10
47.346806552536542
 20
-59.890355170233434
 30
0.0
 40
0.25
  0
CIRCLE
  5
1D0
100
AcDbEntity
  8
0
  6
CONTINUOUS
 62
               4
100
AcDbCircle
 10
44.846806552536542
 20
-59.890355170233427
 30
0.0
 40
0.25
  0
ARC
  5
1D1
100
AcDbEntity
  8
0
  6
CONTINUOUS
 62
               4
100
AcDbCircle
 10
47.346212680466202
 20
-59.890355170233434
 30
0.0
 40
2.0000000881710065
100
AcDbArc
 50
269.99999999999932
 51
89.999999999999687
  0
ARC
  5
1D2
100
AcDbEntity
  8
0
  6
CONTINUOUS
 62
               4
100
AcDbCircle
 10
44.846212680466202
 20
-59.890355170233427
 30
0.0
 40
2.0000000881710065
100
AcDbArc
 50
89.999999999999744
 51
269.99999999999932
  0
LINE
  5
1D3
100
AcDbEntity
  8
0
  6
CONTINUOUS
 62
               4
100
AcDbLine
 10
47.346212680466202
 20
-57.890355170233434
 30
0.0
 11
44.846212680466202
 21
-57.890355170233427
 31
0.0
  0
LINE
  5
1D4
100
AcDbEntity
  8
0
  6
CONTINUOUS
 62
               4
100
AcDbLine
 10
47.346212680466195
 20
-61.890355170233434
 30
0.0
 11
44.846212680466195
 21
-61.890355170233427
 31
0.0
  0
CIRCLE
  5
1D5
100
AcDbEntity
  8
0
  6
CONTINUOUS
 62
               4
100
AcDbCircle
 10
47.346806552536542
 20
-59.890355170233434
 30
0.0
 40
0.7250000000000001
  0
CIRCLE
  5
1D6
100
AcDbEntity
  8
0
  6
CONTINUOUS
 62
               4
100
AcDbCircle
 10
44.846806552536542
 20
-59.890355170233427
 30
0.0
 40
0.7250000000000001
  0
LINE
  5
1D7
100
AcDbEntity
  8
0
  6
CONTINUOUS
 62
               7
100
AcDbLine
 10
40.096212680466195
 20
-88.39035517023342
 30
0.0
 11
52.096212680466195
 21
-88.390355170233406
 31
0.0
  0
LINE
  5
1D8
100
AcDbEntity
  8
0
  6
CONTINUOUS
 62
               7
100
AcDbLine
 10
52.096212680466195
 20
-88.4903551702334
 30
0.0
 11
51.996212680466172
 21
-88.390355170233406
 31
0.0
  0
LINE
  5
1D9
100
AcDbEntity
  8
0
  6
CONTINUOUS
 62
               7
100
AcDbLine
 10
40.196212676914129
 20
-88.39035517023342
 30
0.0
 11
40.096212680466195
 21
-88.490355166681354
 31
0.0
  0
CIRCLE
  5
1DA
100
AcDbEntity
  8
0
  6
CONTINUOUS
 62
               7
100
AcDbCircle
 10
46.096212680466181
 20
-77.190355156646476
 30
0.0
 40
1.3999999999999997
  0
CIRCLE
  5
1DB
100
AcDbEntity
  8
0
  6
CONTINUOUS
 62
               7
100
AcDbCircle
 10
46.096212680466181
 20
-77.190355156646476
 30
0.0
 40
0.75
  0
CIRCLE
  5
1DC
100
AcDbEntity
  8
0
  6
CONTINUOUS
 62
               7
100
AcDbCircle
 10
46.096212680466181
 20
-77.190355156646476
 30
0.0
 40
1.1000000000000001
  0
LINE
  5
1DD
100
AcDbEntity
  8
0
  6
CENTER
 62
               2
100
AcDbLine
 10
48.411142816190534
 20
-77.190355156646476
 30
0.0
 11
43.872268527790538
 21
-77.190355156646461
 31
0.0
  0
LINE
  5
1DE
100
AcDbEntity
  8
0
  6
CONTINUOUS
 62
               7
100
AcDbLine
 10
51.346212680466181
 20
-74.390355170233434
 30
0.0
 11
51.796212680466198
 21
-74.390355170233434
 31
0.0
  0
CIRCLE
  5
1DF
100
AcDbEntity
  8
0
  6
CONTINUOUS
 62
               7
100
AcDbCircle
 10
46.096462680466232
 20
-77.190355170233445
 30
0.0
 40
1.1500000000000001
  0
LINE
  5
1E0
100
AcDbEntity
  8
0
  6
CONTINUOUS
 62
               7
100
AcDbLine
 10
40.39621268046622
 20
-74.39035517023342
 30
0.0
 11
40.846212680466181
 21
-74.39035517023342
 31
0.0
  0
LINE
  5
1E1
100
AcDbEntity
  8
0
  6
CONTINUOUS
 62
               7
100
AcDbLine
 10
40.39621268046622
 20
-74.39035517023342
 30
0.0
 11
40.096212680466209
 21
-74.690355170233403
 31
0.0
  0
LINE
  5
1E2
100
AcDbEntity
  8
0
  6
CONTINUOUS
 62
               7
100
AcDbLine
 10
51.796212680466198
 20
-74.390355170233434
 30
0.0
 11
52.096212680466209
 21
-74.690355170233417
 31
0.0
  0
LINE
  5
1E3
100
AcDbEntity
  8
0
  6
CONTINUOUS
 62
               7
100
AcDbLine
 10
51.146212680466192
 20
-74.590355170233423
 30
0.0
 11
51.146212680466192
 21
-74.890355170233434
 31
0.0
  0
LINE
  5
1E4
100
AcDbEntity
  8
0
  6
CONTINUOUS
 62
               7
100
AcDbLine
 10
41.046212680466226
 20
-74.590355170233408
 30
0.0
 11
41.046212680466226
 21
-74.89035517023342
 31
0.0
  0
LINE
  5
1E5
100
AcDbEntity
  8
0
  6
CONTINUOUS
 62
               7
100
AcDbLine
 10
41.046212680466226
 20
-74.590355170233408
 30
0.0
 11
40.846212680466181
 21
-74.39035517023342
 31
0.0
  0
LINE
  5
1E6
100
AcDbEntity
  8
0
  6
CONTINUOUS
 62
               7
100
AcDbLine
 10
51.146212680466192
 20
-74.590355170233423
 30
0.0
 11
51.346212680466181
 21
-74.390355170233434
 31
0.0
  0
LINE
  5
1E7
100
AcDbEntity
  8
0
  6
CONTINUOUS
 62
               7
100
AcDbLine
 10
41.046212680466226
 20
-74.89035517023342
 30
0.0
 11
51.146212680466192
 21
-74.890355170233434
 31
0.0
  0
LINE
  5
1E8
100
AcDbEntity
  8
0
  6
CENTER
 62
               2
100
AcDbLine
 10
46.096212680466209
 20
-50.490355475409167
 30
0.0
 11
46.096212680466067
 21
-174.62944542035416
 31
0.0
  0
LINE
  5
1E9
100
AcDbEntity
  8
0
  6
CONTINUOUS
 62
               7
100
AcDbLine
 10
52.096212680466067
 20
-150.0903551787722
 30
0.0
 11
52.096212680466209
 21
-74.690355170233417
 31
0.0
  0
LINE
  5
1EA
100
AcDbEntity
  8
0
  6
CONTINUOUS
 62
               7
100
AcDbLine
 10
40.096212680466124
 20
-150.0903551787722
 30
0.0
 11
40.096212680466209
 21
-74.690355170233403
 31
0.0
  0
LINE
  5
1EB
100
AcDbEntity
  8
0
  6
CONTINUOUS
 62
               7
100
AcDbLine
 10
40.096212680466152
 20
-127.39035517023342
 30
0.0
 11
52.096212680466124
 21
-127.39035517023343
 31
0.0
  0
LINE
  5
1EC
100
AcDbEntity
  8
0
  6
CONTINUOUS
 62
               7
100
AcDbLine
 10
41.046212680466141
 20
-149.89035517877215
 30
0.0
 11
51.146212680465993
 21
-149.89035517877221
 31
0.0
  0
LINE
  5
1ED
100
AcDbEntity
  8
0
  6
CONTINUOUS
 62
               7
100
AcDbLine
 10
51.146212680465993
 20
-150.19035517877222
 30
0.0
 11
51.346212680466095
 21
-150.39035517877221
 31
0.0
  0
LINE
  5
1EE
100
AcDbEntity
  8
0
  6
CONTINUOUS
 62
               7
100
AcDbLine
 10
41.046212680466141
 20
-150.19035517877217
 30
0.0
 11
40.846212680466095
 21
-150.39035517877215
 31
0.0
  0
LINE
  5
1EF
100
AcDbEntity
  8
0
  6
CONTINUOUS
 62
               7
100
AcDbLine
 10
41.046212680466141
 20
-150.19035517877217
 30
0.0
 11
41.046212680466141
 21
-149.89035517877215
 31
0.0
  0
LINE
  5
1F0
100
AcDbEntity
  8
0
  6
CONTINUOUS
 62
               7
100
AcDbLine
 10
51.146212680465993
 20
-150.19035517877222
 30
0.0
 11
51.146212680465993
 21
-149.89035517877221
 31
0.0
  0
LINE
  5
1F1
100
AcDbEntity
  8
0
  6
CONTINUOUS
 62
               7
100
AcDbLine
 10
51.796212680466112
 20
-150.39035517877221
 30
0.0
 11
52.09621268046601
 21
-150.0903551787722
 31
0.0
  0
LINE
  5
1F2
100
AcDbEntity
  8
0
  6
CONTINUOUS
 62
               7
100
AcDbLine
 10
40.396212680466022
 20
-150.39035517877215
 30
0.0
 11
40.096212680466124
 21
-150.0903551787722
 31
0.0
  0
LINE
  5
1F3
100
AcDbEntity
  8
0
  6
CONTINUOUS
 62
               7
100
AcDbLine
 10
40.396212680466022
 20
-150.39035517877215
 30
0.0
 11
40.846212680466095
 21
-150.39035517877215
 31
0.0
  0
CIRCLE
  5
1F4
100
AcDbEntity
  8
0
  6
CONTINUOUS
 62
               7
100
AcDbCircle
 10
46.096462680466153
 20
-147.5903551787722
 30
0.0
 40
1.1500000000000001
  0
LINE
  5
1F5
100
AcDbEntity
  8
0
  6
CONTINUOUS
 62
               7
100
AcDbLine
 10
51.346212680466095
 20
-150.39035517877221
 30
0.0
 11
51.796212680466112
 21
-150.39035517877221
 31
0.0
  0
LINE
  5
1F6
100
AcDbEntity
  8
0
  6
CENTER
 62
               2
100
AcDbLine
 10
48.411142816190456
 20
-147.59035519235914
 30
0.0
 11
43.872268527790347
 21
-147.59035519235914
 31
0.0
  0
CIRCLE
  5
1F7
100
AcDbEntity
  8
0
  6
CONTINUOUS
 62
               7
100
AcDbCircle
 10
46.096212680466103
 20
-147.59035519235914
 30
0.0
 40
1.1000000000000001
  0
CIRCLE
  5
1F8
100
AcDbEntity
  8
0
  6
CONTINUOUS
 62
               7
100
AcDbCircle
 10
46.096212680466103
 20
-147.59035519235914
 30
0.0
 40
0.75
  0
CIRCLE
  5
1F9
100
AcDbEntity
  8
0
  6
CONTINUOUS
 62
               7
100
AcDbCircle
 10
46.096212680466103
 20
-147.59035519235914
 30
0.0
 40
1.3999999999999997
  0
LINE
  5
1FA
100
AcDbEntity
  8
0
  6
CONTINUOUS
 62
               7
100
AcDbLine
 10
40.096212680466138
 20
-136.39035517023342
 30
0.0
 11
52.096212680466081
 21
-136.39035517023342
 31
0.0
  0
LINE
  5
1FB
100
AcDbEntity
  8
0
  6
CENTER
 62
               2
100
AcDbLine
 10
40.396212680466149
 20
-113.69035516668137
 30
0.0
 11
47.396212680466149
 21
-113.69035516668136
 31
0.0
  0
LINE
  5
1FC
100
AcDbEntity
  8
0
  6
CENTER
 62
               2
100
AcDbLine
 10
44.796212680466112
 20
-102.09035516668138
 30
0.0
 11
51.796212680466112
 21
-102.09035516668138
 31
0.0
  0
LINE
  5
1FD
100
AcDbEntity
  8
0
  6
CENTER
 62
               2
100
AcDbLine
 10
39.396212680466135
 20
-99.190355166681357
 30
0.0
 11
43.396212680466135
 21
-99.190355166681357
 31
0.0
  0
CIRCLE
  5
1FE
100
AcDbEntity
  8
0
  6
CONTINUOUS
 62
               7
100
AcDbCircle
 10
41.396212680466135
 20
-99.190355166681357
 30
0.0
 40
1.075
  0
LINE
  5
1FF
100
AcDbEntity
  8
0
  6
CONTINUOUS
 62
               7
100
AcDbLine
 10
41.396212680466142
 20
-97.540355166681366
 30
0.0
 11
40.096212680466188
 21
-97.540355166681366
 31
0.0
  0
LINE
  5
200
100
AcDbEntity
  8
0
  6
CONTINUOUS
 62
               7
100
AcDbLine
 10
41.396212680466135
 20
-100.84035516668135
 30
0.0
 11
40.096212680466181
 21
-100.84035516668135
 31
0.0
  0
LINE
  5
201
100
AcDbEntity
  8
0
  6
CENTER
 62
               2
100
AcDbLine
 10
48.796212680466127
 20
-116.59035516668136
 30
0.0
 11
52.796212680466127
 21
-116.59035516668136
 31
0.0
  0
CIRCLE
  5
202
100
AcDbEntity
  8
0
  6
CONTINUOUS
 62
               7
100
AcDbCircle
 10
50.796212680466127
 20
-116.59035516668136
 30
0.0
 40
1.075
  0
LINE
  5
203
100
AcDbEntity
  8
0
  6
CONTINUOUS
 62
               7
100
AcDbLine
 10
50.796212680466127
 20
-114.94035516668137
 30
0.0
 11
52.096212680466138
 21
-114.94035516668137
 31
0.0
  0
LINE
  5
204
100
AcDbEntity
  8
0
  6
CONTINUOUS
 62
               7
100
AcDbLine
 10
50.796212680466127
 20
-118.24035516668137
 30
0.0
 11
52.096212680466138
 21
-118.24035516668137
 31
0.0
  0
LINE
  5
205
100
AcDbEntity
  8
0
  6
CENTER
 62
               2
100
AcDbLine
 10
50.79621268046612
 20
-118.59035516668136
 30
0.0
 11
50.796212680466127
 21
-114.59035516668136
 31
0.0
  0
ARC
  5
206
100
AcDbEntity
  8
0
  6
CONTINUOUS
 62
               7
100
AcDbCircle
 10
50.796212680466127
 20
-116.59035516668136
 30
0.0
 40
1.6499999999999999
100
AcDbArc
 50
89.999999999999744
 51
269.99999999999932
  0
ARC
  5
207
100
AcDbEntity
  8
0
  6
CONTINUOUS
 62
               7
100
AcDbCircle
 10
41.396212680466135
 20
-99.190355166681357
 30
0.0
 40
1.6499999999999999
100
AcDbArc
 50
269.99999999999932
 51
89.999999999999687
  0
LINE
  5
208
100
AcDbEntity
  8
0
  6
CENTER
 62
               2
100
AcDbLine
 10
41.396212680466135
 20
-101.19035516668136
 30
0.0
 11
41.396212680466142
 21
-97.190355166681371
 31
0.0
  0
CIRCLE
  5
209
100
AcDbEntity
  8
0
  6
CONTINUOUS
 62
               7
100
AcDbCircle
 10
48.296212680466084
 20
-102.09035516668138
 30
0.0
 40
2.0999999999999996
  0
CIRCLE
  5
20A
100
AcDbEntity
  8
0
  6
CONTINUOUS
 62
               2
100
AcDbCircle
 10
48.296212680466084
 20
-102.09035516668138
 30
0.0
 40
2.5
  0
CIRCLE
  5
20B
100
AcDbEntity
  8
0
  6
CONTINUOUS
 62
               7
100
AcDbCircle
 10
43.896212680466149
 20
-113.69035516668134
 30
0.0
 40
2.0999999999999996
  0
CIRCLE
  5
20C
100
AcDbEntity
  8
0
  6
CONTINUOUS
 62
               2
100
AcDbCircle
 10
43.896212680466149
 20
-113.69035516668134
 30
0.0
 40
2.5
  0
LINE
  5
20D
100
AcDbEntity
  8
0
  6
CENTER
 62
               2
100
AcDbLine
 10
43.896212680466157
 20
-110.19035516668137
 30
0.0
 11
43.896212680466149
 21
-117.19035516668137
 31
0.0
  0
LINE
  5
20E
100
AcDbEntity
  8
0
  6
CENTER
 62
               2
100
AcDbLine
 10
48.296212680466084
 20
-98.590355166681377
 30
0.0
 11
48.296212680466141
 21
-105.59035516668138
 31
0.0
  0
LINE
  5
20F
100
AcDbEntity
  8
0
  6
CONTINUOUS
 62
               4
100
AcDbLine
 10
40.096212680466188
 20
-95.387355174502787
 30
0.0
 11
37.796212688428064
 21
-95.387355174502787
 31
0.0
  0
LINE
  5
210
100
AcDbEntity
  8
0
  6
CONTINUOUS
 62
               4
100
AcDbLine
 10
40.096212680466159
 20
-120.38735517450279
 30
0.0
 11
37.796212688427921
 21
-120.38735517450279
 31
0.0
  0
LINE
  5
211
100
AcDbEntity
  8
0
  6
CONTINUOUS
 62
               4
100
AcDbLine
 10
37.796212688427921
 20
-120.38735516649395
 30
0.0
 11
37.796212688428064
 21
-95.387355166493947
 31
0.0
  0
LINE
  5
212
100
AcDbEntity
  8
0
  6
CENTER
 62
               2
100
AcDbLine
 10
42.596212680466195
 20
-101.89035517450279
 30
0.0
 11
35.296212688428014
 21
-101.89035517450279
 31
0.0
  0
LINE
  5
213
100
AcDbEntity
  8
0
  6
CENTER
 62
               2
100
AcDbLine
 10
42.596212680466181
 20
-113.89035517450279
 30
0.0
 11
35.296212688428
 21
-113.89035517450279
 31
0.0
  0
LINE
  5
214
100
AcDbEntity
  8
0
  6
CONTINUOUS
 62
             200
100
AcDbLine
 10
37.86839570209429
 20
-11.515309039905645
 30
0.0
 11
45.36839570209429
 21
-9.5053090399056259
 31
0.0
  0
LINE
  5
215
100
AcDbEntity
  8
0
  6
CONTINUOUS
 62
             200
100
AcDbLine
 10
37.86839570209429
 20
-10.475309039905653
 30
0.0
 11
45.368395702094233
 21
-8.4653090399056055
 31
0.0
  0
LINE
  5
216
100
AcDbEntity
  8
0
  6
CONTINUOUS
 62
             200
100
AcDbLine
 10
37.868395702093778
 20
129.52469096863288
 30
0.0
 11
45.368395702093835
 21
127.51469096863292
 31
0.0
  0
LINE
  5
217
100
AcDbEntity
  8
0
  6
CONTINUOUS
 62
             200
100
AcDbLine
 10
37.868395702093778
 20
128.48469096863289
 30
0.0
 11
45.368395702093835
 21
126.4746909686329
 31
0.0
  0
LINE
  5
218
100
AcDbEntity
  8
0
  6
CONTINUOUS
 62
               4
100
AcDbLine
 10
42.61839570209429
 20
-16.988238310839137
 30
0.0
 11
43.11839570209429
 21
-16.988238310839137
 31
0.0
  0
LINE
  5
219
100
AcDbEntity
  8
0
  6
CONTINUOUS
 62
               4
100
AcDbLine
 10
40.11839570209429
 20
-16.988238310839137
 30
0.0
 11
40.61839570209429
 21
-16.988238310839137
 31
0.0
  0
LINE
  5
21A
100
AcDbEntity
  8
0
  6
CONTINUOUS
 62
               4
100
AcDbLine
 10
46.618414012641097
 20
-0.9953090399057487
 30
0.0
 11
46.61841401264104
 21
21.004690960094244
 31
0.0
  0
LINE
  5
21B
100
AcDbEntity
  8
0
  6
CONTINUOUS
 62
               4
100
AcDbLine
 10
36.618414041730261
 20
-0.9953090441751442
 30
0.0
 11
37.868395702094233
 21
-0.9953090441751442
 31
0.0
  0
LINE
  5
21C
100
AcDbEntity
  8
0
  6
CONTINUOUS
 62
               4
100
AcDbLine
 10
46.618414012641097
 20
0.604690955824907
 30
0.0
 11
45.368395702094233
 21
0.604690955824907
 31
0.0
  0
LINE
  5
21D
100
AcDbEntity
  8
0
  6
CONTINUOUS
 62
               4
100
AcDbLine
 10
46.618414012641097
 20
-0.9953090441751158
 30
0.0
 11
45.368395702094233
 21
-0.9953090441751158
 31
0.0
  0
LINE
  5
21E
100
AcDbEntity
  8
0
  6
CONTINUOUS
 62
               4
100
AcDbLine
 10
36.618414012641097
 20
-0.9953090441751442
 30
0.0
 11
36.61841401264104
 21
21.004690960094209
 31
0.0
  0
LINE
  5
21F
100
AcDbEntity
  8
0
  6
CONTINUOUS
 62
               4
100
AcDbLine
 10
42.218395702094256
 20
-13.488238312839115
 30
0.0
 11
43.518395702094267
 21
-13.488238312839115
 31
0.0
  0
LINE
  5
220
100
AcDbEntity
  8
0
  6
CONTINUOUS
 62
               4
100
AcDbLine
 10
39.718395702094256
 20
-13.488238312839115
 30
0.0
 11
41.018395702094267
 21
-13.488238312839115
 31
0.0
  0
LINE
  5
221
100
AcDbEntity
  8
0
  6
CONTINUOUS
 62
               4
100
AcDbLine
 10
41.018395702094267
 20
-9.6353090399056214
 30
0.0
 11
41.01839570209421
 21
-5.9953090399056066
 31
0.0
  0
LINE
  5
222
100
AcDbEntity
  8
0
  6
CONTINUOUS
 62
               4
100
AcDbLine
 10
42.61839570209429
 20
-16.988238310839137
 30
0.0
 11
42.61839570209429
 21
-13.488238312839115
 31
0.0
  0
LINE
  5
223
100
AcDbEntity
  8
0
  6
CONTINUOUS
 62
               4
100
AcDbLine
 10
43.11839570209429
 20
-16.988238310839137
 30
0.0
 11
43.11839570209429
 21
-13.488238312839115
 31
0.0
  0
LINE
  5
224
100
AcDbEntity
  8
0
  6
CONTINUOUS
 62
               4
100
AcDbLine
 10
39.718395702094256
 20
-13.488238312839115
 30
0.0
 11
39.718395702094256
 21
-11.015309039905645
 31
0.0
  0
LINE
  5
225
100
AcDbEntity
  8
0
  6
CONTINUOUS
 62
               4
100
AcDbLine
 10
41.018395702094267
 20
-13.488238312839115
 30
0.0
 11
41.018395702094267
 21
-10.665309039905623
 31
0.0
  0
LINE
  5
226
100
AcDbEntity
  8
0
  6
CONTINUOUS
 62
               4
100
AcDbLine
 10
39.718395702094256
 20
-9.9853090399056441
 30
0.0
 11
39.718395702094199
 21
-5.995309039905635
 31
0.0
  0
LINE
  5
227
100
AcDbEntity
  8
0
  6
CONTINUOUS
 62
               4
100
AcDbLine
 10
42.218395702094256
 20
-9.3153090399056282
 30
0.0
 11
42.218395702094199
 21
-5.9953090399056066
 31
0.0
  0
LINE
  5
228
100
AcDbEntity
  8
0
  6
CONTINUOUS
 62
               4
100
AcDbLine
 10
43.518395702094267
 20
-8.9653090399056055
 30
0.0
 11
43.51839570209421
 21
-5.9953090399056066
 31
0.0
  0
LINE
  5
229
100
AcDbEntity
  8
0
  6
CONTINUOUS
 62
               4
100
AcDbLine
 10
43.418414012641051
 20
-0.8953087304606129
 30
0.0
 11
37.118414012641097
 21
-0.8953087304606129
 31
0.0
  0
LINE
  5
22A
100
AcDbEntity
  8
0
  6
CONTINUOUS
 62
               4
100
AcDbLine
 10
46.618414012641097
 20
-0.9953087304606072
 30
0.0
 11
36.618414012641097
 21
-0.9953087304606356
 31
0.0
  0
ARC
  5
22B
100
AcDbEntity
  8
0
  6
CONTINUOUS
 62
               4
100
AcDbCircle
 10
37.118414012641097
 20
-0.3953087304606271
 30
0.0
 40
0.5
100
AcDbArc
 50
179.9999999999998
 51
269.9999999999996
  0
LINE
  5
22C
100
AcDbEntity
  8
0
  6
CONTINUOUS
 62
               4
100
AcDbLine
 10
46.618414012641097
 20
-0.3953087304605845
 30
0.0
 11
43.418414012641051
 21
-0.3953087304605987
 31
0.0
  0
LINE
  5
22D
100
AcDbEntity
  8
0
  6
CONTINUOUS
 62
               4
100
AcDbLine
 10
46.618414012641097
 20
0.6046912695394155
 30
0.0
 11
43.418414012641051
 21
0.6046912695394013
 31
0.0
  0
LINE
  5
22E
100
AcDbEntity
  8
0
  6
CONTINUOUS
 62
               4
100
AcDbLine
 10
43.418414012641051
 20
-0.8953087304606129
 30
0.0
 11
43.418414012641051
 21
0.6046912695394013
 31
0.0
  0
ARC
  5
22F
100
AcDbEntity
  8
0
  6
CONTINUOUS
 62
               4
100
AcDbCircle
 10
45.822509159299216
 20
-0.3954038771187811
 30
0.0
 40
0.5999048608870732
100
AcDbArc
 50
269.99091272245403
 51
0.009087277546425
  0
ARC
  5
230
100
AcDbEntity
  8
0
  6
CONTINUOUS
 62
               4
100
AcDbCircle
 10
44.021326007404014
 20
-0.3963967356976212
 30
0.0
 40
0.5989129830170392
100
AcDbArc
 50
179.89591452477268
 51
270.10408547522661
  0
LINE
  5
231
100
AcDbEntity
  8
0
  6
CONTINUOUS
 62
               4
100
AcDbLine
 10
40.11839570209429
 20
-16.988238310839137
 30
0.0
 11
40.11839570209429
 21
-13.488238312839115
 31
0.0
  0
LINE
  5
232
100
AcDbEntity
  8
0
  6
CONTINUOUS
 62
               4
100
AcDbLine
 10
40.61839570209429
 20
-16.988238310839137
 30
0.0
 11
40.61839570209429
 21
-13.488238312839115
 31
0.0
  0
LINE
  5
233
100
AcDbEntity
  8
0
  6
CONTINUOUS
 62
               4
100
AcDbLine
 10
42.218395702094256
 20
-13.488238312839115
 30
0.0
 11
42.218395702094256
 21
-10.345309039905629
 31
0.0
  0
LINE
  5
234
100
AcDbEntity
  8
0
  6
CONTINUOUS
 62
               4
100
AcDbLine
 10
43.518395702094267
 20
-13.488238312839115
 30
0.0
 11
43.518395702094267
 21
-9.9953090399056066
 31
0.0
  0
LINE
  5
235
100
AcDbEntity
  8
0
  6
CONTINUOUS
 62
               4
100
AcDbLine
 10
37.868395702094233
 20
-5.995309039905635
 30
0.0
 11
45.368395702094233
 21
-5.9953090399056066
 31
0.0
  0
LINE
  5
236
100
AcDbEntity
  8
0
  6
CONTINUOUS
 62
               4
100
AcDbLine
 10
45.368395702094233
 20
-5.9953090399056066
 30
0.0
 11
45.368395702094233
 21
-0.9953087304606072
 31
0.0
  0
LINE
  5
237
100
AcDbEntity
  8
0
  6
CONTINUOUS
 62
               4
100
AcDbLine
 10
37.868395702094233
 20
-4.495309039905635
 30
0.0
 11
45.368395702094233
 21
-4.4953090399056066
 31
0.0
  0
LINE
  5
238
100
AcDbEntity
  8
0
  6
CONTINUOUS
 62
               4
100
AcDbLine
 10
37.868395702094233
 20
-5.995309039905635
 30
0.0
 11
37.868395702094233
 21
-0.9953087304606356
 31
0.0
  0
LINE
  5
239
100
AcDbEntity
  8
0
  6
CONTINUOUS
 62
               4
100
AcDbLine
 10
39.718395702093744
 20
131.49762024156635
 30
0.0
 11
41.018395702093756
 21
131.49762024156635
 31
0.0
  0
LINE
  5
23A
100
AcDbEntity
  8
0
  6
CONTINUOUS
 62
               4
100
AcDbLine
 10
41.018395702093812
 20
127.64469096863289
 30
0.0
 11
41.018395702093812
 21
124.00469096863287
 31
0.0
  0
LINE
  5
23B
100
AcDbEntity
  8
0
  6
CONTINUOUS
 62
               4
100
AcDbLine
 10
42.618395702093778
 20
134.9976202395664
 30
0.0
 11
42.618395702093778
 21
131.49762024156638
 31
0.0
  0
LINE
  5
23C
100
AcDbEntity
  8
0
  6
CONTINUOUS
 62
               4
100
AcDbLine
 10
43.118395702093778
 20
134.9976202395664
 30
0.0
 11
43.118395702093778
 21
131.49762024156638
 31
0.0
  0
LINE
  5
23D
100
AcDbEntity
  8
0
  6
CONTINUOUS
 62
               4
100
AcDbLine
 10
39.718395702093744
 20
131.49762024156635
 30
0.0
 11
39.718395702093744
 21
129.02469096863288
 31
0.0
  0
LINE
  5
23E
100
AcDbEntity
  8
0
  6
CONTINUOUS
 62
               4
100
AcDbLine
 10
41.018395702093756
 20
131.49762024156635
 30
0.0
 11
41.018395702093756
 21
128.67469096863289
 31
0.0
  0
LINE
  5
23F
100
AcDbEntity
  8
0
  6
CONTINUOUS
 62
               4
100
AcDbLine
 10
39.718395702093801
 20
127.99469096863288
 30
0.0
 11
39.718395702093801
 21
124.00469096863287
 31
0.0
  0
LINE
  5
240
100
AcDbEntity
  8
0
  6
CONTINUOUS
 62
               4
100
AcDbLine
 10
42.218395702093801
 20
127.32469096863289
 30
0.0
 11
42.218395702093801
 21
124.00469096863287
 31
0.0
  0
LINE
  5
241
100
AcDbEntity
  8
0
  6
CONTINUOUS
 62
               4
100
AcDbLine
 10
43.518395702093812
 20
126.97469096863287
 30
0.0
 11
43.518395702093812
 21
124.00469096863287
 31
0.0
  0
LINE
  5
242
100
AcDbEntity
  8
0
  6
CONTINUOUS
 62
               4
100
AcDbLine
 10
40.118395702093778
 20
134.99762023956637
 30
0.0
 11
40.118395702093778
 21
131.49762024156635
 31
0.0
  0
LINE
  5
243
100
AcDbEntity
  8
0
  6
CONTINUOUS
 62
               4
100
AcDbLine
 10
40.618395702093778
 20
134.99762023956637
 30
0.0
 11
40.618395702093778
 21
131.49762024156635
 31
0.0
  0
LINE
  5
244
100
AcDbEntity
  8
0
  6
CONTINUOUS
 62
               4
100
AcDbLine
 10
42.218395702093744
 20
131.49762024156638
 30
0.0
 11
42.218395702093744
 21
128.35469096863289
 31
0.0
  0
LINE
  5
245
100
AcDbEntity
  8
0
  6
CONTINUOUS
 62
               4
100
AcDbLine
 10
43.518395702093756
 20
131.49762024156638
 30
0.0
 11
43.518395702093812
 21
128.00469096863287
 31
0.0
  0
LINE
  5
246
100
AcDbEntity
  8
0
  6
CONTINUOUS
 62
               4
100
AcDbLine
 10
37.868395702093835
 20
124.00469096863287
 30
0.0
 11
45.368395702093835
 21
124.0046909686329
 31
0.0
  0
LINE
  5
247
100
AcDbEntity
  8
0
  6
CONTINUOUS
 62
               4
100
AcDbLine
 10
45.368395702093835
 20
124.0046909686329
 30
0.0
 11
45.368395702093835
 21
119.0046906591879
 31
0.0
  0
LINE
  5
248
100
AcDbEntity
  8
0
  6
CONTINUOUS
 62
               4
100
AcDbLine
 10
37.868395702093835
 20
122.50469096863287
 30
0.0
 11
45.368395702093835
 21
122.5046909686329
 31
0.0
  0
LINE
  5
249
100
AcDbEntity
  8
0
  6
CONTINUOUS
 62
               4
100
AcDbLine
 10
37.868395702093835
 20
124.00469096863287
 30
0.0
 11
37.868395702093835
 21
119.00469065918787
 31
0.0
  0
LINE
  5
24A
100
AcDbEntity
  8
0
  6
CONTINUOUS
 62
               4
100
AcDbLine
 10
42.218395702093744
 20
131.49762024156638
 30
0.0
 11
43.518395702093756
 21
131.49762024156638
 31
0.0
  0
LINE
  5
24B
100
AcDbEntity
  8
0
  6
CONTINUOUS
 62
               4
100
AcDbLine
 10
36.618414012640699
 20
119.00469097290235
 30
0.0
 11
36.618414012640756
 21
97.004690968633014
 31
0.0
  0
LINE
  5
24C
100
AcDbEntity
  8
0
  6
CONTINUOUS
 62
               4
100
AcDbLine
 10
46.618414012640699
 20
119.00469097290241
 30
0.0
 11
45.368395702093835
 21
119.00469097290241
 31
0.0
  0
LINE
  5
24D
100
AcDbEntity
  8
0
  6
CONTINUOUS
 62
               4
100
AcDbLine
 10
46.618414012640699
 20
117.40469097290239
 30
0.0
 11
45.368395702093835
 21
117.40469097290239
 31
0.0
  0
LINE
  5
24E
100
AcDbEntity
  8
0
  6
CONTINUOUS
 62
               4
100
AcDbLine
 10
36.61841404172992
 20
119.00469097290235
 30
0.0
 11
37.868395702093835
 21
119.00469097290238
 31
0.0
  0
LINE
  5
24F
100
AcDbEntity
  8
0
  6
CONTINUOUS
 62
               4
100
AcDbLine
 10
46.618414012640699
 20
119.00469096863304
 30
0.0
 11
46.618414012640756
 21
97.004690968633042
 31
0.0
  0
LINE
  5
250
100
AcDbEntity
  8
0
  6
CONTINUOUS
 62
               4
100
AcDbLine
 10
40.118395702093778
 20
134.99762023956637
 30
0.0
 11
40.618395702093778
 21
134.99762023956637
 31
0.0
  0
LINE
  5
251
100
AcDbEntity
  8
0
  6
CONTINUOUS
 62
               4
100
AcDbLine
 10
42.618395702093778
 20
134.9976202395664
 30
0.0
 11
43.118395702093778
 21
134.9976202395664
 31
0.0
  0
ARC
  5
252
100
AcDbEntity
  8
0
  6
CONTINUOUS
 62
               4
100
AcDbCircle
 10
44.021326007403616
 20
118.4057786644249
 30
0.0
 40
0.5989129830170392
100
AcDbArc
 50
89.895914524772962
 51
180.1040854752269
  0
ARC
  5
253
100
AcDbEntity
  8
0
  6
CONTINUOUS
 62
               4
100
AcDbCircle
 10
45.822509159298818
 20
118.40478580584607
 30
0.0
 40
0.5999048608870732
100
AcDbArc
 50
359.99091272245317
 51
90.009087277546371
  0
LINE
  5
254
100
AcDbEntity
  8
0
  6
CONTINUOUS
 62
               4
100
AcDbLine
 10
43.418414012640653
 20
118.90469065918788
 30
0.0
 11
43.418414012640653
 21
117.40469065918788
 31
0.0
  0
LINE
  5
255
100
AcDbEntity
  8
0
  6
CONTINUOUS
 62
               4
100
AcDbLine
 10
46.618414012640699
 20
117.40469065918788
 30
0.0
 11
43.418414012640653
 21
117.40469065918788
 31
0.0
  0
LINE
  5
256
100
AcDbEntity
  8
0
  6
CONTINUOUS
 62
               4
100
AcDbLine
 10
46.618414012640699
 20
118.40469065918788
 30
0.0
 11
43.418414012640653
 21
118.40469065918788
 31
0.0
  0
ARC
  5
257
100
AcDbEntity
  8
0
  6
CONTINUOUS
 62
               4
100
AcDbCircle
 10
37.118414012640699
 20
118.40469065918785
 30
0.0
 40
0.5
100
AcDbArc
 50
90.000000000000028
 51
179.99999999999983
  0
LINE
  5
258
100
AcDbEntity
  8
0
  6
CONTINUOUS
 62
               4
100
AcDbLine
 10
46.618414012640699
 20
119.0046906591879
 30
0.0
 11
36.618414012640699
 21
119.00469065918787
 31
0.0
  0
LINE
  5
259
100
AcDbEntity
  8
0
  6
CONTINUOUS
 62
               4
100
AcDbLine
 10
43.418414012640653
 20
118.90469065918788
 30
0.0
 11
37.118414012640699
 21
118.90469065918785
 31
0.0
  0
LINE
  5
25A
100
AcDbEntity
  8
0
  6
CONTINUOUS
 62
               7
100
AcDbLine
 10
47.618414012640926
 20
44.004690968633035
 30
0.0
 11
35.618414012640955
 21
44.004690968633035
 31
0.0
  0
LINE
  5
25B
100
AcDbEntity
  8
0
  6
CONTINUOUS
 62
               7
100
AcDbLine
 10
35.618414012640983
 20
21.304690968633004
 30
0.0
 11
35.618414012640926
 21
96.704690968633031
 31
0.0
  0
LINE
  5
25C
100
AcDbEntity
  8
0
  6
CENTER
 62
               2
100
AcDbLine
 10
41.618414012640955
 20
120.9046906634573
 30
0.0
 11
41.618414012640955
 21
-3.234399281487697
 31
0.0
  0
LINE
  5
25D
100
AcDbEntity
  8
0
  6
CONTINUOUS
 62
               7
100
AcDbLine
 10
35.918414012640937
 20
97.004690968633042
 30
0.0
 11
35.618414012640926
 21
96.704690968633031
 31
0.0
  0
LINE
  5
25E
100
AcDbEntity
  8
0
  6
CONTINUOUS
 62
               7
100
AcDbLine
 10
47.318414012640915
 20
97.004690968633042
 30
0.0
 11
47.618414012640926
 21
96.704690968633031
 31
0.0
  0
LINE
  5
25F
100
AcDbEntity
  8
0
  6
CONTINUOUS
 62
               7
100
AcDbLine
 10
35.918414012640937
 20
97.004690968633042
 30
0.0
 11
47.318414012640915
 21
97.004690968633042
 31
0.0
  0
LINE
  5
260
100
AcDbEntity
  8
0
  6
CONTINUOUS
 62
               7
100
AcDbLine
 10
47.518414016192992
 20
83.004690968633042
 30
0.0
 11
47.618414012640926
 21
82.904690972185108
 31
0.0
  0
LINE
  5
261
100
AcDbEntity
  8
0
  6
CONTINUOUS
 62
               7
100
AcDbLine
 10
35.618414012640926
 20
82.904690968633048
 30
0.0
 11
35.718414012640949
 21
83.004690968633042
 31
0.0
  0
LINE
  5
262
100
AcDbEntity
  8
0
  6
CONTINUOUS
 62
               7
100
AcDbLine
 10
47.618414012640926
 20
83.004690968633042
 30
0.0
 11
35.618414012640926
 21
83.004690968633042
 31
0.0
  0
LINE
  5
263
100
AcDbEntity
  8
0
  6
CONTINUOUS
 62
               7
100
AcDbLine
 10
47.618414012640926
 20
35.004690968633035
 30
0.0
 11
35.618414012640955
 21
35.004690968633035
 31
0.0
  0
LINE
  5
264
100
AcDbEntity
  8
0
  6
CENTER
 62
               2
100
AcDbLine
 10
43.618414012640955
 20
26.804690968632926
 30
0.0
 11
39.618414012640955
 21
26.804690968632926
 31
0.0
  0
CIRCLE
  5
265
100
AcDbEntity
  8
0
  6
CONTINUOUS
 62
               7
100
AcDbCircle
 10
41.618414012640955
 20
26.804690968632926
 30
0.0
 40
1.0
  0
LINE
  5
266
100
AcDbEntity
  8
0
  6
CONTINUOUS
 62
               7
100
AcDbLine
 10
35.918414012640937
 20
21.004690968633007
 30
0.0
 11
35.618414012640926
 21
21.304690968633004
 31
0.0
  0
LINE
  5
267
100
AcDbEntity
  8
0
  6
CONTINUOUS
 62
               7
100
AcDbLine
 10
47.318414012640915
 20
21.004690968633007
 30
0.0
 11
47.618414012640926
 21
21.304690968633004
 31
0.0
  0
LINE
  5
268
100
AcDbEntity
  8
0
  6
CONTINUOUS
 62
               7
100
AcDbLine
 10
35.918414012640937
 20
21.004690968633007
 30
0.0
 11
47.318414012640915
 21
21.004690968633007
 31
0.0
  0
LINE
  5
269
100
AcDbEntity
  8
0
  6
CENTER
 62
               2
100
AcDbLine
 10
45.118414012640955
 20
75.104690968633037
 30
0.0
 11
38.118414012640955
 21
75.104690968633037
 31
0.0
  0
LINE
  5
26A
100
AcDbEntity
  8
0
  6
CENTER
 62
               2
100
AcDbLine
 10
45.118414012640955
 20
51.904690968633027
 30
0.0
 11
38.118414012640955
 21
51.904690968633027
 31
0.0
  0
CIRCLE
  5
26B
100
AcDbEntity
  8
0
  6
CONTINUOUS
 62
               7
100
AcDbCircle
 10
41.618414012640955
 20
51.904690968633027
 30
0.0
 40
2.1000000000000001
  0
CIRCLE
  5
26C
100
AcDbEntity
  8
0
  6
CONTINUOUS
 62
               2
100
AcDbCircle
 10
41.618414012640955
 20
51.904690968633027
 30
0.0
 40
2.5
  0
CIRCLE
  5
26D
100
AcDbEntity
  8
0
  6
CONTINUOUS
 62
               7
100
AcDbCircle
 10
41.618414012640955
 20
75.104690968633037
 30
0.0
 40
2.1000000000000001
  0
CIRCLE
  5
26E
100
AcDbEntity
  8
0
  6
CONTINUOUS
 62
               2
100
AcDbCircle
 10
41.618414012640955
 20
75.104690968633037
 30
0.0
 40
2.5
  0
LINE
  5
26F
100
AcDbEntity
  8
0
  6
CENTER
 62
               2
100
AcDbLine
 10
45.118414012640955
 20
63.504690968633021
 30
0.0
 11
38.118414012640955
 21
63.504690968633021
 31
0.0
  0
CIRCLE
  5
270
100
AcDbEntity
  8
0
  6
CONTINUOUS
 62
               7
100
AcDbCircle
 10
41.618414012640955
 20
63.504690968633021
 30
0.0
 40
2.1000000000000001
  0
CIRCLE
  5
271
100
AcDbEntity
  8
0
  6
CONTINUOUS
 62
               2
100
AcDbCircle
 10
41.618414012640955
 20
63.504690968633021
 30
0.0
 40
2.5
  0
LINE
  5
272
100
AcDbEntity
  8
0
  6
CENTER
 62
               2
100
AcDbLine
 10
47.818414012640943
 20
72.204690968633059
 30
0.0
 11
44.818414012640943
 21
72.204690968633059
 31
0.0
  0
CIRCLE
  5
273
100
AcDbEntity
  8
0
  6
CONTINUOUS
 62
               7
100
AcDbCircle
 10
46.318414012640943
 20
72.204690968633059
 30
0.0
 40
1.075
  0
LINE
  5
274
100
AcDbEntity
  8
0
  6
CENTER
 62
               2
100
AcDbLine
 10
46.318414012640943
 20
70.704690968633059
 30
0.0
 11
46.318414012640943
 21
73.704690968633059
 31
0.0
  0
LINE
  5
275
100
AcDbEntity
  8
0
  6
CENTER
 62
               2
100
AcDbLine
 10
35.418414012640966
 20
54.80469096863299
 30
0.0
 11
38.418414012640966
 21
54.804690968632976
 31
0.0
  0
CIRCLE
  5
276
100
AcDbEntity
  8
0
  6
CONTINUOUS
 62
               7
100
AcDbCircle
 10
36.918414012640966
 20
54.804690968632983
 30
0.0
 40
1.075
  0
LINE
  5
277
100
AcDbEntity
  8
0
  6
CENTER
 62
               2
100
AcDbLine
 10
36.918414012640966
 20
56.304690968632983
 30
0.0
 11
36.918414012640966
 21
53.304690968632983
 31
0.0
  0
LINE
  5
278
100
AcDbEntity
  8
0
  6
CENTER
 62
               2
100
AcDbLine
 10
43.618414012640955
 20
91.204690968633116
 30
0.0
 11
39.618414012640955
 21
91.204690968633116
 31
0.0
  0
CIRCLE
  5
279
100
AcDbEntity
  8
0
  6
CONTINUOUS
 62
               7
100
AcDbCircle
 10
41.618414012640955
 20
91.204690968633116
 30
0.0
 40
1.0
  0
LINE
  5
27A
100
AcDbEntity
  8
0
  6
CONTINUOUS
 62
               7
100
AcDbLine
 10
47.618414012640926
 20
21.304690968633004
 30
0.0
 11
47.618414012640926
 21
96.704690968633031
 31
0.0
  0
LINE
  5
27B
100
AcDbEntity
  8
0
  6
CONTINUOUS
 62
               4
100
AcDbLine
 10
47.618414012640926
 20
76.007690964363661
 30
0.0
 11
49.91841400467905
 21
76.007690964363661
 31
0.0
  0
LINE
  5
27C
100
AcDbEntity
  8
0
  6
CONTINUOUS
 62
               4
100
AcDbLine
 10
47.618414012640926
 20
51.007690964363668
 30
0.0
 11
49.918414004679164
 21
51.007690964363668
 31
0.0
  0
LINE
  5
27D
100
AcDbEntity
  8
0
  6
CONTINUOUS
 62
               4
100
AcDbLine
 10
49.918414004679164
 20
51.007690972372508
 30
0.0
 11
49.91841400467905
 21
76.007690972372501
 31
0.0
  0
LINE
  5
27E
100
AcDbEntity
  8
0
  6
CENTER
 62
               2
100
AcDbLine
 10
45.118414012640926
 20
69.504690964363675
 30
0.0
 11
52.418414004679107
 21
69.504690964363675
 31
0.0
  0
LINE
  5
27F
100
AcDbEntity
  8
0
  6
CENTER
 62
               2
100
AcDbLine
 10
45.118414012640926
 20
57.504690964363675
 30
0.0
 11
52.418414004679107
 21
57.504690964363675
 31
0.0
  0
LINE
  5
280
100
AcDbEntity
  8
0
  6
CONTINUOUS
 62
             200
100
AcDbLine
 10
155.28508062655533
 20
-9.3185410517938436
 30
0.0
 11
152.28710083028864
 21
-11.050864283127183
 31
0.0
  0
LINE
  5
281
100
AcDbEntity
  8
0
  6
CONTINUOUS
 62
             200
100
AcDbLine
 10
155.28508062655533
 20
-9.6650056980605115
 30
0.0
 11
152.28710083028864
 21
-11.397328929393794
 31
0.0
  0
LINE
  5
282
100
AcDbEntity
  8
0
  6
CONTINUOUS
 62
             200
100
AcDbLine
 10
155.28508062655533
 20
127.32792298052112
 30
0.0
 11
152.28710083028864
 21
129.06024621185446
 31
0.0
  0
LINE
  5
283
100
AcDbEntity
  8
0
  6
CONTINUOUS
 62
             200
100
AcDbLine
 10
155.28508062655533
 20
127.67438762678779
 30
0.0
 11
152.28710083028864
 21
129.40671085812107
 31
0.0
  0
LINE
  5
284
100
AcDbEntity
  8
0
  6
CONTINUOUS
 62
               4
100
AcDbLine
 10
156.38811092895526
 20
10.007721579139414
 30
0.0
 11
157.08811092855524
 21
10.007721579139414
 31
0.0
  0
LINE
  5
285
100
AcDbEntity
  8
0
  6
CONTINUOUS
 62
               4
100
AcDbLine
 10
157.38508062535527
 20
0.6107518875393936
 30
0.0
 11
157.38508062535527
 21
9.7107518823393804
 31
0.0
  0
LINE
  5
286
100
AcDbEntity
  8
0
  6
CONTINUOUS
 62
               4
100
AcDbLine
 10
155.3840705254886
 20
0.5117619886060112
 30
0.0
 11
155.68811092935528
 21
0.2077215847393887
 31
0.0
  0
LINE
  5
287
100
AcDbEntity
  8
0
  6
CONTINUOUS
 62
               4
100
AcDbLine
 10
151.29013113388862
 20
0.0097417868727376
 30
0.0
 11
151.78508062855531
 21
0.0097417868727376
 31
0.0
  0
LINE
  5
288
100
AcDbEntity
  8
0
  6
CONTINUOUS
 62
               4
100
AcDbLine
 10
151.29013113388862
 20
-4.9912683269938185
 30
0.0
 11
151.78508062855531
 21
-4.9912683269938185
 31
0.0
  0
LINE
  5
289
100
AcDbEntity
  8
0
  6
CONTINUOUS
 62
               4
100
AcDbLine
 10
155.3840705254886
 20
-5.9953087304604793
 30
0.0
 11
155.68811092935528
 21
-5.6912683265938
 31
0.0
  0
LINE
  5
28A
100
AcDbEntity
  8
0
  6
CONTINUOUS
 62
               4
100
AcDbLine
 10
155.68811092935528
 20
-5.6912683265938
 30
0.0
 11
155.68811092935528
 21
0.2077215847393887
 31
0.0
  0
LINE
  5
28B
100
AcDbEntity
  8
0
  6
CONTINUOUS
 62
               4
100
AcDbLine
 10
155.3840705254886
 20
-5.9953087304604793
 30
0.0
 11
155.3840705254886
 21
1.6077215839393517
 31
0.0
  0
LINE
  5
28C
100
AcDbEntity
  8
0
  6
CONTINUOUS
 62
               4
100
AcDbLine
 10
156.38811092895526
 20
3.0077215831393715
 30
0.0
 11
156.38811092895526
 21
8.7067114788727196
 31
0.0
  0
LINE
  5
28D
100
AcDbEntity
  8
0
  6
CONTINUOUS
 62
               4
100
AcDbLine
 10
156.18306042402196
 20
1.6784286546060372
 30
0.0
 11
157.286090726422
 21
-4.5857319508033498
 31
0.0
  0
LINE
  5
28E
100
AcDbEntity
  8
0
  6
CONTINUOUS
 62
               4
100
AcDbLine
 10
157.286090726422
 20
-5.9953087304604793
 30
0.0
 11
158.2830604228219
 21
-5.9953087304604793
 31
0.0
  0
LINE
  5
28F
100
AcDbEntity
  8
0
  6
CONTINUOUS
 62
               4
100
AcDbLine
 10
157.286090726422
 20
-5.9953087304604793
 30
0.0
 11
157.286090726422
 21
-4.581167317127111
 31
0.0
  0
LINE
  5
290
100
AcDbEntity
  8
0
  6
CONTINUOUS
 62
               4
100
AcDbLine
 10
157.38508062535527
 20
0.6107518875393936
 30
0.0
 11
158.2830604228219
 21
-4.4963188323271339
 31
0.0
  0
LINE
  5
291
100
AcDbEntity
  8
0
  6
CONTINUOUS
 62
               4
100
AcDbLine
 10
158.2830604228219
 20
-5.9953087304604793
 30
0.0
 11
158.2830604228219
 21
-4.4963188323271339
 31
0.0
  0
LINE
  5
292
100
AcDbEntity
  8
0
  6
CONTINUOUS
 62
               4
100
AcDbLine
 10
154.68407052588861
 20
-5.9953087304604793
 30
0.0
 11
154.68407052588861
 21
2.0107518867393566
 31
0.0
  0
LINE
  5
293
100
AcDbEntity
  8
0
  6
CONTINUOUS
 62
               4
100
AcDbLine
 10
152.88811093095524
 20
-5.9953087304604793
 30
0.0
 11
152.88811093095524
 21
2.0107518867393566
 31
0.0
  0
LINE
  5
294
100
AcDbEntity
  8
0
  6
CONTINUOUS
 62
               4
100
AcDbLine
 10
151.29013113388862
 20
-5.9953087304604793
 30
0.0
 11
155.3840705254886
 21
-5.9953087304604793
 31
0.0
  0
LINE
  5
295
100
AcDbEntity
  8
0
  6
CONTINUOUS
 62
               4
100
AcDbLine
 10
148.28508063055529
 20
2.0107518867393566
 30
0.0
 11
155.78710082828866
 21
2.0107518867393566
 31
0.0
  0
LINE
  5
296
100
AcDbEntity
  8
0
  6
CONTINUOUS
 62
               4
100
AcDbLine
 10
146.28508063455536
 20
-0.9953087304606214
 30
0.0
 11
146.28508063455536
 21
0.6046912695393445
 31
0.0
  0
ARC
  5
297
100
AcDbEntity
  8
0
  6
CONTINUOUS
 62
               4
100
AcDbCircle
 10
147.78508063055529
 20
-0.3953087304606555
 30
0.0
 40
0.5
100
AcDbArc
 50
269.99999999999937
 51
0.0
  0
ARC
  5
298
100
AcDbEntity
  8
0
  6
CONTINUOUS
 62
               4
100
AcDbCircle
 10
147.48517569120395
 20
-0.3954038771092741
 30
0.0
 40
0.5999048008965869
100
AcDbArc
 50
269.990912722453
 51
303.75258212960529
  0
LINE
  5
299
100
AcDbEntity
  8
0
  6
CONTINUOUS
 62
               4
100
AcDbLine
 10
147.78508063055529
 20
-0.8953087304606555
 30
0.0
 11
146.28508063455536
 21
-0.8953087304606555
 31
0.0
  0
LINE
  5
29A
100
AcDbEntity
  8
0
  6
CONTINUOUS
 62
               4
100
AcDbLine
 10
153.53861598108858
 20
-16.99025821912717
 30
0.0
 11
154.03356547575527
 21
-16.99025821912717
 31
0.0
  0
LINE
  5
29B
100
AcDbEntity
  8
0
  6
CONTINUOUS
 62
               4
100
AcDbLine
 10
148.2850806345553
 20
21.004690964363633
 30
0.0
 11
148.2850806345553
 21
-0.3953087253928658
 31
0.0
  0
LINE
  5
29C
100
AcDbEntity
  8
0
  6
CONTINUOUS
 62
               4
100
AcDbLine
 10
156.28912103002199
 20
2.5057013814060412
 30
0.0
 11
156.28912103002199
 21
18.860246826606144
 31
0.0
  0
LINE
  5
29D
100
AcDbEntity
  8
0
  6
CONTINUOUS
 62
               4
100
AcDbLine
 10
151.29013113388862
 20
21.504691269539521
 30
0.0
 11
151.29013113388862
 21
2.0107518867393566
 31
0.0
  0
ARC
  5
29E
100
AcDbEntity
  8
0
  6
CONTINUOUS
 62
               4
100
AcDbCircle
 10
134.78508063855531
 20
-0.3953087304606555
 30
0.0
 40
0.5
100
AcDbArc
 50
179.99999999999963
 51
266.08041410034838
  0
ARC
  5
29F
100
AcDbEntity
  8
0
  6
CONTINUOUS
 62
               4
100
AcDbCircle
 10
135.0839927194271
 20
-0.3963967355888229
 30
0.0
 40
0.5989129231257409
100
AcDbArc
 50
179.89591452477254
 51
270.10408547522644
  0
LINE
  5
2A0
100
AcDbEntity
  8
0
  6
CONTINUOUS
 62
               4
100
AcDbLine
 10
136.98508063455529
 20
-0.3953087304606555
 30
0.0
 11
134.28508063855531
 21
-0.3953087304606555
 31
0.0
  0
LINE
  5
2A1
100
AcDbEntity
  8
0
  6
CONTINUOUS
 62
               4
100
AcDbLine
 10
136.98508063455529
 20
-0.9953087304606214
 30
0.0
 11
136.98508063455529
 21
-0.3953087304606555
 31
0.0
  0
LINE
  5
2A2
100
AcDbEntity
  8
0
  6
CONTINUOUS
 62
               4
100
AcDbLine
 10
134.2850806345553
 20
-0.3953087304605703
 30
0.0
 11
134.2850806345553
 21
21.004690964363633
 31
0.0
  0
LINE
  5
2A3
100
AcDbEntity
  8
0
  6
CONTINUOUS
 62
               4
100
AcDbLine
 10
147.48508054455533
 20
-0.9953087304606214
 30
0.0
 11
135.08508072455527
 21
-0.9953087304606214
 31
0.0
  0
LINE
  5
2A4
100
AcDbEntity
  8
0
  6
CONTINUOUS
 62
               4
100
AcDbLine
 10
146.28508063455536
 20
0.6046912695393445
 30
0.0
 11
134.28508063855531
 21
0.6046912695393445
 31
0.0
  0
LINE
  5
2A5
100
AcDbEntity
  8
0
  6
CONTINUOUS
 62
               4
100
AcDbLine
 10
156.28912103002199
 20
8.7067114788727196
 30
0.0
 11
156.38811092895526
 21
8.7067114788727196
 31
0.0
  0
LINE
  5
2A6
100
AcDbEntity
  8
0
  6
CONTINUOUS
 62
               4
100
AcDbLine
 10
156.28912103002199
 20
9.9087316802060883
 30
0.0
 11
156.38811092895526
 21
10.007721579139414
 31
0.0
  0
LINE
  5
2A7
100
AcDbEntity
  8
0
  6
CONTINUOUS
 62
               4
100
AcDbLine
 10
153.13558567828863
 20
-10.562985495527144
 30
0.0
 11
153.13558567828863
 21
-5.9953087304604793
 31
0.0
  0
ARC
  5
2A8
100
AcDbEntity
  8
0
  6
CONTINUOUS
 62
               4
100
AcDbCircle
 10
155.7831136921244
 20
18.855206772047765
 30
0.0
 40
0.5060324378497572
100
AcDbArc
 50
0.570672169885155
 51
64.718608099947076
  0
LINE
  5
2A9
100
AcDbEntity
  8
0
  6
CONTINUOUS
 62
               4
100
AcDbLine
 10
151.29013113388862
 20
21.504691269539521
 30
0.0
 11
155.9992220402886
 21
19.312772078872783
 31
0.0
  0
LINE
  5
2AA
100
AcDbEntity
  8
0
  6
CONTINUOUS
 62
               4
100
AcDbLine
 10
150.28508063455536
 20
21.504691269539407
 30
0.0
 11
151.28508345108207
 21
21.504691269539407
 31
0.0
  0
ARC
  5
2AB
100
AcDbEntity
  8
0
  6
CONTINUOUS
 62
               4
100
AcDbCircle
 10
155.78700175725328
 20
1.6042451270456723
 30
0.0
 40
0.4029462287748787
100
AcDbArc
 50
10.608827982274413
 51
179.50566908284432
  0
ARC
  5
2AC
100
AcDbEntity
  8
0
  6
CONTINUOUS
 62
               4
100
AcDbCircle
 10
155.88506757542211
 20
3.010419536094858
 30
0.0
 40
0.5030505883944908
100
AcDbArc
 50
323.43739164534645
 51
359.69271070880933
  0
ARC
  5
2AD
100
AcDbEntity
  8
0
  6
CONTINUOUS
 62
               4
100
AcDbCircle
 10
157.08297675264714
 20
9.7056177064311697
 30
0.0
 40
0.3021474965435785
100
AcDbArc
 50
0.9736329845118463
 51
89.026367015487978
  0
ARC
  5
2AE
100
AcDbEntity
  8
0
  6
CONTINUOUS
 62
               4
100
AcDbCircle
 10
155.78891475383398
 20
2.5109827547557444
 30
0.0
 40
0.5002341568128574
100
AcDbArc
 50
269.79223628684531
 51
359.39507124653568
  0
LINE
  5
2AF
100
AcDbEntity
  8
0
  6
CONTINUOUS
 62
               4
100
AcDbLine
 10
151.78508062855531
 20
-4.9912683269938185
 30
0.0
 11
151.78508062855531
 21
0.0097417868727376
 31
0.0
  0
LINE
  5
2B0
100
AcDbEntity
  8
0
  6
CONTINUOUS
 62
               4
100
AcDbLine
 10
151.29013113388862
 20
0.0097417868727376
 30
0.0
 11
151.29013113388862
 21
2.0107518867393566
 31
0.0
  0
LINE
  5
2B1
100
AcDbEntity
  8
0
  6
CONTINUOUS
 62
               4
100
AcDbLine
 10
151.29013113388862
 20
-5.9953087304604793
 30
0.0
 11
151.29013113388862
 21
-4.9912683269938185
 31
0.0
  0
LINE
  5
2B2
100
AcDbEntity
  8
0
  6
CONTINUOUS
 62
               4
100
AcDbLine
 10
154.43659577855533
 20
-9.8134905464604714
 30
0.0
 11
154.43659577855533
 21
-5.9953087304604793
 31
0.0
  0
LINE
  5
2B3
100
AcDbEntity
  8
0
  6
CONTINUOUS
 62
               4
100
AcDbLine
 10
154.03356547575527
 20
-16.99025821912717
 30
0.0
 11
154.03356547575527
 21
-13.490258221127149
 31
0.0
  0
LINE
  5
2B4
100
AcDbEntity
  8
0
  6
CONTINUOUS
 62
               4
100
AcDbLine
 10
153.53861598108858
 20
-16.99025821912717
 30
0.0
 11
153.53861598108858
 21
-13.490258221127149
 31
0.0
  0
LINE
  5
2B5
100
AcDbEntity
  8
0
  6
CONTINUOUS
 62
               4
100
AcDbLine
 10
153.13558567828863
 20
-13.490258221127149
 30
0.0
 11
154.43659577855533
 21
-13.490258221127149
 31
0.0
  0
LINE
  5
2B6
100
AcDbEntity
  8
0
  6
CONTINUOUS
 62
               4
100
AcDbLine
 10
153.13558567828863
 20
-13.490258221127149
 30
0.0
 11
153.13558567828863
 21
-10.909450141793812
 31
0.0
  0
LINE
  5
2B7
100
AcDbEntity
  8
0
  6
CONTINUOUS
 62
               4
100
AcDbLine
 10
154.43659577855533
 20
-13.490258221127149
 30
0.0
 11
154.43659577855533
 21
-10.159955192727139
 31
0.0
  0
ARC
  5
2B8
100
AcDbEntity
  8
0
  6
CONTINUOUS
 62
               4
100
AcDbCircle
 10
147.78508063055529
 20
118.40469065918793
 30
0.0
 40
0.5
100
AcDbArc
 50
0.0
 51
89.999999999999815
  0
LINE
  5
2B9
100
AcDbEntity
  8
0
  6
CONTINUOUS
 62
               4
100
AcDbLine
 10
146.28508063455536
 20
119.0046906591879
 30
0.0
 11
146.28508063455536
 21
117.40469065918793
 31
0.0
  0
LINE
  5
2BA
100
AcDbEntity
  8
0
  6
CONTINUOUS
 62
               4
100
AcDbLine
 10
148.28508063055529
 20
115.99863004198792
 30
0.0
 11
155.78710082828866
 21
115.99863004198792
 31
0.0
  0
LINE
  5
2BB
100
AcDbEntity
  8
0
  6
CONTINUOUS
 62
               4
100
AcDbLine
 10
151.29013113388862
 20
124.00469065918776
 30
0.0
 11
155.3840705254886
 21
124.00469065918776
 31
0.0
  0
LINE
  5
2BC
100
AcDbEntity
  8
0
  6
CONTINUOUS
 62
               4
100
AcDbLine
 10
152.88811093095524
 20
124.00469065918776
 30
0.0
 11
152.88811093095524
 21
115.99863004198792
 31
0.0
  0
LINE
  5
2BD
100
AcDbEntity
  8
0
  6
CONTINUOUS
 62
               4
100
AcDbLine
 10
154.68407052588861
 20
124.00469065918776
 30
0.0
 11
154.68407052588861
 21
115.99863004198792
 31
0.0
  0
LINE
  5
2BE
100
AcDbEntity
  8
0
  6
CONTINUOUS
 62
               4
100
AcDbLine
 10
158.2830604228219
 20
124.00469065918776
 30
0.0
 11
158.2830604228219
 21
122.50570076105441
 31
0.0
  0
LINE
  5
2BF
100
AcDbEntity
  8
0
  6
CONTINUOUS
 62
               4
100
AcDbLine
 10
157.38508062535527
 20
117.39863004118789
 30
0.0
 11
158.2830604228219
 21
122.50570076105441
 31
0.0
  0
LINE
  5
2C0
100
AcDbEntity
  8
0
  6
CONTINUOUS
 62
               4
100
AcDbLine
 10
157.286090726422
 20
124.00469065918776
 30
0.0
 11
157.286090726422
 21
122.59054924585439
 31
0.0
  0
LINE
  5
2C1
100
AcDbEntity
  8
0
  6
CONTINUOUS
 62
               4
100
AcDbLine
 10
157.286090726422
 20
124.00469065918776
 30
0.0
 11
158.2830604228219
 21
124.00469065918776
 31
0.0
  0
LINE
  5
2C2
100
AcDbEntity
  8
0
  6
CONTINUOUS
 62
               4
100
AcDbLine
 10
156.18306042402196
 20
116.33095327412124
 30
0.0
 11
157.286090726422
 21
122.59511387953063
 31
0.0
  0
LINE
  5
2C3
100
AcDbEntity
  8
0
  6
CONTINUOUS
 62
               4
100
AcDbLine
 10
156.38811092895526
 20
115.00166034558791
 30
0.0
 11
156.38811092895526
 21
109.30267044985456
 31
0.0
  0
LINE
  5
2C4
100
AcDbEntity
  8
0
  6
CONTINUOUS
 62
               4
100
AcDbLine
 10
155.3840705254886
 20
124.00469065918776
 30
0.0
 11
155.3840705254886
 21
116.40166034478793
 31
0.0
  0
LINE
  5
2C5
100
AcDbEntity
  8
0
  6
CONTINUOUS
 62
               4
100
AcDbLine
 10
155.68811092935528
 20
123.70065025532108
 30
0.0
 11
155.68811092935528
 21
117.80166034398789
 31
0.0
  0
LINE
  5
2C6
100
AcDbEntity
  8
0
  6
CONTINUOUS
 62
               4
100
AcDbLine
 10
155.3840705254886
 20
124.00469065918776
 30
0.0
 11
155.68811092935528
 21
123.70065025532108
 31
0.0
  0
LINE
  5
2C7
100
AcDbEntity
  8
0
  6
CONTINUOUS
 62
               4
100
AcDbLine
 10
151.29013113388862
 20
123.0006502557211
 30
0.0
 11
151.78508062855531
 21
123.0006502557211
 31
0.0
  0
LINE
  5
2C8
100
AcDbEntity
  8
0
  6
CONTINUOUS
 62
               4
100
AcDbLine
 10
151.29013113388862
 20
117.99964014185454
 30
0.0
 11
151.78508062855531
 21
117.99964014185454
 31
0.0
  0
LINE
  5
2C9
100
AcDbEntity
  8
0
  6
CONTINUOUS
 62
               4
100
AcDbLine
 10
155.3840705254886
 20
117.49761994012127
 30
0.0
 11
155.68811092935528
 21
117.80166034398789
 31
0.0
  0
LINE
  5
2CA
100
AcDbEntity
  8
0
  6
CONTINUOUS
 62
               4
100
AcDbLine
 10
157.38508062535527
 20
117.39863004118789
 30
0.0
 11
157.38508062535527
 21
108.2986300463879
 31
0.0
  0
LINE
  5
2CB
100
AcDbEntity
  8
0
  6
CONTINUOUS
 62
               4
100
AcDbLine
 10
156.38811092895526
 20
108.00166034958787
 30
0.0
 11
157.08811092855524
 21
108.00166034958787
 31
0.0
  0
ARC
  5
2CC
100
AcDbEntity
  8
0
  6
CONTINUOUS
 62
               4
100
AcDbCircle
 10
147.48517569120395
 20
118.40478580583655
 30
0.0
 40
0.5999048008965869
100
AcDbArc
 50
56.247417870393882
 51
90.009087277546172
  0
LINE
  5
2CD
100
AcDbEntity
  8
0
  6
CONTINUOUS
 62
               4
100
AcDbLine
 10
147.78508063055529
 20
118.90469065918793
 30
0.0
 11
146.28508063455536
 21
118.90469065918793
 31
0.0
  0
LINE
  5
2CE
100
AcDbEntity
  8
0
  6
CONTINUOUS
 62
               4
100
AcDbLine
 10
153.53861598108858
 20
134.99964014785445
 30
0.0
 11
154.03356547575527
 21
134.99964014785445
 31
0.0
  0
LINE
  5
2CF
100
AcDbEntity
  8
0
  6
CONTINUOUS
 62
               4
100
AcDbLine
 10
148.2850806345553
 20
97.004690964363647
 30
0.0
 11
148.2850806345553
 21
118.40469065412015
 31
0.0
  0
LINE
  5
2D0
100
AcDbEntity
  8
0
  6
CONTINUOUS
 62
               4
100
AcDbLine
 10
156.28912103002199
 20
115.50368054732124
 30
0.0
 11
156.28912103002199
 21
99.149135102121136
 31
0.0
  0
LINE
  5
2D1
100
AcDbEntity
  8
0
  6
CONTINUOUS
 62
               4
100
AcDbLine
 10
151.29013113388862
 20
96.504690659187759
 30
0.0
 11
151.29013113388862
 21
115.99863004198792
 31
0.0
  0
ARC
  5
2D2
100
AcDbEntity
  8
0
  6
CONTINUOUS
 62
               4
100
AcDbCircle
 10
134.78508063855531
 20
118.40469065918793
 30
0.0
 40
0.5
100
AcDbArc
 50
93.919585899650798
 51
179.99999999999963
  0
ARC
  5
2D3
100
AcDbEntity
  8
0
  6
CONTINUOUS
 62
               4
100
AcDbCircle
 10
135.0839927194271
 20
118.4057786643161
 30
0.0
 40
0.5989129231257409
100
AcDbArc
 50
89.895914524772735
 51
180.10408547522667
  0
LINE
  5
2D4
100
AcDbEntity
  8
0
  6
CONTINUOUS
 62
               4
100
AcDbLine
 10
136.98508063455529
 20
118.40469065918793
 30
0.0
 11
134.28508063855531
 21
118.40469065918793
 31
0.0
  0
LINE
  5
2D5
100
AcDbEntity
  8
0
  6
CONTINUOUS
 62
               4
100
AcDbLine
 10
136.98508063455529
 20
119.0046906591879
 30
0.0
 11
136.98508063455529
 21
118.40469065918793
 31
0.0
  0
LINE
  5
2D6
100
AcDbEntity
  8
0
  6
CONTINUOUS
 62
               4
100
AcDbLine
 10
134.2850806345553
 20
118.40469065918785
 30
0.0
 11
134.2850806345553
 21
97.004690964363647
 31
0.0
  0
LINE
  5
2D7
100
AcDbEntity
  8
0
  6
CONTINUOUS
 62
               4
100
AcDbLine
 10
147.48508054455533
 20
119.0046906591879
 30
0.0
 11
135.08508072455527
 21
119.0046906591879
 31
0.0
  0
LINE
  5
2D8
100
AcDbEntity
  8
0
  6
CONTINUOUS
 62
               4
100
AcDbLine
 10
146.28508063455536
 20
117.40469065918793
 30
0.0
 11
134.28508063855531
 21
117.40469065918793
 31
0.0
  0
LINE
  5
2D9
100
AcDbEntity
  8
0
  6
CONTINUOUS
 62
               4
100
AcDbLine
 10
156.28912103002199
 20
109.30267044985456
 30
0.0
 11
156.38811092895526
 21
109.30267044985456
 31
0.0
  0
LINE
  5
2DA
100
AcDbEntity
  8
0
  6
CONTINUOUS
 62
               4
100
AcDbLine
 10
156.28912103002199
 20
108.10065024852119
 30
0.0
 11
156.38811092895526
 21
108.00166034958787
 31
0.0
  0
LINE
  5
2DB
100
AcDbEntity
  8
0
  6
CONTINUOUS
 62
               4
100
AcDbLine
 10
153.13558567828863
 20
128.57236742425442
 30
0.0
 11
153.13558567828863
 21
124.00469065918776
 31
0.0
  0
LINE
  5
2DC
100
AcDbEntity
  8
0
  6
CONTINUOUS
 62
               4
100
AcDbLine
 10
154.43659577855533
 20
131.49964014985443
 30
0.0
 11
154.43659577855533
 21
128.16933712145442
 31
0.0
  0
LINE
  5
2DD
100
AcDbEntity
  8
0
  6
CONTINUOUS
 62
               4
100
AcDbLine
 10
153.13558567828863
 20
131.49964014985443
 30
0.0
 11
153.13558567828863
 21
128.91883207052109
 31
0.0
  0
LINE
  5
2DE
100
AcDbEntity
  8
0
  6
CONTINUOUS
 62
               4
100
AcDbLine
 10
153.13558567828863
 20
131.49964014985443
 30
0.0
 11
154.43659577855533
 21
131.49964014985443
 31
0.0
  0
LINE
  5
2DF
100
AcDbEntity
  8
0
  6
CONTINUOUS
 62
               4
100
AcDbLine
 10
153.53861598108858
 20
134.99964014785445
 30
0.0
 11
153.53861598108858
 21
131.49964014985443
 31
0.0
  0
LINE
  5
2E0
100
AcDbEntity
  8
0
  6
CONTINUOUS
 62
               4
100
AcDbLine
 10
154.03356547575527
 20
134.99964014785445
 30
0.0
 11
154.03356547575527
 21
131.49964014985443
 31
0.0
  0
LINE
  5
2E1
100
AcDbEntity
  8
0
  6
CONTINUOUS
 62
               4
100
AcDbLine
 10
154.43659577855533
 20
127.82287247518775
 30
0.0
 11
154.43659577855533
 21
124.00469065918776
 31
0.0
  0
LINE
  5
2E2
100
AcDbEntity
  8
0
  6
CONTINUOUS
 62
               4
100
AcDbLine
 10
151.29013113388862
 20
124.00469065918776
 30
0.0
 11
151.29013113388862
 21
123.0006502557211
 31
0.0
  0
LINE
  5
2E3
100
AcDbEntity
  8
0
  6
CONTINUOUS
 62
               4
100
AcDbLine
 10
151.29013113388862
 20
117.99964014185454
 30
0.0
 11
151.29013113388862
 21
115.99863004198792
 31
0.0
  0
LINE
  5
2E4
100
AcDbEntity
  8
0
  6
CONTINUOUS
 62
               4
100
AcDbLine
 10
151.78508062855531
 20
123.0006502557211
 30
0.0
 11
151.78508062855531
 21
117.99964014185454
 31
0.0
  0
ARC
  5
2E5
100
AcDbEntity
  8
0
  6
CONTINUOUS
 62
               4
100
AcDbCircle
 10
155.78891475383398
 20
115.49839917397153
 30
0.0
 40
0.5002341568128574
100
AcDbArc
 50
0.6049287534634878
 51
90.207763713153867
  0
ARC
  5
2E6
100
AcDbEntity
  8
0
  6
CONTINUOUS
 62
               4
100
AcDbCircle
 10
157.08297675264714
 20
108.30376422229611
 30
0.0
 40
0.3021474965435785
100
AcDbArc
 50
270.97363298451126
 51
359.02636701548732
  0
ARC
  5
2E7
100
AcDbEntity
  8
0
  6
CONTINUOUS
 62
               4
100
AcDbCircle
 10
155.88506757542211
 20
114.99896239263242
 30
0.0
 40
0.5030505883944908
100
AcDbArc
 50
0.3072892911898554
 51
36.562608354652731
  0
ARC
  5
2E8
100
AcDbEntity
  8
0
  6
CONTINUOUS
 62
               4
100
AcDbCircle
 10
155.78700175725328
 20
116.40513680168161
 30
0.0
 40
0.4029462287748787
100
AcDbArc
 50
180.49433091715488
 51
349.39117201772478
  0
LINE
  5
2E9
100
AcDbEntity
  8
0
  6
CONTINUOUS
 62
               4
100
AcDbLine
 10
150.28508063455536
 20
96.504690659187872
 30
0.0
 11
151.28508345108207
 21
96.504690659187872
 31
0.0
  0
LINE
  5
2EA
100
AcDbEntity
  8
0
  6
CONTINUOUS
 62
               4
100
AcDbLine
 10
151.29013113388862
 20
96.504690659187759
 30
0.0
 11
155.9992220402886
 21
98.696609849854497
 31
0.0
  0
ARC
  5
2EB
100
AcDbEntity
  8
0
  6
CONTINUOUS
 62
               4
100
AcDbCircle
 10
155.7831136921244
 20
99.154175156679514
 30
0.0
 40
0.5060324378497572
100
AcDbArc
 50
295.28139190005214
 51
359.42932783011406
  0
LINE
  5
2EC
100
AcDbEntity
  8
0
  6
CONTINUOUS
 62
               7
100
AcDbLine
 10
150.28508063455538
 20
44.004690964363697
 30
0.0
 11
132.28508063455538
 21
44.004690964363711
 31
0.0
  0
LINE
  5
2ED
100
AcDbEntity
  8
0
  6
CONTINUOUS
 62
               7
100
AcDbLine
 10
132.38508063455541
 20
83.004690964363704
 30
0.0
 11
150.28508063455538
 21
83.004690964363704
 31
0.0
  0
LINE
  5
2EE
100
AcDbEntity
  8
0
  6
CONTINUOUS
 62
               7
100
AcDbLine
 10
132.5850806345554
 20
97.004690964363647
 30
0.0
 11
132.28508063455538
 21
96.704690964363635
 31
0.0
  0
LINE
  5
2EF
100
AcDbEntity
  8
0
  6
CONTINUOUS
 62
               7
100
AcDbLine
 10
132.28508063455544
 20
82.904690964363624
 30
0.0
 11
132.38508063455541
 21
83.004690964363618
 31
0.0
  0
LINE
  5
2F0
100
AcDbEntity
  8
0
  6
CONTINUOUS
 62
               7
100
AcDbLine
 10
132.5850806345554
 20
97.004690964363647
 30
0.0
 11
150.28508063455544
 21
97.004690964363618
 31
0.0
  0
LINE
  5
2F1
100
AcDbEntity
  8
0
  6
CENTER
 62
               2
100
AcDbLine
 10
141.28508063455538
 20
120.90469066345727
 30
0.0
 11
141.2850806345553
 21
-2.8281828728930094
 31
0.0
  0
LINE
  5
2F2
100
AcDbEntity
  8
0
  6
CONTINUOUS
 62
               7
100
AcDbLine
 10
150.28508063455538
 20
21.004690964363782
 30
0.0
 11
150.28508063455538
 21
97.004690964363618
 31
0.0
  0
LINE
  5
2F3
100
AcDbEntity
  8
0
  6
CONTINUOUS
 62
               7
100
AcDbLine
 10
132.2850806345553
 20
21.304690964363793
 30
0.0
 11
132.28508063455538
 21
96.704690964363635
 31
0.0
  0
LINE
  5
2F4
100
AcDbEntity
  8
0
  6
PHANTOM
 62
               7
100
AcDbLine
 10
132.28508063867534
 20
27.004690955207387
 30
0.0
 11
132.28508063867534
 21
32.004690964363611
 31
0.0
  0
LINE
  5
2F5
100
AcDbEntity
  8
0
  6
CONTINUOUS
 62
               7
100
AcDbLine
 10
132.5850806345554
 20
21.004690964363782
 30
0.0
 11
150.28508063455544
 21
21.004690964363782
 31
0.0
  0
LINE
  5
2F6
100
AcDbEntity
  8
0
  6
CONTINUOUS
 62
               7
100
AcDbLine
 10
132.5850806345554
 20
21.004690964363782
 30
0.0
 11
132.28508063455538
 21
21.304690964363793
 31
0.0
  0
LINE
  5
2F7
100
AcDbEntity
  8
0
  6
CONTINUOUS
 62
               7
100
AcDbLine
 10
150.28508063455538
 20
35.004690964363697
 30
0.0
 11
132.28508063455538
 21
35.004690964363711
 31
0.0
  0
LINE
  5
2F8
100
AcDbEntity
  8
0
  6
CONTINUOUS
 62
               7
100
AcDbLine
 10
150.28508063455538
 20
70.554690968632997
 30
0.0
 11
149.28508063455538
 21
70.554690968632997
 31
0.0
  0
LINE
  5
2F9
100
AcDbEntity
  8
0
  6
CONTINUOUS
 62
               7
100
AcDbLine
 10
150.28508063455538
 20
73.854690968633008
 30
0.0
 11
149.28508063455538
 21
73.854690968633008
 31
0.0
  0
LINE
  5
2FA
100
AcDbEntity
  8
0
  6
CONTINUOUS
 62
               7
100
AcDbLine
 10
149.28508063455538
 20
73.854690968633008
 30
0.0
 11
149.28508063455538
 21
70.558365956426073
 31
0.0
  0
LINE
  5
2FB
100
AcDbEntity
  8
0
  6
CENTER
 62
               2
100
AcDbLine
 10
135.08508063455534
 20
60.504690964363675
 30
0.0
 11
135.08508063455534
 21
54.504690964363675
 31
0.0
  0
LINE
  5
2FC
100
AcDbEntity
  8
0
  6
CENTER
 62
               2
100
AcDbLine
 10
135.0850806345554
 20
72.504690964363675
 30
0.0
 11
135.08508063455534
 21
66.504690964363675
 31
0.0
  0
CIRCLE
  5
2FD
100
AcDbEntity
  8
0
  6
CONTINUOUS
 62
               4
100
AcDbCircle
 10
135.0850806345554
 20
69.504690964363675
 30
0.0
 40
1.75
  0
CIRCLE
  5
2FE
100
AcDbEntity
  8
0
  6
CONTINUOUS
 62
               4
100
AcDbCircle
 10
135.08508063455534
 20
57.504690964363675
 30
0.0
 40
1.75
  0
LINE
  5
2FF
100
AcDbEntity
  8
0
  6
CENTER
 62
               2
100
AcDbLine
 10
138.0850806345554
 20
69.504690964363675
 30
0.0
 11
132.0850806345554
 21
69.504690964363675
 31
0.0
  0
LINE
  5
300
100
AcDbEntity
  8
0
  6
CENTER
 62
               2
100
AcDbLine
 10
138.08508063455534
 20
57.504690964363675
 30
0.0
 11
132.08508063455534
 21
57.504690964363675
 31
0.0
  0
LINE
  5
301
100
AcDbEntity
  8
0
  6
DASHED
 62
             200
100
AcDbLine
 10
120.78508063455538
 20
76.704690968633031
 30
0.0
 11
118.78508063455538
 21
76.704690968633031
 31
0.0
  0
LINE
  5
302
100
AcDbEntity
  8
0
  6
DASHED
 62
             200
100
AcDbLine
 10
120.78508063455538
 20
75.804690968633025
 30
0.0
 11
118.78508063455538
 21
75.804690968633025
 31
0.0
  0
LINE
  5
303
100
AcDbEntity
  8
0
  6
DASHED
 62
             200
100
AcDbLine
 10
120.78508063455538
 20
77.604690968633008
 30
0.0
 11
118.78508063455538
 21
77.604690968633008
 31
0.0
  0
LINE
  5
304
100
AcDbEntity
  8
0
  6
DASHED
 62
             200
100
AcDbLine
 10
120.78508063455538
 20
78.304690968633025
 30
0.0
 11
118.78508063455538
 21
78.304690968633025
 31
0.0
  0
LINE
  5
305
100
AcDbEntity
  8
0
  6
DASHED
 62
             200
100
AcDbLine
 10
120.78508063455538
 20
78.804690968633025
 30
0.0
 11
118.78508063455538
 21
78.804690968633025
 31
0.0
  0
LINE
  5
306
100
AcDbEntity
  8
0
  6
DASHED
 62
             200
100
AcDbLine
 10
120.78508063455538
 20
74.40469096863302
 30
0.0
 11
118.78508063455538
 21
74.40469096863302
 31
0.0
  0
LINE
  5
307
100
AcDbEntity
  8
0
  6
DASHED
 62
             200
100
AcDbLine
 10
118.78508063455538
 20
79.104690968633008
 30
0.0
 11
118.78508063455538
 21
71.104690968633008
 31
0.0
  0
LINE
  5
308
100
AcDbEntity
  8
0
  6
DASHED
 62
             200
100
AcDbLine
 10
120.78508063455538
 20
73.504690968633014
 30
0.0
 11
118.78508063455538
 21
73.504690968633014
 31
0.0
  0
LINE
  5
309
100
AcDbEntity
  8
0
  6
DASHED
 62
             200
100
AcDbLine
 10
120.78508063455538
 20
72.604690968633008
 30
0.0
 11
118.78508063455538
 21
72.604690968633008
 31
0.0
  0
LINE
  5
30A
100
AcDbEntity
  8
0
  6
DASHED
 62
             200
100
AcDbLine
 10
120.78508063455538
 20
71.90469096863302
 30
0.0
 11
118.78508063455538
 21
71.90469096863302
 31
0.0
  0
LINE
  5
30B
100
AcDbEntity
  8
0
  6
DASHED
 62
             200
100
AcDbLine
 10
120.78508063455538
 20
71.40469096863302
 30
0.0
 11
118.78508063455538
 21
71.40469096863302
 31
0.0
  0
LINE
  5
30C
100
AcDbEntity
  8
0
  6
DASHED
 62
             200
100
AcDbLine
 10
120.78508063455538
 20
79.104690968633008
 30
0.0
 11
120.78508063455538
 21
71.104690968633008
 31
0.0
  0
LINE
  5
30D
100
AcDbEntity
  8
0
  6
DASHED
 62
             200
100
AcDbLine
 10
132.28508063455538
 20
71.104690968633008
 30
0.0
 11
118.78508063455538
 21
71.104690968633008
 31
0.0
  0
LINE
  5
30E
100
AcDbEntity
  8
0
  6
DASHED
 62
             200
100
AcDbLine
 10
132.28508063455538
 20
79.104690968633008
 30
0.0
 11
118.78508063455538
 21
79.104690968633008
 31
0.0
  0
LINE
  5
30F
100
AcDbEntity
  8
0
  6
CENTER
 62
             200
100
AcDbLine
 10
133.4554306345554
 20
75.104690968633008
 30
0.0
 11
117.15508063455539
 21
75.104690968633008
 31
0.0
  0
LINE
  5
310
100
AcDbEntity
  8
0
  6
DASHED
 62
             200
100
AcDbLine
 10
118.28508063455538
 20
78.604690968633008
 30
0.0
 11
118.28508063455538
 21
71.604690968633008
 31
0.0
  0
LINE
  5
311
100
AcDbEntity
  8
0
  6
DASHED
 62
               7
100
AcDbLine
 10
132.28508063455538
 20
79.104690968633008
 30
0.0
 11
132.28508063455538
 21
71.104690968633008
 31
0.0
  0
ARC
  5
312
100
AcDbEntity
  8
0
  6
DASHED
 62
             200
100
AcDbCircle
 10
118.78508063455538
 20
71.604690968633008
 30
0.0
 40
0.5
100
AcDbArc
 50
179.99999999999963
 51
269.99999999999937
  0
ARC
  5
313
100
AcDbEntity
  8
0
  6
DASHED
 62
             200
100
AcDbCircle
 10
118.78508063455538
 20
78.604690968633008
 30
0.0
 40
0.5
100
AcDbArc
 50
89.999999999999815
 51
179.99999999999963
  0
LINE
  5
314
100
AcDbEntity
  8
0
  6
DASHED
 62
             200
100
AcDbLine
 10
120.78508063455533
 20
53.504690968633
 30
0.0
 11
118.78508063455533
 21
53.504690968633
 31
0.0
  0
LINE
  5
315
100
AcDbEntity
  8
0
  6
DASHED
 62
             200
100
AcDbLine
 10
120.78508063455533
 20
52.604690968633001
 30
0.0
 11
118.78508063455533
 21
52.604690968633001
 31
0.0
  0
LINE
  5
316
100
AcDbEntity
  8
0
  6
DASHED
 62
             200
100
AcDbLine
 10
120.78508063455533
 20
54.404690968632998
 30
0.0
 11
118.78508063455533
 21
54.404690968632998
 31
0.0
  0
LINE
  5
317
100
AcDbEntity
  8
0
  6
DASHED
 62
             200
100
AcDbLine
 10
120.78508063455533
 20
55.104690968633001
 30
0.0
 11
118.78508063455533
 21
55.104690968633001
 31
0.0
  0
LINE
  5
318
100
AcDbEntity
  8
0
  6
DASHED
 62
             200
100
AcDbLine
 10
120.78508063455533
 20
55.604690968633001
 30
0.0
 11
118.78508063455533
 21
55.604690968633001
 31
0.0
  0
LINE
  5
319
100
AcDbEntity
  8
0
  6
DASHED
 62
             200
100
AcDbLine
 10
120.78508063455533
 20
51.204690968632995
 30
0.0
 11
118.78508063455533
 21
51.204690968632995
 31
0.0
  0
LINE
  5
31A
100
AcDbEntity
  8
0
  6
DASHED
 62
             200
100
AcDbLine
 10
118.78508063455533
 20
55.904690968632998
 30
0.0
 11
118.78508063455533
 21
47.904690968632998
 31
0.0
  0
LINE
  5
31B
100
AcDbEntity
  8
0
  6
DASHED
 62
             200
100
AcDbLine
 10
120.78508063455533
 20
50.304690968632997
 30
0.0
 11
118.78508063455533
 21
50.304690968632997
 31
0.0
  0
LINE
  5
31C
100
AcDbEntity
  8
0
  6
DASHED
 62
             200
100
AcDbLine
 10
120.78508063455533
 20
49.404690968632998
 30
0.0
 11
118.78508063455533
 21
49.404690968632998
 31
0.0
  0
LINE
  5
31D
100
AcDbEntity
  8
0
  6
DASHED
 62
             200
100
AcDbLine
 10
120.78508063455533
 20
48.704690968632995
 30
0.0
 11
118.78508063455533
 21
48.704690968632995
 31
0.0
  0
LINE
  5
31E
100
AcDbEntity
  8
0
  6
DASHED
 62
             200
100
AcDbLine
 10
120.78508063455533
 20
48.204690968632995
 30
0.0
 11
118.78508063455533
 21
48.204690968632995
 31
0.0
  0
LINE
  5
31F
100
AcDbEntity
  8
0
  6
DASHED
 62
             200
100
AcDbLine
 10
120.78508063455533
 20
55.904690968632998
 30
0.0
 11
120.78508063455533
 21
47.904690968632998
 31
0.0
  0
LINE
  5
320
100
AcDbEntity
  8
0
  6
DASHED
 62
             200
100
AcDbLine
 10
132.28508063455533
 20
47.904690968632998
 30
0.0
 11
118.78508063455533
 21
47.904690968632998
 31
0.0
  0
LINE
  5
321
100
AcDbEntity
  8
0
  6
DASHED
 62
             200
100
AcDbLine
 10
132.28508063455533
 20
55.904690968632998
 30
0.0
 11
118.78508063455533
 21
55.904690968632998
 31
0.0
  0
LINE
  5
322
100
AcDbEntity
  8
0
  6
CENTER
 62
             200
100
AcDbLine
 10
133.45543063455534
 20
51.904690968632998
 30
0.0
 11
117.15508063455533
 21
51.904690968632998
 31
0.0
  0
LINE
  5
323
100
AcDbEntity
  8
0
  6
DASHED
 62
             200
100
AcDbLine
 10
118.28508063455533
 20
55.404690968632998
 30
0.0
 11
118.28508063455533
 21
48.404690968632998
 31
0.0
  0
LINE
  5
324
100
AcDbEntity
  8
0
  6
DASHED
 62
               7
100
AcDbLine
 10
132.28508063455533
 20
55.904690968632998
 30
0.0
 11
132.28508063455533
 21
47.904690968632998
 31
0.0
  0
ARC
  5
325
100
AcDbEntity
  8
0
  6
DASHED
 62
             200
100
AcDbCircle
 10
118.78508063455533
 20
48.404690968632998
 30
0.0
 40
0.5
100
AcDbArc
 50
179.99999999999963
 51
269.99999999999937
  0
ARC
  5
326
100
AcDbEntity
  8
0
  6
DASHED
 62
             200
100
AcDbCircle
 10
118.78508063455533
 20
55.404690968632998
 30
0.0
 40
0.5
100
AcDbArc
 50
89.999999999999815
 51
179.99999999999963
  0
ARC
  5
327
100
AcDbEntity
  8
0
  6
CONTINUOUS
 62
               4
100
AcDbCircle
 10
133.68508063455539
 20
75.004690964363675
 30
0.0
 40
1.0
100
AcDbArc
 50
89.999999999999815
 51
179.99999999999963
  0
LINE
  5
328
100
AcDbEntity
  8
0
  6
CONTINUOUS
 62
               4
100
AcDbLine
 10
133.68508063455539
 20
76.004690964363675
 30
0.0
 11
143.68508063455539
 21
76.004690964363675
 31
0.0
  0
ARC
  5
329
100
AcDbEntity
  8
0
  6
CONTINUOUS
 62
               4
100
AcDbCircle
 10
143.68508063455539
 20
75.004690964363675
 30
0.0
 40
1.0
100
AcDbArc
 50
0.0
 51
89.999999999999815
  0
LINE
  5
32A
100
AcDbEntity
  8
0
  6
CONTINUOUS
 62
               4
100
AcDbLine
 10
144.68508063455539
 20
52.004690964363682
 30
0.0
 11
144.68508063455539
 21
75.004690964363675
 31
0.0
  0
ARC
  5
32B
100
AcDbEntity
  8
0
  6
CONTINUOUS
 62
               4
100
AcDbCircle
 10
143.68508063455539
 20
52.004690964363682
 30
0.0
 40
1.0
100
AcDbArc
 50
270.00000000000023
 51
0.0
  0
LINE
  5
32C
100
AcDbEntity
  8
0
  6
CONTINUOUS
 62
               4
100
AcDbLine
 10
133.68508063455539
 20
51.004690964363682
 30
0.0
 11
143.68508063455539
 21
51.004690964363682
 31
0.0
  0
ARC
  5
32D
100
AcDbEntity
  8
0
  6
CONTINUOUS
 62
               4
100
AcDbCircle
 10
133.68508063455539
 20
52.004690964363682
 30
0.0
 40
1.0
100
AcDbArc
 50
179.99999999999963
 51
269.99999999999937
  0
LINE
  5
32E
100
AcDbEntity
  8
0
  6
CONTINUOUS
 62
               4
100
AcDbLine
 10
132.68508063455539
 20
52.004690964363682
 30
0.0
 11
132.68508063455539
 21
75.004690964363675
 31
0.0
  0
LINE
  5
32F
100
AcDbEntity
  8
0
  6
PHANTOM
 62
             200
100
AcDbLine
 10
227.45172894592287
 20
14.004690960094429
 30
0.0
 11
230.45172894592287
 21
14.004690960094422
 31
0.0
  0
LINE
  5
330
100
AcDbEntity
  8
0
  6
PHANTOM
 62
             200
100
AcDbLine
 10
227.45172894592287
 20
16.004690960094429
 30
0.0
 11
230.45172894592287
 21
16.004690960094422
 31
0.0
  0
LINE
  5
331
100
AcDbEntity
  8
0
  6
PHANTOM
 62
             200
100
AcDbLine
 10
227.45172894592287
 20
14.004690960094429
 30
0.0
 11
227.45172894592287
 21
16.004690960094429
 31
0.0
  0
LINE
  5
332
100
AcDbEntity
  8
0
  6
PHANTOM
 62
             200
100
AcDbLine
 10
230.45172894592287
 20
14.004690960094422
 30
0.0
 11
230.45172894592287
 21
16.004690960094422
 31
0.0
  0
LINE
  5
333
100
AcDbEntity
  8
0
  6
CONTINUOUS
 62
             200
100
AcDbLine
 10
225.20172894592284
 20
-11.515309039905574
 30
0.0
 11
232.70172894592284
 21
-9.5053090399055975
 31
0.0
  0
LINE
  5
334
100
AcDbEntity
  8
0
  6
CONTINUOUS
 62
             200
100
AcDbLine
 10
225.20172894592284
 20
-10.475309039905582
 30
0.0
 11
232.70172894592284
 21
-8.465309039905577
 31
0.0
  0
ARC
  5
335
100
AcDbEntity
  8
0
  6
CONTINUOUS
 62
               4
100
AcDbCircle
 10
233.01374725646977
 20
2.5046909600944218
 30
0.0
 40
0.5
100
AcDbArc
 50
269.99999999999932
 51
359.99999999999915
  0
ARC
  5
336
100
AcDbEntity
  8
0
  6
CONTINUOUS
 62
               4
100
AcDbCircle
 10
233.0137472564698
 20
18.677833801233476
 30
0.0
 40
0.5
100
AcDbArc
 50
359.99999999999915
 51
89.999999999999744
  0
ARC
  5
337
100
AcDbEntity
  8
0
  6
CONTINUOUS
 62
               4
100
AcDbCircle
 10
224.88974725646978
 20
18.677833801233483
 30
0.0
 40
0.5
100
AcDbArc
 50
89.999999999999815
 51
179.99999999999963
  0
LINE
  5
338
100
AcDbEntity
  8
0
  6
CONTINUOUS
 62
               4
100
AcDbLine
 10
224.38974725646975
 20
2.504690960094436
 30
0.0
 11
224.38974725646978
 21
18.677833801233483
 31
0.0
  0
LINE
  5
339
100
AcDbEntity
  8
0
  6
CONTINUOUS
 62
               4
100
AcDbLine
 10
233.51374725646977
 20
2.5046909600944218
 30
0.0
 11
233.5137472564698
 21
18.677833801233476
 31
0.0
  0
LINE
  5
33A
100
AcDbEntity
  8
0
  6
CONTINUOUS
 62
               4
100
AcDbLine
 10
224.88974725646978
 20
19.177833801233483
 30
0.0
 11
233.0137472564698
 21
19.177833801233476
 31
0.0
  0
ARC
  5
33B
100
AcDbEntity
  8
0
  6
CONTINUOUS
 62
               4
100
AcDbCircle
 10
233.45204410433399
 20
21.004987807958486
 30
0.0
 40
0.4997032403068001
100
AcDbArc
 50
359.96596353714722
 51
90.034036462852612
  0
LINE
  5
33C
100
AcDbEntity
  8
0
  6
CONTINUOUS
 62
               4
100
AcDbLine
 10
233.95174725646976
 20
-0.9953090399057203
 30
0.0
 11
233.95174725646979
 21
21.50469096009428
 31
0.0
  0
LINE
  5
33D
100
AcDbEntity
  8
0
  6
CONTINUOUS
 62
               4
100
AcDbLine
 10
223.95174728555892
 20
-0.9953090441750732
 30
0.0
 11
225.20172894592284
 21
-0.9953090441750732
 31
0.0
  0
ARC
  5
33E
100
AcDbEntity
  8
0
  6
CONTINUOUS
 62
               4
100
AcDbCircle
 10
233.15584240312788
 20
-0.3954041908332329
 30
0.0
 40
0.5999048608870732
100
AcDbArc
 50
269.9909127224538
 51
0.0090872775461705
  0
ARC
  5
33F
100
AcDbEntity
  8
0
  6
CONTINUOUS
 62
               4
100
AcDbCircle
 10
224.45174725646976
 20
-0.3953090441750504
 30
0.0
 40
0.5
100
AcDbArc
 50
179.99999999999949
 51
269.99999999999932
  0
LINE
  5
340
100
AcDbEntity
  8
0
  6
CONTINUOUS
 62
               4
100
AcDbLine
 10
225.20172894592284
 20
-0.8953090441750504
 30
0.0
 11
224.45174725646976
 21
-0.8953090441750504
 31
0.0
  0
LINE
  5
341
100
AcDbEntity
  8
0
  6
CONTINUOUS
 62
               4
100
AcDbLine
 10
233.95174725646976
 20
0.6046909558249354
 30
0.0
 11
232.70172894592284
 21
0.6046909558249354
 31
0.0
  0
ARC
  5
342
100
AcDbEntity
  8
0
  6
CONTINUOUS
 62
               4
100
AcDbCircle
 10
224.88974725646975
 20
2.504690960094436
 30
0.0
 40
0.5
100
AcDbArc
 50
179.99999999999963
 51
269.99999999999937
  0
LINE
  5
343
100
AcDbEntity
  8
0
  6
CONTINUOUS
 62
               4
100
AcDbLine
 10
229.95172894592284
 20
-16.988238310839094
 30
0.0
 11
230.45172894592284
 21
-16.988238310839094
 31
0.0
  0
LINE
  5
344
100
AcDbEntity
  8
0
  6
CONTINUOUS
 62
               4
100
AcDbLine
 10
227.45172894592284
 20
-16.988238310839094
 30
0.0
 11
227.95172894592284
 21
-16.988238310839094
 31
0.0
  0
LINE
  5
345
100
AcDbEntity
  8
0
  6
CONTINUOUS
 62
               4
100
AcDbLine
 10
233.95174725646976
 20
-0.9953090441750874
 30
0.0
 11
232.70172894592284
 21
-0.9953090441750874
 31
0.0
  0
LINE
  5
346
100
AcDbEntity
  8
0
  6
CONTINUOUS
 62
               4
100
AcDbLine
 10
233.95174725646976
 20
-0.3953090441750646
 30
0.0
 11
232.70172894592284
 21
-0.3953090441750646
 31
0.0
  0
LINE
  5
347
100
AcDbEntity
  8
0
  6
CONTINUOUS
 62
               4
100
AcDbLine
 10
223.95174725646976
 20
-0.9953090441750732
 30
0.0
 11
223.95174725646979
 21
21.50469095582492
 31
0.0
  0
LINE
  5
348
100
AcDbEntity
  8
0
  6
CONTINUOUS
 62
               4
100
AcDbLine
 10
223.95172894592284
 20
2.004690960094436
 30
0.0
 11
224.45172894592284
 21
2.004690960094436
 31
0.0
  0
LINE
  5
349
100
AcDbEntity
  8
0
  6
CONTINUOUS
 62
               4
100
AcDbLine
 10
224.45172894592284
 20
2.004690960094436
 30
0.0
 11
226.20172894592284
 21
2.004690960094436
 31
0.0
  0
LINE
  5
34A
100
AcDbEntity
  8
0
  6
CONTINUOUS
 62
               4
100
AcDbLine
 10
233.45172894592284
 20
2.0046909600944218
 30
0.0
 11
233.95172894592284
 21
2.0046909600944218
 31
0.0
  0
LINE
  5
34B
100
AcDbEntity
  8
0
  6
CONTINUOUS
 62
               4
100
AcDbLine
 10
226.20172894592287
 20
10.004690960094429
 30
0.0
 11
231.70172894592287
 21
10.004690960094422
 31
0.0
  0
LINE
  5
34C
100
AcDbEntity
  8
0
  6
CONTINUOUS
 62
               4
100
AcDbLine
 10
231.70172894592284
 20
2.0046909600944218
 30
0.0
 11
233.45172894592284
 21
2.0046909600944218
 31
0.0
  0
LINE
  5
34D
100
AcDbEntity
  8
0
  6
CONTINUOUS
 62
               4
100
AcDbLine
 10
226.20172894592284
 20
-5.995309039905564
 30
0.0
 11
226.20172894592287
 21
10.004690960094429
 31
0.0
  0
LINE
  5
34E
100
AcDbEntity
  8
0
  6
CONTINUOUS
 62
               4
100
AcDbLine
 10
229.55172894592286
 20
-13.488238312839073
 30
0.0
 11
230.85172894592282
 21
-13.488238312839073
 31
0.0
  0
LINE
  5
34F
100
AcDbEntity
  8
0
  6
CONTINUOUS
 62
               4
100
AcDbLine
 10
227.05172894592286
 20
-13.488238312839073
 30
0.0
 11
228.35172894592282
 21
-13.488238312839073
 31
0.0
  0
LINE
  5
350
100
AcDbEntity
  8
0
  6
CONTINUOUS
 62
               4
100
AcDbLine
 10
228.35172894592282
 20
-9.635309039905593
 30
0.0
 11
228.35172894592282
 21
-5.9953090399055782
 31
0.0
  0
LINE
  5
351
100
AcDbEntity
  8
0
  6
CONTINUOUS
 62
               4
100
AcDbLine
 10
229.95172894592284
 20
-16.988238310839094
 30
0.0
 11
229.95172894592284
 21
-13.488238312839073
 31
0.0
  0
LINE
  5
352
100
AcDbEntity
  8
0
  6
CONTINUOUS
 62
               4
100
AcDbLine
 10
230.45172894592284
 20
-16.988238310839094
 30
0.0
 11
230.45172894592284
 21
-13.488238312839073
 31
0.0
  0
LINE
  5
353
100
AcDbEntity
  8
0
  6
CONTINUOUS
 62
               4
100
AcDbLine
 10
227.05172894592286
 20
-13.488238312839073
 30
0.0
 11
227.05172894592286
 21
-11.015309039905588
 31
0.0
  0
LINE
  5
354
100
AcDbEntity
  8
0
  6
CONTINUOUS
 62
               4
100
AcDbLine
 10
228.35172894592282
 20
-13.488238312839073
 30
0.0
 11
228.35172894592282
 21
-10.665309039905594
 31
0.0
  0
LINE
  5
355
100
AcDbEntity
  8
0
  6
CONTINUOUS
 62
               4
100
AcDbLine
 10
227.05172894592286
 20
-9.9853090399055873
 30
0.0
 11
227.05172894592286
 21
-5.9953090399055782
 31
0.0
  0
LINE
  5
356
100
AcDbEntity
  8
0
  6
CONTINUOUS
 62
               4
100
AcDbLine
 10
229.55172894592286
 20
-9.3153090399055998
 30
0.0
 11
229.55172894592286
 21
-5.9953090399055782
 31
0.0
  0
LINE
  5
357
100
AcDbEntity
  8
0
  6
CONTINUOUS
 62
               4
100
AcDbLine
 10
230.85172894592282
 20
-8.965309039905577
 30
0.0
 11
230.85172894592282
 21
-5.9953090399055782
 31
0.0
  0
LINE
  5
358
100
AcDbEntity
  8
0
  6
CONTINUOUS
 62
               4
100
AcDbLine
 10
227.45172894592284
 20
-16.988238310839094
 30
0.0
 11
227.45172894592284
 21
-13.488238312839073
 31
0.0
  0
LINE
  5
359
100
AcDbEntity
  8
0
  6
CONTINUOUS
 62
               4
100
AcDbLine
 10
227.95172894592284
 20
-16.988238310839094
 30
0.0
 11
227.95172894592284
 21
-13.488238312839073
 31
0.0
  0
LINE
  5
35A
100
AcDbEntity
  8
0
  6
CONTINUOUS
 62
               4
100
AcDbLine
 10
229.55172894592286
 20
-13.488238312839073
 30
0.0
 11
229.55172894592286
 21
-10.345309039905601
 31
0.0
  0
LINE
  5
35B
100
AcDbEntity
  8
0
  6
CONTINUOUS
 62
               4
100
AcDbLine
 10
230.85172894592282
 20
-13.488238312839073
 30
0.0
 11
230.85172894592282
 21
-9.9953090399055782
 31
0.0
  0
ARC
  5
35C
100
AcDbEntity
  8
0
  6
CONTINUOUS
 62
               4
100
AcDbCircle
 10
224.45172436840022
 20
21.004695537617046
 30
0.0
 40
0.4999954224983215
100
AcDbArc
 50
89.999475449742562
 51
180.00052455025656
  0
ARC
  5
35D
100
AcDbEntity
  8
0
  6
CONTINUOUS
 62
               4
100
AcDbCircle
 10
233.45172436817202
 20
2.5046955378452083
 30
0.0
 40
0.5000045777717621
100
AcDbArc
 50
270.00052456679839
 51
359.99947543319996
  0
ARC
  5
35E
100
AcDbEntity
  8
0
  6
CONTINUOUS
 62
               4
100
AcDbCircle
 10
224.45171826479148
 20
2.5046802789630505
 30
0.0
 40
0.4999893189827007
100
AcDbArc
 50
179.99877600635489
 51
270.00122399364443
  0
LINE
  5
35F
100
AcDbEntity
  8
0
  6
CONTINUOUS
 62
               4
100
AcDbLine
 10
225.20172894592284
 20
-5.995309039905564
 30
0.0
 11
232.70172894592284
 21
-5.9953090399055782
 31
0.0
  0
LINE
  5
360
100
AcDbEntity
  8
0
  6
CONTINUOUS
 62
               4
100
AcDbLine
 10
232.70172894592284
 20
-5.9953090399055782
 30
0.0
 11
232.70172894592284
 21
2.0046909600944218
 31
0.0
  0
LINE
  5
361
100
AcDbEntity
  8
0
  6
CONTINUOUS
 62
               4
100
AcDbLine
 10
231.70172894592284
 20
-5.9953090399055782
 30
0.0
 11
231.70172894592287
 21
10.004690960094422
 31
0.0
  0
LINE
  5
362
100
AcDbEntity
  8
0
  6
CONTINUOUS
 62
               4
100
AcDbLine
 10
226.20172894592284
 20
-4.495309039905564
 30
0.0
 11
231.70172894592284
 21
-4.4953090399055782
 31
0.0
  0
LINE
  5
363
100
AcDbEntity
  8
0
  6
CONTINUOUS
 62
               4
100
AcDbLine
 10
225.20172894592284
 20
-5.995309039905564
 30
0.0
 11
225.20172894592284
 21
2.004690960094436
 31
0.0
  0
LINE
  5
364
100
AcDbEntity
  8
0
  6
CONTINUOUS
 62
             200
100
AcDbLine
 10
225.20172894592298
 20
128.48469096863286
 30
0.0
 11
232.70172894592298
 21
126.47469096863284
 31
0.0
  0
LINE
  5
365
100
AcDbEntity
  8
0
  6
CONTINUOUS
 62
             200
100
AcDbLine
 10
225.20172894592298
 20
129.52469096863285
 30
0.0
 11
232.70172894592298
 21
127.51469096863286
 31
0.0
  0
LINE
  5
366
100
AcDbEntity
  8
0
  6
PHANTOM
 62
             200
100
AcDbLine
 10
230.45172894592295
 20
104.00469096863284
 30
0.0
 11
230.45172894592295
 21
102.00469096863284
 31
0.0
  0
LINE
  5
367
100
AcDbEntity
  8
0
  6
PHANTOM
 62
             200
100
AcDbLine
 10
227.45172894592295
 20
104.00469096863284
 30
0.0
 11
227.45172894592295
 21
102.00469096863284
 31
0.0
  0
LINE
  5
368
100
AcDbEntity
  8
0
  6
PHANTOM
 62
             200
100
AcDbLine
 10
227.45172894592295
 20
102.00469096863284
 30
0.0
 11
230.45172894592295
 21
102.00469096863284
 31
0.0
  0
LINE
  5
369
100
AcDbEntity
  8
0
  6
PHANTOM
 62
             200
100
AcDbLine
 10
227.45172894592295
 20
104.00469096863284
 30
0.0
 11
230.45172894592295
 21
104.00469096863284
 31
0.0
  0
ARC
  5
36A
100
AcDbEntity
  8
0
  6
CONTINUOUS
 62
               4
100
AcDbCircle
 10
233.45172436817217
 20
115.50468639088206
 30
0.0
 40
0.5000045777717621
100
AcDbArc
 50
0.0005245667991546
 51
89.999475433200743
  0
ARC
  5
36B
100
AcDbEntity
  8
0
  6
CONTINUOUS
 62
               4
100
AcDbCircle
 10
224.45171826479162
 20
115.50470164976423
 30
0.0
 40
0.4999893189827007
100
AcDbArc
 50
89.998776006354746
 51
180.00122399364429
  0
LINE
  5
36C
100
AcDbEntity
  8
0
  6
CONTINUOUS
 62
               4
100
AcDbLine
 10
225.20172894592298
 20
124.00469096863284
 30
0.0
 11
232.70172894592298
 21
124.00469096863284
 31
0.0
  0
LINE
  5
36D
100
AcDbEntity
  8
0
  6
CONTINUOUS
 62
               4
100
AcDbLine
 10
232.70172894592298
 20
124.00469096863284
 30
0.0
 11
232.70172894592298
 21
116.00469096863284
 31
0.0
  0
LINE
  5
36E
100
AcDbEntity
  8
0
  6
CONTINUOUS
 62
               4
100
AcDbLine
 10
231.70172894592298
 20
124.00469096863284
 30
0.0
 11
231.70172894592298
 21
108.00469096863284
 31
0.0
  0
LINE
  5
36F
100
AcDbEntity
  8
0
  6
CONTINUOUS
 62
               4
100
AcDbLine
 10
226.20172894592298
 20
122.50469096863284
 30
0.0
 11
231.70172894592298
 21
122.50469096863284
 31
0.0
  0
LINE
  5
370
100
AcDbEntity
  8
0
  6
CONTINUOUS
 62
               4
100
AcDbLine
 10
225.20172894592298
 20
124.00469096863284
 30
0.0
 11
225.20172894592298
 21
116.00469096863284
 31
0.0
  0
ARC
  5
371
100
AcDbEntity
  8
0
  6
CONTINUOUS
 62
               4
100
AcDbCircle
 10
224.45172436840031
 20
97.004686391110241
 30
0.0
 40
0.4999954224983215
100
AcDbArc
 50
179.99947544974253
 51
270.00052455025656
  0
LINE
  5
372
100
AcDbEntity
  8
0
  6
CONTINUOUS
 62
               4
100
AcDbLine
 10
230.85172894592296
 20
131.49762024156635
 30
0.0
 11
230.85172894592296
 21
128.00469096863284
 31
0.0
  0
LINE
  5
373
100
AcDbEntity
  8
0
  6
CONTINUOUS
 62
               4
100
AcDbLine
 10
229.551728945923
 20
131.49762024156635
 30
0.0
 11
229.551728945923
 21
128.35469096863287
 31
0.0
  0
LINE
  5
374
100
AcDbEntity
  8
0
  6
CONTINUOUS
 62
               4
100
AcDbLine
 10
227.95172894592301
 20
134.99762023956637
 30
0.0
 11
227.95172894592298
 21
131.49762024156635
 31
0.0
  0
LINE
  5
375
100
AcDbEntity
  8
0
  6
CONTINUOUS
 62
               4
100
AcDbLine
 10
227.45172894592301
 20
134.99762023956637
 30
0.0
 11
227.45172894592298
 21
131.49762024156635
 31
0.0
  0
LINE
  5
376
100
AcDbEntity
  8
0
  6
CONTINUOUS
 62
               4
100
AcDbLine
 10
230.85172894592296
 20
126.97469096863284
 30
0.0
 11
230.85172894592296
 21
124.00469096863284
 31
0.0
  0
LINE
  5
377
100
AcDbEntity
  8
0
  6
CONTINUOUS
 62
               4
100
AcDbLine
 10
229.551728945923
 20
127.32469096863286
 30
0.0
 11
229.551728945923
 21
124.00469096863284
 31
0.0
  0
LINE
  5
378
100
AcDbEntity
  8
0
  6
CONTINUOUS
 62
               4
100
AcDbLine
 10
227.051728945923
 20
127.99469096863285
 30
0.0
 11
227.051728945923
 21
124.00469096863284
 31
0.0
  0
LINE
  5
379
100
AcDbEntity
  8
0
  6
CONTINUOUS
 62
               4
100
AcDbLine
 10
228.35172894592296
 20
131.49762024156635
 30
0.0
 11
228.35172894592296
 21
128.67469096863286
 31
0.0
  0
LINE
  5
37A
100
AcDbEntity
  8
0
  6
CONTINUOUS
 62
               4
100
AcDbLine
 10
227.051728945923
 20
131.49762024156635
 30
0.0
 11
227.051728945923
 21
129.02469096863285
 31
0.0
  0
LINE
  5
37B
100
AcDbEntity
  8
0
  6
CONTINUOUS
 62
               4
100
AcDbLine
 10
230.45172894592301
 20
134.99762023956637
 30
0.0
 11
230.45172894592298
 21
131.49762024156635
 31
0.0
  0
LINE
  5
37C
100
AcDbEntity
  8
0
  6
CONTINUOUS
 62
               4
100
AcDbLine
 10
229.95172894592301
 20
134.99762023956637
 30
0.0
 11
229.95172894592298
 21
131.49762024156635
 31
0.0
  0
LINE
  5
37D
100
AcDbEntity
  8
0
  6
CONTINUOUS
 62
               4
100
AcDbLine
 10
228.35172894592296
 20
127.64469096863286
 30
0.0
 11
228.35172894592296
 21
124.00469096863284
 31
0.0
  0
LINE
  5
37E
100
AcDbEntity
  8
0
  6
CONTINUOUS
 62
               4
100
AcDbLine
 10
227.051728945923
 20
131.49762024156635
 30
0.0
 11
228.35172894592296
 21
131.49762024156635
 31
0.0
  0
LINE
  5
37F
100
AcDbEntity
  8
0
  6
CONTINUOUS
 62
               4
100
AcDbLine
 10
229.551728945923
 20
131.49762024156635
 30
0.0
 11
230.85172894592296
 21
131.49762024156635
 31
0.0
  0
LINE
  5
380
100
AcDbEntity
  8
0
  6
CONTINUOUS
 62
               4
100
AcDbLine
 10
226.20172894592298
 20
124.00469096863284
 30
0.0
 11
226.20172894592298
 21
108.00469096863284
 31
0.0
  0
LINE
  5
381
100
AcDbEntity
  8
0
  6
CONTINUOUS
 62
               4
100
AcDbLine
 10
231.70172894592298
 20
116.00469096863284
 30
0.0
 11
233.45172894592298
 21
116.00469096863284
 31
0.0
  0
LINE
  5
382
100
AcDbEntity
  8
0
  6
CONTINUOUS
 62
               4
100
AcDbLine
 10
226.20172894592298
 20
108.00469096863284
 30
0.0
 11
231.70172894592298
 21
108.00469096863284
 31
0.0
  0
LINE
  5
383
100
AcDbEntity
  8
0
  6
CONTINUOUS
 62
               4
100
AcDbLine
 10
233.45172894592298
 20
116.00469096863284
 30
0.0
 11
233.95172894592298
 21
116.00469096863284
 31
0.0
  0
LINE
  5
384
100
AcDbEntity
  8
0
  6
CONTINUOUS
 62
               4
100
AcDbLine
 10
224.45172894592298
 20
116.00469096863284
 30
0.0
 11
226.20172894592298
 21
116.00469096863284
 31
0.0
  0
LINE
  5
385
100
AcDbEntity
  8
0
  6
CONTINUOUS
 62
               4
100
AcDbLine
 10
223.95172894592298
 20
116.00469096863284
 30
0.0
 11
224.45172894592298
 21
116.00469096863284
 31
0.0
  0
LINE
  5
386
100
AcDbEntity
  8
0
  6
CONTINUOUS
 62
               4
100
AcDbLine
 10
223.9517472564699
 20
119.00469097290235
 30
0.0
 11
223.95174725646987
 21
96.504690972902367
 31
0.0
  0
LINE
  5
387
100
AcDbEntity
  8
0
  6
CONTINUOUS
 62
               4
100
AcDbLine
 10
233.9517472564699
 20
118.40469097290233
 30
0.0
 11
232.70172894592298
 21
118.40469097290233
 31
0.0
  0
LINE
  5
388
100
AcDbEntity
  8
0
  6
CONTINUOUS
 62
               4
100
AcDbLine
 10
233.9517472564699
 20
119.00469097290235
 30
0.0
 11
232.70172894592298
 21
119.00469097290235
 31
0.0
  0
LINE
  5
389
100
AcDbEntity
  8
0
  6
CONTINUOUS
 62
               4
100
AcDbLine
 10
233.9517472564699
 20
117.40469097290233
 30
0.0
 11
232.70172894592298
 21
117.40469097290233
 31
0.0
  0
LINE
  5
38A
100
AcDbEntity
  8
0
  6
CONTINUOUS
 62
               4
100
AcDbLine
 10
225.20172894592298
 20
118.90469097290233
 30
0.0
 11
224.4517472564699
 21
118.90469097290233
 31
0.0
  0
ARC
  5
38B
100
AcDbEntity
  8
0
  6
CONTINUOUS
 62
               4
100
AcDbCircle
 10
224.4517472564699
 20
118.40469097290233
 30
0.0
 40
0.5
100
AcDbArc
 50
89.999999999999744
 51
179.99999999999955
  0
ARC
  5
38C
100
AcDbEntity
  8
0
  6
CONTINUOUS
 62
               4
100
AcDbCircle
 10
233.15584240312802
 20
118.4047861195605
 30
0.0
 40
0.5999048608870732
100
AcDbArc
 50
359.99091272245295
 51
90.009087277546172
  0
LINE
  5
38D
100
AcDbEntity
  8
0
  6
CONTINUOUS
 62
               4
100
AcDbLine
 10
223.95174728555907
 20
119.00469097290235
 30
0.0
 11
225.20172894592298
 21
119.00469097290235
 31
0.0
  0
LINE
  5
38E
100
AcDbEntity
  8
0
  6
CONTINUOUS
 62
               4
100
AcDbLine
 10
233.9517472564699
 20
119.00469096863299
 30
0.0
 11
233.95174725646987
 21
96.504690968632985
 31
0.0
  0
ARC
  5
38F
100
AcDbEntity
  8
0
  6
CONTINUOUS
 62
               4
100
AcDbCircle
 10
233.45204410433408
 20
97.004394120768779
 30
0.0
 40
0.4997032403068001
100
AcDbArc
 50
269.96596353714654
 51
0.0340364628527164
  0
LINE
  5
390
100
AcDbEntity
  8
0
  6
CONTINUOUS
 62
               4
100
AcDbLine
 10
227.45172894592301
 20
134.99762023956637
 30
0.0
 11
227.95172894592301
 21
134.99762023956637
 31
0.0
  0
LINE
  5
391
100
AcDbEntity
  8
0
  6
CONTINUOUS
 62
               4
100
AcDbLine
 10
229.95172894592301
 20
134.99762023956637
 30
0.0
 11
230.45172894592301
 21
134.99762023956637
 31
0.0
  0
ARC
  5
392
100
AcDbEntity
  8
0
  6
CONTINUOUS
 62
               4
100
AcDbCircle
 10
224.88974725646989
 20
115.50469096863284
 30
0.0
 40
0.5
100
AcDbArc
 50
89.999999999999815
 51
179.99999999999963
  0
ARC
  5
393
100
AcDbEntity
  8
0
  6
CONTINUOUS
 62
               4
100
AcDbCircle
 10
233.01374725646991
 20
115.50469096863284
 30
0.0
 40
0.5
100
AcDbArc
 50
359.99999999999915
 51
89.999999999999744
  0
ARC
  5
394
100
AcDbEntity
  8
0
  6
CONTINUOUS
 62
               4
100
AcDbCircle
 10
233.01374725646988
 20
99.331548127493789
 30
0.0
 40
0.5
100
AcDbArc
 50
269.99999999999932
 51
359.99999999999915
  0
ARC
  5
395
100
AcDbEntity
  8
0
  6
CONTINUOUS
 62
               4
100
AcDbCircle
 10
224.88974725646986
 20
99.331548127493804
 30
0.0
 40
0.5
100
AcDbArc
 50
179.99999999999963
 51
269.99999999999937
  0
LINE
  5
396
100
AcDbEntity
  8
0
  6
CONTINUOUS
 62
               4
100
AcDbLine
 10
224.38974725646989
 20
115.50469096863284
 30
0.0
 11
224.38974725646986
 21
99.331548127493804
 31
0.0
  0
LINE
  5
397
100
AcDbEntity
  8
0
  6
CONTINUOUS
 62
               4
100
AcDbLine
 10
233.51374725646991
 20
115.50469096863284
 30
0.0
 11
233.51374725646988
 21
99.331548127493789
 31
0.0
  0
LINE
  5
398
100
AcDbEntity
  8
0
  6
CONTINUOUS
 62
               4
100
AcDbLine
 10
224.88974725646986
 20
98.831548127493804
 30
0.0
 11
233.01374725646988
 21
98.831548127493789
 31
0.0
  0
LINE
  5
399
100
AcDbEntity
  8
0
  6
CONTINUOUS
 62
               7
100
AcDbLine
 10
222.95174725646987
 20
83.004690968633028
 30
0.0
 11
234.95174725646987
 21
83.004690968633042
 31
0.0
  0
LINE
  5
39A
100
AcDbEntity
  8
0
  6
CONTINUOUS
 62
               7
100
AcDbLine
 10
234.95174725646987
 20
82.904690968633048
 30
0.0
 11
234.85174725646985
 21
83.004690968633042
 31
0.0
  0
LINE
  5
39B
100
AcDbEntity
  8
0
  6
CONTINUOUS
 62
               7
100
AcDbLine
 10
223.05174725291781
 20
83.004690968633028
 30
0.0
 11
222.95174725646987
 21
82.904690972185094
 31
0.0
  0
CIRCLE
  5
39C
100
AcDbEntity
  8
0
  6
CONTINUOUS
 62
               7
100
AcDbCircle
 10
228.95174725646984
 20
94.204690982219972
 30
0.0
 40
1.3999999999999997
  0
CIRCLE
  5
39D
100
AcDbEntity
  8
0
  6
CONTINUOUS
 62
               7
100
AcDbCircle
 10
228.95174725646984
 20
94.204690982219972
 30
0.0
 40
0.75
  0
CIRCLE
  5
39E
100
AcDbEntity
  8
0
  6
CONTINUOUS
 62
               7
100
AcDbCircle
 10
228.95174725646984
 20
94.204690982219972
 30
0.0
 40
1.1000000000000001
  0
LINE
  5
39F
100
AcDbEntity
  8
0
  6
CENTER
 62
               2
100
AcDbLine
 10
231.2666773921942
 20
94.204690982219972
 30
0.0
 11
226.7278031037942
 21
94.204690982219972
 31
0.0
  0
LINE
  5
3A0
100
AcDbEntity
  8
0
  6
CONTINUOUS
 62
               7
100
AcDbLine
 10
234.20174725646984
 20
97.004690968633014
 30
0.0
 11
234.65174725646986
 21
97.004690968633014
 31
0.0
  0
CIRCLE
  5
3A1
100
AcDbEntity
  8
0
  6
CONTINUOUS
 62
               7
100
AcDbCircle
 10
228.95199725646989
 20
94.204690968633003
 30
0.0
 40
1.1500000000000001
  0
LINE
  5
3A2
100
AcDbEntity
  8
0
  6
CONTINUOUS
 62
               7
100
AcDbLine
 10
223.25174725646988
 20
97.004690968633028
 30
0.0
 11
223.70174725646984
 21
97.004690968633028
 31
0.0
  0
LINE
  5
3A3
100
AcDbEntity
  8
0
  6
CONTINUOUS
 62
               7
100
AcDbLine
 10
223.25174725646988
 20
97.004690968633028
 30
0.0
 11
222.95174725646987
 21
96.704690968633045
 31
0.0
  0
LINE
  5
3A4
100
AcDbEntity
  8
0
  6
CONTINUOUS
 62
               7
100
AcDbLine
 10
234.65174725646986
 20
97.004690968633014
 30
0.0
 11
234.95174725646987
 21
96.704690968633031
 31
0.0
  0
LINE
  5
3A5
100
AcDbEntity
  8
0
  6
CONTINUOUS
 62
               7
100
AcDbLine
 10
234.00174725646986
 20
96.804690968633025
 30
0.0
 11
234.00174725646986
 21
96.504690968633014
 31
0.0
  0
LINE
  5
3A6
100
AcDbEntity
  8
0
  6
CONTINUOUS
 62
               7
100
AcDbLine
 10
223.90174725646989
 20
96.804690968633039
 30
0.0
 11
223.90174725646989
 21
96.504690968633028
 31
0.0
  0
LINE
  5
3A7
100
AcDbEntity
  8
0
  6
CONTINUOUS
 62
               7
100
AcDbLine
 10
223.90174725646989
 20
96.804690968633039
 30
0.0
 11
223.70174725646984
 21
97.004690968633028
 31
0.0
  0
LINE
  5
3A8
100
AcDbEntity
  8
0
  6
CONTINUOUS
 62
               7
100
AcDbLine
 10
234.00174725646986
 20
96.804690968633025
 30
0.0
 11
234.20174725646984
 21
97.004690968633014
 31
0.0
  0
LINE
  5
3A9
100
AcDbEntity
  8
0
  6
CONTINUOUS
 62
               7
100
AcDbLine
 10
223.90174725646989
 20
96.504690968633028
 30
0.0
 11
234.00174725646986
 21
96.504690968633014
 31
0.0
  0
LINE
  5
3AA
100
AcDbEntity
  8
0
  6
CENTER
 62
               2
100
AcDbLine
 10
228.95174725646987
 20
124.90469066345727
 30
0.0
 11
228.95174725646973
 21
-7.234399281487697
 31
0.0
  0
LINE
  5
3AB
100
AcDbEntity
  8
0
  6
CONTINUOUS
 62
               7
100
AcDbLine
 10
234.95174725646973
 20
21.304690960094256
 30
0.0
 11
234.95174725646987
 21
96.704690968633031
 31
0.0
  0
LINE
  5
3AC
100
AcDbEntity
  8
0
  6
CONTINUOUS
 62
               7
100
AcDbLine
 10
222.95174725646979
 20
21.30469096009427
 30
0.0
 11
222.95174725646987
 21
96.704690968633045
 31
0.0
  0
LINE
  5
3AD
100
AcDbEntity
  8
0
  6
CONTINUOUS
 62
               7
100
AcDbLine
 10
222.95174725646982
 20
44.004690968633014
 30
0.0
 11
234.95174725646979
 21
44.004690968633014
 31
0.0
  0
LINE
  5
3AE
100
AcDbEntity
  8
0
  6
CONTINUOUS
 62
               7
100
AcDbLine
 10
223.9017472564698
 20
21.50469096009428
 30
0.0
 11
234.00174725646966
 21
21.504690960094244
 31
0.0
  0
LINE
  5
3AF
100
AcDbEntity
  8
0
  6
CONTINUOUS
 62
               7
100
AcDbLine
 10
234.00174725646966
 20
21.204690960094233
 30
0.0
 11
234.20174725646976
 21
21.004690960094244
 31
0.0
  0
LINE
  5
3B0
100
AcDbEntity
  8
0
  6
CONTINUOUS
 62
               7
100
AcDbLine
 10
223.9017472564698
 20
21.204690960094268
 30
0.0
 11
223.70174725646976
 21
21.004690960094287
 31
0.0
  0
LINE
  5
3B1
100
AcDbEntity
  8
0
  6
CONTINUOUS
 62
               7
100
AcDbLine
 10
223.9017472564698
 20
21.204690960094268
 30
0.0
 11
223.9017472564698
 21
21.50469096009428
 31
0.0
  0
LINE
  5
3B2
100
AcDbEntity
  8
0
  6
CONTINUOUS
 62
               7
100
AcDbLine
 10
234.00174725646966
 20
21.204690960094233
 30
0.0
 11
234.00174725646966
 21
21.504690960094244
 31
0.0
  0
LINE
  5
3B3
100
AcDbEntity
  8
0
  6
CONTINUOUS
 62
               7
100
AcDbLine
 10
234.65174725646978
 20
21.004690960094244
 30
0.0
 11
234.95174725646967
 21
21.304690960094256
 31
0.0
  0
LINE
  5
3B4
100
AcDbEntity
  8
0
  6
CONTINUOUS
 62
               7
100
AcDbLine
 10
223.25174725646968
 20
21.004690960094287
 30
0.0
 11
222.95174725646979
 21
21.30469096009427
 31
0.0
  0
LINE
  5
3B5
100
AcDbEntity
  8
0
  6
CONTINUOUS
 62
               7
100
AcDbLine
 10
223.25174725646968
 20
21.004690960094287
 30
0.0
 11
223.70174725646976
 21
21.004690960094287
 31
0.0
  0
CIRCLE
  5
3B6
100
AcDbEntity
  8
0
  6
CONTINUOUS
 62
               7
100
AcDbCircle
 10
228.95199725646981
 20
23.804690960094277
 30
0.0
 40
1.1500000000000001
  0
LINE
  5
3B7
100
AcDbEntity
  8
0
  6
CONTINUOUS
 62
               7
100
AcDbLine
 10
234.20174725646976
 20
21.004690960094244
 30
0.0
 11
234.65174725646978
 21
21.004690960094244
 31
0.0
  0
LINE
  5
3B8
100
AcDbEntity
  8
0
  6
CENTER
 62
               2
100
AcDbLine
 10
231.26667739219411
 20
23.804690946507314
 30
0.0
 11
226.727803103794
 21
23.804690946507321
 31
0.0
  0
CIRCLE
  5
3B9
100
AcDbEntity
  8
0
  6
CONTINUOUS
 62
               7
100
AcDbCircle
 10
228.95174725646976
 20
23.804690946507321
 30
0.0
 40
1.1000000000000001
  0
CIRCLE
  5
3BA
100
AcDbEntity
  8
0
  6
CONTINUOUS
 62
               7
100
AcDbCircle
 10
228.95174725646976
 20
23.804690946507321
 30
0.0
 40
0.75
  0
CIRCLE
  5
3BB
100
AcDbEntity
  8
0
  6
CONTINUOUS
 62
               7
100
AcDbCircle
 10
228.95174725646976
 20
23.804690946507321
 30
0.0
 40
1.3999999999999997
  0
LINE
  5
3BC
100
AcDbEntity
  8
0
  6
CONTINUOUS
 62
               7
100
AcDbLine
 10
222.95174725646982
 20
35.004690968633021
 30
0.0
 11
234.95174725646976
 21
35.004690968633021
 31
0.0
  0
LINE
  5
3BD
100
AcDbEntity
  8
0
  6
CENTER
 62
               2
100
AcDbLine
 10
223.25174725646983
 20
57.704690972185077
 30
0.0
 11
230.2517472564698
 21
57.704690972185091
 31
0.0
  0
LINE
  5
3BE
100
AcDbEntity
  8
0
  6
CENTER
 62
               2
100
AcDbLine
 10
227.65174725646978
 20
69.304690972185071
 30
0.0
 11
234.65174725646978
 21
69.304690972185071
 31
0.0
  0
LINE
  5
3BF
100
AcDbEntity
  8
0
  6
CENTER
 62
               2
100
AcDbLine
 10
222.2517472564698
 20
72.204690972185091
 30
0.0
 11
226.2517472564698
 21
72.204690972185091
 31
0.0
  0
CIRCLE
  5
3C0
100
AcDbEntity
  8
0
  6
CONTINUOUS
 62
               7
100
AcDbCircle
 10
224.2517472564698
 20
72.204690972185091
 30
0.0
 40
1.075
  0
LINE
  5
3C1
100
AcDbEntity
  8
0
  6
CONTINUOUS
 62
               7
100
AcDbLine
 10
224.2517472564698
 20
73.854690972185082
 30
0.0
 11
222.95174725646984
 21
73.854690972185082
 31
0.0
  0
LINE
  5
3C2
100
AcDbEntity
  8
0
  6
CONTINUOUS
 62
               7
100
AcDbLine
 10
224.2517472564698
 20
70.554690972185099
 30
0.0
 11
222.95174725646984
 21
70.554690972185099
 31
0.0
  0
LINE
  5
3C3
100
AcDbEntity
  8
0
  6
CENTER
 62
               2
100
AcDbLine
 10
231.65174725646978
 20
54.804690972185078
 30
0.0
 11
235.65174725646978
 21
54.804690972185071
 31
0.0
  0
CIRCLE
  5
3C4
100
AcDbEntity
  8
0
  6
CONTINUOUS
 62
               7
100
AcDbCircle
 10
233.65174725646978
 20
54.804690972185078
 30
0.0
 40
1.075
  0
LINE
  5
3C5
100
AcDbEntity
  8
0
  6
CONTINUOUS
 62
               7
100
AcDbLine
 10
233.65174725646978
 20
56.454690972185077
 30
0.0
 11
234.95174725646979
 21
56.454690972185077
 31
0.0
  0
LINE
  5
3C6
100
AcDbEntity
  8
0
  6
CONTINUOUS
 62
               7
100
AcDbLine
 10
233.65174725646978
 20
53.15469097218508
 30
0.0
 11
234.95174725646979
 21
53.15469097218508
 31
0.0
  0
LINE
  5
3C7
100
AcDbEntity
  8
0
  6
CENTER
 62
               2
100
AcDbLine
 10
233.65174725646978
 20
52.804690972185078
 30
0.0
 11
233.65174725646978
 21
56.804690972185078
 31
0.0
  0
ARC
  5
3C8
100
AcDbEntity
  8
0
  6
CONTINUOUS
 62
               7
100
AcDbCircle
 10
233.65174725646978
 20
54.804690972185078
 30
0.0
 40
1.6499999999999999
100
AcDbArc
 50
89.999999999999744
 51
269.99999999999932
  0
ARC
  5
3C9
100
AcDbEntity
  8
0
  6
CONTINUOUS
 62
               7
100
AcDbCircle
 10
224.2517472564698
 20
72.204690972185091
 30
0.0
 40
1.6499999999999999
100
AcDbArc
 50
269.99999999999932
 51
89.999999999999687
  0
LINE
  5
3CA
100
AcDbEntity
  8
0
  6
CENTER
 62
               2
100
AcDbLine
 10
224.2517472564698
 20
70.204690972185091
 30
0.0
 11
224.2517472564698
 21
74.204690972185077
 31
0.0
  0
CIRCLE
  5
3CB
100
AcDbEntity
  8
0
  6
CONTINUOUS
 62
               7
100
AcDbCircle
 10
231.15174725646975
 20
69.304690972185071
 30
0.0
 40
2.0999999999999996
  0
CIRCLE
  5
3CC
100
AcDbEntity
  8
0
  6
CONTINUOUS
 62
               2
100
AcDbCircle
 10
231.15174725646975
 20
69.304690972185071
 30
0.0
 40
2.5
  0
CIRCLE
  5
3CD
100
AcDbEntity
  8
0
  6
CONTINUOUS
 62
               7
100
AcDbCircle
 10
226.75174725646983
 20
57.704690972185091
 30
0.0
 40
2.0999999999999996
  0
CIRCLE
  5
3CE
100
AcDbEntity
  8
0
  6
CONTINUOUS
 62
               2
100
AcDbCircle
 10
226.75174725646983
 20
57.704690972185091
 30
0.0
 40
2.5
  0
LINE
  5
3CF
100
AcDbEntity
  8
0
  6
CENTER
 62
               2
100
AcDbLine
 10
226.75174725646983
 20
61.204690972185084
 30
0.0
 11
226.7517472564698
 21
54.204690972185084
 31
0.0
  0
LINE
  5
3D0
100
AcDbEntity
  8
0
  6
CENTER
 62
               2
100
AcDbLine
 10
231.15174725646975
 20
72.804690972185071
 30
0.0
 11
231.1517472564698
 21
65.804690972185071
 31
0.0
  0
LINE
  5
3D1
100
AcDbEntity
  8
0
  6
CONTINUOUS
 62
               4
100
AcDbLine
 10
222.95174725646984
 20
76.007690964363661
 30
0.0
 11
220.65174726443172
 21
76.007690964363661
 31
0.0
  0
LINE
  5
3D2
100
AcDbEntity
  8
0
  6
CONTINUOUS
 62
               4
100
AcDbLine
 10
222.95174725646982
 20
51.007690964363661
 30
0.0
 11
220.65174726443158
 21
51.007690964363661
 31
0.0
  0
LINE
  5
3D3
100
AcDbEntity
  8
0
  6
CONTINUOUS
 62
               4
100
AcDbLine
 10
220.65174726443158
 20
51.007690972372501
 30
0.0
 11
220.65174726443172
 21
76.007690972372501
 31
0.0
  0
LINE
  5
3D4
100
AcDbEntity
  8
0
  6
CENTER
 62
               2
100
AcDbLine
 10
225.45174725646984
 20
69.504690964363675
 30
0.0
 11
218.15174726443166
 21
69.504690964363675
 31
0.0
  0
LINE
  5
3D5
100
AcDbEntity
  8
0
  6
CENTER
 62
               2
100
AcDbLine
 10
225.45174725646984
 20
57.504690964363668
 30
0.0
 11
218.15174726443166
 21
57.504690964363675
 31
0.0
  0
LINE
  5
3D6
100
AcDbEntity
  8
0
  6
CENTER
 62
               2
100
AcDbLine
 10
-236.55651274517157
 20
69.504690964363675
 30
0.0
 11
-229.25651275313339
 21
69.504690964363675
 31
0.0
  0
LINE
  5
3D7
100
AcDbEntity
  8
0
  6
CONTINUOUS
 62
               4
100
AcDbLine
 10
-231.75651275313334
 20
51.007690972372508
 30
0.0
 11
-231.75651275313345
 21
76.007690972372501
 31
0.0
  0
LINE
  5
3D8
100
AcDbEntity
  8
0
  6
CONTINUOUS
 62
               4
100
AcDbLine
 10
-234.05651274517157
 20
51.007690964363668
 30
0.0
 11
-231.75651275313334
 21
51.007690964363668
 31
0.0
  0
LINE
  5
3D9
100
AcDbEntity
  8
0
  6
CONTINUOUS
 62
               4
100
AcDbLine
 10
-234.05651274517157
 20
76.007690964363661
 30
0.0
 11
-231.75651275313345
 21
76.007690964363661
 31
0.0
  0
LINE
  5
3DA
100
AcDbEntity
  8
0
  6
CONTINUOUS
 62
               7
100
AcDbLine
 10
-234.05651274517157
 20
21.304690968633004
 30
0.0
 11
-234.05651274517157
 21
96.704690968633031
 31
0.0
  0
CIRCLE
  5
3DB
100
AcDbEntity
  8
0
  6
CONTINUOUS
 62
               7
100
AcDbCircle
 10
-240.05651274517155
 20
91.204690968633116
 30
0.0
 40
1.0
  0
LINE
  5
3DC
100
AcDbEntity
  8
0
  6
CENTER
 62
               2
100
AcDbLine
 10
-238.05651274517155
 20
91.204690968633116
 30
0.0
 11
-242.05651274517155
 21
91.204690968633116
 31
0.0
  0
LINE
  5
3DD
100
AcDbEntity
  8
0
  6
CENTER
 62
               2
100
AcDbLine
 10
-244.75651274517153
 20
56.304690968632983
 30
0.0
 11
-244.75651274517153
 21
53.304690968632983
 31
0.0
  0
CIRCLE
  5
3DE
100
AcDbEntity
  8
0
  6
CONTINUOUS
 62
               7
100
AcDbCircle
 10
-244.75651274517153
 20
54.804690968632983
 30
0.0
 40
1.075
  0
LINE
  5
3DF
100
AcDbEntity
  8
0
  6
CENTER
 62
               2
100
AcDbLine
 10
-246.25651274517153
 20
54.80469096863299
 30
0.0
 11
-243.25651274517153
 21
54.804690968632976
 31
0.0
  0
LINE
  5
3E0
100
AcDbEntity
  8
0
  6
CENTER
 62
               2
100
AcDbLine
 10
-235.35651274517156
 20
70.704690968633059
 30
0.0
 11
-235.35651274517156
 21
73.704690968633059
 31
0.0
  0
CIRCLE
  5
3E1
100
AcDbEntity
  8
0
  6
CONTINUOUS
 62
               7
100
AcDbCircle
 10
-235.35651274517156
 20
72.204690968633059
 30
0.0
 40
1.075
  0
LINE
  5
3E2
100
AcDbEntity
  8
0
  6
CENTER
 62
               2
100
AcDbLine
 10
-233.85651274517156
 20
72.204690968633059
 30
0.0
 11
-236.85651274517156
 21
72.204690968633059
 31
0.0
  0
CIRCLE
  5
3E3
100
AcDbEntity
  8
0
  6
CONTINUOUS
 62
               2
100
AcDbCircle
 10
-240.05651274517155
 20
63.504690968633021
 30
0.0
 40
2.5
  0
CIRCLE
  5
3E4
100
AcDbEntity
  8
0
  6
CONTINUOUS
 62
               7
100
AcDbCircle
 10
-240.05651274517155
 20
63.504690968633021
 30
0.0
 40
2.1000000000000001
  0
LINE
  5
3E5
100
AcDbEntity
  8
0
  6
CENTER
 62
               2
100
AcDbLine
 10
-236.55651274517155
 20
63.504690968633021
 30
0.0
 11
-243.55651274517155
 21
63.504690968633021
 31
0.0
  0
CIRCLE
  5
3E6
100
AcDbEntity
  8
0
  6
CONTINUOUS
 62
               2
100
AcDbCircle
 10
-240.05651274517155
 20
75.104690968633037
 30
0.0
 40
2.5
  0
CIRCLE
  5
3E7
100
AcDbEntity
  8
0
  6
CONTINUOUS
 62
               7
100
AcDbCircle
 10
-240.05651274517155
 20
75.104690968633037
 30
0.0
 40
2.1000000000000001
  0
CIRCLE
  5
3E8
100
AcDbEntity
  8
0
  6
CONTINUOUS
 62
               2
100
AcDbCircle
 10
-240.05651274517155
 20
51.904690968633027
 30
0.0
 40
2.5
  0
CIRCLE
  5
3E9
100
AcDbEntity
  8
0
  6
CONTINUOUS
 62
               7
100
AcDbCircle
 10
-240.05651274517155
 20
51.904690968633027
 30
0.0
 40
2.1000000000000001
  0
LINE
  5
3EA
100
AcDbEntity
  8
0
  6
CENTER
 62
               2
100
AcDbLine
 10
-236.55651274517155
 20
51.904690968633027
 30
0.0
 11
-243.55651274517155
 21
51.904690968633027
 31
0.0
  0
LINE
  5
3EB
100
AcDbEntity
  8
0
  6
CENTER
 62
               2
100
AcDbLine
 10
-236.55651274517155
 20
75.104690968633037
 30
0.0
 11
-243.55651274517155
 21
75.104690968633037
 31
0.0
  0
ARC
  5
3EC
100
AcDbEntity
  8
0
  6
CONTINUOUS
 62
               4
100
AcDbCircle
 10
-242.45942473993446
 20
-0.396397036603986
 30
0.0
 40
0.5989129830170392
100
AcDbArc
 50
269.89591452477237
 51
0.104085475227121
  0
ARC
  5
3ED
100
AcDbEntity
  8
0
  6
CONTINUOUS
 62
               4
100
AcDbCircle
 10
-244.26060789182966
 20
-0.39540417802516
 30
0.0
 40
0.5999048608870732
100
AcDbArc
 50
179.99091272245337
 51
270.00908727754575
  0
LINE
  5
3EE
100
AcDbEntity
  8
0
  6
CONTINUOUS
 62
               4
100
AcDbLine
 10
-241.8565127451715
 20
-0.8953090313669634
 30
0.0
 11
-241.8565127451715
 21
0.6046909686330366
 31
0.0
  0
LINE
  5
3EF
100
AcDbEntity
  8
0
  6
CONTINUOUS
 62
               4
100
AcDbLine
 10
-245.05651274517155
 20
0.6046909686330366
 30
0.0
 11
-241.8565127451715
 21
0.6046909686330366
 31
0.0
  0
LINE
  5
3F0
100
AcDbEntity
  8
0
  6
CONTINUOUS
 62
               4
100
AcDbLine
 10
-245.05651274517155
 20
-0.3953090313669634
 30
0.0
 11
-241.8565127451715
 21
-0.3953090313669634
 31
0.0
  0
LINE
  5
3F1
100
AcDbEntity
  8
0
  6
CONTINUOUS
 62
               4
100
AcDbLine
 10
-245.05651274517155
 20
-0.9953090313669861
 30
0.0
 11
-245.05651274517155
 21
21.004690968633007
 31
0.0
  0
ARC
  5
3F2
100
AcDbEntity
  8
0
  6
CONTINUOUS
 62
               4
100
AcDbCircle
 10
-235.55651274517155
 20
-0.3953090313669634
 30
0.0
 40
0.5
100
AcDbArc
 50
269.99999999999937
 51
0.0
  0
LINE
  5
3F3
100
AcDbEntity
  8
0
  6
CONTINUOUS
 62
               4
100
AcDbLine
 10
-245.05651274517155
 20
-0.9953090313669861
 30
0.0
 11
-235.05651274517155
 21
-0.9953090313669861
 31
0.0
  0
LINE
  5
3F4
100
AcDbEntity
  8
0
  6
CONTINUOUS
 62
               4
100
AcDbLine
 10
-241.8565127451715
 20
-0.8953090313669634
 30
0.0
 11
-235.55651274517155
 21
-0.8953090313669634
 31
0.0
  0
LINE
  5
3F5
100
AcDbEntity
  8
0
  6
CONTINUOUS
 62
               4
100
AcDbLine
 10
-235.05651274517155
 20
-0.9953090313669861
 30
0.0
 11
-235.05651274517155
 21
21.004690968633007
 31
0.0
  0
LINE
  5
3F6
100
AcDbEntity
  8
0
  6
CONTINUOUS
 62
               7
100
AcDbLine
 10
-245.75651274517156
 20
21.004690968633007
 30
0.0
 11
-234.35651274517159
 21
21.004690968633007
 31
0.0
  0
LINE
  5
3F7
100
AcDbEntity
  8
0
  6
CONTINUOUS
 62
               7
100
AcDbLine
 10
-234.35651274517159
 20
21.004690968633007
 30
0.0
 11
-234.05651274517157
 21
21.304690968633004
 31
0.0
  0
LINE
  5
3F8
100
AcDbEntity
  8
0
  6
CONTINUOUS
 62
               7
100
AcDbLine
 10
-245.75651274517156
 20
21.004690968633007
 30
0.0
 11
-246.05651274517157
 21
21.304690968633004
 31
0.0
  0
CIRCLE
  5
3F9
100
AcDbEntity
  8
0
  6
CONTINUOUS
 62
               7
100
AcDbCircle
 10
-240.05651274517155
 20
26.804690968632926
 30
0.0
 40
1.0
  0
LINE
  5
3FA
100
AcDbEntity
  8
0
  6
CENTER
 62
               2
100
AcDbLine
 10
-238.05651274517155
 20
26.804690968632926
 30
0.0
 11
-242.05651274517155
 21
26.804690968632926
 31
0.0
  0
LINE
  5
3FB
100
AcDbEntity
  8
0
  6
CONTINUOUS
 62
               7
100
AcDbLine
 10
-234.05651274517157
 20
35.004690968633035
 30
0.0
 11
-246.05651274517155
 21
35.004690968633035
 31
0.0
  0
ARC
  5
3FC
100
AcDbEntity
  8
0
  6
CONTINUOUS
 62
               4
100
AcDbCircle
 10
-237.65360075040863
 20
118.40577897387001
 30
0.0
 40
0.5989129830170392
100
AcDbArc
 50
89.895914524772749
 51
180.1040854752267
  0
ARC
  5
3FD
100
AcDbEntity
  8
0
  6
CONTINUOUS
 62
               4
100
AcDbCircle
 10
-235.85241759851343
 20
118.40478611529119
 30
0.0
 40
0.5999048608870732
100
AcDbArc
 50
359.99091272245295
 51
90.009087277546172
  0
LINE
  5
3FE
100
AcDbEntity
  8
0
  6
CONTINUOUS
 62
               4
100
AcDbLine
 10
-238.25651274517159
 20
118.90469096863299
 30
0.0
 11
-238.25651274517159
 21
117.40469096863299
 31
0.0
  0
LINE
  5
3FF
100
AcDbEntity
  8
0
  6
CONTINUOUS
 62
               4
100
AcDbLine
 10
-235.05651274517155
 20
117.40469096863299
 30
0.0
 11
-238.25651274517159
 21
117.40469096863299
 31
0.0
  0
LINE
  5
400
100
AcDbEntity
  8
0
  6
CONTINUOUS
 62
               4
100
AcDbLine
 10
-235.05651274517155
 20
118.40469096863299
 30
0.0
 11
-238.25651274517159
 21
118.40469096863299
 31
0.0
  0
LINE
  5
401
100
AcDbEntity
  8
0
  6
CENTER
 62
             200
100
AcDbLine
 10
-236.75251274517157
 20
116.60669096863299
 30
0.0
 11
-236.75251274517157
 21
119.82669096863302
 31
0.0
  0
LINE
  5
402
100
AcDbEntity
  8
0
  6
CONTINUOUS
 62
               4
100
AcDbLine
 10
-235.05651274517155
 20
119.00469096863301
 30
0.0
 11
-235.05651274517155
 21
97.004690968633042
 31
0.0
  0
ARC
  5
403
100
AcDbEntity
  8
0
  6
CONTINUOUS
 62
               4
100
AcDbCircle
 10
-244.55651274517155
 20
118.40469096863299
 30
0.0
 40
0.5
100
AcDbArc
 50
89.999999999999829
 51
179.99999999999963
  0
LINE
  5
404
100
AcDbEntity
  8
0
  6
CONTINUOUS
 62
               4
100
AcDbLine
 10
-235.05651274517155
 20
119.00469096863301
 30
0.0
 11
-245.05651274517155
 21
119.00469096863301
 31
0.0
  0
LINE
  5
405
100
AcDbEntity
  8
0
  6
CONTINUOUS
 62
               4
100
AcDbLine
 10
-238.25651274517159
 20
118.90469096863299
 30
0.0
 11
-244.55651274517155
 21
118.90469096863299
 31
0.0
  0
LINE
  5
406
100
AcDbEntity
  8
0
  6
CONTINUOUS
 62
               4
100
AcDbLine
 10
-245.05651274517155
 20
119.00469096863301
 30
0.0
 11
-245.05651274517155
 21
97.004690968633042
 31
0.0
  0
LINE
  5
407
100
AcDbEntity
  8
0
  6
CONTINUOUS
 62
               7
100
AcDbLine
 10
-234.05651274517157
 20
83.004690968633042
 30
0.0
 11
-246.05651274517157
 21
83.004690968633042
 31
0.0
  0
LINE
  5
408
100
AcDbEntity
  8
0
  6
CONTINUOUS
 62
               7
100
AcDbLine
 10
-246.05651274517157
 20
82.904690968633048
 30
0.0
 11
-245.95651274517155
 21
83.004690968633042
 31
0.0
  0
LINE
  5
409
100
AcDbEntity
  8
0
  6
CONTINUOUS
 62
               7
100
AcDbLine
 10
-234.15651274161951
 20
83.004690968633042
 30
0.0
 11
-234.05651274517157
 21
82.904690972185108
 31
0.0
  0
LINE
  5
40A
100
AcDbEntity
  8
0
  6
CONTINUOUS
 62
               7
100
AcDbLine
 10
-245.75651274517156
 20
97.004690968633042
 30
0.0
 11
-234.35651274517159
 21
97.004690968633042
 31
0.0
  0
LINE
  5
40B
100
AcDbEntity
  8
0
  6
CONTINUOUS
 62
               7
100
AcDbLine
 10
-234.35651274517159
 20
97.004690968633042
 30
0.0
 11
-234.05651274517157
 21
96.704690968633031
 31
0.0
  0
LINE
  5
40C
100
AcDbEntity
  8
0
  6
CONTINUOUS
 62
               7
100
AcDbLine
 10
-245.75651274517156
 20
97.004690968633042
 30
0.0
 11
-246.05651274517157
 21
96.704690968633031
 31
0.0
  0
LINE
  5
40D
100
AcDbEntity
  8
0
  6
CENTER
 62
               2
100
AcDbLine
 10
-240.05651274517155
 20
120.9046906634573
 30
0.0
 11
-240.05651274517155
 21
-3.234399281487697
 31
0.0
  0
LINE
  5
40E
100
AcDbEntity
  8
0
  6
CONTINUOUS
 62
               7
100
AcDbLine
 10
-246.05651274517152
 20
21.304690968633004
 30
0.0
 11
-246.05651274517157
 21
96.704690968633031
 31
0.0
  0
LINE
  5
40F
100
AcDbEntity
  8
0
  6
CONTINUOUS
 62
               7
100
AcDbLine
 10
-234.05651274517157
 20
44.004690968633035
 30
0.0
 11
-246.05651274517155
 21
44.004690968633035
 31
0.0
  0
LINE
  5
410
100
AcDbEntity
  8
0
  6
CENTER
 62
               2
100
AcDbLine
 10
-236.55651274517157
 20
57.504690964363675
 30
0.0
 11
-229.25651275313339
 21
57.504690964363675
 31
0.0
  0
LINE
  5
411
100
AcDbEntity
  8
0
  6
CONTINUOUS
 62
               4
100
AcDbLine
 10
-148.98984612325711
 20
52.004690964363682
 30
0.0
 11
-148.98984612325711
 21
75.004690964363675
 31
0.0
  0
ARC
  5
412
100
AcDbEntity
  8
0
  6
CONTINUOUS
 62
               4
100
AcDbCircle
 10
-147.98984612325711
 20
52.004690964363682
 30
0.0
 40
1.0
100
AcDbArc
 50
179.99999999999963
 51
269.99999999999937
  0
LINE
  5
413
100
AcDbEntity
  8
0
  6
CONTINUOUS
 62
               4
100
AcDbLine
 10
-147.98984612325711
 20
51.004690964363682
 30
0.0
 11
-137.98984612325711
 21
51.004690964363682
 31
0.0
  0
ARC
  5
414
100
AcDbEntity
  8
0
  6
CONTINUOUS
 62
               4
100
AcDbCircle
 10
-137.98984612325711
 20
52.004690964363682
 30
0.0
 40
1.0
100
AcDbArc
 50
270.00000000000023
 51
0.0
  0
LINE
  5
415
100
AcDbEntity
  8
0
  6
CONTINUOUS
 62
               4
100
AcDbLine
 10
-136.98984612325711
 20
52.004690964363682
 30
0.0
 11
-136.98984612325711
 21
75.004690964363675
 31
0.0
  0
ARC
  5
416
100
AcDbEntity
  8
0
  6
CONTINUOUS
 62
               4
100
AcDbCircle
 10
-137.98984612325711
 20
75.004690964363675
 30
0.0
 40
1.0
100
AcDbArc
 50
0.0
 51
89.999999999999815
  0
LINE
  5
417
100
AcDbEntity
  8
0
  6
CONTINUOUS
 62
               4
100
AcDbLine
 10
-147.98984612325711
 20
76.004690964363675
 30
0.0
 11
-137.98984612325711
 21
76.004690964363675
 31
0.0
  0
ARC
  5
418
100
AcDbEntity
  8
0
  6
CONTINUOUS
 62
               4
100
AcDbCircle
 10
-147.98984612325711
 20
75.004690964363675
 30
0.0
 40
1.0
100
AcDbArc
 50
89.999999999999815
 51
179.99999999999963
  0
ARC
  5
419
100
AcDbEntity
  8
0
  6
DASHED
 62
             200
100
AcDbCircle
 10
-162.88984612325717
 20
55.404690968632998
 30
0.0
 40
0.5
100
AcDbArc
 50
89.999999999999815
 51
179.99999999999963
  0
ARC
  5
41A
100
AcDbEntity
  8
0
  6
DASHED
 62
             200
100
AcDbCircle
 10
-162.88984612325717
 20
48.404690968632998
 30
0.0
 40
0.5
100
AcDbArc
 50
179.99999999999963
 51
269.99999999999937
  0
LINE
  5
41B
100
AcDbEntity
  8
0
  6
DASHED
 62
               7
100
AcDbLine
 10
-149.38984612325717
 20
55.904690968632998
 30
0.0
 11
-149.38984612325717
 21
47.904690968632998
 31
0.0
  0
LINE
  5
41C
100
AcDbEntity
  8
0
  6
DASHED
 62
             200
100
AcDbLine
 10
-163.38984612325717
 20
55.404690968632998
 30
0.0
 11
-163.38984612325717
 21
48.404690968632998
 31
0.0
  0
LINE
  5
41D
100
AcDbEntity
  8
0
  6
CENTER
 62
             200
100
AcDbLine
 10
-148.21949612325716
 20
51.904690968632998
 30
0.0
 11
-164.51984612325717
 21
51.904690968632998
 31
0.0
  0
LINE
  5
41E
100
AcDbEntity
  8
0
  6
DASHED
 62
             200
100
AcDbLine
 10
-149.38984612325717
 20
55.904690968632998
 30
0.0
 11
-162.88984612325717
 21
55.904690968632998
 31
0.0
  0
LINE
  5
41F
100
AcDbEntity
  8
0
  6
DASHED
 62
             200
100
AcDbLine
 10
-149.38984612325717
 20
47.904690968632998
 30
0.0
 11
-162.88984612325717
 21
47.904690968632998
 31
0.0
  0
LINE
  5
420
100
AcDbEntity
  8
0
  6
DASHED
 62
             200
100
AcDbLine
 10
-160.88984612325717
 20
55.904690968632998
 30
0.0
 11
-160.88984612325717
 21
47.904690968632998
 31
0.0
  0
LINE
  5
421
100
AcDbEntity
  8
0
  6
DASHED
 62
             200
100
AcDbLine
 10
-160.88984612325717
 20
48.204690968632995
 30
0.0
 11
-162.88984612325717
 21
48.204690968632995
 31
0.0
  0
LINE
  5
422
100
AcDbEntity
  8
0
  6
DASHED
 62
             200
100
AcDbLine
 10
-160.88984612325717
 20
48.704690968632995
 30
0.0
 11
-162.88984612325717
 21
48.704690968632995
 31
0.0
  0
LINE
  5
423
100
AcDbEntity
  8
0
  6
DASHED
 62
             200
100
AcDbLine
 10
-160.88984612325717
 20
49.404690968632998
 30
0.0
 11
-162.88984612325717
 21
49.404690968632998
 31
0.0
  0
LINE
  5
424
100
AcDbEntity
  8
0
  6
DASHED
 62
             200
100
AcDbLine
 10
-160.88984612325717
 20
50.304690968632997
 30
0.0
 11
-162.88984612325717
 21
50.304690968632997
 31
0.0
  0
LINE
  5
425
100
AcDbEntity
  8
0
  6
DASHED
 62
             200
100
AcDbLine
 10
-162.88984612325717
 20
55.904690968632998
 30
0.0
 11
-162.88984612325717
 21
47.904690968632998
 31
0.0
  0
LINE
  5
426
100
AcDbEntity
  8
0
  6
DASHED
 62
             200
100
AcDbLine
 10
-160.88984612325717
 20
51.204690968632995
 30
0.0
 11
-162.88984612325717
 21
51.204690968632995
 31
0.0
  0
LINE
  5
427
100
AcDbEntity
  8
0
  6
DASHED
 62
             200
100
AcDbLine
 10
-160.88984612325717
 20
55.604690968633001
 30
0.0
 11
-162.88984612325717
 21
55.604690968633001
 31
0.0
  0
LINE
  5
428
100
AcDbEntity
  8
0
  6
DASHED
 62
             200
100
AcDbLine
 10
-160.88984612325717
 20
55.104690968633001
 30
0.0
 11
-162.88984612325717
 21
55.104690968633001
 31
0.0
  0
LINE
  5
429
100
AcDbEntity
  8
0
  6
DASHED
 62
             200
100
AcDbLine
 10
-160.88984612325717
 20
54.404690968632998
 30
0.0
 11
-162.88984612325717
 21
54.404690968632998
 31
0.0
  0
LINE
  5
42A
100
AcDbEntity
  8
0
  6
DASHED
 62
             200
100
AcDbLine
 10
-160.88984612325717
 20
52.604690968633001
 30
0.0
 11
-162.88984612325717
 21
52.604690968633001
 31
0.0
  0
LINE
  5
42B
100
AcDbEntity
  8
0
  6
DASHED
 62
             200
100
AcDbLine
 10
-160.88984612325717
 20
53.504690968633
 30
0.0
 11
-162.88984612325717
 21
53.504690968633
 31
0.0
  0
ARC
  5
42C
100
AcDbEntity
  8
0
  6
DASHED
 62
             200
100
AcDbCircle
 10
-162.88984612325712
 20
78.604690968633008
 30
0.0
 40
0.5
100
AcDbArc
 50
89.999999999999815
 51
179.99999999999963
  0
ARC
  5
42D
100
AcDbEntity
  8
0
  6
DASHED
 62
             200
100
AcDbCircle
 10
-162.88984612325712
 20
71.604690968633008
 30
0.0
 40
0.5
100
AcDbArc
 50
179.99999999999963
 51
269.99999999999937
  0
LINE
  5
42E
100
AcDbEntity
  8
0
  6
DASHED
 62
               7
100
AcDbLine
 10
-149.38984612325712
 20
79.104690968633008
 30
0.0
 11
-149.38984612325712
 21
71.104690968633008
 31
0.0
  0
LINE
  5
42F
100
AcDbEntity
  8
0
  6
DASHED
 62
             200
100
AcDbLine
 10
-163.38984612325712
 20
78.604690968633008
 30
0.0
 11
-163.38984612325712
 21
71.604690968633008
 31
0.0
  0
LINE
  5
430
100
AcDbEntity
  8
0
  6
CENTER
 62
             200
100
AcDbLine
 10
-148.2194961232571
 20
75.104690968633008
 30
0.0
 11
-164.51984612325711
 21
75.104690968633008
 31
0.0
  0
LINE
  5
431
100
AcDbEntity
  8
0
  6
DASHED
 62
             200
100
AcDbLine
 10
-149.38984612325712
 20
79.104690968633008
 30
0.0
 11
-162.88984612325712
 21
79.104690968633008
 31
0.0
  0
LINE
  5
432
100
AcDbEntity
  8
0
  6
DASHED
 62
             200
100
AcDbLine
 10
-149.38984612325712
 20
71.104690968633008
 30
0.0
 11
-162.88984612325712
 21
71.104690968633008
 31
0.0
  0
LINE
  5
433
100
AcDbEntity
  8
0
  6
DASHED
 62
             200
100
AcDbLine
 10
-160.88984612325712
 20
79.104690968633008
 30
0.0
 11
-160.88984612325712
 21
71.104690968633008
 31
0.0
  0
LINE
  5
434
100
AcDbEntity
  8
0
  6
DASHED
 62
             200
100
AcDbLine
 10
-160.88984612325712
 20
71.40469096863302
 30
0.0
 11
-162.88984612325712
 21
71.40469096863302
 31
0.0
  0
LINE
  5
435
100
AcDbEntity
  8
0
  6
DASHED
 62
             200
100
AcDbLine
 10
-160.88984612325712
 20
71.90469096863302
 30
0.0
 11
-162.88984612325712
 21
71.90469096863302
 31
0.0
  0
LINE
  5
436
100
AcDbEntity
  8
0
  6
DASHED
 62
             200
100
AcDbLine
 10
-160.88984612325712
 20
72.604690968633008
 30
0.0
 11
-162.88984612325712
 21
72.604690968633008
 31
0.0
  0
LINE
  5
437
100
AcDbEntity
  8
0
  6
DASHED
 62
             200
100
AcDbLine
 10
-160.88984612325712
 20
73.504690968633014
 30
0.0
 11
-162.88984612325712
 21
73.504690968633014
 31
0.0
  0
LINE
  5
438
100
AcDbEntity
  8
0
  6
DASHED
 62
             200
100
AcDbLine
 10
-162.88984612325712
 20
79.104690968633008
 30
0.0
 11
-162.88984612325712
 21
71.104690968633008
 31
0.0
  0
LINE
  5
439
100
AcDbEntity
  8
0
  6
DASHED
 62
             200
100
AcDbLine
 10
-160.88984612325712
 20
74.40469096863302
 30
0.0
 11
-162.88984612325712
 21
74.40469096863302
 31
0.0
  0
LINE
  5
43A
100
AcDbEntity
  8
0
  6
DASHED
 62
             200
100
AcDbLine
 10
-160.88984612325712
 20
78.804690968633025
 30
0.0
 11
-162.88984612325712
 21
78.804690968633025
 31
0.0
  0
LINE
  5
43B
100
AcDbEntity
  8
0
  6
DASHED
 62
             200
100
AcDbLine
 10
-160.88984612325712
 20
78.304690968633025
 30
0.0
 11
-162.88984612325712
 21
78.304690968633025
 31
0.0
  0
LINE
  5
43C
100
AcDbEntity
  8
0
  6
DASHED
 62
             200
100
AcDbLine
 10
-160.88984612325712
 20
77.604690968633008
 30
0.0
 11
-162.88984612325712
 21
77.604690968633008
 31
0.0
  0
LINE
  5
43D
100
AcDbEntity
  8
0
  6
DASHED
 62
             200
100
AcDbLine
 10
-160.88984612325712
 20
75.804690968633025
 30
0.0
 11
-162.88984612325712
 21
75.804690968633025
 31
0.0
  0
LINE
  5
43E
100
AcDbEntity
  8
0
  6
DASHED
 62
             200
100
AcDbLine
 10
-160.88984612325712
 20
76.704690968633031
 30
0.0
 11
-162.88984612325712
 21
76.704690968633031
 31
0.0
  0
LINE
  5
43F
100
AcDbEntity
  8
0
  6
CENTER
 62
               2
100
AcDbLine
 10
-143.58984612325716
 20
57.504690964363675
 30
0.0
 11
-149.58984612325716
 21
57.504690964363675
 31
0.0
  0
LINE
  5
440
100
AcDbEntity
  8
0
  6
CENTER
 62
               2
100
AcDbLine
 10
-143.5898461232571
 20
69.504690964363675
 30
0.0
 11
-149.5898461232571
 21
69.504690964363675
 31
0.0
  0
CIRCLE
  5
441
100
AcDbEntity
  8
0
  6
CONTINUOUS
 62
               4
100
AcDbCircle
 10
-146.58984612325716
 20
57.504690964363675
 30
0.0
 40
1.75
  0
CIRCLE
  5
442
100
AcDbEntity
  8
0
  6
CONTINUOUS
 62
               4
100
AcDbCircle
 10
-146.5898461232571
 20
69.504690964363675
 30
0.0
 40
1.75
  0
LINE
  5
443
100
AcDbEntity
  8
0
  6
CENTER
 62
               2
100
AcDbLine
 10
-146.5898461232571
 20
72.504690964363675
 30
0.0
 11
-146.58984612325716
 21
66.504690964363675
 31
0.0
  0
LINE
  5
444
100
AcDbEntity
  8
0
  6
CENTER
 62
               2
100
AcDbLine
 10
-146.58984612325716
 20
60.504690964363675
 30
0.0
 11
-146.58984612325716
 21
54.504690964363675
 31
0.0
  0
LINE
  5
445
100
AcDbEntity
  8
0
  6
CONTINUOUS
 62
               7
100
AcDbLine
 10
-132.38984612325712
 20
73.854690968633008
 30
0.0
 11
-132.38984612325712
 21
70.558365956426073
 31
0.0
  0
LINE
  5
446
100
AcDbEntity
  8
0
  6
CONTINUOUS
 62
               7
100
AcDbLine
 10
-131.38984612325712
 20
73.854690968633008
 30
0.0
 11
-132.38984612325712
 21
73.854690968633008
 31
0.0
  0
LINE
  5
447
100
AcDbEntity
  8
0
  6
CONTINUOUS
 62
               7
100
AcDbLine
 10
-131.38984612325712
 20
70.554690968632997
 30
0.0
 11
-132.38984612325712
 21
70.554690968632997
 31
0.0
  0
LINE
  5
448
100
AcDbEntity
  8
0
  6
CONTINUOUS
 62
               7
100
AcDbLine
 10
-131.38984612325712
 20
35.004690964363697
 30
0.0
 11
-149.38984612325712
 21
35.004690964363711
 31
0.0
  0
LINE
  5
449
100
AcDbEntity
  8
0
  6
CONTINUOUS
 62
               7
100
AcDbLine
 10
-149.0898461232571
 20
21.004690964363782
 30
0.0
 11
-149.38984612325712
 21
21.304690964363793
 31
0.0
  0
LINE
  5
44A
100
AcDbEntity
  8
0
  6
CONTINUOUS
 62
               4
100
AcDbLine
 10
-147.3898461232572
 20
21.004690966570486
 30
0.0
 11
-147.38984612325709
 21
-0.3953087253926952
 31
0.0
  0
LINE
  5
44B
100
AcDbEntity
  8
0
  6
CONTINUOUS
 62
               4
100
AcDbLine
 10
-133.38984612325714
 20
-0.3953087304603997
 30
0.0
 11
-133.3898461232572
 21
21.004690964363796
 31
0.0
  0
ARC
  5
44C
100
AcDbEntity
  8
0
  6
CONTINUOUS
 62
               4
100
AcDbCircle
 10
-134.07275097659897
 20
-0.3954038771185964
 30
0.0
 40
0.5999048608870732
100
AcDbArc
 50
269.990912722453
 51
303.56005066674055
  0
ARC
  5
44D
100
AcDbEntity
  8
0
  6
CONTINUOUS
 62
               4
100
AcDbCircle
 10
-133.88984612325714
 20
-0.3953087304604281
 30
0.0
 40
0.5
100
AcDbArc
 50
294.73039869685095
 51
0.0
  0
ARC
  5
44E
100
AcDbEntity
  8
0
  6
CONTINUOUS
 62
               4
100
AcDbCircle
 10
-146.88984612325714
 20
-0.3953087304604281
 30
0.0
 40
0.5
100
AcDbArc
 50
179.99999999999963
 51
269.99999999999937
  0
LINE
  5
44F
100
AcDbEntity
  8
0
  6
CONTINUOUS
 62
               4
100
AcDbLine
 10
-146.88984612325714
 20
-0.8953087304604281
 30
0.0
 11
-145.38984612325714
 21
-0.8953087304604281
 31
0.0
  0
LINE
  5
450
100
AcDbEntity
  8
0
  6
CONTINUOUS
 62
               4
100
AcDbLine
 10
-133.38984612325714
 20
0.6046912695394866
 30
0.0
 11
-145.38984893978392
 21
0.6046912695394866
 31
0.0
  0
LINE
  5
451
100
AcDbEntity
  8
0
  6
CONTINUOUS
 62
               4
100
AcDbLine
 10
-145.38984893978392
 20
-0.9953087304605077
 30
0.0
 11
-145.38984893978392
 21
0.6046912695394866
 31
0.0
  0
LINE
  5
452
100
AcDbEntity
  8
0
  6
CONTINUOUS
 62
               4
100
AcDbLine
 10
-133.38984612325714
 20
-0.3953087304605134
 30
0.0
 11
-137.08984612325713
 21
-0.3953087304605134
 31
0.0
  0
ARC
  5
453
100
AcDbEntity
  8
0
  6
CONTINUOUS
 62
               4
100
AcDbCircle
 10
-134.07275097659897
 20
-0.3954038771185964
 30
0.0
 40
0.5999048608870732
100
AcDbArc
 50
303.56005066674135
 51
0.0090872775462214
  0
ARC
  5
454
100
AcDbEntity
  8
0
  6
CONTINUOUS
 62
               4
100
AcDbCircle
 10
-135.87393412849417
 20
-0.3963967356974223
 30
0.0
 40
0.5989129830170392
100
AcDbArc
 50
179.89591452477256
 51
270.1040854752265
  0
LINE
  5
455
100
AcDbEntity
  8
0
  6
CONTINUOUS
 62
               4
100
AcDbLine
 10
-134.07275097659891
 20
-0.9953087304604225
 30
0.0
 11
-145.38984893978392
 21
-0.9953087304605077
 31
0.0
  0
LINE
  5
456
100
AcDbEntity
  8
0
  6
CONTINUOUS
 62
               4
100
AcDbLine
 10
-137.08984612325713
 20
-0.3953087304605134
 30
0.0
 11
-137.08984612325713
 21
-0.9953087304604225
 31
0.0
  0
LINE
  5
457
100
AcDbEntity
  8
0
  6
CONTINUOUS
 62
               7
100
AcDbLine
 10
-149.0898461232571
 20
21.004690964363782
 30
0.0
 11
-131.38984612325706
 21
21.004690964363782
 31
0.0
  0
LINE
  5
458
100
AcDbEntity
  8
0
  6
CONTINUOUS
 62
               4
100
AcDbLine
 10
-131.38984612325706
 20
21.50469126953957
 30
0.0
 11
-130.50285567312952
 21
21.50469126953957
 31
0.0
  0
LINE
  5
459
100
AcDbEntity
  8
0
  6
CONTINUOUS
 62
               4
100
AcDbLine
 10
-133.38984612325717
 20
2.0036811796729097
 30
0.0
 11
-125.89489663259056
 21
2.0036811796728813
 31
0.0
  0
LINE
  5
45A
100
AcDbEntity
  8
0
  6
CONTINUOUS
 62
               4
100
AcDbLine
 10
-126.39691683432389
 20
1.9046912807395557
 30
0.0
 11
-132.09590673005724
 21
1.9046912807395842
 31
0.0
  0
LINE
  5
45B
100
AcDbEntity
  8
0
  6
CONTINUOUS
 62
               4
100
AcDbLine
 10
-123.99994713872391
 20
0.9006508772728665
 30
0.0
 11
-133.08984612325727
 21
0.900650877272895
 31
0.0
  0
LINE
  5
45C
100
AcDbEntity
  8
0
  6
CONTINUOUS
 62
               4
100
AcDbLine
 10
-117.39590673845723
 20
5.4046912787395485
 30
0.0
 11
-125.39287643085723
 21
5.4046912787395485
 31
0.0
  0
LINE
  5
45D
100
AcDbEntity
  8
0
  6
CONTINUOUS
 62
               4
100
AcDbLine
 10
-117.39590673845723
 20
3.6016609767395522
 30
0.0
 11
-125.39287643085723
 21
3.6016609767395522
 31
0.0
  0
LINE
  5
45E
100
AcDbEntity
  8
0
  6
CONTINUOUS
 62
               4
100
AcDbLine
 10
-117.39590673845723
 20
2.9016609771395707
 30
0.0
 11
-124.98984612805728
 21
2.9016609771395707
 31
0.0
  0
LINE
  5
45F
100
AcDbEntity
  8
0
  6
CONTINUOUS
 62
               4
100
AcDbLine
 10
-117.6928764352572
 20
2.6046912803395372
 30
0.0
 11
-123.59691683592396
 21
2.6046912803395372
 31
0.0
  0
LINE
  5
460
100
AcDbEntity
  8
0
  6
CONTINUOUS
 62
               4
100
AcDbLine
 10
-118.3928764348573
 20
6.401660975139535
 30
0.0
 11
-123.39186633099055
 21
6.401660975139535
 31
0.0
  0
LINE
  5
461
100
AcDbEntity
  8
0
  6
CONTINUOUS
 62
               4
100
AcDbLine
 10
-125.06055319872397
 20
2.1026710786062353
 30
0.0
 11
-118.79841281104805
 21
0.9996407762062205
 31
0.0
  0
LINE
  5
462
100
AcDbEntity
  8
0
  6
CONTINUOUS
 62
               4
100
AcDbLine
 10
-123.99994713872391
 20
0.9006508772728665
 30
0.0
 11
-118.89489663659052
 21
0.0026710798062055
 31
0.0
  0
ARC
  5
463
100
AcDbEntity
  8
0
  6
CONTINUOUS
 62
               4
100
AcDbCircle
 10
-124.98901208390285
 20
2.4977966301851922
 30
0.0
 40
0.403865208170398
100
AcDbArc
 50
90.118324735513326
 51
179.88167526448447
  0
ARC
  5
464
100
AcDbEntity
  8
0
  6
CONTINUOUS
 62
               4
100
AcDbCircle
 10
-124.98995019687825
 20
2.4993640379350524
 30
0.0
 40
0.4029269013737999
100
AcDbArc
 50
180.10428358574862
 51
259.90822844260316
  0
ARC
  5
465
100
AcDbEntity
  8
0
  6
CONTINUOUS
 62
               4
100
AcDbCircle
 10
-126.38993360912005
 20
2.3996569444468463
 30
0.0
 40
0.4950149226876425
100
AcDbArc
 50
269.19169587542069
 51
306.87687525883445
  0
ARC
  5
466
100
AcDbEntity
  8
0
  6
CONTINUOUS
 62
               4
100
AcDbCircle
 10
-125.88951328233591
 20
2.5003180311515365
 30
0.0
 40
0.4966660273328702
100
AcDbArc
 50
269.3789603635654
 51
0.6210396364360893
  0
ARC
  5
467
100
AcDbEntity
  8
0
  6
CONTINUOUS
 62
               4
100
AcDbCircle
 10
-125.89258875370038
 20
18.852168809000396
 30
0.0
 40
0.4997133381008655
100
AcDbArc
 50
0.1154955796428247
 51
65.173784690190203
  0
LINE
  5
468
100
AcDbEntity
  8
0
  6
CONTINUOUS
 62
               4
100
AcDbLine
 10
-130.50499764005716
 20
21.50469126953957
 30
0.0
 11
-130.50499764005727
 21
2.0036811796729097
 31
0.0
  0
LINE
  5
469
100
AcDbEntity
  8
0
  6
CONTINUOUS
 62
               4
100
AcDbLine
 10
-125.39287643085723
 20
7.0026710758062478
 30
0.0
 11
-123.39186633099055
 21
7.0026710758062478
 31
0.0
  0
LINE
  5
46A
100
AcDbEntity
  8
0
  6
CONTINUOUS
 62
               4
100
AcDbLine
 10
-123.89388653272388
 20
2.9016609771395707
 30
0.0
 11
-123.59691683592396
 21
2.6046912803395372
 31
0.0
  0
LINE
  5
46B
100
AcDbEntity
  8
0
  6
CONTINUOUS
 62
               4
100
AcDbLine
 10
-123.39186633099055
 20
7.0026710758062478
 30
0.0
 11
-123.39186633099055
 21
6.401660975139535
 31
0.0
  0
LINE
  5
46C
100
AcDbEntity
  8
0
  6
CONTINUOUS
 62
               4
100
AcDbLine
 10
-130.29130122874651
 20
21.457730690629838
 30
0.0
 11
-125.6827754205905
 21
19.305701371806229
 31
0.0
  0
LINE
  5
46D
100
AcDbEntity
  8
0
  6
CONTINUOUS
 62
               4
100
AcDbLine
 10
-125.39287643085723
 20
2.5057013814062117
 30
0.0
 11
-125.39287643085711
 21
18.853176119539562
 31
0.0
  0
LINE
  5
46E
100
AcDbEntity
  8
0
  6
CONTINUOUS
 62
               4
100
AcDbLine
 10
-106.39388654272389
 20
4.7541862286062013
 30
0.0
 11
-106.39388654272389
 21
4.2521660268728709
 31
0.0
  0
LINE
  5
46F
100
AcDbEntity
  8
0
  6
CONTINUOUS
 62
               4
100
AcDbLine
 10
-106.39388654272389
 20
4.7541862286062013
 30
0.0
 11
-109.89388654072391
 21
4.7541862286062297
 31
0.0
  0
LINE
  5
470
100
AcDbEntity
  8
0
  6
CONTINUOUS
 62
               4
100
AcDbLine
 10
-106.39388654272389
 20
4.2521660268728709
 30
0.0
 11
-109.89388654072391
 21
4.2521660268728994
 31
0.0
  0
LINE
  5
471
100
AcDbEntity
  8
0
  6
CONTINUOUS
 62
               4
100
AcDbLine
 10
-109.89388654072391
 20
5.1501458243395319
 30
0.0
 11
-109.89388654072391
 21
3.8491357240728945
 31
0.0
  0
LINE
  5
472
100
AcDbEntity
  8
0
  6
CONTINUOUS
 62
               4
100
AcDbLine
 10
-118.3928764348573
 20
7.0026710758062478
 30
0.0
 11
-117.39590673845723
 21
7.0026710758062478
 31
0.0
  0
LINE
  5
473
100
AcDbEntity
  8
0
  6
CONTINUOUS
 62
               4
100
AcDbLine
 10
-117.39590673845723
 20
0.9996407762062205
 30
0.0
 11
-118.80297744472389
 21
0.9996407762062205
 31
0.0
  0
LINE
  5
474
100
AcDbEntity
  8
0
  6
CONTINUOUS
 62
               4
100
AcDbLine
 10
-117.39590673845723
 20
0.0026710798062055
 30
0.0
 11
-118.89489663659052
 21
0.0026710798062055
 31
0.0
  0
LINE
  5
475
100
AcDbEntity
  8
0
  6
CONTINUOUS
 62
               4
100
AcDbLine
 10
-113.57772492245724
 20
3.8491357240728945
 30
0.0
 11
-117.39590673845723
 21
3.8491357240728945
 31
0.0
  0
LINE
  5
476
100
AcDbEntity
  8
0
  6
CONTINUOUS
 62
             200
100
AcDbLine
 10
-114.06560371005722
 20
3.0006508760728678
 30
0.0
 11
-112.33328047872388
 21
6.005701379406176
 31
0.0
  0
LINE
  5
477
100
AcDbEntity
  8
0
  6
CONTINUOUS
 62
               4
100
AcDbLine
 10
-112.82822997339056
 20
5.1501458243395319
 30
0.0
 11
-117.39590673845723
 21
5.1501458243395319
 31
0.0
  0
LINE
  5
478
100
AcDbEntity
  8
0
  6
CONTINUOUS
 62
               4
100
AcDbLine
 10
-118.3928764348573
 20
7.0026710758062478
 30
0.0
 11
-118.3928764348573
 21
6.401660975139535
 31
0.0
  0
LINE
  5
479
100
AcDbEntity
  8
0
  6
CONTINUOUS
 62
               4
100
AcDbLine
 10
-117.39590673845723
 20
2.9016609771395707
 30
0.0
 11
-117.6928764352572
 21
2.6046912803395372
 31
0.0
  0
LINE
  5
47A
100
AcDbEntity
  8
0
  6
CONTINUOUS
 62
               4
100
AcDbLine
 10
-117.39590673845723
 20
0.9996407762062205
 30
0.0
 11
-117.39590673845723
 21
0.0026710798062055
 31
0.0
  0
LINE
  5
47B
100
AcDbEntity
  8
0
  6
CONTINUOUS
 62
               4
100
AcDbLine
 10
-117.39590673845723
 20
7.0026710758062478
 30
0.0
 11
-117.39590673845723
 21
2.9016609771395707
 31
0.0
  0
LINE
  5
47C
100
AcDbEntity
  8
0
  6
CONTINUOUS
 62
             200
100
AcDbLine
 10
-113.71913906379055
 20
3.0006508760728678
 30
0.0
 11
-111.98681583245721
 21
5.9986306723395302
 31
0.0
  0
LINE
  5
47D
100
AcDbEntity
  8
0
  6
CONTINUOUS
 62
               4
100
AcDbLine
 10
-109.89388654072391
 20
5.1501458243395319
 30
0.0
 11
-112.4817653271239
 21
5.1501458243395319
 31
0.0
  0
LINE
  5
47E
100
AcDbEntity
  8
0
  6
CONTINUOUS
 62
               4
100
AcDbLine
 10
-109.89388654072391
 20
3.8491357240728945
 30
0.0
 11
-113.23126027619057
 21
3.8491357240728945
 31
0.0
  0
ARC
  5
47F
100
AcDbEntity
  8
0
  6
CONTINUOUS
 62
               4
100
AcDbCircle
 10
-130.50285567312952
 20
21.004691269539585
 30
0.0
 40
0.5
100
AcDbArc
 50
64.968979182781382
 51
89.999999999999702
  0
LINE
  5
480
100
AcDbEntity
  8
0
  6
CONTINUOUS
 62
               4
100
AcDbLine
 10
-132.09590673005724
 20
1.9046912807395842
 30
0.0
 11
-132.09590673005724
 21
2.0036811796729097
 31
0.0
  0
ARC
  5
481
100
AcDbEntity
  8
0
  6
CONTINUOUS
 62
               4
100
AcDbCircle
 10
-133.08984612325727
 20
1.2006508772728779
 30
0.0
 40
0.3
100
AcDbArc
 50
179.99999999999949
 51
269.99999999999932
  0
ARC
  5
482
100
AcDbEntity
  8
0
  6
CONTINUOUS
 62
               4
100
AcDbCircle
 10
-133.08984612325716
 20
116.80873105145452
 30
0.0
 40
0.3
100
AcDbArc
 50
89.999999999999815
 51
179.99999999999963
  0
LINE
  5
483
100
AcDbEntity
  8
0
  6
CONTINUOUS
 62
               4
100
AcDbLine
 10
-132.09590673005712
 20
116.10469064798781
 30
0.0
 11
-132.09590673005712
 21
116.00570074905448
 31
0.0
  0
LINE
  5
484
100
AcDbEntity
  8
0
  6
PHANTOM
 62
               7
100
AcDbLine
 10
-149.38984611913716
 20
27.004690955207387
 30
0.0
 11
-149.38984611913716
 21
32.004690964363611
 31
0.0
  0
LINE
  5
485
100
AcDbEntity
  8
0
  6
CONTINUOUS
 62
               7
100
AcDbLine
 10
-149.3898461232572
 20
21.304690964363793
 30
0.0
 11
-149.38984612325712
 21
96.704690964363635
 31
0.0
  0
LINE
  5
486
100
AcDbEntity
  8
0
  6
CONTINUOUS
 62
               7
100
AcDbLine
 10
-131.38984612325712
 20
21.004690964363782
 30
0.0
 11
-131.38984612325712
 21
97.004690964363618
 31
0.0
  0
LINE
  5
487
100
AcDbEntity
  8
0
  6
CENTER
 62
               2
100
AcDbLine
 10
-140.38984612325712
 20
120.90469066345727
 30
0.0
 11
-140.3898461232572
 21
-2.8281828728930094
 31
0.0
  0
ARC
  5
488
100
AcDbEntity
  8
0
  6
CONTINUOUS
 62
               4
100
AcDbCircle
 10
-130.50285567312952
 20
97.004690659187816
 30
0.0
 40
0.5
100
AcDbArc
 50
269.99999999999937
 51
295.03102081721772
  0
LINE
  5
489
100
AcDbEntity
  8
0
  6
CONTINUOUS
 62
               4
100
AcDbLine
 10
-109.8938865407238
 20
114.16024620465447
 30
0.0
 11
-113.23126027619045
 21
114.16024620465447
 31
0.0
  0
LINE
  5
48A
100
AcDbEntity
  8
0
  6
CONTINUOUS
 62
               4
100
AcDbLine
 10
-109.8938865407238
 20
112.85923610438783
 30
0.0
 11
-112.48176532712378
 21
112.85923610438783
 31
0.0
  0
LINE
  5
48B
100
AcDbEntity
  8
0
  6
CONTINUOUS
 62
             200
100
AcDbLine
 10
-113.71913906379044
 20
115.0087310526545
 30
0.0
 11
-111.9868158324571
 21
112.01075125638783
 31
0.0
  0
LINE
  5
48C
100
AcDbEntity
  8
0
  6
CONTINUOUS
 62
               4
100
AcDbLine
 10
-117.39590673845711
 20
111.00671085292112
 30
0.0
 11
-117.39590673845711
 21
115.10772095158779
 31
0.0
  0
LINE
  5
48D
100
AcDbEntity
  8
0
  6
CONTINUOUS
 62
               4
100
AcDbLine
 10
-117.39590673845711
 20
117.00974115252114
 30
0.0
 11
-117.39590673845711
 21
118.00671084892116
 31
0.0
  0
LINE
  5
48E
100
AcDbEntity
  8
0
  6
CONTINUOUS
 62
               4
100
AcDbLine
 10
-117.39590673845711
 20
115.10772095158779
 30
0.0
 11
-117.69287643525709
 21
115.40469064838783
 31
0.0
  0
LINE
  5
48F
100
AcDbEntity
  8
0
  6
CONTINUOUS
 62
               4
100
AcDbLine
 10
-118.39287643485719
 20
111.00671085292112
 30
0.0
 11
-118.39287643485719
 21
111.60772095358783
 31
0.0
  0
LINE
  5
490
100
AcDbEntity
  8
0
  6
CONTINUOUS
 62
               4
100
AcDbLine
 10
-112.82822997339045
 20
112.85923610438783
 30
0.0
 11
-117.39590673845711
 21
112.85923610438783
 31
0.0
  0
LINE
  5
491
100
AcDbEntity
  8
0
  6
CONTINUOUS
 62
             200
100
AcDbLine
 10
-114.0656037100571
 20
115.0087310526545
 30
0.0
 11
-112.33328047872376
 21
112.00368054932119
 31
0.0
  0
LINE
  5
492
100
AcDbEntity
  8
0
  6
CONTINUOUS
 62
               4
100
AcDbLine
 10
-113.57772492245712
 20
114.16024620465447
 30
0.0
 11
-117.39590673845711
 21
114.16024620465447
 31
0.0
  0
LINE
  5
493
100
AcDbEntity
  8
0
  6
CONTINUOUS
 62
               4
100
AcDbLine
 10
-117.39590673845711
 20
118.00671084892116
 30
0.0
 11
-118.8948966365904
 21
118.00671084892116
 31
0.0
  0
LINE
  5
494
100
AcDbEntity
  8
0
  6
CONTINUOUS
 62
               4
100
AcDbLine
 10
-117.39590673845711
 20
117.00974115252114
 30
0.0
 11
-118.79841281104794
 21
117.00974115252114
 31
0.0
  0
LINE
  5
495
100
AcDbEntity
  8
0
  6
CONTINUOUS
 62
               4
100
AcDbLine
 10
-118.39287643485719
 20
111.00671085292112
 30
0.0
 11
-117.39590673845711
 21
111.00671085292112
 31
0.0
  0
LINE
  5
496
100
AcDbEntity
  8
0
  6
CONTINUOUS
 62
               4
100
AcDbLine
 10
-109.8938865407238
 20
112.85923610438783
 30
0.0
 11
-109.8938865407238
 21
114.16024620465447
 31
0.0
  0
LINE
  5
497
100
AcDbEntity
  8
0
  6
CONTINUOUS
 62
               4
100
AcDbLine
 10
-106.39388654272378
 20
113.75721590185447
 30
0.0
 11
-109.8938865407238
 21
113.75721590185447
 31
0.0
  0
LINE
  5
498
100
AcDbEntity
  8
0
  6
CONTINUOUS
 62
               4
100
AcDbLine
 10
-106.39388654272378
 20
113.25519570012113
 30
0.0
 11
-109.8938865407238
 21
113.25519570012113
 31
0.0
  0
LINE
  5
499
100
AcDbEntity
  8
0
  6
CONTINUOUS
 62
               4
100
AcDbLine
 10
-106.39388654272378
 20
113.25519570012113
 30
0.0
 11
-106.39388654272378
 21
113.75721590185447
 31
0.0
  0
LINE
  5
49A
100
AcDbEntity
  8
0
  6
CONTINUOUS
 62
               4
100
AcDbLine
 10
-125.39287643085711
 20
115.50368054732115
 30
0.0
 11
-125.39287643085711
 21
99.15620580918781
 31
0.0
  0
LINE
  5
49B
100
AcDbEntity
  8
0
  6
CONTINUOUS
 62
               4
100
AcDbLine
 10
-130.29130122874651
 20
96.551651238097548
 30
0.0
 11
-125.6827754205905
 21
98.703680556921142
 31
0.0
  0
LINE
  5
49C
100
AcDbEntity
  8
0
  6
CONTINUOUS
 62
               4
100
AcDbLine
 10
-123.39186633099044
 20
111.00671085292112
 30
0.0
 11
-123.39186633099044
 21
111.60772095358783
 31
0.0
  0
LINE
  5
49D
100
AcDbEntity
  8
0
  6
CONTINUOUS
 62
               4
100
AcDbLine
 10
-123.89388653272377
 20
115.10772095158779
 30
0.0
 11
-123.59691683592385
 21
115.40469064838783
 31
0.0
  0
LINE
  5
49E
100
AcDbEntity
  8
0
  6
CONTINUOUS
 62
               4
100
AcDbLine
 10
-125.39287643085711
 20
111.00671085292112
 30
0.0
 11
-123.39186633099044
 21
111.00671085292112
 31
0.0
  0
LINE
  5
49F
100
AcDbEntity
  8
0
  6
CONTINUOUS
 62
               4
100
AcDbLine
 10
-130.50499764005716
 20
96.504690659187816
 30
0.0
 11
-130.50499764005716
 21
116.00570074905448
 31
0.0
  0
ARC
  5
4A0
100
AcDbEntity
  8
0
  6
CONTINUOUS
 62
               4
100
AcDbCircle
 10
-125.89258875370038
 20
99.157213119726975
 30
0.0
 40
0.4997133381008655
100
AcDbArc
 50
294.8262153098089
 51
359.88450442035634
  0
ARC
  5
4A1
100
AcDbEntity
  8
0
  6
CONTINUOUS
 62
               4
100
AcDbCircle
 10
-125.8895132823358
 20
115.50906389757583
 30
0.0
 40
0.4966660273328702
100
AcDbArc
 50
359.37896036356381
 51
90.621039636433693
  0
ARC
  5
4A2
100
AcDbEntity
  8
0
  6
CONTINUOUS
 62
               4
100
AcDbCircle
 10
-126.38993360911994
 20
115.60972498428052
 30
0.0
 40
0.4950149226876425
100
AcDbArc
 50
53.123124741164709
 51
90.808304124578498
  0
ARC
  5
4A3
100
AcDbEntity
  8
0
  6
CONTINUOUS
 62
               4
100
AcDbCircle
 10
-124.98995019687814
 20
115.51001789079231
 30
0.0
 40
0.4029269013737999
100
AcDbArc
 50
100.09177155739597
 51
179.8957164142505
  0
ARC
  5
4A4
100
AcDbEntity
  8
0
  6
CONTINUOUS
 62
               4
100
AcDbCircle
 10
-124.98901208390274
 20
115.51158529854217
 30
0.0
 40
0.403865208170398
100
AcDbArc
 50
180.11832473551465
 51
269.88167526448575
  0
LINE
  5
4A5
100
AcDbEntity
  8
0
  6
CONTINUOUS
 62
               4
100
AcDbLine
 10
-123.9999471387238
 20
117.1087310514545
 30
0.0
 11
-118.8948966365904
 21
118.00671084892116
 31
0.0
  0
LINE
  5
4A6
100
AcDbEntity
  8
0
  6
CONTINUOUS
 62
               4
100
AcDbLine
 10
-125.06055319872385
 20
115.90671085012113
 30
0.0
 11
-118.79841281104794
 21
117.00974115252114
 31
0.0
  0
LINE
  5
4A7
100
AcDbEntity
  8
0
  6
CONTINUOUS
 62
               4
100
AcDbLine
 10
-118.39287643485719
 20
111.60772095358783
 30
0.0
 11
-123.39186633099044
 21
111.60772095358783
 31
0.0
  0
LINE
  5
4A8
100
AcDbEntity
  8
0
  6
CONTINUOUS
 62
               4
100
AcDbLine
 10
-117.69287643525709
 20
115.40469064838783
 30
0.0
 11
-123.59691683592385
 21
115.40469064838783
 31
0.0
  0
LINE
  5
4A9
100
AcDbEntity
  8
0
  6
CONTINUOUS
 62
               4
100
AcDbLine
 10
-117.39590673845711
 20
115.10772095158779
 30
0.0
 11
-124.98984612805717
 21
115.10772095158779
 31
0.0
  0
LINE
  5
4AA
100
AcDbEntity
  8
0
  6
CONTINUOUS
 62
               4
100
AcDbLine
 10
-117.39590673845711
 20
114.40772095198781
 30
0.0
 11
-125.39287643085711
 21
114.40772095198781
 31
0.0
  0
LINE
  5
4AB
100
AcDbEntity
  8
0
  6
CONTINUOUS
 62
               4
100
AcDbLine
 10
-117.39590673845711
 20
112.60469064998782
 30
0.0
 11
-125.39287643085711
 21
112.60469064998782
 31
0.0
  0
LINE
  5
4AC
100
AcDbEntity
  8
0
  6
CONTINUOUS
 62
               4
100
AcDbLine
 10
-123.9999471387238
 20
117.1087310514545
 30
0.0
 11
-133.08984612325716
 21
117.1087310514545
 31
0.0
  0
LINE
  5
4AD
100
AcDbEntity
  8
0
  6
CONTINUOUS
 62
               4
100
AcDbLine
 10
-126.39691683432378
 20
116.10469064798781
 30
0.0
 11
-132.09590673005712
 21
116.10469064798781
 31
0.0
  0
LINE
  5
4AE
100
AcDbEntity
  8
0
  6
CONTINUOUS
 62
               4
100
AcDbLine
 10
-133.38984612325706
 20
116.00570074905448
 30
0.0
 11
-125.89489663259045
 21
116.00570074905448
 31
0.0
  0
LINE
  5
4AF
100
AcDbEntity
  8
0
  6
CONTINUOUS
 62
               4
100
AcDbLine
 10
-131.38984612325706
 20
96.504690659187816
 30
0.0
 11
-130.50285567312952
 21
96.504690659187816
 31
0.0
  0
LINE
  5
4B0
100
AcDbEntity
  8
0
  6
CONTINUOUS
 62
               7
100
AcDbLine
 10
-149.0898461232571
 20
97.004690964363647
 30
0.0
 11
-131.38984612325706
 21
97.004690964363618
 31
0.0
  0
LINE
  5
4B1
100
AcDbEntity
  8
0
  6
CONTINUOUS
 62
               4
100
AcDbLine
 10
-143.68984612325713
 20
118.40469065918793
 30
0.0
 11
-143.68984612325713
 21
119.00469065918784
 31
0.0
  0
LINE
  5
4B2
100
AcDbEntity
  8
0
  6
CONTINUOUS
 62
               4
100
AcDbLine
 10
-146.70694126991535
 20
119.00469065918784
 30
0.0
 11
-135.38984330673034
 21
119.0046906591879
 31
0.0
  0
ARC
  5
4B3
100
AcDbEntity
  8
0
  6
CONTINUOUS
 62
               4
100
AcDbCircle
 10
-144.90575811802009
 20
118.40577866442484
 30
0.0
 40
0.5989129830170392
100
AcDbArc
 50
359.89591452477299
 51
90.104085475226924
  0
ARC
  5
4B4
100
AcDbEntity
  8
0
  6
CONTINUOUS
 62
               4
100
AcDbCircle
 10
-146.70694126991529
 20
118.40478580584602
 30
0.0
 40
0.5999048608870732
100
AcDbArc
 50
123.56005066674096
 51
180.00908727754583
  0
LINE
  5
4B5
100
AcDbEntity
  8
0
  6
CONTINUOUS
 62
               4
100
AcDbLine
 10
-147.38984612325712
 20
118.40469065918793
 30
0.0
 11
-143.68984612325713
 21
118.40469065918793
 31
0.0
  0
LINE
  5
4B6
100
AcDbEntity
  8
0
  6
CONTINUOUS
 62
               4
100
AcDbLine
 10
-135.38984330673034
 20
119.0046906591879
 30
0.0
 11
-135.38984330673034
 21
117.40469065918791
 31
0.0
  0
LINE
  5
4B7
100
AcDbEntity
  8
0
  6
CONTINUOUS
 62
               4
100
AcDbLine
 10
-147.38984612325712
 20
117.40469065918793
 30
0.0
 11
-135.38984330673034
 21
117.40469065918791
 31
0.0
  0
LINE
  5
4B8
100
AcDbEntity
  8
0
  6
CONTINUOUS
 62
               4
100
AcDbLine
 10
-133.88984612325712
 20
118.90469065918782
 30
0.0
 11
-135.38984612325712
 21
118.90469065918782
 31
0.0
  0
ARC
  5
4B9
100
AcDbEntity
  8
0
  6
CONTINUOUS
 62
               4
100
AcDbCircle
 10
-133.88984612325712
 20
118.40469065918782
 30
0.0
 40
0.5
100
AcDbArc
 50
0.0
 51
89.999999999999815
  0
ARC
  5
4BA
100
AcDbEntity
  8
0
  6
CONTINUOUS
 62
               4
100
AcDbCircle
 10
-146.88984612325712
 20
118.40469065918785
 30
0.0
 40
0.5
100
AcDbArc
 50
114.73039869685056
 51
179.99999999999963
  0
ARC
  5
4BB
100
AcDbEntity
  8
0
  6
CONTINUOUS
 62
               4
100
AcDbCircle
 10
-146.70694126991529
 20
118.40478580584602
 30
0.0
 40
0.5999048608870732
100
AcDbArc
 50
89.99091272245343
 51
123.56005066674096
  0
LINE
  5
4BC
100
AcDbEntity
  8
0
  6
CONTINUOUS
 62
               4
100
AcDbLine
 10
-147.38984612325712
 20
118.40469065918782
 30
0.0
 11
-147.38984612325717
 21
97.004690964363618
 31
0.0
  0
LINE
  5
4BD
100
AcDbEntity
  8
0
  6
CONTINUOUS
 62
               4
100
AcDbLine
 10
-133.38984612325717
 20
97.0046909621569
 30
0.0
 11
-133.38984612325717
 21
118.40469065412009
 31
0.0
  0
LINE
  5
4BE
100
AcDbEntity
  8
0
  6
CONTINUOUS
 62
               7
100
AcDbLine
 10
-149.38984612325706
 20
82.904690964363624
 30
0.0
 11
-149.28984612325709
 21
83.004690964363618
 31
0.0
  0
LINE
  5
4BF
100
AcDbEntity
  8
0
  6
CONTINUOUS
 62
               7
100
AcDbLine
 10
-149.0898461232571
 20
97.004690964363647
 30
0.0
 11
-149.38984612325712
 21
96.704690964363635
 31
0.0
  0
LINE
  5
4C0
100
AcDbEntity
  8
0
  6
CONTINUOUS
 62
               7
100
AcDbLine
 10
-149.28984612325709
 20
83.004690964363704
 30
0.0
 11
-131.38984612325712
 21
83.004690964363704
 31
0.0
  0
LINE
  5
4C1
100
AcDbEntity
  8
0
  6
CONTINUOUS
 62
               7
100
AcDbLine
 10
-131.38984612325712
 20
44.004690964363697
 30
0.0
 11
-149.38984612325712
 21
44.004690964363711
 31
0.0
  0
LINE
  5
4C2
100
AcDbEntity
  8
0
  6
CONTINUOUS
 62
               4
100
AcDbLine
 10
-61.023179493380894
 20
51.007690972372501
 30
0.0
 11
-61.023179493380781
 21
76.007690972372501
 31
0.0
  0
LINE
  5
4C3
100
AcDbEntity
  8
0
  6
CONTINUOUS
 62
               4
100
AcDbLine
 10
-58.723179501342656
 20
51.007690964363661
 30
0.0
 11
-61.023179493380894
 21
51.007690964363661
 31
0.0
  0
LINE
  5
4C4
100
AcDbEntity
  8
0
  6
CONTINUOUS
 62
               4
100
AcDbLine
 10
-58.723179501342656
 20
76.007690964363661
 30
0.0
 11
-61.023179493380781
 21
76.007690964363661
 31
0.0
  0
ARC
  5
4C5
100
AcDbEntity
  8
0
  6
CONTINUOUS
 62
               4
100
AcDbCircle
 10
-48.661179501342701
 20
115.50669096863307
 30
0.0
 40
0.5
100
AcDbArc
 50
0.0
 51
89.999999999999815
  0
LINE
  5
4C6
100
AcDbEntity
  8
0
  6
CONTINUOUS
 62
               4
100
AcDbLine
 10
-48.161179501342701
 20
115.50669096863307
 30
0.0
 11
-48.161179501342701
 21
99.331548127493832
 31
0.0
  0
ARC
  5
4C7
100
AcDbEntity
  8
0
  6
CONTINUOUS
 62
               4
100
AcDbCircle
 10
-48.661179501342701
 20
99.331548127493832
 30
0.0
 40
0.5
100
AcDbArc
 50
270.00000000000023
 51
0.0
  0
LINE
  5
4C8
100
AcDbEntity
  8
0
  6
CONTINUOUS
 62
               4
100
AcDbLine
 10
-56.785179501342697
 20
98.831548127493832
 30
0.0
 11
-48.661179501342701
 21
98.831548127493832
 31
0.0
  0
ARC
  5
4C9
100
AcDbEntity
  8
0
  6
CONTINUOUS
 62
               4
100
AcDbCircle
 10
-56.785179501342725
 20
99.331548127493832
 30
0.0
 40
0.5
100
AcDbArc
 50
179.99999999999963
 51
269.99999999999937
  0
LINE
  5
4CA
100
AcDbEntity
  8
0
  6
CONTINUOUS
 62
               4
100
AcDbLine
 10
-57.285179501342725
 20
115.50669096863307
 30
0.0
 11
-57.285179501342725
 21
99.331548127493832
 31
0.0
  0
ARC
  5
4CB
100
AcDbEntity
  8
0
  6
CONTINUOUS
 62
               4
100
AcDbCircle
 10
-56.785179501342725
 20
115.50669096863307
 30
0.0
 40
0.5
100
AcDbArc
 50
89.999999999999815
 51
179.99999999999963
  0
LINE
  5
4CC
100
AcDbEntity
  8
0
  6
PHANTOM
 62
             200
100
AcDbLine
 10
-54.223179501342685
 20
14.002690960094291
 30
0.0
 11
-54.223179501342685
 21
16.002690960094291
 31
0.0
  0
LINE
  5
4CD
100
AcDbEntity
  8
0
  6
CONTINUOUS
 62
               4
100
AcDbLine
 10
-55.473179501342571
 20
2.0026909600942417
 30
0.0
 11
-57.223179501342571
 21
2.0026909600942417
 31
0.0
  0
ARC
  5
4CE
100
AcDbEntity
  8
0
  6
CONTINUOUS
 62
               4
100
AcDbCircle
 10
-57.223184078865216
 20
2.5026863825716248
 30
0.0
 40
0.4999954224983215
100
AcDbArc
 50
179.99947544974265
 51
270.00052455025656
  0
CIRCLE
  5
4CF
100
AcDbEntity
  8
0
  6
CONTINUOUS
 62
               4
100
AcDbCircle
 10
-53.973179501342571
 20
4.4027062188833099
 30
0.0
 40
0.8499675393104554
  0
LINE
  5
4D0
100
AcDbEntity
  8
0
  6
CONTINUOUS
 62
               4
100
AcDbLine
 10
-53.023179501342639
 20
3.2526909600942417
 30
0.0
 11
-54.923179501342617
 21
3.2526909600942417
 31
0.0
  0
LINE
  5
4D1
100
AcDbEntity
  8
0
  6
CONTINUOUS
 62
               4
100
AcDbLine
 10
-53.023179501342639
 20
5.3526909600942645
 30
0.0
 11
-54.923179501342617
 21
5.3526909600942645
 31
0.0
  0
LINE
  5
4D2
100
AcDbEntity
  8
0
  6
CONTINUOUS
 62
               4
100
AcDbLine
 10
-53.023179501342639
 20
3.4526909600942588
 30
0.0
 11
-54.923179501342617
 21
3.4526909600942588
 31
0.0
  0
LINE
  5
4D3
100
AcDbEntity
  8
0
  6
CONTINUOUS
 62
               4
100
AcDbLine
 10
-53.473179501342571
 20
5.6526909600942474
 30
0.0
 11
-54.473179501342571
 21
5.6526909600942474
 31
0.0
  0
LINE
  5
4D4
100
AcDbEntity
  8
0
  6
CONTINUOUS
 62
               4
100
AcDbLine
 10
-54.923179501342617
 20
3.2526909600942417
 30
0.0
 11
-54.923179501342617
 21
5.3526909600942645
 31
0.0
  0
LINE
  5
4D5
100
AcDbEntity
  8
0
  6
CONTINUOUS
 62
               4
100
AcDbLine
 10
-55.473179501342571
 20
2.9426909600942111
 30
0.0
 11
-55.133179501342596
 21
2.6026909600942645
 31
0.0
  0
LINE
  5
4D6
100
AcDbEntity
  8
0
  6
CONTINUOUS
 62
               4
100
AcDbLine
 10
-54.473179501342571
 20
5.3526909600942645
 30
0.0
 11
-54.473179501342571
 21
5.6526909600942474
 31
0.0
  0
LINE
  5
4D7
100
AcDbEntity
  8
0
  6
CONTINUOUS
 62
               4
100
AcDbLine
 10
-55.473179501342571
 20
5.4026909600942474
 30
0.0
 11
-55.473179501342571
 21
6.9026909600942474
 31
0.0
  0
LINE
  5
4D8
100
AcDbEntity
  8
0
  6
CONTINUOUS
 62
               4
100
AcDbLine
 10
-55.473179501342571
 20
5.4026909600942474
 30
0.0
 11
-56.473179501342571
 21
5.4026909600942474
 31
0.0
  0
LINE
  5
4D9
100
AcDbEntity
  8
0
  6
CONTINUOUS
 62
               4
100
AcDbLine
 10
-55.573179501342594
 20
5.5026909600942417
 30
0.0
 11
-56.573179501342594
 21
5.5026909600942417
 31
0.0
  0
LINE
  5
4DA
100
AcDbEntity
  8
0
  6
CONTINUOUS
 62
               4
100
AcDbLine
 10
-55.573179501342594
 20
3.5026909600942417
 30
0.0
 11
-56.573179501342594
 21
3.5026909600942417
 31
0.0
  0
LINE
  5
4DB
100
AcDbEntity
  8
0
  6
CONTINUOUS
 62
               4
100
AcDbLine
 10
-55.473179501342571
 20
3.6026909600942645
 30
0.0
 11
-56.473179501342571
 21
3.6026909600942645
 31
0.0
  0
LINE
  5
4DC
100
AcDbEntity
  8
0
  6
CONTINUOUS
 62
               4
100
AcDbLine
 10
-56.573179501342594
 20
3.5026909600942417
 30
0.0
 11
-56.573179501342594
 21
5.5026909600942417
 31
0.0
  0
LINE
  5
4DD
100
AcDbEntity
  8
0
  6
CONTINUOUS
 62
               4
100
AcDbLine
 10
-56.473179501342571
 20
5.4026909600942474
 30
0.0
 11
-56.473179501342571
 21
3.6026909600942645
 31
0.0
  0
LINE
  5
4DE
100
AcDbEntity
  8
0
  6
CONTINUOUS
 62
               4
100
AcDbLine
 10
-53.023179501342639
 20
3.2526909600942417
 30
0.0
 11
-53.023179501342639
 21
5.3526909600942645
 31
0.0
  0
LINE
  5
4DF
100
AcDbEntity
  8
0
  6
CONTINUOUS
 62
               4
100
AcDbLine
 10
-53.473179501342571
 20
5.3526909600942645
 30
0.0
 11
-53.473179501342571
 21
5.6526909600942474
 31
0.0
  0
LINE
  5
4E0
100
AcDbEntity
  8
0
  6
CONTINUOUS
 62
               4
100
AcDbLine
 10
-55.573179501342594
 20
2.0026909600942417
 30
0.0
 11
-55.573179501342594
 21
3.5026909600942417
 31
0.0
  0
LINE
  5
4E1
100
AcDbEntity
  8
0
  6
CONTINUOUS
 62
               4
100
AcDbLine
 10
-55.573179501342594
 20
5.5026909600942417
 30
0.0
 11
-55.573179501342594
 21
7.0026909600942417
 31
0.0
  0
LINE
  5
4E2
100
AcDbEntity
  8
0
  6
CONTINUOUS
 62
               4
100
AcDbLine
 10
-55.473179501342571
 20
-0.0973090399057526
 30
0.0
 11
-55.473179501342571
 21
3.6026909600942645
 31
0.0
  0
LINE
  5
4E3
100
AcDbEntity
  8
0
  6
CONTINUOUS
 62
               4
100
AcDbLine
 10
-50.523179501342639
 20
5.3526909600942645
 30
0.0
 11
-52.423179501342617
 21
5.3526909600942645
 31
0.0
  0
LINE
  5
4E4
100
AcDbEntity
  8
0
  6
CONTINUOUS
 62
               4
100
AcDbLine
 10
-50.973179501342628
 20
5.6526909600942474
 30
0.0
 11
-51.973179501342628
 21
5.6526909600942474
 31
0.0
  0
LINE
  5
4E5
100
AcDbEntity
  8
0
  6
CONTINUOUS
 62
               4
100
AcDbLine
 10
-48.973179501342628
 20
5.4026909600942474
 30
0.0
 11
-49.973179501342628
 21
5.4026909600942474
 31
0.0
  0
LINE
  5
4E6
100
AcDbEntity
  8
0
  6
CONTINUOUS
 62
               4
100
AcDbLine
 10
-48.873179501342605
 20
5.5026909600942417
 30
0.0
 11
-49.873179501342605
 21
5.5026909600942417
 31
0.0
  0
LINE
  5
4E7
100
AcDbEntity
  8
0
  6
CONTINUOUS
 62
               4
100
AcDbLine
 10
-49.873179501342605
 20
5.5026909600942417
 30
0.0
 11
-49.873179501342605
 21
7.0026909600942417
 31
0.0
  0
LINE
  5
4E8
100
AcDbEntity
  8
0
  6
CONTINUOUS
 62
               4
100
AcDbLine
 10
-50.973179501342628
 20
5.3526909600942645
 30
0.0
 11
-50.973179501342628
 21
5.6526909600942474
 31
0.0
  0
LINE
  5
4E9
100
AcDbEntity
  8
0
  6
CONTINUOUS
 62
               4
100
AcDbLine
 10
-49.973179501342628
 20
5.4026909600942474
 30
0.0
 11
-49.973179501342628
 21
6.9026909600942474
 31
0.0
  0
LINE
  5
4EA
100
AcDbEntity
  8
0
  6
CONTINUOUS
 62
               4
100
AcDbLine
 10
-52.423179501342617
 20
3.2526909600942417
 30
0.0
 11
-52.423179501342617
 21
5.3526909600942645
 31
0.0
  0
LINE
  5
4EB
100
AcDbEntity
  8
0
  6
CONTINUOUS
 62
               4
100
AcDbLine
 10
-51.973179501342628
 20
5.3526909600942645
 30
0.0
 11
-51.973179501342628
 21
5.6526909600942474
 31
0.0
  0
LINE
  5
4EC
100
AcDbEntity
  8
0
  6
CONTINUOUS
 62
               4
100
AcDbLine
 10
-49.973179501342628
 20
6.9026909600942474
 30
0.0
 11
-55.473179501342571
 21
6.9026909600942474
 31
0.0
  0
LINE
  5
4ED
100
AcDbEntity
  8
0
  6
CONTINUOUS
 62
               4
100
AcDbLine
 10
-49.873179501342605
 20
7.0026909600942417
 30
0.0
 11
-55.573179501342594
 21
7.0026909600942417
 31
0.0
  0
LINE
  5
4EE
100
AcDbEntity
  8
0
  6
PHANTOM
 62
             200
100
AcDbLine
 10
-51.223179501342628
 20
14.002690960094291
 30
0.0
 11
-51.223179501342628
 21
16.002690960094291
 31
0.0
  0
LINE
  5
4EF
100
AcDbEntity
  8
0
  6
PHANTOM
 62
             200
100
AcDbLine
 10
-51.223179501342628
 20
16.002690960094291
 30
0.0
 11
-54.223179501342685
 21
16.002690960094291
 31
0.0
  0
LINE
  5
4F0
100
AcDbEntity
  8
0
  6
PHANTOM
 62
             200
100
AcDbLine
 10
-51.223179501342628
 20
14.002690960094291
 30
0.0
 11
-54.223179501342685
 21
14.002690960094291
 31
0.0
  0
LINE
  5
4F1
100
AcDbEntity
  8
0
  6
CONTINUOUS
 62
               4
100
AcDbLine
 10
-49.973179501342628
 20
-0.0973090399057526
 30
0.0
 11
-49.973179501342628
 21
3.6026909600942645
 31
0.0
  0
LINE
  5
4F2
100
AcDbEntity
  8
0
  6
CONTINUOUS
 62
               4
100
AcDbLine
 10
-48.973179501342628
 20
3.6026909600942645
 30
0.0
 11
-49.973179501342628
 21
3.6026909600942645
 31
0.0
  0
LINE
  5
4F3
100
AcDbEntity
  8
0
  6
CONTINUOUS
 62
               4
100
AcDbLine
 10
-48.873179501342605
 20
3.5026909600942417
 30
0.0
 11
-49.873179501342605
 21
3.5026909600942417
 31
0.0
  0
LINE
  5
4F4
100
AcDbEntity
  8
0
  6
CONTINUOUS
 62
               4
100
AcDbLine
 10
-49.973179501342628
 20
2.9426909600942395
 30
0.0
 11
-50.303179501342612
 21
2.6026909600942645
 31
0.0
  0
LINE
  5
4F5
100
AcDbEntity
  8
0
  6
CONTINUOUS
 62
               4
100
AcDbLine
 10
-49.873179501342605
 20
2.0026909600942417
 30
0.0
 11
-49.873179501342605
 21
3.5026909600942417
 31
0.0
  0
LINE
  5
4F6
100
AcDbEntity
  8
0
  6
CONTINUOUS
 62
               4
100
AcDbLine
 10
-48.223179501342628
 20
2.0026909600942417
 30
0.0
 11
-49.973179501342628
 21
2.0026909600942417
 31
0.0
  0
LINE
  5
4F7
100
AcDbEntity
  8
0
  6
CONTINUOUS
 62
               4
100
AcDbLine
 10
-48.873179501342605
 20
3.5026909600942417
 30
0.0
 11
-48.873179501342605
 21
5.5026909600942417
 31
0.0
  0
LINE
  5
4F8
100
AcDbEntity
  8
0
  6
CONTINUOUS
 62
               4
100
AcDbLine
 10
-48.973179501342628
 20
5.4026909600942474
 30
0.0
 11
-48.973179501342628
 21
3.6026909600942645
 31
0.0
  0
LINE
  5
4F9
100
AcDbEntity
  8
0
  6
CONTINUOUS
 62
               4
100
AcDbLine
 10
-50.523179501342639
 20
3.2526909600942417
 30
0.0
 11
-50.523179501342639
 21
5.3526909600942645
 31
0.0
  0
ARC
  5
4FA
100
AcDbEntity
  8
0
  6
CONTINUOUS
 62
               4
100
AcDbCircle
 10
-48.223190182515935
 20
2.5027016412675493
 30
0.0
 40
0.5000106812873828
100
AcDbArc
 50
270.00122394615289
 51
359.99877605384523
  0
LINE
  5
4FB
100
AcDbEntity
  8
0
  6
CONTINUOUS
 62
               4
100
AcDbLine
 10
-50.523179501342639
 20
3.4526909600942588
 30
0.0
 11
-52.423179501342617
 21
3.4526909600942588
 31
0.0
  0
LINE
  5
4FC
100
AcDbEntity
  8
0
  6
CONTINUOUS
 62
               4
100
AcDbLine
 10
-50.523179501342639
 20
3.2526909600942417
 30
0.0
 11
-52.423179501342617
 21
3.2526909600942417
 31
0.0
  0
CIRCLE
  5
4FD
100
AcDbEntity
  8
0
  6
CONTINUOUS
 62
               4
100
AcDbCircle
 10
-51.473179501342628
 20
4.4027062188833099
 30
0.0
 40
0.8499675393104554
  0
LINE
  5
4FE
100
AcDbEntity
  8
0
  6
CONTINUOUS
 62
               4
100
AcDbLine
 10
-49.973179501342628
 20
-0.0973090399057526
 30
0.0
 11
-55.473179501342571
 21
-0.0973090399057526
 31
0.0
  0
LINE
  5
4FF
100
AcDbEntity
  8
0
  6
CONTINUOUS
 62
               4
100
AcDbLine
 10
-49.973179501342628
 20
0.9026909600942474
 30
0.0
 11
-55.473179501342571
 21
0.9026909600942474
 31
0.0
  0
LINE
  5
500
100
AcDbEntity
  8
0
  6
CONTINUOUS
 62
               4
100
AcDbLine
 10
-49.973179501342628
 20
1.9026909600942474
 30
0.0
 11
-55.473179501342571
 21
1.9026909600942474
 31
0.0
  0
LINE
  5
501
100
AcDbEntity
  8
0
  6
CONTINUOUS
 62
               4
100
AcDbLine
 10
-50.012003030754386
 20
2.9026909600942474
 30
0.0
 11
-55.433179501342607
 21
2.9026909600942474
 31
0.0
  0
LINE
  5
502
100
AcDbEntity
  8
0
  6
CONTINUOUS
 62
               4
100
AcDbLine
 10
-50.303179501342612
 20
2.6026909600942645
 30
0.0
 11
-55.133179501342596
 21
2.6026909600942645
 31
0.0
  0
ARC
  5
503
100
AcDbEntity
  8
0
  6
CONTINUOUS
 62
               4
100
AcDbCircle
 10
-55.126091496105602
 20
-0.3963970451427485
 30
0.0
 40
0.5989129830170392
100
AcDbArc
 50
269.89591452477248
 51
0.1040854752272227
  0
ARC
  5
504
100
AcDbEntity
  8
0
  6
CONTINUOUS
 62
               4
100
AcDbCircle
 10
-56.927274648000804
 20
-0.3954041865638942
 30
0.0
 40
0.5999048608870732
100
AcDbArc
 50
179.99091272245349
 51
270.00908727754586
  0
LINE
  5
505
100
AcDbEntity
  8
0
  6
CONTINUOUS
 62
               4
100
AcDbLine
 10
-57.723179501342571
 20
-0.395309039905726
 30
0.0
 11
-54.523179501342639
 21
-0.395309039905726
 31
0.0
  0
ARC
  5
506
100
AcDbEntity
  8
0
  6
CONTINUOUS
 62
               4
100
AcDbCircle
 10
-48.223179501342628
 20
-0.3933090399057448
 30
0.0
 40
0.5
100
AcDbArc
 50
269.99999999999949
 51
0.0000000000001018
  0
LINE
  5
507
100
AcDbEntity
  8
0
  6
CONTINUOUS
 62
               4
100
AcDbLine
 10
-54.523179501342582
 20
-0.8933090399057448
 30
0.0
 11
-54.523179501342582
 21
-0.0973090399057526
 31
0.0
  0
LINE
  5
508
100
AcDbEntity
  8
0
  6
CONTINUOUS
 62
               4
100
AcDbLine
 10
-54.523179501342582
 20
-0.8933090399057448
 30
0.0
 11
-48.223179501342628
 21
-0.8933090399057448
 31
0.0
  0
LINE
  5
509
100
AcDbEntity
  8
0
  6
CONTINUOUS
 62
               4
100
AcDbLine
 10
-57.723179501342571
 20
0.6066909600942836
 30
0.0
 11
-55.473179501342571
 21
0.6066909600942836
 31
0.0
  0
LINE
  5
50A
100
AcDbEntity
  8
0
  6
CONTINUOUS
 62
               4
100
AcDbLine
 10
-57.723179501342571
 20
-0.9953090399057203
 30
0.0
 11
-47.723179501342628
 21
-0.9953090399057203
 31
0.0
  0
ARC
  5
50B
100
AcDbEntity
  8
0
  6
CONTINUOUS
 62
               4
100
AcDbCircle
 10
-48.661179501342701
 20
2.5026909686330043
 30
0.0
 40
0.5
100
AcDbArc
 50
270.00000000000023
 51
0.0
  0
LINE
  5
50C
100
AcDbEntity
  8
0
  6
CONTINUOUS
 62
               4
100
AcDbLine
 10
-48.161179501342701
 20
2.5026909686330043
 30
0.0
 11
-48.161179501342701
 21
18.677833809772231
 31
0.0
  0
LINE
  5
50D
100
AcDbEntity
  8
0
  6
CONTINUOUS
 62
               4
100
AcDbLine
 10
-56.785179501342697
 20
19.177833809772231
 30
0.0
 11
-48.661179501342701
 21
19.177833809772231
 31
0.0
  0
ARC
  5
50E
100
AcDbEntity
  8
0
  6
CONTINUOUS
 62
               4
100
AcDbCircle
 10
-48.661179501342701
 20
18.677833809772231
 30
0.0
 40
0.5
100
AcDbArc
 50
0.0
 51
89.999999999999815
  0
ARC
  5
50F
100
AcDbEntity
  8
0
  6
CONTINUOUS
 62
               4
100
AcDbCircle
 10
-56.785179501342725
 20
18.677833809772231
 30
0.0
 40
0.5
100
AcDbArc
 50
89.999999999999815
 51
179.99999999999963
  0
LINE
  5
510
100
AcDbEntity
  8
0
  6
CONTINUOUS
 62
               4
100
AcDbLine
 10
-57.285179501342725
 20
2.5026909686330043
 30
0.0
 11
-57.285179501342725
 21
18.677833809772231
 31
0.0
  0
ARC
  5
511
100
AcDbEntity
  8
0
  6
CONTINUOUS
 62
               4
100
AcDbCircle
 10
-56.785179501342725
 20
2.5026909686330043
 30
0.0
 40
0.5
100
AcDbArc
 50
179.99999999999963
 51
269.99999999999937
  0
LINE
  5
512
100
AcDbEntity
  8
0
  6
CONTINUOUS
 62
               4
100
AcDbLine
 10
-57.723179501342571
 20
-0.9953090399057203
 30
0.0
 11
-57.723179501342685
 21
21.504690960094258
 31
0.0
  0
LINE
  5
513
100
AcDbEntity
  8
0
  6
CONTINUOUS
 62
               4
100
AcDbLine
 10
-47.723179501342628
 20
-0.9953090399057203
 30
0.0
 11
-47.723179501342628
 21
21.504690960094287
 31
0.0
  0
LINE
  5
514
100
AcDbEntity
  8
0
  6
CENTER
 62
               2
100
AcDbLine
 10
-50.523179501342753
 20
72.804690972185085
 30
0.0
 11
-50.523179501342696
 21
65.804690972185085
 31
0.0
  0
LINE
  5
515
100
AcDbEntity
  8
0
  6
CENTER
 62
               2
100
AcDbLine
 10
-54.923179501342673
 20
61.204690972185091
 30
0.0
 11
-54.923179501342673
 21
54.204690972185091
 31
0.0
  0
CIRCLE
  5
516
100
AcDbEntity
  8
0
  6
CONTINUOUS
 62
               2
100
AcDbCircle
 10
-54.923179501342673
 20
57.704690972185098
 30
0.0
 40
2.5
  0
CIRCLE
  5
517
100
AcDbEntity
  8
0
  6
CONTINUOUS
 62
               7
100
AcDbCircle
 10
-54.923179501342673
 20
57.704690972185098
 30
0.0
 40
2.0999999999999996
  0
CIRCLE
  5
518
100
AcDbEntity
  8
0
  6
CONTINUOUS
 62
               2
100
AcDbCircle
 10
-50.523179501342753
 20
69.304690972185085
 30
0.0
 40
2.5
  0
CIRCLE
  5
519
100
AcDbEntity
  8
0
  6
CONTINUOUS
 62
               7
100
AcDbCircle
 10
-50.523179501342753
 20
69.304690972185085
 30
0.0
 40
2.0999999999999996
  0
LINE
  5
51A
100
AcDbEntity
  8
0
  6
CENTER
 62
               2
100
AcDbLine
 10
-57.423179501342702
 20
70.204690972185091
 30
0.0
 11
-57.423179501342702
 21
74.204690972185077
 31
0.0
  0
ARC
  5
51B
100
AcDbEntity
  8
0
  6
CONTINUOUS
 62
               7
100
AcDbCircle
 10
-57.423179501342702
 20
72.204690972185091
 30
0.0
 40
1.6499999999999999
100
AcDbArc
 50
269.99999999999937
 51
89.999999999999801
  0
ARC
  5
51C
100
AcDbEntity
  8
0
  6
CONTINUOUS
 62
               7
100
AcDbCircle
 10
-48.023179501342696
 20
54.804690972185092
 30
0.0
 40
1.6499999999999999
100
AcDbArc
 50
89.999999999999815
 51
269.99999999999937
  0
LINE
  5
51D
100
AcDbEntity
  8
0
  6
CENTER
 62
               2
100
AcDbLine
 10
-48.023179501342696
 20
52.804690972185092
 30
0.0
 11
-48.023179501342696
 21
56.804690972185092
 31
0.0
  0
LINE
  5
51E
100
AcDbEntity
  8
0
  6
CONTINUOUS
 62
               7
100
AcDbLine
 10
-48.023179501342696
 20
53.154690972185094
 30
0.0
 11
-46.723179501342685
 21
53.154690972185094
 31
0.0
  0
LINE
  5
51F
100
AcDbEntity
  8
0
  6
CONTINUOUS
 62
               7
100
AcDbLine
 10
-48.023179501342696
 20
56.454690972185091
 30
0.0
 11
-46.723179501342685
 21
56.454690972185091
 31
0.0
  0
CIRCLE
  5
520
100
AcDbEntity
  8
0
  6
CONTINUOUS
 62
               7
100
AcDbCircle
 10
-48.023179501342696
 20
54.804690972185092
 30
0.0
 40
1.075
  0
LINE
  5
521
100
AcDbEntity
  8
0
  6
CENTER
 62
               2
100
AcDbLine
 10
-50.023179501342696
 20
54.804690972185092
 30
0.0
 11
-46.023179501342696
 21
54.804690972185092
 31
0.0
  0
LINE
  5
522
100
AcDbEntity
  8
0
  6
CONTINUOUS
 62
               7
100
AcDbLine
 10
-57.423179501342702
 20
70.554690972185099
 30
0.0
 11
-58.723179501342656
 21
70.554690972185099
 31
0.0
  0
LINE
  5
523
100
AcDbEntity
  8
0
  6
CONTINUOUS
 62
               7
100
AcDbLine
 10
-57.423179501342702
 20
73.854690972185082
 30
0.0
 11
-58.723179501342656
 21
73.854690972185082
 31
0.0
  0
CIRCLE
  5
524
100
AcDbEntity
  8
0
  6
CONTINUOUS
 62
               7
100
AcDbCircle
 10
-57.423179501342702
 20
72.204690972185091
 30
0.0
 40
1.075
  0
LINE
  5
525
100
AcDbEntity
  8
0
  6
CENTER
 62
               2
100
AcDbLine
 10
-59.423179501342702
 20
72.204690972185091
 30
0.0
 11
-55.423179501342702
 21
72.204690972185091
 31
0.0
  0
LINE
  5
526
100
AcDbEntity
  8
0
  6
CENTER
 62
               2
100
AcDbLine
 10
-54.023179501342725
 20
69.304690972185085
 30
0.0
 11
-47.023179501342725
 21
69.304690972185085
 31
0.0
  0
LINE
  5
527
100
AcDbEntity
  8
0
  6
CENTER
 62
               2
100
AcDbLine
 10
-58.423179501342673
 20
57.704690972185084
 30
0.0
 11
-51.423179501342673
 21
57.704690972185098
 31
0.0
  0
LINE
  5
528
100
AcDbEntity
  8
0
  6
CONTINUOUS
 62
               7
100
AcDbLine
 10
-58.723179501342656
 20
35.004690968633021
 30
0.0
 11
-46.723179501342713
 21
35.004690968633035
 31
0.0
  0
CIRCLE
  5
529
100
AcDbEntity
  8
0
  6
CONTINUOUS
 62
               7
100
AcDbCircle
 10
-52.723179501342685
 20
23.804690946507328
 30
0.0
 40
1.3999999999999997
  0
CIRCLE
  5
52A
100
AcDbEntity
  8
0
  6
CONTINUOUS
 62
               7
100
AcDbCircle
 10
-52.723179501342685
 20
23.804690946507328
 30
0.0
 40
0.75
  0
CIRCLE
  5
52B
100
AcDbEntity
  8
0
  6
CONTINUOUS
 62
               7
100
AcDbCircle
 10
-52.723179501342685
 20
23.804690946507328
 30
0.0
 40
1.1000000000000001
  0
LINE
  5
52C
100
AcDbEntity
  8
0
  6
CENTER
 62
               2
100
AcDbLine
 10
-50.408249365618332
 20
23.804690946507328
 30
0.0
 11
-54.947123654018441
 21
23.804690946507328
 31
0.0
  0
LINE
  5
52D
100
AcDbEntity
  8
0
  6
CONTINUOUS
 62
               7
100
AcDbLine
 10
-47.473179501342685
 20
21.004690960094258
 30
0.0
 11
-47.023179501342668
 21
21.004690960094258
 31
0.0
  0
CIRCLE
  5
52E
100
AcDbEntity
  8
0
  6
CONTINUOUS
 62
               7
100
AcDbCircle
 10
-52.722929501342634
 20
23.804690960094284
 30
0.0
 40
1.1500000000000001
  0
LINE
  5
52F
100
AcDbEntity
  8
0
  6
CONTINUOUS
 62
               7
100
AcDbLine
 10
-58.423179501342759
 20
21.004690960094287
 30
0.0
 11
-57.973179501342685
 21
21.004690960094287
 31
0.0
  0
LINE
  5
530
100
AcDbEntity
  8
0
  6
CONTINUOUS
 62
               7
100
AcDbLine
 10
-58.423179501342759
 20
21.004690960094287
 30
0.0
 11
-58.723179501342656
 21
21.30469096009427
 31
0.0
  0
LINE
  5
531
100
AcDbEntity
  8
0
  6
CONTINUOUS
 62
               7
100
AcDbLine
 10
-47.023179501342668
 20
21.004690960094258
 30
0.0
 11
-46.72317950134277
 21
21.30469096009427
 31
0.0
  0
LINE
  5
532
100
AcDbEntity
  8
0
  6
CONTINUOUS
 62
               7
100
AcDbLine
 10
-47.673179501342787
 20
21.204690960094247
 30
0.0
 11
-47.673179501342787
 21
21.504690960094258
 31
0.0
  0
LINE
  5
533
100
AcDbEntity
  8
0
  6
CONTINUOUS
 62
               7
100
AcDbLine
 10
-57.773179501342639
 20
21.204690960094275
 30
0.0
 11
-57.773179501342639
 21
21.504690960094287
 31
0.0
  0
LINE
  5
534
100
AcDbEntity
  8
0
  6
CONTINUOUS
 62
               7
100
AcDbLine
 10
-57.773179501342639
 20
21.204690960094275
 30
0.0
 11
-57.973179501342685
 21
21.004690960094287
 31
0.0
  0
LINE
  5
535
100
AcDbEntity
  8
0
  6
CONTINUOUS
 62
               7
100
AcDbLine
 10
-47.673179501342787
 20
21.204690960094247
 30
0.0
 11
-47.473179501342685
 21
21.004690960094258
 31
0.0
  0
ARC
  5
536
100
AcDbEntity
  8
0
  6
CONTINUOUS
 62
               4
100
AcDbCircle
 10
-48.222882653478479
 20
21.004987807958464
 30
0.0
 40
0.4997032403068001
100
AcDbArc
 50
359.96596353714716
 51
90.034036462852569
  0
ARC
  5
537
100
AcDbEntity
  8
0
  6
CONTINUOUS
 62
               4
100
AcDbCircle
 10
-57.222882477136551
 20
21.004393935888181
 30
0.0
 40
0.5002971123771115
100
AcDbArc
 50
90.034016255545509
 51
179.96598374445352
  0
LINE
  5
538
100
AcDbEntity
  8
0
  6
CONTINUOUS
 62
               7
100
AcDbLine
 10
-57.773179501342639
 20
21.504690960094287
 30
0.0
 11
-47.673179501342787
 21
21.504690960094258
 31
0.0
  0
LINE
  5
539
100
AcDbEntity
  8
0
  6
CONTINUOUS
 62
               7
100
AcDbLine
 10
-58.723179501342656
 20
44.004690968633021
 30
0.0
 11
-46.723179501342685
 21
44.004690968633035
 31
0.0
  0
LINE
  5
53A
100
AcDbEntity
  8
0
  6
CONTINUOUS
 62
               7
100
AcDbLine
 10
-58.723179501342656
 20
21.30469096009427
 30
0.0
 11
-58.723179501342656
 21
96.704690968633045
 31
0.0
  0
LINE
  5
53B
100
AcDbEntity
  8
0
  6
CONTINUOUS
 62
               7
100
AcDbLine
 10
-46.723179501342713
 20
21.30469096009427
 30
0.0
 11
-46.723179501342656
 21
96.704690968633045
 31
0.0
  0
LINE
  5
53C
100
AcDbEntity
  8
0
  6
CENTER
 62
               2
100
AcDbLine
 10
-52.723179501342685
 20
120.90469066345729
 30
0.0
 11
-52.723179501342685
 21
-3.2343992814876685
 31
0.0
  0
LINE
  5
53D
100
AcDbEntity
  8
0
  6
CONTINUOUS
 62
               7
100
AcDbLine
 10
-57.773179501342639
 20
96.504690968633028
 30
0.0
 11
-47.673179501342673
 21
96.504690968633028
 31
0.0
  0
LINE
  5
53E
100
AcDbEntity
  8
0
  6
PHANTOM
 62
             200
100
AcDbLine
 10
-51.223179501342685
 20
104.00669096863301
 30
0.0
 11
-51.223179501342685
 21
102.00669096863301
 31
0.0
  0
LINE
  5
53F
100
AcDbEntity
  8
0
  6
CONTINUOUS
 62
               4
100
AcDbLine
 10
-49.973179501342685
 20
116.00669096863307
 30
0.0
 11
-48.223179501342685
 21
116.00669096863307
 31
0.0
  0
ARC
  5
540
100
AcDbEntity
  8
0
  6
CONTINUOUS
 62
               4
100
AcDbCircle
 10
-48.223174923820039
 20
115.50669554615568
 30
0.0
 40
0.4999954224983215
100
AcDbArc
 50
359.99947544974214
 51
90.000524550256856
  0
CIRCLE
  5
541
100
AcDbEntity
  8
0
  6
CONTINUOUS
 62
               4
100
AcDbCircle
 10
-51.473179501342685
 20
113.606675709844
 30
0.0
 40
0.8499675393104554
  0
LINE
  5
542
100
AcDbEntity
  8
0
  6
CONTINUOUS
 62
               4
100
AcDbLine
 10
-52.423179501342617
 20
114.75669096863307
 30
0.0
 11
-50.523179501342639
 21
114.75669096863307
 31
0.0
  0
LINE
  5
543
100
AcDbEntity
  8
0
  6
CONTINUOUS
 62
               4
100
AcDbLine
 10
-52.423179501342617
 20
112.65669096863304
 30
0.0
 11
-50.523179501342639
 21
112.65669096863304
 31
0.0
  0
LINE
  5
544
100
AcDbEntity
  8
0
  6
CONTINUOUS
 62
               4
100
AcDbLine
 10
-52.423179501342617
 20
114.55669096863305
 30
0.0
 11
-50.523179501342639
 21
114.55669096863305
 31
0.0
  0
LINE
  5
545
100
AcDbEntity
  8
0
  6
CONTINUOUS
 62
               4
100
AcDbLine
 10
-51.973179501342685
 20
112.35669096863306
 30
0.0
 11
-50.973179501342685
 21
112.35669096863306
 31
0.0
  0
LINE
  5
546
100
AcDbEntity
  8
0
  6
CONTINUOUS
 62
               4
100
AcDbLine
 10
-50.523179501342639
 20
114.75669096863307
 30
0.0
 11
-50.523179501342639
 21
112.65669096863304
 31
0.0
  0
LINE
  5
547
100
AcDbEntity
  8
0
  6
CONTINUOUS
 62
               4
100
AcDbLine
 10
-49.973179501342685
 20
115.0666909686331
 30
0.0
 11
-50.31317950134266
 21
115.40669096863304
 31
0.0
  0
LINE
  5
548
100
AcDbEntity
  8
0
  6
CONTINUOUS
 62
               4
100
AcDbLine
 10
-50.973179501342685
 20
112.65669096863304
 30
0.0
 11
-50.973179501342685
 21
112.35669096863306
 31
0.0
  0
LINE
  5
549
100
AcDbEntity
  8
0
  6
CONTINUOUS
 62
               4
100
AcDbLine
 10
-49.973179501342685
 20
112.60669096863303
 30
0.0
 11
-49.973179501342685
 21
111.10669096863303
 31
0.0
  0
LINE
  5
54A
100
AcDbEntity
  8
0
  6
CONTINUOUS
 62
               4
100
AcDbLine
 10
-49.973179501342685
 20
112.60669096863303
 30
0.0
 11
-48.973179501342685
 21
112.60669096863303
 31
0.0
  0
LINE
  5
54B
100
AcDbEntity
  8
0
  6
CONTINUOUS
 62
               4
100
AcDbLine
 10
-49.873179501342662
 20
112.50669096863304
 30
0.0
 11
-48.873179501342662
 21
112.50669096863304
 31
0.0
  0
LINE
  5
54C
100
AcDbEntity
  8
0
  6
CONTINUOUS
 62
               4
100
AcDbLine
 10
-49.873179501342662
 20
114.50669096863307
 30
0.0
 11
-48.873179501342662
 21
114.50669096863307
 31
0.0
  0
LINE
  5
54D
100
AcDbEntity
  8
0
  6
CONTINUOUS
 62
               4
100
AcDbLine
 10
-49.973179501342685
 20
114.40669096863304
 30
0.0
 11
-48.973179501342685
 21
114.40669096863304
 31
0.0
  0
LINE
  5
54E
100
AcDbEntity
  8
0
  6
CONTINUOUS
 62
               4
100
AcDbLine
 10
-48.873179501342662
 20
114.50669096863307
 30
0.0
 11
-48.873179501342662
 21
112.50669096863304
 31
0.0
  0
LINE
  5
54F
100
AcDbEntity
  8
0
  6
CONTINUOUS
 62
               4
100
AcDbLine
 10
-48.973179501342685
 20
112.60669096863303
 30
0.0
 11
-48.973179501342685
 21
114.40669096863304
 31
0.0
  0
LINE
  5
550
100
AcDbEntity
  8
0
  6
CONTINUOUS
 62
               4
100
AcDbLine
 10
-52.423179501342617
 20
114.75669096863307
 30
0.0
 11
-52.423179501342617
 21
112.65669096863304
 31
0.0
  0
LINE
  5
551
100
AcDbEntity
  8
0
  6
CONTINUOUS
 62
               4
100
AcDbLine
 10
-51.973179501342685
 20
112.65669096863304
 30
0.0
 11
-51.973179501342685
 21
112.35669096863306
 31
0.0
  0
LINE
  5
552
100
AcDbEntity
  8
0
  6
CONTINUOUS
 62
               4
100
AcDbLine
 10
-49.873179501342662
 20
116.00669096863307
 30
0.0
 11
-49.873179501342662
 21
114.50669096863307
 31
0.0
  0
LINE
  5
553
100
AcDbEntity
  8
0
  6
CONTINUOUS
 62
               4
100
AcDbLine
 10
-49.873179501342662
 20
112.50669096863304
 30
0.0
 11
-49.873179501342662
 21
111.00669096863304
 31
0.0
  0
LINE
  5
554
100
AcDbEntity
  8
0
  6
CONTINUOUS
 62
               4
100
AcDbLine
 10
-49.973179501342685
 20
118.10669096863306
 30
0.0
 11
-49.973179501342685
 21
114.40669096863304
 31
0.0
  0
LINE
  5
555
100
AcDbEntity
  8
0
  6
CONTINUOUS
 62
               4
100
AcDbLine
 10
-54.923179501342617
 20
112.65669096863304
 30
0.0
 11
-53.023179501342639
 21
112.65669096863304
 31
0.0
  0
LINE
  5
556
100
AcDbEntity
  8
0
  6
CONTINUOUS
 62
               4
100
AcDbLine
 10
-54.473179501342628
 20
112.35669096863306
 30
0.0
 11
-53.473179501342628
 21
112.35669096863306
 31
0.0
  0
LINE
  5
557
100
AcDbEntity
  8
0
  6
CONTINUOUS
 62
               4
100
AcDbLine
 10
-56.473179501342628
 20
112.60669096863306
 30
0.0
 11
-55.473179501342628
 21
112.60669096863306
 31
0.0
  0
LINE
  5
558
100
AcDbEntity
  8
0
  6
CONTINUOUS
 62
               4
100
AcDbLine
 10
-56.573179501342651
 20
112.50669096863307
 30
0.0
 11
-55.573179501342651
 21
112.50669096863307
 31
0.0
  0
LINE
  5
559
100
AcDbEntity
  8
0
  6
CONTINUOUS
 62
               4
100
AcDbLine
 10
-55.573179501342651
 20
112.50669096863307
 30
0.0
 11
-55.573179501342651
 21
111.00669096863307
 31
0.0
  0
LINE
  5
55A
100
AcDbEntity
  8
0
  6
CONTINUOUS
 62
               4
100
AcDbLine
 10
-54.473179501342628
 20
112.65669096863304
 30
0.0
 11
-54.473179501342628
 21
112.35669096863306
 31
0.0
  0
LINE
  5
55B
100
AcDbEntity
  8
0
  6
CONTINUOUS
 62
               4
100
AcDbLine
 10
-55.473179501342628
 20
112.60669096863306
 30
0.0
 11
-55.473179501342628
 21
111.10669096863306
 31
0.0
  0
LINE
  5
55C
100
AcDbEntity
  8
0
  6
CONTINUOUS
 62
               4
100
AcDbLine
 10
-53.023179501342639
 20
114.75669096863307
 30
0.0
 11
-53.023179501342639
 21
112.65669096863304
 31
0.0
  0
LINE
  5
55D
100
AcDbEntity
  8
0
  6
CONTINUOUS
 62
               4
100
AcDbLine
 10
-53.473179501342628
 20
112.65669096863304
 30
0.0
 11
-53.473179501342628
 21
112.35669096863306
 31
0.0
  0
LINE
  5
55E
100
AcDbEntity
  8
0
  6
CONTINUOUS
 62
               4
100
AcDbLine
 10
-55.473179501342628
 20
111.10669096863306
 30
0.0
 11
-49.973179501342685
 21
111.10669096863303
 31
0.0
  0
LINE
  5
55F
100
AcDbEntity
  8
0
  6
CONTINUOUS
 62
               4
100
AcDbLine
 10
-55.573179501342651
 20
111.00669096863307
 30
0.0
 11
-49.873179501342662
 21
111.00669096863304
 31
0.0
  0
LINE
  5
560
100
AcDbEntity
  8
0
  6
PHANTOM
 62
             200
100
AcDbLine
 10
-54.223179501342628
 20
104.00669096863301
 30
0.0
 11
-54.223179501342628
 21
102.00669096863301
 31
0.0
  0
LINE
  5
561
100
AcDbEntity
  8
0
  6
PHANTOM
 62
             200
100
AcDbLine
 10
-54.223179501342628
 20
102.00669096863301
 30
0.0
 11
-51.223179501342685
 21
102.00669096863301
 31
0.0
  0
LINE
  5
562
100
AcDbEntity
  8
0
  6
PHANTOM
 62
             200
100
AcDbLine
 10
-54.223179501342628
 20
104.00669096863301
 30
0.0
 11
-51.223179501342685
 21
104.00669096863301
 31
0.0
  0
LINE
  5
563
100
AcDbEntity
  8
0
  6
CONTINUOUS
 62
               4
100
AcDbLine
 10
-55.473179501342628
 20
118.10669096863306
 30
0.0
 11
-55.473179501342628
 21
114.40669096863304
 31
0.0
  0
LINE
  5
564
100
AcDbEntity
  8
0
  6
CONTINUOUS
 62
               4
100
AcDbLine
 10
-56.473179501342628
 20
114.40669096863304
 30
0.0
 11
-55.473179501342628
 21
114.40669096863304
 31
0.0
  0
LINE
  5
565
100
AcDbEntity
  8
0
  6
CONTINUOUS
 62
               4
100
AcDbLine
 10
-56.573179501342651
 20
114.50669096863307
 30
0.0
 11
-55.573179501342651
 21
114.50669096863307
 31
0.0
  0
LINE
  5
566
100
AcDbEntity
  8
0
  6
CONTINUOUS
 62
               4
100
AcDbLine
 10
-55.473179501342628
 20
115.06669096863307
 30
0.0
 11
-55.143179501342644
 21
115.40669096863304
 31
0.0
  0
LINE
  5
567
100
AcDbEntity
  8
0
  6
CONTINUOUS
 62
               4
100
AcDbLine
 10
-55.573179501342651
 20
116.00669096863307
 30
0.0
 11
-55.573179501342651
 21
114.50669096863307
 31
0.0
  0
LINE
  5
568
100
AcDbEntity
  8
0
  6
CONTINUOUS
 62
               4
100
AcDbLine
 10
-57.223179501342628
 20
116.00669096863307
 30
0.0
 11
-55.473179501342628
 21
116.00669096863307
 31
0.0
  0
LINE
  5
569
100
AcDbEntity
  8
0
  6
CONTINUOUS
 62
               4
100
AcDbLine
 10
-56.573179501342651
 20
114.50669096863307
 30
0.0
 11
-56.573179501342651
 21
112.50669096863307
 31
0.0
  0
LINE
  5
56A
100
AcDbEntity
  8
0
  6
CONTINUOUS
 62
               4
100
AcDbLine
 10
-56.473179501342628
 20
112.60669096863306
 30
0.0
 11
-56.473179501342628
 21
114.40669096863304
 31
0.0
  0
LINE
  5
56B
100
AcDbEntity
  8
0
  6
CONTINUOUS
 62
               4
100
AcDbLine
 10
-54.923179501342617
 20
114.75669096863307
 30
0.0
 11
-54.923179501342617
 21
112.65669096863304
 31
0.0
  0
ARC
  5
56C
100
AcDbEntity
  8
0
  6
CONTINUOUS
 62
               4
100
AcDbCircle
 10
-57.22316882016932
 20
115.50668028745976
 30
0.0
 40
0.5000106812873828
100
AcDbArc
 50
90.001223946153218
 51
179.99877605384546
  0
LINE
  5
56D
100
AcDbEntity
  8
0
  6
CONTINUOUS
 62
               4
100
AcDbLine
 10
-54.923179501342617
 20
114.55669096863305
 30
0.0
 11
-53.023179501342639
 21
114.55669096863305
 31
0.0
  0
LINE
  5
56E
100
AcDbEntity
  8
0
  6
CONTINUOUS
 62
               4
100
AcDbLine
 10
-54.923179501342617
 20
114.75669096863307
 30
0.0
 11
-53.023179501342639
 21
114.75669096863307
 31
0.0
  0
CIRCLE
  5
56F
100
AcDbEntity
  8
0
  6
CONTINUOUS
 62
               4
100
AcDbCircle
 10
-53.973179501342628
 20
113.606675709844
 30
0.0
 40
0.8499675393104554
  0
LINE
  5
570
100
AcDbEntity
  8
0
  6
CONTINUOUS
 62
               4
100
AcDbLine
 10
-55.473179501342628
 20
118.10669096863306
 30
0.0
 11
-49.973179501342685
 21
118.10669096863306
 31
0.0
  0
LINE
  5
571
100
AcDbEntity
  8
0
  6
CONTINUOUS
 62
               4
100
AcDbLine
 10
-55.473179501342628
 20
117.10669096863306
 30
0.0
 11
-49.973179501342685
 21
117.10669096863306
 31
0.0
  0
LINE
  5
572
100
AcDbEntity
  8
0
  6
CONTINUOUS
 62
               4
100
AcDbLine
 10
-55.473179501342628
 20
116.10669096863306
 30
0.0
 11
-49.973179501342685
 21
116.10669096863306
 31
0.0
  0
LINE
  5
573
100
AcDbEntity
  8
0
  6
CONTINUOUS
 62
               4
100
AcDbLine
 10
-55.43435597193087
 20
115.10669096863306
 30
0.0
 11
-50.013179501342648
 21
115.10669096863306
 31
0.0
  0
LINE
  5
574
100
AcDbEntity
  8
0
  6
CONTINUOUS
 62
               4
100
AcDbLine
 10
-55.143179501342644
 20
115.40669096863304
 30
0.0
 11
-50.31317950134266
 21
115.40669096863304
 31
0.0
  0
ARC
  5
575
100
AcDbEntity
  8
0
  6
CONTINUOUS
 62
               4
100
AcDbCircle
 10
-57.222882477136551
 20
97.004987992839133
 30
0.0
 40
0.5002971123771115
100
AcDbArc
 50
180.03401625554557
 51
269.96598374445358
  0
ARC
  5
576
100
AcDbEntity
  8
0
  6
CONTINUOUS
 62
               4
100
AcDbCircle
 10
-48.222882653478479
 20
97.004394120768822
 30
0.0
 40
0.4997032403068001
100
AcDbArc
 50
269.96596353714654
 51
0.0340364628527164
  0
LINE
  5
577
100
AcDbEntity
  8
0
  6
CONTINUOUS
 62
               4
100
AcDbLine
 10
-57.723179501342628
 20
119.00469096863303
 30
0.0
 11
-57.723179501342628
 21
96.504690968633028
 31
0.0
  0
LINE
  5
578
100
AcDbEntity
  8
0
  6
CONTINUOUS
 62
               4
100
AcDbLine
 10
-47.723179501342685
 20
119.00469096863303
 30
0.0
 11
-47.723179501342685
 21
96.504690968633028
 31
0.0
  0
ARC
  5
579
100
AcDbEntity
  8
0
  6
CONTINUOUS
 62
               4
100
AcDbCircle
 10
-50.320267506579654
 20
118.40577897387006
 30
0.0
 40
0.5989129830170392
100
AcDbArc
 50
89.895914524772778
 51
180.10408547522673
  0
ARC
  5
57A
100
AcDbEntity
  8
0
  6
CONTINUOUS
 62
               4
100
AcDbCircle
 10
-48.519084354684452
 20
118.4047861152912
 30
0.0
 40
0.5999048608870732
100
AcDbArc
 50
359.99091272245295
 51
90.009087277546172
  0
LINE
  5
57B
100
AcDbEntity
  8
0
  6
CONTINUOUS
 62
               4
100
AcDbLine
 10
-47.723179501342685
 20
118.40469096863303
 30
0.0
 11
-50.923179501342617
 21
118.40469096863303
 31
0.0
  0
ARC
  5
57C
100
AcDbEntity
  8
0
  6
CONTINUOUS
 62
               4
100
AcDbCircle
 10
-57.223179501342628
 20
118.40269096863305
 30
0.0
 40
0.5
100
AcDbArc
 50
89.999999999999815
 51
179.99999999999963
  0
LINE
  5
57D
100
AcDbEntity
  8
0
  6
CONTINUOUS
 62
               4
100
AcDbLine
 10
-50.923179501342673
 20
118.90269096863305
 30
0.0
 11
-50.923179501342673
 21
118.10669096863306
 31
0.0
  0
LINE
  5
57E
100
AcDbEntity
  8
0
  6
CONTINUOUS
 62
               4
100
AcDbLine
 10
-50.923179501342673
 20
118.90269096863305
 30
0.0
 11
-57.223179501342628
 21
118.90269096863305
 31
0.0
  0
LINE
  5
57F
100
AcDbEntity
  8
0
  6
CONTINUOUS
 62
               4
100
AcDbLine
 10
-47.723179501342685
 20
117.40269096863302
 30
0.0
 11
-49.973179501342685
 21
117.40269096863302
 31
0.0
  0
LINE
  5
580
100
AcDbEntity
  8
0
  6
CONTINUOUS
 62
               4
100
AcDbLine
 10
-47.723179501342685
 20
119.00469096863303
 30
0.0
 11
-57.723179501342628
 21
119.00469096863303
 31
0.0
  0
LINE
  5
581
100
AcDbEntity
  8
0
  6
CONTINUOUS
 62
               7
100
AcDbLine
 10
-47.673179501342673
 20
96.804690968633039
 30
0.0
 11
-47.473179501342685
 21
97.004690968633028
 31
0.0
  0
LINE
  5
582
100
AcDbEntity
  8
0
  6
CONTINUOUS
 62
               7
100
AcDbLine
 10
-57.773179501342639
 20
96.804690968633039
 30
0.0
 11
-57.973179501342685
 21
97.004690968633028
 31
0.0
  0
LINE
  5
583
100
AcDbEntity
  8
0
  6
CONTINUOUS
 62
               7
100
AcDbLine
 10
-57.773179501342639
 20
96.804690968633039
 30
0.0
 11
-57.773179501342639
 21
96.504690968633028
 31
0.0
  0
LINE
  5
584
100
AcDbEntity
  8
0
  6
CONTINUOUS
 62
               7
100
AcDbLine
 10
-47.673179501342673
 20
96.804690968633039
 30
0.0
 11
-47.673179501342673
 21
96.504690968633028
 31
0.0
  0
LINE
  5
585
100
AcDbEntity
  8
0
  6
CONTINUOUS
 62
               7
100
AcDbLine
 10
-47.023179501342668
 20
97.004690968633028
 30
0.0
 11
-46.723179501342656
 21
96.704690968633045
 31
0.0
  0
LINE
  5
586
100
AcDbEntity
  8
0
  6
CONTINUOUS
 62
               7
100
AcDbLine
 10
-58.423179501342645
 20
97.004690968633028
 30
0.0
 11
-58.723179501342656
 21
96.704690968633045
 31
0.0
  0
LINE
  5
587
100
AcDbEntity
  8
0
  6
CONTINUOUS
 62
               7
100
AcDbLine
 10
-58.423179501342645
 20
97.004690968633028
 30
0.0
 11
-57.973179501342685
 21
97.004690968633028
 31
0.0
  0
CIRCLE
  5
588
100
AcDbEntity
  8
0
  6
CONTINUOUS
 62
               7
100
AcDbCircle
 10
-52.722929501342634
 20
94.204690968633017
 30
0.0
 40
1.1500000000000001
  0
LINE
  5
589
100
AcDbEntity
  8
0
  6
CONTINUOUS
 62
               7
100
AcDbLine
 10
-47.473179501342685
 20
97.004690968633028
 30
0.0
 11
-47.023179501342668
 21
97.004690968633028
 31
0.0
  0
LINE
  5
58A
100
AcDbEntity
  8
0
  6
CENTER
 62
               2
100
AcDbLine
 10
-50.408249365618332
 20
94.204690982219986
 30
0.0
 11
-54.947123654018327
 21
94.204690982219986
 31
0.0
  0
CIRCLE
  5
58B
100
AcDbEntity
  8
0
  6
CONTINUOUS
 62
               7
100
AcDbCircle
 10
-52.723179501342685
 20
94.204690982219986
 30
0.0
 40
1.1000000000000001
  0
CIRCLE
  5
58C
100
AcDbEntity
  8
0
  6
CONTINUOUS
 62
               7
100
AcDbCircle
 10
-52.723179501342685
 20
94.204690982219986
 30
0.0
 40
0.75
  0
CIRCLE
  5
58D
100
AcDbEntity
  8
0
  6
CONTINUOUS
 62
               7
100
AcDbCircle
 10
-52.723179501342685
 20
94.204690982219986
 30
0.0
 40
1.3999999999999997
  0
LINE
  5
58E
100
AcDbEntity
  8
0
  6
CONTINUOUS
 62
               7
100
AcDbLine
 10
-58.623179504894722
 20
83.004690968633028
 30
0.0
 11
-58.723179501342656
 21
82.904690972185094
 31
0.0
  0
LINE
  5
58F
100
AcDbEntity
  8
0
  6
CONTINUOUS
 62
               7
100
AcDbLine
 10
-46.723179501342656
 20
82.904690968633062
 30
0.0
 11
-46.823179501342679
 21
83.004690968633057
 31
0.0
  0
LINE
  5
590
100
AcDbEntity
  8
0
  6
CONTINUOUS
 62
               7
100
AcDbLine
 10
-58.723179501342656
 20
83.004690968633028
 30
0.0
 11
-46.723179501342656
 21
83.004690968633057
 31
0.0
  0
LINE
  5
591
100
AcDbEntity
  8
0
  6
CENTER
 62
               2
100
AcDbLine
 10
-56.223179501342656
 20
69.504690964363675
 30
0.0
 11
-63.523179493380837
 21
69.504690964363675
 31
0.0
  0
LINE
  5
592
100
AcDbEntity
  8
0
  6
CENTER
 62
               2
100
AcDbLine
 10
-56.223179501342656
 20
57.504690964363675
 30
0.0
 11
-63.523179493380837
 21
57.504690964363675
 31
0.0
  0
ENDSEC
  0
SECTION
  2
OBJECTS
  0
DICTIONARY
  5
19
100
AcDbDictionary
  3
ACAD_GROUP
350
1A
  3
ACAD_MLINESTYLE
350
1B
  0
DICTIONARY
  5
1A
102
{ACAD_REACTORS
330
19
102
}
100
AcDbDictionary
  0
DICTIONARY
  5
1B
102
{ACAD_REACTORS
330
19
102
}
100
AcDbDictionary
  3
STANDARD
350
1C
  0
MLINESTYLE
  5
1C
102
{ACAD_REACTORS
330
1B
102
}
100
AcDbMlineStyle
  2
Standard
 70
               0
  3

 62
               0
 51
90.0
 52
90.0
 71
               2
 49
0.5
 62
             256
  6
ByLayer
 49
-0.5
 62
             256
  6
ByLayer
  0
ENDSEC
  0
EOF
