  0
SECTION
  2
HEADER
  9
$ACADVER
  1
AC1009
  9
$DWGCODEPAGE
  3
dos932
  9
$INSBASE
 10
0.0
 20
0.0
 30
0.0
  9
$EXTMIN
 10
-564.5
 20
-400.5
 30
0.0
  9
$EXTMAX
 10
574.5
 20
400.5
 30
0.0
  9
$LIMMIN
 10
-564.5
 20
-400.5
  9
$LIMMAX
 10
574.5
 20
400.5
  9
$ORTHOMODE
 70
       0
  9
$REGENMODE
 70
       1
  9
$FILLMODE
 70
       1
  9
$QTEXTMODE
 70
       0
  9
$MIRRTEXT
 70
       1
  9
$DRAGMODE
 70
       2
  9
$LTSCALE
 40
1.0
  9
$OSMODE
 70
       0
  9
$ATTMODE
 70
       1
  9
$TEXTSIZE
 40
3.20000005
  9
$TRACEWID
 40
0.05
  9
$TEXTSTYLE
  7
MX_NOTE_STANDARD
  9
$CLAYER
  8
0
  9
$CELTYPE
  6
CONTINUOUS
  9
$CECOLOR
 62
     256
  9
$DIMSCALE
 40
1.0
  9
$DIMASZ
 40
2.5
  9
$DIMEXO
 40
1.5
  9
$DIMDLI
 40
3.75
  9
$DIMRND
 40
0.0
  9
$DIMDLE
 40
0.0
  9
$DIMEXE
 40
1.5
  9
$DIMTP
 40
0.0
  9
$DIMTM
 40
0.0
  9
$DIMTXT
 40
3.20000005
  9
$DIMCEN
 40
2.5
  9
$DIMTSZ
 40
0.0
  9
$DIMTOL
 70
       0
  9
$DIMLIM
 70
       0
  9
$DIMTIH
 70
       0
  9
$DIMTOH
 70
       0
  9
$DIMSE1
 70
       0
  9
$DIMSE2
 70
       0
  9
$DIMTAD
 70
       1
  9
$DIMZIN
 70
       8
  9
$DIMBLK
  1

  9
$DIMASO
 70
       1
  9
$DIMSHO
 70
       1
  9
$DIMPOST
  1

  9
$DIMAPOST
  1

  9
$DIMALT
 70
       0
  9
$DIMALTD
 70
       4
  9
$DIMALTF
 40
0.03937008
  9
$DIMLFAC
 40
1.0
  9
$DIMTOFL
 70
       1
  9
$DIMTVP
 40
0.0
  9
$DIMTIX
 70
       0
  9
$DIMSOXD
 70
       0
  9
$DIMSAH
 70
       0
  9
$DIMBLK1
  1

  9
$DIMBLK2
  1

  9
$DIMSTYLE
  2
MXDIMSTYLE
  9
$DIMCLRD
 70
       0
  9
$DIMCLRE
 70
       0
  9
$DIMCLRT
 70
       0
  9
$DIMTFAC
 40
1.0
  9
$DIMGAP
 40
1.0
  9
$LUNITS
 70
       2
  9
$LUPREC
 70
       4
  9
$AXISMODE
 70
       0
  9
$AXISUNIT
 10
0.0
 20
0.0
  9
$SKETCHINC
 40
0.1
  9
$FILLETRAD
 40
0.0
  9
$AUNITS
 70
       0
  9
$AUPREC
 70
       0
  9
$MENU
  1
acad
  9
$ELEVATION
 40
0.0
  9
$PELEVATION
 40
0.0
  9
$THICKNESS
 40
0.0
  9
$LIMCHECK
 70
       0
  9
$BLIPMODE
 70
       1
  9
$CHAMFERA
 40
0.0
  9
$CHAMFERB
 40
0.0
  9
$SKPOLY
 70
       0
  9
$TDCREATE
 40
2453462.712951389
  9
$TDUPDATE
 40
2453462.712951389
  9
$TDINDWG
 40
0.0000000000
  9
$TDUSRTIMER
 40
0.0000000000
  9
$USRTIMER
 70
       1
  9
$ANGBASE
 50
0.0
  9
$ANGDIR
 70
       0
  9
$PDMODE
 70
       0
  9
$PDSIZE
 40
0.0
  9
$PLINEWID
 40
0.0
  9
$COORDS
 70
       1
  9
$SPLFRAME
 70
       0
  9
$SPLINETYPE
 70
       6
  9
$SPLINESEGS
 70
       8
  9
$ATTDIA
 70
       0
  9
$ATTREQ
 70
       1
  9
$HANDLING
 70
       1
  9
$HANDSEED
  5
1B8
  9
$SURFTAB1
 70
       6
  9
$SURFTAB2
 70
       6
  9
$SURFTYPE
 70
       6
  9
$SURFU
 70
       6
  9
$SURFV
 70
       6
  9
$UCSNAME
  2

  9
$UCSORG
 10
0.0
 20
0.0
 30
0.0
  9
$UCSXDIR
 10
1.0
 20
0.0
 30
0.0
  9
$UCSYDIR
 10
0.0
 20
1.0
 30
0.0
  9
$PUCSNAME
  2

  9
$PUCSORG
 10
0.0
 20
0.0
 30
0.0
  9
$PUCSXDIR
 10
1.0
 20
0.0
 30
0.0
  9
$PUCSYDIR
 10
0.0
 20
1.0
 30
0.0
  9
$USERI1
 70
       0
  9
$USERI2
 70
       0
  9
$USERI3
 70
       0
  9
$USERI4
 70
       0
  9
$USERI5
 70
       0
  9
$USERR1
 40
0.0
  9
$USERR2
 40
0.0
  9
$USERR3
 40
0.0
  9
$USERR4
 40
0.0
  9
$USERR5
 40
0.0
  9
$WORLDVIEW
 70
       1
  9
$SHADEDGE
 70
       3
  9
$SHADEDIF
 70
      70
  9
$TILEMODE
 70
       1
  9
$MAXACTVP
 70
      16
  9
$PINSBASE
 10
0.0
 20
0.0
 30
0.0
  9
$PLIMCHECK
 70
       0
  9
$PEXTMIN
 10
1.00000000E+20
 20
1.00000000E+20
 30
1.00000000E+20
  9
$PEXTMAX
 10
-1.00000000E+20
 20
-1.00000000E+20
 30
-1.00000000E+20
  9
$PLIMMIN
 10
0.0
 20
0.0
  9
$PLIMMAX
 10
12.0
 20
9.0
  9
$UNITMODE
 70
       0
  9
$VISRETAIN
 70
       0
  9
$PLINEGEN
 70
       1
  9
$PSLTSCALE
 70
       0
  9
$TREEDEPTH
 70
    3020
  9
$DWGCODEPAGE
  3
dos932
  0
ENDSEC
  0
SECTION
  2
TABLES
  0
TABLE
  2
VPORT
 70
       1
  0
VPORT
  2
*ACTIVE
 70
       0
 10
0.0
 20
0.0
 11
1.0
 21
1.0
 12
5.0
 22
0.0
 13
0.0
 23
0.0
 14
1.0
 24
1.0
 15
0.0
 25
0.0
 16
0.0
 26
0.0
 36
1.0
 17
0.0
 27
0.0
 37
0.0
 40
809.01
 41
1.73205081
 42
50.0
 43
0.0
 44
0.0
 50
0.0
 51
0.0
 71
       0
 72
     100
 73
       1
 74
       1
 75
       0
 76
       0
 77
       0
 78
       0
  0
ENDTAB
  0
TABLE
  2
LTYPE
 70
       3
  0
LTYPE
  2
CONTINUOUS
 70
      64
  3
Solid line
 72
      65
 73
       0
 40
0.0
  0
LTYPE
  2
CENTER
 70
      64
  3
Center ____ _ ____ _ ____ _ ____ _ ____ _ ____
 72
      65
 73
       4
 40
26.0
 49
20.0
 49
-2.0
 49
2.0
 49
-2.0
  0
LTYPE
  2
DASHED
 70
      64
  3
Dashed __ __ __ __ __ __ __ __ __ __ __ __ __ _
 72
      65
 73
       2
 40
4.0
 49
2.0
 49
-2.0
  0
ENDTAB
  0
TABLE
  2
LAYER
 70
       2
  0
LAYER
  2
0
 70
       0
 62
       7
  6
CONTINUOUS
  0
LAYER
  2
DEFPOINTS
 70
       0
 62
       7
  6
CONTINUOUS
  0
ENDTAB
  0
TABLE
  2
STYLE
 70
       1
  0
STYLE
  2
MX_NOTE_STANDARD
 70
       0
 40
0.0
 41
1.0
 50
0.0
 71
       0
 42
3.20000005
  3
txt.shx
  4
extfont.shx
  0
ENDTAB
  0
TABLE
  2
VIEW
 70
       0
  0
ENDTAB
  0
TABLE
  2
UCS
 70
       0
  0
ENDTAB
  0
TABLE
  2
APPID
 70
       1
  0
APPID
  2
ACAD
 70
       0
  0
ENDTAB
  0
TABLE
  2
DIMSTYLE
 70
       1
  0
DIMSTYLE
  2
MXDIMSTYLE
 70
       0
  3

  4

  5

  6

  7

 40
1.0
 41
2.5
 42
1.5
 43
3.75
 44
1.5
 45
0.0
 46
0.0
 47
0.0
 48
0.0
 71
       0
 72
       0
 73
       0
 74
       0
 75
       0
 76
       0
 77
       1
 78
       8
140
3.20000005
141
2.5
142
0.0
143
0.03937008
144
1.0
145
0.0
146
1.0
147
1.0
170
       0
171
       4
172
       1
173
       0
174
       0
175
       0
176
       0
177
       0
178
       0
  0
ENDTAB
  0
ENDSEC
  0
SECTION
  2
BLOCKS
  0
ENDSEC
  0
SECTION
  2
ENTITIES
  0
LINE
  8
0
  6
CENTER
 62
       2
  5
1F
 10
-419.33875777
 20
6.9823186
 30
0.0
 11
-213.33777153
 21
6.9823186
 31
0.0
  0
LINE
  8
0
  6
DASHED
 62
       2
  5
21
 10
78.8357907
 20
83.88274649
 30
0.0
 11
79.5241563
 21
97.98281944
 31
0.0
  0
LINE
  8
0
  6
DASHED
 62
       2
  5
22
 10
77.8048626
 20
83.9070927
 30
0.0
 11
78.4944937
 21
98.03308757
 31
0.0
  0
LINE
  8
0
  6
CENTER
 62
       2
  5
23
 10
-388.3385422
 20
-44.55791255
 30
0.0
 11
-388.3385422
 21
-86.74722424
 31
0.0
  0
LINE
  8
0
  6
CONTINUOUS
 62
       7
  5
24
 10
-407.33867761
 20
97.98284599
 30
0.0
 11
-225.33782627
 21
97.98284599
 31
0.0
  0
LINE
  8
0
  6
CONTINUOUS
 62
       7
  5
25
 10
-407.33867761
 20
97.98284599
 30
0.0
 11
-407.33867761
 21
-84.01811502
 31
0.0
  0
LINE
  8
0
  6
CONTINUOUS
 62
       7
  5
26
 10
-244.33791171
 20
-51.16794957
 30
0.0
 11
-232.34346988
 21
-58.09294391
 31
0.0
  0
LINE
  8
0
  6
CONTINUOUS
 62
       7
  5
27
 10
-407.33867761
 20
-84.01811502
 30
0.0
 11
-225.33782627
 21
-84.01811502
 31
0.0
  0
LINE
  8
0
  6
CONTINUOUS
 62
       7
  5
28
 10
-388.33857645
 20
-51.1678976
 30
0.0
 11
-400.33308434
 21
-58.09293009
 31
0.0
  0
LINE
  8
0
  6
CONTINUOUS
 62
       7
  5
29
 10
-225.33782627
 20
97.98284599
 30
0.0
 11
-225.33782627
 21
-84.01811502
 31
0.0
  0
LINE
  8
0
  6
CONTINUOUS
 62
       7
  5
2A
 10
85.80376487
 20
-84.0181458
 30
0.0
 11
86.8037853
 21
-83.01812528
 31
0.0
  0
LINE
  8
0
  6
CENTER
 62
       2
  5
2B
 10
66.30367836
 20
114.98283664
 30
0.0
 11
66.30367836
 21
-4.62873045
 31
0.0
  0
LINE
  8
0
  6
DASHED
 62
       2
  5
2C
 10
54.112723
 20
98.03310568
 30
0.0
 11
54.80235224
 21
83.90714891
 31
0.0
  0
LINE
  8
0
  6
DASHED
 62
       2
  5
2D
 10
53.08306041
 20
97.98283755
 30
0.0
 11
53.771426
 21
83.88276459
 31
0.0
  0
LINE
  8
0
  6
CONTINUOUS
 62
       7
  5
2E
 10
48.80355297
 20
-84.01811502
 30
0.0
 11
85.80377048
 21
-84.01811502
 31
0.0
  0
LINE
  8
0
  6
CONTINUOUS
 62
       7
  5
2F
 10
47.8035251
 20
-83.01812529
 30
0.0
 11
47.8035251
 21
96.98271639
 31
0.0
  0
LINE
  8
0
  6
CENTER
 62
       2
  5
30
 10
-367.16356074
 20
-65.01803524
 30
0.0
 11
-410.08044135
 21
-65.01803524
 31
0.0
  0
LINE
  8
0
  6
CONTINUOUS
 62
       7
  5
31
 10
-400.33312917
 20
-58.09299958
 30
0.0
 11
-400.33312917
 21
-71.94307409
 31
0.0
  0
LINE
  8
0
  6
CONTINUOUS
 62
       7
  5
32
 10
47.80358246
 20
-83.01816064
 30
0.0
 11
48.80358949
 21
-84.01816759
 31
0.0
  0
LINE
  8
0
  6
CONTINUOUS
 62
       7
  5
33
 10
86.80376021
 20
-78.01808606
 30
0.0
 11
144.80491461
 21
-78.01808606
 31
0.0
  0
LINE
  8
0
  6
CONTINUOUS
 62
       7
  5
34
 10
183.80507343
 20
96.9828054
 30
0.0
 11
183.80507343
 21
-83.01812529
 31
0.0
  0
LINE
  8
0
  6
CONTINUOUS
 62
       7
  5
35
 10
182.80505827
 20
-84.01811502
 30
0.0
 11
145.80490434
 21
-84.01811502
 31
0.0
  0
LINE
  8
0
  6
CONTINUOUS
 62
       7
  5
36
 10
183.80511967
 20
-83.018136
 30
0.0
 11
182.80509915
 21
-84.01815643
 31
0.0
  0
LINE
  8
0
  6
CONTINUOUS
 62
       7
  5
37
 10
145.80492601
 20
-84.01816386
 30
0.0
 11
144.80492356
 21
-83.01816133
 31
0.0
  0
LINE
  8
0
  6
CENTER
 62
       2
  5
38
 10
165.30502189
 20
114.98283664
 30
0.0
 11
165.30502189
 21
-6.65297149
 31
0.0
  0
LINE
  8
0
  6
DASHED
 62
       2
  5
39
 10
152.77284448
 20
83.88278888
 30
0.0
 11
152.0844795
 21
97.98284914
 31
0.0
  0
LINE
  8
0
  6
DASHED
 62
       2
  5
3A
 10
178.52550492
 20
97.98279856
 30
0.0
 11
177.83713746
 21
83.8826875
 31
0.0
  0
LINE
  8
0
  6
DASHED
 62
       2
  5
3B
 10
177.49584232
 20
98.03306669
 30
0.0
 11
176.80621122
 21
83.90707182
 31
0.0
  0
LINE
  8
0
  6
DASHED
 62
       2
  5
3C
 10
153.80377258
 20
83.9071351
 30
0.0
 11
153.11414209
 21
98.03311727
 31
0.0
  0
LINE
  8
0
  6
CENTER
 62
       2
  5
3D
 10
-92.51304348
 20
6.9823186
 30
0.0
 11
415.42346448
 21
6.9823186
 31
0.0
  0
LINE
  8
0
  6
CONTINUOUS
 62
       7
  5
3E
 10
145.80491262
 20
97.98280977
 30
0.0
 11
144.80491017
 21
96.98280723
 31
0.0
  0
LINE
  8
0
  6
CONTINUOUS
 62
       7
  5
3F
 10
183.80510459
 20
96.98280157
 30
0.0
 11
182.80510205
 21
97.98280402
 31
0.0
  0
LINE
  8
0
  6
CONTINUOUS
 62
       7
  5
40
 10
182.80505827
 20
97.98275698
 30
0.0
 11
145.80490434
 21
97.98275698
 31
0.0
  0
LINE
  8
0
  6
CONTINUOUS
 62
       7
  5
41
 10
86.80376021
 20
91.98272961
 30
0.0
 11
144.80491461
 21
91.98272961
 31
0.0
  0
LINE
  8
0
  6
CONTINUOUS
 62
       7
  5
42
 10
47.80360709
 20
96.98277283
 30
0.0
 11
48.80361412
 21
97.98277978
 31
0.0
  0
LINE
  8
0
  6
CONTINUOUS
 62
       7
  5
43
 10
48.80355297
 20
97.98275698
 30
0.0
 11
85.80377048
 21
97.98275698
 31
0.0
  0
LINE
  8
0
  6
CONTINUOUS
 62
       7
  5
44
 10
86.80376021
 20
-83.01812529
 30
0.0
 11
86.80376021
 21
96.98271639
 31
0.0
  0
LINE
  8
0
  6
CENTER
 62
       2
  5
45
 10
10.92993074
 20
-65.01803524
 30
0.0
 11
220.03203523
 21
-65.01803524
 31
0.0
  0
LINE
  8
0
  6
CONTINUOUS
 62
       7
  5
46
 10
214.30520513
 20
-58.51798758
 30
0.0
 11
214.30520513
 21
-71.51808291
 31
0.0
  0
LINE
  8
0
  6
CONTINUOUS
 62
       7
  5
47
 10
212.80520782
 20
-57.01798074
 30
0.0
 11
200.80517852
 21
-57.01798074
 31
0.0
  0
LINE
  8
0
  6
CONTINUOUS
 62
       7
  5
48
 10
212.80520782
 20
-73.01809134
 30
0.0
 11
200.80517852
 21
-73.01809134
 31
0.0
  0
LINE
  8
0
  6
CONTINUOUS
 62
       7
  5
49
 10
212.80521102
 20
-57.01800049
 30
0.0
 11
214.30523268
 21
-58.51802227
 31
0.0
  0
LINE
  8
0
  6
CONTINUOUS
 62
       7
  5
4A
 10
214.30522314
 20
-71.51808165
 30
0.0
 11
212.80521934
 21
-73.01808532
 31
0.0
  0
LINE
  8
0
  6
CONTINUOUS
 62
       2
  5
4B
 10
213.55520648
 20
-72.26808792
 30
0.0
 11
200.80517852
 21
-72.26808792
 31
0.0
  0
LINE
  8
0
  6
CONTINUOUS
 62
       2
  5
4C
 10
213.55520648
 20
-57.76798575
 30
0.0
 11
200.80517852
 21
-57.76798575
 31
0.0
  0
LINE
  8
0
  6
CONTINUOUS
 62
       7
  5
4D
 10
212.80520782
 20
-57.01798074
 30
0.0
 11
212.80520782
 21
-73.01809134
 31
0.0
  0
LINE
  8
0
  6
CONTINUOUS
 62
       7
  5
4E
 10
187.80513406
 20
-51.01795337
 30
0.0
 11
187.80513406
 21
-79.01812029
 31
0.0
  0
LINE
  8
0
  6
CONTINUOUS
 62
       7
  5
4F
 10
187.80513406
 20
-51.01795337
 30
0.0
 11
183.80507343
 21
-51.01795337
 31
0.0
  0
LINE
  8
0
  6
CONTINUOUS
 62
       7
  5
50
 10
187.80513406
 20
-79.01812029
 30
0.0
 11
183.80507343
 21
-79.01812029
 31
0.0
  0
LINE
  8
0
  6
CONTINUOUS
 62
       7
  5
51
 10
200.80517852
 20
-53.51799445
 30
0.0
 11
200.80517852
 21
-76.51807763
 31
0.0
  0
LINE
  8
0
  6
CONTINUOUS
 62
       7
  5
52
 10
199.4484111
 20
-51.16796391
 30
0.0
 11
189.16185062
 21
-51.16796391
 31
0.0
  0
LINE
  8
0
  6
CONTINUOUS
 62
       7
  5
53
 10
199.4484111
 20
-78.86811135
 30
0.0
 11
189.16185062
 21
-78.86811135
 31
0.0
  0
LINE
  8
0
  6
CONTINUOUS
 62
       7
  5
54
 10
200.80514206
 20
-53.51792091
 30
0.0
 11
199.44836828
 21
-51.16791983
 31
0.0
  0
LINE
  8
0
  6
CONTINUOUS
 62
       7
  5
55
 10
189.1618606
 20
-78.8680545
 30
0.0
 11
187.80508682
 21
-76.51805342
 31
0.0
  0
LINE
  8
0
  6
CONTINUOUS
 62
       7
  5
56
 10
200.80517275
 20
-76.5180728
 30
0.0
 11
199.44839261
 21
-78.8680849
 31
0.0
  0
LINE
  8
0
  6
CONTINUOUS
 62
       7
  5
57
 10
189.16192262
 20
-51.16798667
 30
0.0
 11
187.8051552
 21
-53.51797674
 31
0.0
  0
LINE
  8
0
  6
CONTINUOUS
 62
       7
  5
58
 10
187.8050991
 20
-63.86333867
 30
0.0
 11
183.80509444
 21
-66.17274248
 31
0.0
  0
LINE
  8
0
  6
CONTINUOUS
 62
       7
  5
59
 10
199.4484111
 20
-58.09299958
 30
0.0
 11
189.16185062
 21
-58.09299958
 31
0.0
  0
LINE
  8
0
  6
CONTINUOUS
 62
       7
  5
5A
 10
199.4484111
 20
-71.94307409
 30
0.0
 11
189.16185062
 21
-71.94307409
 31
0.0
  0
LINE
  8
0
  6
CONTINUOUS
 62
       7
  5
5B
 10
86.80376021
 20
-57.57297745
 30
0.0
 11
144.80491461
 21
-57.57297745
 31
0.0
  0
LINE
  8
0
  6
CONTINUOUS
 62
       7
  5
5C
 10
86.80376021
 20
-72.46309621
 30
0.0
 11
144.80491461
 21
-72.46309621
 31
0.0
  0
LINE
  8
0
  6
CONTINUOUS
 62
       7
  5
5D
 10
-388.33865123
 20
-78.8680499
 30
0.0
 11
-400.33320317
 21
-71.94299198
 31
0.0
  0
LINE
  8
0
  6
CONTINUOUS
 62
       7
  5
5E
 10
-376.34405305
 20
-71.94302117
 30
0.0
 11
-388.33856095
 21
-78.86805365
 31
0.0
  0
LINE
  8
0
  6
CONTINUOUS
 62
       7
  5
5F
 10
-376.34405695
 20
-58.09299958
 30
0.0
 11
-376.34405695
 21
-71.94307409
 31
0.0
  0
LINE
  8
0
  6
CONTINUOUS
 62
       7
  5
60
 10
-388.33870521
 20
-51.16791247
 30
0.0
 11
-376.34415326
 21
-58.09297039
 31
0.0
  0
LINE
  8
0
  6
CONTINUOUS
 62
       7
  5
61
 10
-232.3433747
 20
-58.09299958
 30
0.0
 11
-232.3433747
 21
-71.94307409
 31
0.0
  0
LINE
  8
0
  6
CONTINUOUS
 62
       7
  5
62
 10
-232.34345482
 20
-71.94305275
 30
0.0
 11
-244.33794069
 21
-78.86807252
 31
0.0
  0
LINE
  8
0
  6
CONTINUOUS
 62
       7
  5
63
 10
-244.3379742
 20
-78.86803444
 30
0.0
 11
-256.33241603
 21
-71.9430401
 31
0.0
  0
LINE
  8
0
  6
CONTINUOUS
 62
       7
  5
64
 10
-256.33242149
 20
-58.09299958
 30
0.0
 11
-256.33242149
 21
-71.94307409
 31
0.0
  0
LINE
  8
0
  6
CONTINUOUS
 62
       7
  5
65
 10
-244.33797821
 20
-51.16792919
 30
0.0
 11
-256.33246409
 21
-58.09294896
 31
0.0
  0
LINE
  8
0
  6
CENTER
 62
       2
  5
66
 10
-223.16298022
 20
-65.01803524
 30
0.0
 11
-266.07963195
 21
-65.01803524
 31
0.0
  0
LINE
  8
0
  6
CENTER
 62
       2
  5
67
 10
-244.33798711
 20
-44.55791255
 30
0.0
 11
-244.33798711
 21
-86.74722424
 31
0.0
  0
LINE
  8
0
  6
CENTER
 62
       2
  5
68
 10
-244.33798711
 20
99.4428905
 30
0.0
 11
-244.33798711
 21
57.253489
 31
0.0
  0
LINE
  8
0
  6
CENTER
 62
       2
  5
69
 10
-223.16298022
 20
78.9827233
 30
0.0
 11
-266.07963195
 21
78.9827233
 31
0.0
  0
LINE
  8
0
  6
CONTINUOUS
 62
       7
  5
6A
 10
-244.3379246
 20
92.83268176
 30
0.0
 11
-256.3324325
 21
85.90764927
 31
0.0
  0
LINE
  8
0
  6
CONTINUOUS
 62
       7
  5
6B
 10
-256.33242149
 20
85.90775579
 30
0.0
 11
-256.33242149
 21
72.05763995
 31
0.0
  0
LINE
  8
0
  6
CONTINUOUS
 62
       7
  5
6C
 10
-244.33798967
 20
65.13264258
 30
0.0
 11
-256.33249756
 21
72.05767507
 31
0.0
  0
LINE
  8
0
  6
CONTINUOUS
 62
       7
  5
6D
 10
-232.34343935
 20
72.05762427
 30
0.0
 11
-244.33794725
 21
65.13259178
 31
0.0
  0
LINE
  8
0
  6
CONTINUOUS
 62
       7
  5
6E
 10
-232.3433747
 20
85.90775579
 30
0.0
 11
-232.3433747
 21
72.05763995
 31
0.0
  0
LINE
  8
0
  6
CONTINUOUS
 62
       7
  5
6F
 10
-244.33798212
 20
92.83278487
 30
0.0
 11
-232.34347422
 21
85.90775238
 31
0.0
  0
LINE
  8
0
  6
CENTER
 62
       2
  5
70
 10
-388.3385422
 20
99.4428905
 30
0.0
 11
-388.3385422
 21
57.253489
 31
0.0
  0
LINE
  8
0
  6
CENTER
 62
       2
  5
71
 10
-367.16356074
 20
78.9827233
 30
0.0
 11
-410.08044135
 21
78.9827233
 31
0.0
  0
LINE
  8
0
  6
CONTINUOUS
 62
       7
  5
72
 10
-388.33867451
 20
92.8327726
 30
0.0
 11
-400.33318241
 21
85.90774012
 31
0.0
  0
LINE
  8
0
  6
CONTINUOUS
 62
       7
  5
73
 10
-400.33312917
 20
85.90775579
 30
0.0
 11
-400.33312917
 21
72.05763995
 31
0.0
  0
LINE
  8
0
  6
CONTINUOUS
 62
       7
  5
74
 10
-388.33868236
 20
65.13265085
 30
0.0
 11
-400.33319025
 21
72.05768333
 31
0.0
  0
LINE
  8
0
  6
CONTINUOUS
 62
       7
  5
75
 10
-376.34416383
 20
72.05767106
 30
0.0
 11
-388.33867173
 21
65.13263858
 31
0.0
  0
LINE
  8
0
  6
CONTINUOUS
 62
       7
  5
76
 10
-376.34405695
 20
85.90775579
 30
0.0
 11
-376.34405695
 21
72.05763995
 31
0.0
  0
LINE
  8
0
  6
CONTINUOUS
 62
       7
  5
77
 10
-388.33867957
 20
92.83278487
 30
0.0
 11
-376.34417168
 21
85.90775238
 31
0.0
  0
LINE
  8
0
  6
CONTINUOUS
 62
       7
  5
78
 10
60.83649056
 20
6.3823273
 30
0.0
 11
71.77086616
 21
6.3823273
 31
0.0
  0
LINE
  8
0
  6
CONTINUOUS
 62
       7
  5
79
 10
86.80376021
 20
71.53761783
 30
0.0
 11
144.80491461
 21
71.53761783
 31
0.0
  0
LINE
  8
0
  6
CONTINUOUS
 62
       7
  5
7A
 10
86.80376021
 20
86.4276889
 30
0.0
 11
144.80491461
 21
86.4276889
 31
0.0
  0
LINE
  8
0
  6
CENTER
 62
       2
  5
7B
 10
10.92993074
 20
78.98267244
 30
0.0
 11
220.03203523
 21
78.98267244
 31
0.0
  0
LINE
  8
0
  6
CONTINUOUS
 62
       7
  5
7C
 10
199.4484111
 20
72.05763995
 30
0.0
 11
189.16185062
 21
72.05763995
 31
0.0
  0
LINE
  8
0
  6
CONTINUOUS
 62
       7
  5
7D
 10
187.80511727
 20
77.82797623
 30
0.0
 11
183.80512363
 21
80.13737368
 31
0.0
  0
LINE
  8
0
  6
CONTINUOUS
 62
       7
  5
7E
 10
189.16190922
 20
65.13261596
 30
0.0
 11
187.80513703
 21
67.48261429
 31
0.0
  0
LINE
  8
0
  6
CONTINUOUS
 62
       7
  5
7F
 10
189.16189615
 20
92.83269671
 30
0.0
 11
187.80512872
 21
90.48270664
 31
0.0
  0
LINE
  8
0
  6
CONTINUOUS
 62
       7
  5
80
 10
200.80516706
 20
90.48273959
 30
0.0
 11
199.44839328
 21
92.83274067
 31
0.0
  0
LINE
  8
0
  6
CONTINUOUS
 62
       7
  5
81
 10
199.4484111
 20
85.90766678
 30
0.0
 11
189.16185062
 21
85.90766678
 31
0.0
  0
LINE
  8
0
  6
CONTINUOUS
 62
       7
  5
82
 10
144.80491461
 20
-83.01812529
 30
0.0
 11
144.80491461
 21
96.98271639
 31
0.0
  0
LINE
  8
0
  6
CONTINUOUS
 62
       7
  5
83
 10
199.4484111
 20
92.83275013
 30
0.0
 11
189.16185062
 21
92.83275013
 31
0.0
  0
LINE
  8
0
  6
CONTINUOUS
 62
       7
  5
84
 10
199.4484111
 20
65.13259475
 30
0.0
 11
189.16185062
 21
65.13259475
 31
0.0
  0
LINE
  8
0
  6
CONTINUOUS
 62
       7
  5
85
 10
200.80517852
 20
67.48258713
 30
0.0
 11
200.80517852
 21
90.48271959
 31
0.0
  0
LINE
  8
0
  6
CONTINUOUS
 62
       7
  5
86
 10
187.80513406
 20
64.98258739
 30
0.0
 11
183.80507343
 21
64.98258739
 31
0.0
  0
LINE
  8
0
  6
CONTINUOUS
 62
       7
  5
87
 10
187.80513406
 20
92.98271934
 30
0.0
 11
183.80507343
 21
92.98271934
 31
0.0
  0
LINE
  8
0
  6
CONTINUOUS
 62
       7
  5
88
 10
200.80515093
 20
67.48259321
 30
0.0
 11
199.44837079
 21
65.13258111
 31
0.0
  0
LINE
  8
0
  6
CONTINUOUS
 62
       7
  5
89
 10
212.80520782
 20
70.98261475
 30
0.0
 11
212.80520782
 21
86.98267926
 31
0.0
  0
LINE
  8
0
  6
CONTINUOUS
 62
       2
  5
8A
 10
213.55520648
 20
71.73262612
 30
0.0
 11
200.80517852
 21
71.73262612
 31
0.0
  0
LINE
  8
0
  6
CONTINUOUS
 62
       2
  5
8B
 10
213.55520648
 20
86.2326806
 30
0.0
 11
200.80517852
 21
86.2326806
 31
0.0
  0
LINE
  8
0
  6
CONTINUOUS
 62
       7
  5
8C
 10
212.80522685
 20
70.98263516
 30
0.0
 11
214.30520355
 21
72.48261198
 31
0.0
  0
LINE
  8
0
  6
CONTINUOUS
 62
       7
  5
8D
 10
214.30524459
 20
85.48272868
 30
0.0
 11
212.80523179
 21
86.98274134
 31
0.0
  0
LINE
  8
0
  6
CONTINUOUS
 62
       7
  5
8E
 10
187.80513406
 20
64.98258739
 30
0.0
 11
187.80513406
 21
92.98271934
 31
0.0
  0
LINE
  8
0
  6
CONTINUOUS
 62
       7
  5
8F
 10
214.30520513
 20
72.48262478
 30
0.0
 11
214.30520513
 21
85.48268195
 31
0.0
  0
LINE
  8
0
  6
CONTINUOUS
 62
       7
  5
90
 10
212.80520782
 20
86.98267926
 30
0.0
 11
200.80517852
 21
86.98267926
 31
0.0
  0
LINE
  8
0
  6
CONTINUOUS
 62
       7
  5
91
 10
212.80520782
 20
70.98261475
 30
0.0
 11
200.80517852
 21
70.98261475
 31
0.0
  0
LINE
  8
0
  6
CONTINUOUS
 62
       7
  5
92
 10
85.80375804
 20
97.98277597
 30
0.0
 11
86.80376049
 21
96.98277344
 31
0.0
  0
LINE
  8
0
  6
CONTINUOUS
 62
       7
  5
93
 10
60.83649056
 20
7.58233532
 30
0.0
 11
71.77086616
 21
7.58233532
 31
0.0
  0
LINE
  8
0
  6
DASHED
 62
       2
  5
94
 10
159.83779595
 20
7.58233532
 30
0.0
 11
170.77222241
 21
7.58233532
 31
0.0
  0
LINE
  8
0
  6
DASHED
 62
       2
  5
95
 10
159.83779595
 20
6.3823273
 30
0.0
 11
170.77222241
 21
6.3823273
 31
0.0
  0
LINE
  8
0
  6
CENTER
 62
       2
  5
96
 10
-316.33821379
 20
107.22802707
 30
0.0
 11
-316.33821379
 21
-96.01817512
 31
0.0
  0
LINE
  8
0
  6
CENTER
 62
       2
  5
97
 10
-349.23583547
 20
-25.91529892
 30
0.0
 11
-336.49088885
 21
-13.1703523
 31
0.0
  0
LINE
  8
0
  6
CENTER
 62
       2
  5
98
 10
-349.2357995
 20
39.8798595
 30
0.0
 11
-336.49088885
 21
27.13494885
 31
0.0
  0
LINE
  8
0
  6
CONTINUOUS
 62
       7
  5
99
 10
-286.50858724
 20
32.61125207
 30
0.0
 11
-288.93395598
 21
30.18588333
 31
0.0
  0
LINE
  8
0
  6
CONTINUOUS
 62
       7
  5
9A
 10
-345.28034738
 20
35.9243016
 30
0.0
 11
-341.96718293
 21
36.81206135
 31
0.0
  0
LINE
  8
0
  6
CONTINUOUS
 62
       7
  5
9B
 10
-292.24705146
 20
31.0734915
 30
0.0
 11
-293.13481779
 21
34.38668052
 31
0.0
  0
LINE
  8
0
  6
CENTER
 62
       2
  5
9C
 10
-283.44056915
 20
-25.91526296
 30
0.0
 11
-296.18551577
 21
-13.17031634
 31
0.0
  0
LINE
  8
0
  6
CENTER
 62
       2
  5
9D
 10
-283.44069503
 20
39.87998538
 30
0.0
 11
-296.18564165
 21
27.13503876
 31
0.0
  0
LINE
  8
0
  6
CONTINUOUS
 62
       7
  5
9E
 10
-287.39626386
 20
35.92432142
 30
0.0
 11
-286.50849753
 21
32.6111324
 31
0.0
  0
LINE
  8
0
  6
CONTINUOUS
 62
       7
  5
9F
 10
-288.93398511
 20
30.1858348
 30
0.0
 11
-292.24710044
 21
31.07358138
 31
0.0
  0
LINE
  8
0
  6
CONTINUOUS
 62
       7
  5
A0
 10
17.30345698
 20
-58.51798758
 30
0.0
 11
17.30345698
 21
-71.51808291
 31
0.0
  0
LINE
  8
0
  6
CONTINUOUS
 62
       7
  5
A1
 10
18.80341614
 20
-57.01798074
 30
0.0
 11
30.80347087
 21
-57.01798074
 31
0.0
  0
LINE
  8
0
  6
CONTINUOUS
 62
       7
  5
A2
 10
18.80341614
 20
-73.01809134
 30
0.0
 11
30.80347087
 21
-73.01809134
 31
0.0
  0
LINE
  8
0
  6
CONTINUOUS
 62
       7
  5
A3
 10
18.80337421
 20
-57.01797119
 30
0.0
 11
17.30336155
 21
-58.51798398
 31
0.0
  0
LINE
  8
0
  6
CONTINUOUS
 62
       7
  5
A4
 10
17.30341155
 20
-71.51807482
 30
0.0
 11
18.80341535
 21
-73.0180785
 31
0.0
  0
LINE
  8
0
  6
CONTINUOUS
 62
       2
  5
A5
 10
18.05340477
 20
-72.26808792
 30
0.0
 11
30.80347087
 21
-72.26808792
 31
0.0
  0
LINE
  8
0
  6
CONTINUOUS
 62
       2
  5
A6
 10
18.05340477
 20
-57.76798575
 30
0.0
 11
30.80347087
 21
-57.76798575
 31
0.0
  0
LINE
  8
0
  6
CONTINUOUS
 62
       7
  5
A7
 10
18.80341614
 20
-57.01798074
 30
0.0
 11
18.80341614
 21
-73.01809134
 31
0.0
  0
LINE
  8
0
  6
CONTINUOUS
 62
       7
  5
A8
 10
43.80356619
 20
-51.01795337
 30
0.0
 11
43.80356619
 21
-79.01812029
 31
0.0
  0
LINE
  8
0
  6
CONTINUOUS
 62
       7
  5
A9
 10
43.80356619
 20
-51.01795337
 30
0.0
 11
47.8035251
 21
-51.01795337
 31
0.0
  0
LINE
  8
0
  6
CONTINUOUS
 62
       7
  5
AA
 10
43.80356619
 20
-79.01812029
 30
0.0
 11
47.8035251
 21
-79.01812029
 31
0.0
  0
LINE
  8
0
  6
CONTINUOUS
 62
       7
  5
AB
 10
30.80347087
 20
-53.51799445
 30
0.0
 11
30.80347087
 21
-76.51807763
 31
0.0
  0
LINE
  8
0
  6
CONTINUOUS
 62
       7
  5
AC
 10
32.16028916
 20
-51.16796391
 30
0.0
 11
42.44674791
 21
-51.16796391
 31
0.0
  0
LINE
  8
0
  6
CONTINUOUS
 62
       7
  5
AD
 10
32.16028916
 20
-78.86811135
 30
0.0
 11
42.44674791
 21
-78.86811135
 31
0.0
  0
LINE
  8
0
  6
CONTINUOUS
 62
       7
  5
AE
 10
30.8034955
 20
-53.51798102
 30
0.0
 11
32.1602677
 21
-51.16798269
 31
0.0
  0
LINE
  8
0
  6
CONTINUOUS
 62
       7
  5
AF
 10
42.44675335
 20
-78.86810464
 30
0.0
 11
43.80353666
 21
-76.51808704
 31
0.0
  0
LINE
  8
0
  6
CONTINUOUS
 62
       7
  5
B0
 10
30.80341271
 20
-76.51799874
 30
0.0
 11
32.16020874
 21
-78.86803836
 31
0.0
  0
LINE
  8
0
  6
CONTINUOUS
 62
       7
  5
B1
 10
42.44670858
 20
-51.16791555
 30
0.0
 11
43.80347919
 21
-53.51791113
 31
0.0
  0
LINE
  8
0
  6
CONTINUOUS
 62
       7
  5
B2
 10
43.80349955
 20
-66.17269513
 30
0.0
 11
47.80354826
 21
-63.86326589
 31
0.0
  0
LINE
  8
0
  6
CONTINUOUS
 62
       7
  5
B3
 10
32.16028916
 20
-58.09299958
 30
0.0
 11
42.44674791
 21
-58.09299958
 31
0.0
  0
LINE
  8
0
  6
CONTINUOUS
 62
       7
  5
B4
 10
32.16028916
 20
-71.94307409
 30
0.0
 11
42.44674791
 21
-71.94307409
 31
0.0
  0
LINE
  8
0
  6
CONTINUOUS
 62
       7
  5
B5
 10
-290.7094643
 20
36.81212913
 30
0.0
 11
-293.13483304
 21
34.38676039
 31
0.0
  0
LINE
  8
0
  6
CONTINUOUS
 62
       7
  5
B6
 10
-287.39634699
 20
35.92437834
 30
0.0
 11
-290.70946232
 21
36.81212492
 31
0.0
  0
LINE
  8
0
  6
CONTINUOUS
 62
       7
  5
B7
 10
-339.54187772
 20
34.38675304
 30
0.0
 11
-340.42962965
 21
31.07361775
 31
0.0
  0
LINE
  8
0
  6
CONTINUOUS
 62
       7
  5
B8
 10
-346.16812308
 20
32.61127006
 30
0.0
 11
-343.74271837
 21
30.18586535
 31
0.0
  0
LINE
  8
0
  6
CONTINUOUS
 62
       7
  5
B9
 10
-345.28043165
 20
35.92439394
 30
0.0
 11
-346.16818358
 21
32.61125866
 31
0.0
  0
LINE
  8
0
  6
CONTINUOUS
 62
       7
  5
BA
 10
-341.96724602
 20
36.81214711
 30
0.0
 11
-339.54184131
 21
34.38674241
 31
0.0
  0
LINE
  8
0
  6
CONTINUOUS
 62
       7
  5
BB
 10
-340.42954202
 20
31.07350742
 30
0.0
 11
-343.74270648
 21
30.18574767
 31
0.0
  0
LINE
  8
0
  6
CONTINUOUS
 62
       7
  5
BC
 10
-292.24707396
 20
-17.1089745
 30
0.0
 11
-288.93400777
 21
-16.22124108
 31
0.0
  0
LINE
  8
0
  6
CONTINUOUS
 62
       7
  5
BD
 10
-286.50855127
 20
-18.64654763
 30
0.0
 11
-288.93395598
 21
-16.22114292
 31
0.0
  0
LINE
  8
0
  6
CONTINUOUS
 62
       7
  5
BE
 10
-287.39638593
 20
-21.95967825
 30
0.0
 11
-286.50862948
 21
-18.64652608
 31
0.0
  0
LINE
  8
0
  6
CONTINUOUS
 62
       7
  5
BF
 10
-287.39637015
 20
-21.95978273
 30
0.0
 11
-290.70943635
 21
-22.84751614
 31
0.0
  0
LINE
  8
0
  6
CONTINUOUS
 62
       7
  5
C0
 10
-290.7094643
 20
-22.84746066
 30
0.0
 11
-293.13486901
 21
-20.42205595
 31
0.0
  0
LINE
  8
0
  6
CONTINUOUS
 62
       7
  5
C1
 10
-293.13493986
 20
-20.42203735
 30
0.0
 11
-292.2471834
 21
-17.10888518
 31
0.0
  0
LINE
  8
0
  6
CONTINUOUS
 62
       7
  5
C2
 10
-343.74283102
 20
-16.22111371
 30
0.0
 11
-340.42966656
 21
-17.10887346
 31
0.0
  0
LINE
  8
0
  6
CONTINUOUS
 62
       7
  5
C3
 10
-346.16808712
 20
-18.64649368
 30
0.0
 11
-343.74273635
 21
-16.22114292
 31
0.0
  0
LINE
  8
0
  6
CONTINUOUS
 62
       7
  5
C4
 10
-345.28030958
 20
-21.95975078
 30
0.0
 11
-346.16806932
 21
-18.64658632
 31
0.0
  0
LINE
  8
0
  6
CONTINUOUS
 62
       7
  5
C5
 10
-345.28046205
 20
-21.95963079
 30
0.0
 11
-341.96729759
 21
-22.84739054
 31
0.0
  0
LINE
  8
0
  6
CONTINUOUS
 62
       7
  5
C6
 10
-341.96721006
 20
-22.84737074
 30
0.0
 11
-339.5418593
 21
-20.42201998
 31
0.0
  0
LINE
  8
0
  6
CONTINUOUS
 62
       7
  5
C7
 10
-340.42956453
 20
-17.10895858
 30
0.0
 11
-339.54180478
 21
-20.42212304
 31
0.0
  0
LINE
  8
0
  6
CONTINUOUS
 62
       7
  5
C8
 10
43.80356619
 20
64.98258739
 30
0.0
 11
47.8035251
 21
64.98258739
 31
0.0
  0
LINE
  8
0
  6
CONTINUOUS
 62
       7
  5
C9
 10
43.80356619
 20
64.98258739
 30
0.0
 11
43.80356619
 21
92.98271934
 31
0.0
  0
LINE
  8
0
  6
CONTINUOUS
 62
       7
  5
CA
 10
18.80341614
 20
70.98261475
 30
0.0
 11
18.80341614
 21
86.98267926
 31
0.0
  0
LINE
  8
0
  6
CONTINUOUS
 62
       7
  5
CB
 10
18.80341614
 20
86.98267926
 30
0.0
 11
30.80347087
 21
86.98267926
 31
0.0
  0
LINE
  8
0
  6
CONTINUOUS
 62
       2
  5
CC
 10
18.05340477
 20
71.73262612
 30
0.0
 11
30.80347087
 21
71.73262612
 31
0.0
  0
LINE
  8
0
  6
CONTINUOUS
 62
       7
  5
CD
 10
43.80356619
 20
92.98271934
 30
0.0
 11
47.8035251
 21
92.98271934
 31
0.0
  0
LINE
  8
0
  6
CONTINUOUS
 62
       2
  5
CE
 10
18.05340477
 20
86.2326806
 30
0.0
 11
30.80347087
 21
86.2326806
 31
0.0
  0
LINE
  8
0
  6
CONTINUOUS
 62
       7
  5
CF
 10
17.30344517
 20
85.48267802
 30
0.0
 11
18.80345347
 21
86.98268619
 31
0.0
  0
LINE
  8
0
  6
CONTINUOUS
 62
       7
  5
D0
 10
18.80338929
 20
70.98265474
 30
0.0
 11
17.30341259
 21
72.48263157
 31
0.0
  0
LINE
  8
0
  6
CONTINUOUS
 62
       7
  5
D1
 10
17.30345698
 20
72.48262478
 30
0.0
 11
17.30345698
 21
85.48268195
 31
0.0
  0
LINE
  8
0
  6
CONTINUOUS
 62
       7
  5
D2
 10
18.80341614
 20
70.98261475
 30
0.0
 11
30.80347087
 21
70.98261475
 31
0.0
  0
LINE
  8
0
  6
CONTINUOUS
 62
       7
  5
D3
 10
32.16028916
 20
85.90766678
 30
0.0
 11
42.44674791
 21
85.90766678
 31
0.0
  0
LINE
  8
0
  6
CONTINUOUS
 62
       7
  5
D4
 10
32.16028916
 20
72.05763995
 30
0.0
 11
42.44674791
 21
72.05763995
 31
0.0
  0
LINE
  8
0
  6
CONTINUOUS
 62
       7
  5
D5
 10
42.44673947
 20
65.13257513
 30
0.0
 11
43.80351008
 21
67.48257071
 31
0.0
  0
LINE
  8
0
  6
CONTINUOUS
 62
       7
  5
D6
 10
43.8034919
 20
80.13737696
 30
0.0
 11
47.8035406
 21
77.82794772
 31
0.0
  0
LINE
  8
0
  6
CONTINUOUS
 62
       7
  5
D7
 10
42.44670995
 20
92.8327827
 30
0.0
 11
43.80352824
 21
90.48270453
 31
0.0
  0
LINE
  8
0
  6
CONTINUOUS
 62
       7
  5
D8
 10
30.80345275
 20
67.48264843
 30
0.0
 11
32.16022017
 21
65.13265836
 31
0.0
  0
LINE
  8
0
  6
CONTINUOUS
 62
       7
  5
D9
 10
32.16028916
 20
92.83275013
 30
0.0
 11
42.44674791
 21
92.83275013
 31
0.0
  0
LINE
  8
0
  6
CONTINUOUS
 62
       7
  5
DA
 10
30.80347087
 20
67.48258713
 30
0.0
 11
30.80347087
 21
90.48271959
 31
0.0
  0
LINE
  8
0
  6
CONTINUOUS
 62
       7
  5
DB
 10
32.16028916
 20
65.13259475
 30
0.0
 11
42.44674791
 21
65.13259475
 31
0.0
  0
LINE
  8
0
  6
CONTINUOUS
 62
       7
  5
DC
 10
30.80340273
 20
90.48268925
 30
0.0
 11
32.16019558
 21
92.83272337
 31
0.0
  0
LINE
  8
0
  6
CONTINUOUS
 62
       7
  5
DD
 10
35.80355937
 20
39.99895505
 30
0.0
 11
35.80355937
 21
43.48245223
 31
0.0
  0
LINE
  8
0
  6
CONTINUOUS
 62
       7
  5
DE
 10
35.80355937
 20
-14.14418417
 30
0.0
 11
35.80355937
 21
28.10876414
 31
0.0
  0
LINE
  8
0
  6
CONTINUOUS
 62
       7
  5
DF
 10
47.80356995
 20
-37.51789057
 30
0.0
 11
47.30356644
 21
-38.01789404
 31
0.0
  0
LINE
  8
0
  6
CONTINUOUS
 62
       7
  5
E0
 10
34.60356407
 20
-13.03433062
 30
0.0
 11
35.80355937
 21
-13.03433062
 31
0.0
  0
LINE
  8
0
  6
CONTINUOUS
 62
       7
  5
E1
 10
34.60356407
 20
-13.03433062
 30
0.0
 11
34.60356407
 21
-26.03437508
 31
0.0
  0
LINE
  8
0
  6
CONTINUOUS
 62
       7
  5
E2
 10
43.60352247
 20
-38.01791209
 30
0.0
 11
47.30355567
 21
-38.01791209
 31
0.0
  0
LINE
  8
0
  6
CONTINUOUS
 62
       7
  5
E3
 10
34.60356407
 20
26.99891059
 30
0.0
 11
34.60356407
 21
39.99895505
 31
0.0
  0
LINE
  8
0
  6
CONTINUOUS
 62
       7
  5
E4
 10
43.60360532
 20
-38.01795907
 30
0.0
 11
42.60359388
 21
-37.01794754
 31
0.0
  0
LINE
  8
0
  6
CONTINUOUS
 62
       7
  5
E5
 10
10.80344463
 20
-23.01785961
 30
0.0
 11
9.80344218
 21
-22.01785708
 31
0.0
  0
LINE
  8
0
  6
CONTINUOUS
 62
       7
  5
E6
 10
10.8033966
 20
-23.01783731
 30
0.0
 11
34.60356407
 21
-23.01783731
 31
0.0
  0
LINE
  8
0
  6
CENTER
 62
       2
  5
E7
 10
30.45574677
 20
33.49895825
 30
0.0
 11
52.8036136
 21
33.49895825
 31
0.0
  0
LINE
  8
0
  6
CONTINUOUS
 62
       7
  5
E8
 10
43.60352247
 20
-38.01791209
 30
0.0
 11
43.60352247
 21
51.98253021
 31
0.0
  0
LINE
  8
0
  6
CONTINUOUS
 62
       7
  5
E9
 10
47.80356892
 20
51.48254434
 30
0.0
 11
47.30353169
 21
51.98258153
 31
0.0
  0
LINE
  8
0
  6
CONTINUOUS
 62
       7
  5
EA
 10
42.60357089
 20
-37.01792236
 30
0.0
 11
42.60357089
 21
50.98248962
 31
0.0
  0
LINE
  8
0
  6
CONTINUOUS
 62
       7
  5
EB
 10
43.60352247
 20
51.98253021
 30
0.0
 11
47.30355567
 21
51.98253021
 31
0.0
  0
LINE
  8
0
  6
CONTINUOUS
 62
       7
  5
EC
 10
36.80349824
 20
-30.5178747
 30
0.0
 11
42.60357089
 21
-30.5178747
 31
0.0
  0
LINE
  8
0
  6
CONTINUOUS
 62
       7
  5
ED
 10
34.60356407
 20
-26.03437508
 30
0.0
 11
42.60357089
 21
-26.03437508
 31
0.0
  0
LINE
  8
0
  6
CONTINUOUS
 62
       7
  5
EE
 10
9.80336873
 20
-22.01784759
 30
0.0
 11
9.80336873
 21
35.98241484
 31
0.0
  0
LINE
  8
0
  6
CONTINUOUS
 62
       7
  5
EF
 10
10.8033966
 20
36.98245543
 30
0.0
 11
34.60356407
 21
36.98245543
 31
0.0
  0
LINE
  8
0
  6
CONTINUOUS
 62
       7
  5
F0
 10
35.80355937
 20
-14.14418417
 30
0.0
 11
42.60357089
 21
-14.14418417
 31
0.0
  0
LINE
  8
0
  6
CONTINUOUS
 62
       7
  5
F1
 10
34.60356407
 20
39.99895505
 30
0.0
 11
42.60357089
 21
39.99895505
 31
0.0
  0
LINE
  8
0
  6
CONTINUOUS
 62
       7
  5
F2
 10
35.80355937
 20
28.10876414
 30
0.0
 11
42.60357089
 21
28.10876414
 31
0.0
  0
LINE
  8
0
  6
CENTER
 62
       2
  5
F3
 10
30.45574677
 20
-19.53433377
 30
0.0
 11
52.8036136
 21
-19.53433377
 31
0.0
  0
LINE
  8
0
  6
CONTINUOUS
 62
       7
  5
F4
 10
43.60350538
 20
51.98257688
 30
0.0
 11
42.60349844
 21
50.98256985
 31
0.0
  0
LINE
  8
0
  6
CONTINUOUS
 62
       7
  5
F5
 10
35.80355937
 20
-26.03437508
 30
0.0
 11
35.80355937
 21
-29.51788498
 31
0.0
  0
LINE
  8
0
  6
CONTINUOUS
 62
       7
  5
F6
 10
10.84341297
 20
-23.01783731
 30
0.0
 11
10.84341297
 21
36.98245543
 31
0.0
  0
LINE
  8
0
  6
CONTINUOUS
 62
       7
  5
F7
 10
47.30355567
 20
-38.01791209
 30
0.0
 11
47.30355567
 21
51.98253021
 31
0.0
  0
LINE
  8
0
  6
CONTINUOUS
 62
       7
  5
F8
 10
36.80349824
 20
44.48249282
 30
0.0
 11
42.60357089
 21
44.48249282
 31
0.0
  0
LINE
  8
0
  6
CONTINUOUS
 62
       7
  5
F9
 10
34.60356407
 20
26.99891059
 30
0.0
 11
35.80355937
 21
26.99891059
 31
0.0
  0
LINE
  8
0
  6
CONTINUOUS
 62
       7
  5
FA
 10
10.80337054
 20
36.98251676
 30
0.0
 11
9.80333213
 21
35.98247826
 31
0.0
  0
LINE
  8
0
  6
CONTINUOUS
 62
       2
  5
FB
 10
-71.44698545
 20
24.23240205
 30
0.0
 11
-16.19673291
 21
24.23240205
 31
0.0
  0
LINE
  8
0
  6
CONTINUOUS
 62
       7
  5
FC
 10
-72.19703442
 20
-9.51775773
 30
0.0
 11
-70.69698566
 21
-11.01780637
 31
0.0
  0
LINE
  8
0
  6
CONTINUOUS
 62
       7
  5
FD
 10
-16.19673291
 20
24.9824007
 30
0.0
 11
-16.19673291
 21
-11.01776986
 31
0.0
  0
LINE
  8
0
  6
CONTINUOUS
 62
       2
  5
FE
 10
-16.19677048
 20
24.23240821
 30
0.0
 11
-13.19675145
 21
24.98241297
 31
0.0
  0
LINE
  8
0
  6
CONTINUOUS
 62
       7
  5
FF
 10
-9.73261988
 20
-1.73550974
 30
0.0
 11
-9.73261988
 21
-13.01779382
 31
0.0
  0
LINE
  8
0
  6
CONTINUOUS
 62
       7
  5
100
 10
-72.19703497
 20
23.48240339
 30
0.0
 11
-72.19703497
 21
-9.51775984
 31
0.0
  0
LINE
  8
0
  6
CONTINUOUS
 62
       7
  5
101
 10
-9.73261988
 20
15.70015329
 30
0.0
 11
0.80332132
 21
15.70015329
 31
0.0
  0
LINE
  8
0
  6
CONTINUOUS
 62
       7
  5
102
 10
-13.19672389
 20
-11.01775574
 30
0.0
 11
-9.73260286
 21
-13.01776698
 31
0.0
  0
LINE
  8
0
  6
CONTINUOUS
 62
       7
  5
103
 10
-9.73261988
 20
-1.73550974
 30
0.0
 11
0.80332132
 21
-1.73550974
 31
0.0
  0
LINE
  8
0
  6
CONTINUOUS
 62
       7
  5
104
 10
-9.73261988
 20
26.98243101
 30
0.0
 11
-9.73261988
 21
15.70015329
 31
0.0
  0
LINE
  8
0
  6
CONTINUOUS
 62
       7
  5
105
 10
-13.19671287
 20
24.9824007
 30
0.0
 11
-13.19671287
 21
-11.01776986
 31
0.0
  0
LINE
  8
0
  6
CONTINUOUS
 62
       7
  5
106
 10
-9.73261988
 20
26.98238015
 30
0.0
 11
9.80336873
 21
26.98238015
 31
0.0
  0
LINE
  8
0
  6
CONTINUOUS
 62
       7
  5
107
 10
0.80332132
 20
15.70015329
 30
0.0
 11
0.80332132
 21
-1.73550974
 31
0.0
  0
LINE
  8
0
  6
CONTINUOUS
 62
       7
  5
108
 10
-9.73261988
 20
-13.01779382
 30
0.0
 11
9.80336873
 21
-13.01779382
 31
0.0
  0
LINE
  8
0
  6
CONTINUOUS
 62
       7
  5
109
 10
-70.6969868
 20
24.9824007
 30
0.0
 11
-13.19671287
 21
24.9824007
 31
0.0
  0
LINE
  8
0
  6
CONTINUOUS
 62
       7
  5
10A
 10
-70.6969868
 20
-11.01776986
 30
0.0
 11
-13.19671287
 21
-11.01776986
 31
0.0
  0
LINE
  8
0
  6
CONTINUOUS
 62
       7
  5
10B
 10
-72.19701203
 20
23.48237667
 30
0.0
 11
-70.69700373
 21
24.98238484
 31
0.0
  0
LINE
  8
0
  6
CONTINUOUS
 62
       2
  5
10C
 10
-16.19671574
 20
-10.26773975
 30
0.0
 11
-13.19669671
 21
-11.01774451
 31
0.0
  0
LINE
  8
0
  6
CONTINUOUS
 62
       7
  5
10D
 10
-70.6969868
 20
24.9824007
 30
0.0
 11
-70.6969868
 21
-11.01776986
 31
0.0
  0
LINE
  8
0
  6
CONTINUOUS
 62
       7
  5
10E
 10
-13.19673599
 20
24.98244635
 30
0.0
 11
-9.73263148
 21
26.98244806
 31
0.0
  0
LINE
  8
0
  6
CONTINUOUS
 62
       2
  5
10F
 10
-71.44698545
 20
-10.26776485
 30
0.0
 11
-16.19673291
 21
-10.26776485
 31
0.0
  0
LINE
  8
0
  6
CONTINUOUS
 62
       2
  5
110
 10
0.80330772
 20
-1.73552939
 30
0.0
 11
-9.73263881
 21
15.70014529
 31
0.0
  0
LINE
  8
0
  6
CONTINUOUS
 62
       2
  5
111
 10
0.80340284
 20
15.70014497
 30
0.0
 11
-9.73255313
 21
-1.73554536
 31
0.0
  0
LINE
  8
0
  6
CONTINUOUS
 62
       7
  5
112
 10
-298.3381444
 20
15.70015329
 30
0.0
 11
-298.3381444
 21
-1.73550974
 31
0.0
  0
LINE
  8
0
  6
CONTINUOUS
 62
       7
  5
113
 10
-334.33828318
 20
15.70015329
 30
0.0
 11
-334.33828318
 21
-1.73550974
 31
0.0
  0
LINE
  8
0
  6
CONTINUOUS
 62
       7
  5
114
 10
197.00513618
 20
39.99900591
 30
0.0
 11
197.00513618
 21
26.99896145
 31
0.0
  0
LINE
  8
0
  6
CENTER
 62
       2
  5
115
 10
200.53893675
 20
33.4989964
 30
0.0
 11
167.80503436
 21
33.4989964
 31
0.0
  0
LINE
  8
0
  6
CONTINUOUS
 62
       7
  5
116
 10
195.80515359
 20
28.10880229
 30
0.0
 11
189.00506578
 21
28.10880229
 31
0.0
  0
LINE
  8
0
  6
CONTINUOUS
 62
       7
  5
117
 10
197.00513618
 20
26.99896145
 30
0.0
 11
195.80515359
 21
26.99896145
 31
0.0
  0
LINE
  8
0
  6
CONTINUOUS
 62
       7
  5
118
 10
197.00513618
 20
-13.0342734
 30
0.0
 11
195.80515359
 21
-13.0342734
 31
0.0
  0
LINE
  8
0
  6
CONTINUOUS
 62
       7
  5
119
 10
194.80516387
 20
44.48249282
 30
0.0
 11
189.00506578
 21
44.48249282
 31
0.0
  0
LINE
  8
0
  6
CONTINUOUS
 62
       7
  5
11A
 10
184.30510644
 20
51.98253021
 30
0.0
 11
184.30510644
 21
-38.01790573
 31
0.0
  0
LINE
  8
0
  6
CONTINUOUS
 62
       7
  5
11B
 10
188.00507605
 20
51.98253021
 30
0.0
 11
188.00507605
 21
-38.01790573
 31
0.0
  0
LINE
  8
0
  6
CONTINUOUS
 62
       7
  5
11C
 10
220.80525279
 20
-23.01783096
 30
0.0
 11
197.00513618
 21
-23.01783096
 31
0.0
  0
LINE
  8
0
  6
CONTINUOUS
 62
       7
  5
11D
 10
197.00513618
 20
-13.0342734
 30
0.0
 11
197.00513618
 21
-26.03436872
 31
0.0
  0
LINE
  8
0
  6
CONTINUOUS
 62
       7
  5
11E
 10
195.80515359
 20
-26.03436872
 30
0.0
 11
195.80515359
 21
-29.51783411
 31
0.0
  0
LINE
  8
0
  6
CONTINUOUS
 62
       7
  5
11F
 10
221.80526199
 20
35.98242917
 30
0.0
 11
220.80525047
 21
36.98244061
 31
0.0
  0
LINE
  8
0
  6
CONTINUOUS
 62
       7
  5
120
 10
197.00513618
 20
39.99900591
 30
0.0
 11
189.00506578
 21
39.99900591
 31
0.0
  0
LINE
  8
0
  6
CENTER
 62
       2
  5
121
 10
200.53893675
 20
-19.53432106
 30
0.0
 11
167.80503436
 21
-19.53432106
 31
0.0
  0
LINE
  8
0
  6
CONTINUOUS
 62
       7
  5
122
 10
189.00507419
 20
50.98250226
 30
0.0
 11
188.00507166
 21
51.98250471
 31
0.0
  0
LINE
  8
0
  6
CONTINUOUS
 62
       7
  5
123
 10
195.80515359
 20
43.48251581
 30
0.0
 11
195.80515359
 21
39.99900591
 31
0.0
  0
LINE
  8
0
  6
CONTINUOUS
 62
       7
  5
124
 10
189.00506578
 20
50.98254048
 30
0.0
 11
189.00506578
 21
-37.0178715
 31
0.0
  0
LINE
  8
0
  6
CENTER
 62
       2
  5
125
 10
191.28283287
 20
-30.51786834
 30
0.0
 11
181.40042887
 21
-30.51786834
 31
0.0
  0
LINE
  8
0
  6
CONTINUOUS
 62
       7
  5
126
 10
188.00507605
 20
51.98253021
 30
0.0
 11
184.30510644
 21
51.98253021
 31
0.0
  0
LINE
  8
0
  6
CONTINUOUS
 62
       7
  5
127
 10
251.30625739
 20
-13.01779382
 30
0.0
 11
221.80524252
 21
-13.01779382
 31
0.0
  0
LINE
  8
0
  6
CONTINUOUS
 62
       7
  5
128
 10
251.30625739
 20
26.98243101
 30
0.0
 11
221.80524252
 21
26.98243101
 31
0.0
  0
LINE
  8
0
  6
CONTINUOUS
 62
       7
  5
129
 10
188.00507605
 20
-38.01790573
 30
0.0
 11
184.30510644
 21
-38.01790573
 31
0.0
  0
LINE
  8
0
  6
CONTINUOUS
 62
       7
  5
12A
 10
183.80506249
 20
-37.51789049
 30
0.0
 11
184.30509972
 21
-38.01792768
 31
0.0
  0
LINE
  8
0
  6
CONTINUOUS
 62
       7
  5
12B
 10
221.80524252
 20
35.98247842
 30
0.0
 11
221.80524252
 21
-22.01779037
 31
0.0
  0
LINE
  8
0
  6
CONTINUOUS
 62
       7
  5
12C
 10
183.80514444
 20
51.4826027
 30
0.0
 11
184.30513672
 21
51.98259494
 31
0.0
  0
LINE
  8
0
  6
CONTINUOUS
 62
       7
  5
12D
 10
188.00508557
 20
-38.01789155
 30
0.0
 11
189.00512398
 21
-37.01785305
 31
0.0
  0
LINE
  8
0
  6
CONTINUOUS
 62
       7
  5
12E
 10
220.80525279
 20
36.98246815
 30
0.0
 11
197.00513618
 21
36.98246815
 31
0.0
  0
LINE
  8
0
  6
CONTINUOUS
 62
       7
  5
12F
 10
194.80516387
 20
-30.51786834
 30
0.0
 11
189.00506578
 21
-30.51786834
 31
0.0
  0
LINE
  8
0
  6
CONTINUOUS
 62
       7
  5
130
 10
220.76519827
 20
36.98246815
 30
0.0
 11
220.76519827
 21
-23.01783096
 31
0.0
  0
LINE
  8
0
  6
CONTINUOUS
 62
       7
  5
131
 10
195.80515359
 20
28.10880229
 30
0.0
 11
195.80515359
 21
-14.14417146
 31
0.0
  0
LINE
  8
0
  6
CONTINUOUS
 62
       7
  5
132
 10
195.80515359
 20
-14.14417146
 30
0.0
 11
189.00506578
 21
-14.14417146
 31
0.0
  0
LINE
  8
0
  6
CONTINUOUS
 62
       7
  5
133
 10
197.00513618
 20
-26.03436872
 30
0.0
 11
189.00506578
 21
-26.03436872
 31
0.0
  0
LINE
  8
0
  6
CONTINUOUS
 62
       7
  5
134
 10
221.80532484
 20
-22.01778776
 30
0.0
 11
220.80532231
 21
-23.01779021
 31
0.0
  0
LINE
  8
0
  6
CONTINUOUS
 62
       7
  5
135
 10
251.80626497
 20
-25.51784978
 30
0.0
 11
363.30681063
 21
-25.51784978
 31
0.0
  0
LINE
  8
0
  6
CONTINUOUS
 62
       7
  5
136
 10
363.80679278
 20
38.98247303
 30
0.0
 11
363.80679278
 21
-25.0178422
 31
0.0
  0
LINE
  8
0
  6
CONTINUOUS
 62
       7
  5
137
 10
251.30625739
 20
38.98247303
 30
0.0
 11
251.30625739
 21
-25.0178422
 31
0.0
  0
LINE
  8
0
  6
CONTINUOUS
 62
       7
  5
138
 10
341.80671363
 20
6.9823186
 30
0.0
 11
341.80671363
 21
-10.33827988
 31
0.0
  0
LINE
  8
0
  6
CONTINUOUS
 62
       7
  5
139
 10
251.80628171
 20
-25.51784088
 30
0.0
 11
251.3062715
 21
-25.01783062
 31
0.0
  0
LINE
  8
0
  6
CONTINUOUS
 62
       7
  5
13A
 10
363.30681419
 20
-25.51783686
 30
0.0
 11
363.80682441
 21
-25.0178266
 31
0.0
  0
LINE
  8
0
  6
CONTINUOUS
 62
       7
  5
13B
 10
341.80671363
 20
-10.33827988
 30
0.0
 11
363.80679278
 21
-10.33827988
 31
0.0
  0
LINE
  8
0
  6
CONTINUOUS
 62
       2
  5
13C
 10
352.80675095
 20
6.98230964
 30
0.0
 11
341.80670577
 21
-10.33826761
 31
0.0
  0
LINE
  8
0
  6
CONTINUOUS
 62
       2
  5
13D
 10
352.8067575
 20
6.9823167
 30
0.0
 11
363.80682364
 21
-10.33827712
 31
0.0
  0
LINE
  8
0
  6
CONTINUOUS
 62
       7
  5
13E
 10
251.80626497
 20
39.48248061
 30
0.0
 11
363.30681063
 21
39.48248061
 31
0.0
  0
LINE
  8
0
  6
CONTINUOUS
 62
       7
  5
13F
 10
341.80671363
 20
6.9823186
 30
0.0
 11
341.80671363
 21
24.30291072
 31
0.0
  0
LINE
  8
0
  6
CONTINUOUS
 62
       7
  5
140
 10
341.80671363
 20
24.30291072
 30
0.0
 11
363.80679278
 21
24.30291072
 31
0.0
  0
LINE
  8
0
  6
CONTINUOUS
 62
       2
  5
141
 10
352.80677781
 20
6.98233143
 30
0.0
 11
341.80672582
 21
24.30291941
 31
0.0
  0
LINE
  8
0
  6
CONTINUOUS
 62
       2
  5
142
 10
352.806758
 20
6.98231742
 30
0.0
 11
363.80682414
 21
24.30291124
 31
0.0
  0
LINE
  8
0
  6
CONTINUOUS
 62
       7
  5
143
 10
251.80627281
 20
39.48248229
 30
0.0
 11
251.3062626
 21
38.98247203
 31
0.0
  0
LINE
  8
0
  6
CONTINUOUS
 62
       7
  5
144
 10
363.30684108
 20
39.48249625
 30
0.0
 11
363.80683331
 21
38.98250397
 31
0.0
  0
LINE
  8
0
  6
CONTINUOUS
 62
       7
  5
145
 10
366.3070087
 20
-6.29681051
 30
0.0
 11
379.30700229
 21
-6.29681051
 31
0.0
  0
LINE
  8
0
  6
CONTINUOUS
 62
       7
  5
146
 10
366.3070087
 20
-19.51782241
 30
0.0
 11
379.30700229
 21
-19.51782241
 31
0.0
  0
LINE
  8
0
  6
CONTINUOUS
 62
       7
  5
147
 10
366.3070087
 20
20.26140955
 30
0.0
 11
379.30700229
 21
20.26140955
 31
0.0
  0
LINE
  8
0
  6
CONTINUOUS
 62
       7
  5
148
 10
381.80706562
 20
6.9823631
 30
0.0
 11
381.80706562
 21
27.73246781
 31
0.0
  0
LINE
  8
0
  6
CONTINUOUS
 62
       7
  5
149
 10
366.3070087
 20
33.48246596
 30
0.0
 11
379.30700229
 21
33.48246596
 31
0.0
  0
LINE
  8
0
  6
CONTINUOUS
 62
       7
  5
14A
 10
381.80706562
 20
6.9823631
 30
0.0
 11
381.80706562
 21
-13.76778612
 31
0.0
  0
LINE
  8
0
  6
CONTINUOUS
 62
       2
  5
14B
 10
381.80706562
 20
21.17038015
 30
0.0
 11
383.11897198
 21
21.17038015
 31
0.0
  0
LINE
  8
0
  6
CONTINUOUS
 62
       7
  5
14C
 10
381.80706562
 20
21.98238066
 30
0.0
 11
382.3069969
 21
21.98238066
 31
0.0
  0
LINE
  8
0
  6
CONTINUOUS
 62
       7
  5
14D
 10
383.80699421
 20
-6.51774616
 30
0.0
 11
383.80699421
 21
20.48237064
 31
0.0
  0
LINE
  8
0
  6
CONTINUOUS
 62
       7
  5
14E
 10
382.30694938
 20
-8.01775646
 30
0.0
 11
383.80696205
 21
-6.5177438
 31
0.0
  0
LINE
  8
0
  6
CONTINUOUS
 62
       7
  5
14F
 10
382.30698535
 20
21.98238897
 30
0.0
 11
383.80698003
 21
20.48239429
 31
0.0
  0
LINE
  8
0
  6
CONTINUOUS
 62
       7
  5
150
 10
398.80701812
 20
-5.51773736
 30
0.0
 11
398.80701812
 21
19.48236819
 31
0.0
  0
LINE
  8
0
  6
CONTINUOUS
 62
       2
  5
151
 10
381.80706562
 20
-7.20575567
 30
0.0
 11
383.11897198
 21
-7.20575567
 31
0.0
  0
LINE
  8
0
  6
CONTINUOUS
 62
       7
  5
152
 10
381.80706562
 20
-8.01776254
 30
0.0
 11
382.3069969
 21
-8.01776254
 31
0.0
  0
LINE
  8
0
  6
CONTINUOUS
 62
       2
  5
153
 10
386.80693743
 20
1.04514206
 30
0.0
 11
398.80697387
 21
12.91953061
 31
0.0
  0
LINE
  8
0
  6
CONTINUOUS
 62
       7
  5
154
 10
386.80693796
 20
1.04512596
 30
0.0
 11
386.80693796
 21
12.91950487
 31
0.0
  0
LINE
  8
0
  6
CONTINUOUS
 62
       7
  5
155
 10
398.80696726
 20
1.04512596
 30
0.0
 11
386.80693796
 21
1.04512596
 31
0.0
  0
LINE
  8
0
  6
CONTINUOUS
 62
       7
  5
156
 10
398.80696726
 20
12.91950487
 30
0.0
 11
386.80693796
 21
12.91950487
 31
0.0
  0
LINE
  8
0
  6
CONTINUOUS
 62
       2
  5
157
 10
386.80694882
 20
12.919507
 30
0.0
 11
398.80698526
 21
1.04511845
 31
0.0
  0
LINE
  8
0
  6
CONTINUOUS
 62
       7
  5
158
 10
398.80701812
 20
19.48236819
 30
0.0
 11
383.80694335
 21
19.48236819
 31
0.0
  0
LINE
  8
0
  6
CONTINUOUS
 62
       7
  5
159
 10
398.80701812
 20
-5.51773736
 30
0.0
 11
383.80694335
 21
-5.51773736
 31
0.0
  0
LINE
  8
0
  6
CONTINUOUS
 62
       7
  5
15A
 10
382.3069969
 20
21.98238066
 30
0.0
 11
382.3069969
 21
-8.01776254
 31
0.0
  0
ARC
  8
0
  6
DASHED
 62
       2
  5
15B
 10
165.30502189
 20
6.9823186
 30
0.0
 40
5.50002734
 50
179.99999135
 51
0.00001002
  0
ARC
  8
0
  6
DASHED
 62
       2
  5
15C
 10
165.30502189
 20
6.9823186
 30
0.0
 40
6.00002975
 50
179.99999135
 51
0.00001002
  0
CIRCLE
  8
0
  6
CONTINUOUS
 62
       7
  5
15D
 10
-388.3385422
 20
-65.01803524
 30
0.0
 40
11.5000559
  0
CIRCLE
  8
0
  6
CONTINUOUS
 62
       7
  5
15E
 10
-388.3385422
 20
-65.01803524
 30
0.0
 40
8.0000402
  0
CIRCLE
  8
0
  6
CONTINUOUS
 62
       2
  5
15F
 10
-388.3385422
 20
-65.01803524
 30
0.0
 40
7.25003598
  0
ARC
  8
0
  6
DASHED
 62
       2
  5
160
 10
165.30502189
 20
6.9823186
 30
0.0
 40
5.50002734
 50
0.0
 51
180.00000501
  0
CIRCLE
  8
0
  6
CONTINUOUS
 62
       7
  5
161
 10
-244.33798711
 20
78.9827233
 30
0.0
 40
14.00006916
  0
ARC
  8
0
  6
CONTINUOUS
 62
       7
  5
162
 10
199.75859839
 20
-52.46169951
 30
0.0
 40
12.0000595
 50
185.04977241
 51
207.98698198
  0
ARC
  8
0
  6
CONTINUOUS
 62
       7
  5
163
 10
182.45402808
 20
-65.01803524
 30
0.0
 40
18.35115362
 50
337.82960552
 51
22.17039448
  0
ARC
  8
0
  6
CONTINUOUS
 62
       7
  5
164
 10
206.1562845
 20
-65.01803524
 30
0.0
 40
18.35115362
 50
157.82960711
 51
202.17038924
  0
ARC
  8
0
  6
CONTINUOUS
 62
       7
  5
165
 10
188.85168875
 20
-77.57437257
 30
0.0
 40
12.0000595
 50
5.04976845
 51
27.9869887
  0
ARC
  8
0
  6
CONTINUOUS
 62
       7
  5
166
 10
188.85168875
 20
-52.46169951
 30
0.0
 40
12.0000595
 50
332.0130113
 51
354.95023155
  0
ARC
  8
0
  6
CONTINUOUS
 62
       7
  5
167
 10
199.75859839
 20
-77.57437257
 30
0.0
 40
12.0000595
 50
152.01301802
 51
174.95022759
  0
CIRCLE
  8
0
  6
CONTINUOUS
 62
       7
  5
168
 10
-244.33798711
 20
-65.01803524
 30
0.0
 40
14.00006916
  0
CIRCLE
  8
0
  6
CONTINUOUS
 62
       7
  5
169
 10
-388.3385422
 20
78.9827233
 30
0.0
 40
14.00006916
  0
CIRCLE
  8
0
  6
CONTINUOUS
 62
       7
  5
16A
 10
-388.3385422
 20
-65.01803524
 30
0.0
 40
14.00006916
  0
CIRCLE
  8
0
  6
CONTINUOUS
 62
       7
  5
16B
 10
-244.33798711
 20
-65.01803524
 30
0.0
 40
8.0000402
  0
CIRCLE
  8
0
  6
CONTINUOUS
 62
       2
  5
16C
 10
-244.33798711
 20
-65.01803524
 30
0.0
 40
7.25003598
  0
CIRCLE
  8
0
  6
CONTINUOUS
 62
       7
  5
16D
 10
-244.33798711
 20
-65.01803524
 30
0.0
 40
11.5000559
  0
CIRCLE
  8
0
  6
CONTINUOUS
 62
       7
  5
16E
 10
-244.33798711
 20
78.9827233
 30
0.0
 40
8.0000402
  0
CIRCLE
  8
0
  6
CONTINUOUS
 62
       2
  5
16F
 10
-244.33798711
 20
78.9827233
 30
0.0
 40
7.25003598
  0
CIRCLE
  8
0
  6
CONTINUOUS
 62
       7
  5
170
 10
-244.33798711
 20
78.9827233
 30
0.0
 40
11.5000559
  0
CIRCLE
  8
0
  6
CONTINUOUS
 62
       7
  5
171
 10
-388.3385422
 20
78.9827233
 30
0.0
 40
8.0000402
  0
CIRCLE
  8
0
  6
CONTINUOUS
 62
       2
  5
172
 10
-388.3385422
 20
78.9827233
 30
0.0
 40
7.25003598
  0
CIRCLE
  8
0
  6
CONTINUOUS
 62
       7
  5
173
 10
-388.3385422
 20
78.9827233
 30
0.0
 40
11.5000559
  0
ARC
  8
0
  6
CONTINUOUS
 62
       7
  5
174
 10
66.30367836
 20
6.9823186
 30
0.0
 40
5.50002734
 50
179.99999135
 51
0.00001002
  0
ARC
  8
0
  6
CONTINUOUS
 62
       7
  5
175
 10
66.30367836
 20
6.9823186
 30
0.0
 40
6.00002975
 50
179.99999135
 51
0.00001002
  0
ARC
  8
0
  6
CONTINUOUS
 62
       7
  5
176
 10
66.30367836
 20
6.9823186
 30
0.0
 40
6.00002975
 50
0.0
 51
180.00000501
  0
ARC
  8
0
  6
CONTINUOUS
 62
       7
  5
177
 10
66.30367836
 20
6.9823186
 30
0.0
 40
5.50002734
 50
0.0
 51
180.00000501
  0
ARC
  8
0
  6
CONTINUOUS
 62
       7
  5
178
 10
188.85168875
 20
66.42634306
 30
0.0
 40
12.0000595
 50
5.04976845
 51
27.9869887
  0
ARC
  8
0
  6
CONTINUOUS
 62
       7
  5
179
 10
188.85168875
 20
91.53896367
 30
0.0
 40
12.0000595
 50
332.0130113
 51
354.95023155
  0
ARC
  8
0
  6
CONTINUOUS
 62
       7
  5
17A
 10
206.1562845
 20
78.98267244
 30
0.0
 40
18.35115362
 50
157.82960711
 51
202.17038924
  0
ARC
  8
0
  6
CONTINUOUS
 62
       7
  5
17B
 10
199.75859839
 20
66.42634306
 30
0.0
 40
12.0000595
 50
152.01301802
 51
174.95022759
  0
ARC
  8
0
  6
CONTINUOUS
 62
       7
  5
17C
 10
182.45402808
 20
78.98267244
 30
0.0
 40
18.35115362
 50
337.82960552
 51
22.17039448
  0
ARC
  8
0
  6
CONTINUOUS
 62
       7
  5
17D
 10
199.75859839
 20
91.53896367
 30
0.0
 40
12.0000595
 50
185.04977241
 51
207.98698198
  0
ARC
  8
0
  6
DASHED
 62
       2
  5
17E
 10
165.30502189
 20
6.9823186
 30
0.0
 40
6.00002975
 50
0.0
 51
180.00000501
  0
CIRCLE
  8
0
  6
CENTER
 62
       2
  5
17F
 10
-316.33821379
 20
6.9823186
 30
0.0
 40
37.50018694
  0
ARC
  8
0
  6
CONTINUOUS
 62
       7
  5
180
 10
-289.82166315
 20
33.49895825
 30
0.0
 40
7.00003458
 50
140.35540141
 51
309.64457697
  0
ARC
  8
0
  6
CONTINUOUS
 62
       7
  5
181
 10
-316.33821379
 20
6.9823186
 30
0.0
 40
37.50018694
 50
55.71079997
 51
124.28919821
  0
ARC
  8
0
  6
CONTINUOUS
 62
       7
  5
182
 10
-289.82166315
 20
-19.53432106
 30
0.0
 40
7.00003458
 50
50.35540232
 51
219.64460861
  0
ARC
  8
0
  6
CONTINUOUS
 62
       7
  5
183
 10
-342.85486616
 20
-19.53432106
 30
0.0
 40
7.00003458
 50
320.35539981
 51
129.64459928
  0
ARC
  8
0
  6
CONTINUOUS
 62
       7
  5
184
 10
-316.33821379
 20
6.9823186
 30
0.0
 40
37.50018694
 50
325.71080088
 51
34.28919912
  0
ARC
  8
0
  6
CONTINUOUS
 62
       7
  5
185
 10
-316.33821379
 20
6.9823186
 30
0.0
 40
37.50018694
 50
235.71080179
 51
304.28919662
  0
ARC
  8
0
  6
CONTINUOUS
 62
       7
  5
186
 10
-316.33821379
 20
6.9823186
 30
0.0
 40
37.50018694
 50
145.71080247
 51
214.28920755
  0
CIRCLE
  8
0
  6
CONTINUOUS
 62
       7
  5
187
 10
-316.33821379
 20
6.9823186
 30
0.0
 40
30.00014955
  0
CIRCLE
  8
0
  6
CONTINUOUS
 62
       7
  5
188
 10
-316.33821379
 20
6.9823186
 30
0.0
 40
45.00022433
  0
ARC
  8
0
  6
CONTINUOUS
 62
       7
  5
189
 10
-342.85486616
 20
33.49895825
 30
0.0
 40
7.00003458
 50
230.35540072
 51
39.64460019
  0
ARC
  8
0
  6
CONTINUOUS
 62
       7
  5
18A
 10
49.15462131
 20
-65.01803524
 30
0.0
 40
18.35115362
 50
157.82960711
 51
202.17038924
  0
ARC
  8
0
  6
CONTINUOUS
 62
       7
  5
18B
 10
25.45241575
 20
-65.01803524
 30
0.0
 40
18.35115362
 50
337.82960552
 51
22.17039448
  0
ARC
  8
0
  6
CONTINUOUS
 62
       7
  5
18C
 10
42.7569352
 20
-77.57437257
 30
0.0
 40
12.0000595
 50
152.01301802
 51
174.95022759
  0
ARC
  8
0
  6
CONTINUOUS
 62
       7
  5
18D
 10
42.7569352
 20
-52.46169951
 30
0.0
 40
12.0000595
 50
185.04977241
 51
207.98698198
  0
ARC
  8
0
  6
CONTINUOUS
 62
       7
  5
18E
 10
31.85006371
 20
-77.57437257
 30
0.0
 40
12.0000595
 50
5.04976845
 51
27.9869887
  0
ARC
  8
0
  6
CONTINUOUS
 62
       7
  5
18F
 10
31.85006371
 20
-52.46169951
 30
0.0
 40
12.0000595
 50
332.0130113
 51
354.95023155
  0
CIRCLE
  8
0
  6
CONTINUOUS
 62
       7
  5
190
 10
-289.82166315
 20
33.49895825
 30
0.0
 40
6.50003177
  0
CIRCLE
  8
0
  6
CONTINUOUS
 62
       7
  5
191
 10
-289.82166315
 20
33.49895825
 30
0.0
 40
3.43001685
  0
CIRCLE
  8
0
  6
CONTINUOUS
 62
       7
  5
192
 10
-342.85486616
 20
33.49895825
 30
0.0
 40
3.43001685
  0
CIRCLE
  8
0
  6
CONTINUOUS
 62
       7
  5
193
 10
-342.85486616
 20
33.49895825
 30
0.0
 40
6.50003177
  0
CIRCLE
  8
0
  6
CONTINUOUS
 62
       7
  5
194
 10
-316.33821379
 20
6.9823186
 30
0.0
 40
29.00011214
  0
CIRCLE
  8
0
  6
CONTINUOUS
 62
       7
  5
195
 10
-289.82166315
 20
-19.53432106
 30
0.0
 40
3.43001685
  0
CIRCLE
  8
0
  6
CONTINUOUS
 62
       7
  5
196
 10
-289.82166315
 20
-19.53432106
 30
0.0
 40
6.50003177
  0
CIRCLE
  8
0
  6
CONTINUOUS
 62
       7
  5
197
 10
-342.85496788
 20
-19.53427019
 30
0.0
 40
3.43001685
  0
CIRCLE
  8
0
  6
CONTINUOUS
 62
       7
  5
198
 10
-342.85496788
 20
-19.53427019
 30
0.0
 40
6.50003177
  0
ARC
  8
0
  6
CONTINUOUS
 62
       7
  5
199
 10
31.85006371
 20
66.42634306
 30
0.0
 40
12.0000595
 50
5.04976845
 51
27.9869887
  0
ARC
  8
0
  6
CONTINUOUS
 62
       7
  5
19A
 10
31.85006371
 20
91.53896367
 30
0.0
 40
12.0000595
 50
332.0130113
 51
354.95023155
  0
ARC
  8
0
  6
CONTINUOUS
 62
       7
  5
19B
 10
42.7569352
 20
91.53896367
 30
0.0
 40
12.0000595
 50
185.04977241
 51
207.98698198
  0
ARC
  8
0
  6
CONTINUOUS
 62
       7
  5
19C
 10
42.7569352
 20
66.42634306
 30
0.0
 40
12.0000595
 50
152.01301802
 51
174.95022759
  0
ARC
  8
0
  6
CONTINUOUS
 62
       7
  5
19D
 10
49.15462131
 20
78.98267244
 30
0.0
 40
18.35115362
 50
157.82960711
 51
202.17038924
  0
ARC
  8
0
  6
CONTINUOUS
 62
       7
  5
19E
 10
25.45241575
 20
78.98267244
 30
0.0
 40
18.35115362
 50
337.82960552
 51
22.17039448
  0
ARC
  8
0
  6
CONTINUOUS
 62
       7
  5
19F
 10
36.80349824
 20
43.48245223
 30
0.0
 40
1.00000502
 50
90.0000025
 51
180.00000501
  0
ARC
  8
0
  6
CONTINUOUS
 62
       7
  5
1A0
 10
36.80349824
 20
-29.51788498
 30
0.0
 40
1.00000502
 50
179.99999135
 51
270.00000068
  0
ARC
  8
0
  6
CONTINUOUS
 62
       7
  5
1A1
 10
-10.3633705
 20
6.9823186
 30
0.0
 40
14.16673729
 50
322.02090046
 51
37.97909954
  0
ARC
  8
0
  6
CONTINUOUS
 62
       7
  5
1A2
 10
-0.49495379
 20
6.9823186
 30
0.0
 40
12.70176862
 50
136.65824733
 51
223.34176269
  0
CIRCLE
  8
0
  6
CONTINUOUS
 62
       7
  5
1A3
 10
-316.33821379
 20
6.9823186
 30
0.0
 40
18.00008846
  0
CIRCLE
  8
0
  6
CONTINUOUS
 62
       7
  5
1A4
 10
-316.33821379
 20
6.9823186
 30
0.0
 40
16.50008162
  0
CIRCLE
  8
0
  6
CONTINUOUS
 62
       7
  5
1A5
 10
-316.33821379
 20
6.9823186
 30
0.0
 40
20.0000997
  0
ARC
  8
0
  6
CONTINUOUS
 62
       7
  5
1A6
 10
194.80516387
 20
43.48251581
 30
0.0
 40
1.00000502
 50
359.99999499
 51
89.99999567
  0
ARC
  8
0
  6
CONTINUOUS
 62
       7
  5
1A7
 10
194.80516387
 20
-29.51783411
 30
0.0
 40
1.00000502
 50
269.9999975
 51
0.00000865
  0
ARC
  8
0
  6
CONTINUOUS
 62
       7
  5
1A8
 10
345.28985477
 20
6.98240125
 30
0.0
 40
36.51706462
 50
338.6758079
 51
359.99980875
  0
ARC
  8
0
  6
CONTINUOUS
 62
       7
  5
1A9
 10
371.81718834
 20
-12.90731328
 30
0.0
 40
9.98970005
 50
318.56789491
 51
41.43207777
  0
ARC
  8
0
  6
CONTINUOUS
 62
       7
  5
1AA
 10
373.79661919
 20
-12.90731328
 30
0.0
 40
9.98970005
 50
138.56777698
 51
221.43195984
  0
ARC
  8
0
  6
CONTINUOUS
 62
       7
  5
1AB
 10
400.32405449
 20
6.98240125
 30
0.0
 40
36.51706462
 50
180.00006329
 51
201.32406415
  0
ARC
  8
0
  6
CONTINUOUS
 62
       7
  5
1AC
 10
371.81718834
 20
26.87195683
 30
0.0
 40
9.98970005
 50
318.56786759
 51
41.43205045
  0
ARC
  8
0
  6
CONTINUOUS
 62
       7
  5
1AD
 10
345.28985477
 20
6.9822423
 30
0.0
 40
36.51706462
 50
0.0001366
 51
21.32413746
  0
ARC
  8
0
  6
CONTINUOUS
 62
       7
  5
1AE
 10
400.32405449
 20
6.9822423
 30
0.0
 40
36.51706462
 50
158.67588121
 51
179.99988207
  0
ARC
  8
0
  6
CONTINUOUS
 62
       7
  5
1AF
 10
373.79661919
 20
26.87195683
 30
0.0
 40
9.98970005
 50
138.56796822
 51
221.43215108
  0
ARC
  8
0
  6
CONTINUOUS
 62
       7
  5
1B0
 10
397.80700296
 20
6.9823186
 30
0.0
 40
12.50010761
 50
151.64245293
 51
208.35754342
  0
LINE
  8
0
  6
CONTINUOUS
 62
       7
  5
1B1
 10
574.5
 20
400.5
 30
0.0
 11
574.5
 21
-400.5
 31
0.0
  0
LINE
  8
0
  6
CONTINUOUS
 62
       7
  5
1B2
 10
-564.5
 20
400.5
 30
0.0
 11
574.5
 21
400.5
 31
0.0
  0
LINE
  8
0
  6
CONTINUOUS
 62
       7
  5
1B3
 10
-564.5
 20
-400.5
 30
0.0
 11
574.5
 21
-400.5
 31
0.0
  0
LINE
  8
0
  6
CONTINUOUS
 62
       7
  5
1B4
 10
-564.5
 20
400.5
 30
0.0
 11
-564.5
 21
-400.5
 31
0.0
  0
TEXT
  8
0
  6
CONTINUOUS
 62
       7
  5
1B5
 10
-538.45833429
 20
364.25
 30
0.0
 40
12.5
  1
MODEL:KAOSDP160*St(30)
 41
1.1
  7
MX_NOTE_STANDARD
 11
-538.45833429
 21
370.5
 31
0.0
 73
       2
  0
ENDSEC
  0
EOF
