  0
SECTION
  2
HEADER
  9
$ACADVER
  1
AC1009
  9
$INSBASE
 10
0.0
 20
0.0
 30
0.0
  9
$EXTMIN
 10
-138.3999939
 20
-94.80000305
 30
0.0
  9
$EXTMAX
 10
138.3500061
 20
94.5
 30
0.0
  9
$LIMMIN
 10
-138.3999939
 20
-94.80000305
  9
$LIMMAX
 10
138.3500061
 20
94.5
  9
$ORTHOMODE
 70
       0
  9
$REGENMODE
 70
       1
  9
$FILLMODE
 70
       1
  9
$QTEXTMODE
 70
       0
  9
$MIRRTEXT
 70
       1
  9
$DRAGMODE
 70
       2
  9
$LTSCALE
 40
1.0
  9
$OSMODE
 70
       0
  9
$ATTMODE
 70
       1
  9
$TEXTSIZE
 40
3.20000005
  9
$TRACEWID
 40
0.05
  9
$TEXTSTYLE
  7
MX_NOTE_STANDARD
  9
$CLAYER
  8
0
  9
$CELTYPE
  6
CONTINUOUS
  9
$CECOLOR
 62
     256
  9
$DIMSCALE
 40
1.0
  9
$DIMASZ
 40
2.5
  9
$DIMEXO
 40
1.5
  9
$DIMDLI
 40
3.75
  9
$DIMRND
 40
0.0
  9
$DIMDLE
 40
0.0
  9
$DIMEXE
 40
1.5
  9
$DIMTP
 40
0.0
  9
$DIMTM
 40
0.0
  9
$DIMTXT
 40
3.20000005
  9
$DIMCEN
 40
2.5
  9
$DIMTSZ
 40
0.0
  9
$DIMTOL
 70
       0
  9
$DIMLIM
 70
       0
  9
$DIMTIH
 70
       0
  9
$DIMTOH
 70
       0
  9
$DIMSE1
 70
       0
  9
$DIMSE2
 70
       0
  9
$DIMTAD
 70
       1
  9
$DIMZIN
 70
       8
  9
$DIMBLK
  1

  9
$DIMASO
 70
       1
  9
$DIMSHO
 70
       1
  9
$DIMPOST
  1

  9
$DIMAPOST
  1

  9
$DIMALT
 70
       0
  9
$DIMALTD
 70
       4
  9
$DIMALTF
 40
0.0394
  9
$DIMLFAC
 40
1.0
  9
$DIMTOFL
 70
       1
  9
$DIMTVP
 40
0.0
  9
$DIMTIX
 70
       0
  9
$DIMSOXD
 70
       0
  9
$DIMSAH
 70
       0
  9
$DIMBLK1
  1

  9
$DIMBLK2
  1

  9
$DIMSTYLE
  2
MXDIMSTYLE
  9
$DIMCLRD
 70
       0
  9
$DIMCLRE
 70
       0
  9
$DIMCLRT
 70
       0
  9
$DIMTFAC
 40
1.0
  9
$DIMGAP
 40
1.0
  9
$LUNITS
 70
       2
  9
$LUPREC
 70
       4
  9
$AXISMODE
 70
       0
  9
$AXISUNIT
 10
0.0
 20
0.0
  9
$SKETCHINC
 40
0.1
  9
$FILLETRAD
 40
0.0
  9
$AUNITS
 70
       0
  9
$AUPREC
 70
       0
  9
$MENU
  1
acad
  9
$ELEVATION
 40
0.0
  9
$PELEVATION
 40
0.0
  9
$THICKNESS
 40
0.0
  9
$LIMCHECK
 70
       0
  9
$BLIPMODE
 70
       1
  9
$CHAMFERA
 40
0.0
  9
$CHAMFERB
 40
0.0
  9
$SKPOLY
 70
       0
  9
$TDCREATE
 40
2452608.675277778
  9
$TDUPDATE
 40
2452608.675277778
  9
$TDINDWG
 40
0.0000000000
  9
$TDUSRTIMER
 40
0.0000000000
  9
$USRTIMER
 70
       1
  9
$ANGBASE
 50
0.0
  9
$ANGDIR
 70
       0
  9
$PDMODE
 70
       0
  9
$PDSIZE
 40
0.0
  9
$PLINEWID
 40
0.0
  9
$COORDS
 70
       1
  9
$SPLFRAME
 70
       0
  9
$SPLINETYPE
 70
       6
  9
$SPLINESEGS
 70
       8
  9
$ATTDIA
 70
       0
  9
$ATTREQ
 70
       1
  9
$HANDLING
 70
       1
  9
$HANDSEED
  5
58
  9
$SURFTAB1
 70
       6
  9
$SURFTAB2
 70
       6
  9
$SURFTYPE
 70
       6
  9
$SURFU
 70
       6
  9
$SURFV
 70
       6
  9
$UCSNAME
  2

  9
$UCSORG
 10
0.0
 20
0.0
 30
0.0
  9
$UCSXDIR
 10
1.0
 20
0.0
 30
0.0
  9
$UCSYDIR
 10
0.0
 20
1.0
 30
0.0
  9
$PUCSNAME
  2

  9
$PUCSORG
 10
0.0
 20
0.0
 30
0.0
  9
$PUCSXDIR
 10
1.0
 20
0.0
 30
0.0
  9
$PUCSYDIR
 10
0.0
 20
1.0
 30
0.0
  9
$USERI1
 70
       0
  9
$USERI2
 70
       0
  9
$USERI3
 70
       0
  9
$USERI4
 70
       0
  9
$USERI5
 70
       0
  9
$USERR1
 40
0.0
  9
$USERR2
 40
0.0
  9
$USERR3
 40
0.0
  9
$USERR4
 40
0.0
  9
$USERR5
 40
0.0
  9
$WORLDVIEW
 70
       1
  9
$SHADEDGE
 70
       3
  9
$SHADEDIF
 70
      70
  9
$TILEMODE
 70
       1
  9
$MAXACTVP
 70
      16
  9
$PINSBASE
 10
0.0
 20
0.0
 30
0.0
  9
$PLIMCHECK
 70
       0
  9
$PEXTMIN
 10
1.00000000E+20
 20
1.00000000E+20
 30
1.00000000E+20
  9
$PEXTMAX
 10
-1.00000000E+20
 20
-1.00000000E+20
 30
-1.00000000E+20
  9
$PLIMMIN
 10
0.0
 20
0.0
  9
$PLIMMAX
 10
12.0
 20
9.0
  9
$UNITMODE
 70
       0
  9
$VISRETAIN
 70
       0
  9
$PLINEGEN
 70
       1
  9
$PSLTSCALE
 70
       0
  9
$TREEDEPTH
 70
    3020
  9
$DWGCODEPAGE
  3
dos932
  0
ENDSEC
  0
SECTION
  2
TABLES
  0
TABLE
  2
VPORT
 70
       1
  0
VPORT
  2
*ACTIVE
 70
       0
 10
0.0
 20
0.0
 11
1.0
 21
1.0
 12
-0.0249939
 22
-0.15000153
 13
0.0
 23
0.0
 14
1.0
 24
1.0
 15
0.0
 25
0.0
 16
0.0
 26
0.0
 36
1.0
 17
0.0
 27
0.0
 37
0.0
 40
191.19300308
 41
1.73205081
 42
50.0
 43
0.0
 44
0.0
 50
0.0
 51
0.0
 71
       0
 72
     100
 73
       1
 74
       1
 75
       0
 76
       0
 77
       0
 78
       0
  0
ENDTAB
  0
TABLE
  2
LTYPE
 70
       2
  0
LTYPE
  2
CONTINUOUS
 70
      64
  3
Solid line
 72
      65
 73
       0
 40
0.0
  0
LTYPE
  2
CENTER
 70
      64
  3
Center ____ _ ____ _ ____ _ ____ _ ____ _ ____
 72
      65
 73
       4
 40
50.8
 49
31.75
 49
-6.35
 49
6.35
 49
-6.35
  0
ENDTAB
  0
TABLE
  2
LAYER
 70
       2
  0
LAYER
  2
0
 70
       0
 62
       7
  6
CONTINUOUS
  0
LAYER
  2
DEFPOINTS
 70
       0
 62
       7
  6
CONTINUOUS
  0
ENDTAB
  0
TABLE
  2
STYLE
 70
       1
  0
STYLE
  2
MX_NOTE_STANDARD
 70
       0
 40
3.20000005
 41
1.0
 50
0.0
 71
       0
 42
3.20000005
  3
txt.shx
  4
extfont.shx
  0
ENDTAB
  0
TABLE
  2
VIEW
 70
       0
  0
ENDTAB
  0
TABLE
  2
UCS
 70
       0
  0
ENDTAB
  0
TABLE
  2
APPID
 70
       1
  0
APPID
  2
ACAD
 70
       0
  0
ENDTAB
  0
TABLE
  2
DIMSTYLE
 70
       1
  0
DIMSTYLE
  2
MXDIMSTYLE
 70
       0
  3

  4

  5

  6

  7

 40
1.0
 41
2.5
 42
1.5
 43
3.75
 44
1.5
 45
0.0
 46
0.0
 47
0.0
 48
0.0
 71
       0
 72
       0
 73
       0
 74
       0
 75
       0
 76
       0
 77
       1
 78
       8
140
3.20000005
141
2.5
142
0.0
143
0.0394
144
1.0
145
0.0
146
1.0
147
1.0
170
       0
171
       4
172
       1
173
       0
174
       0
175
       0
176
       0
177
       0
178
       0
  0
ENDTAB
  0
ENDSEC
  0
SECTION
  2
BLOCKS
  0
ENDSEC
  0
SECTION
  2
ENTITIES
  0
LINE
  8
0
  6
CONTINUOUS
 62
       7
  5
1E
 10
-16.26926185
 20
-4.37946945
 30
0.0
 11
-16.26926185
 21
13.45810332
 31
0.0
  0
LINE
  8
0
  6
CENTER
 62
       2
  5
20
 10
43.79797742
 20
18.91546905
 30
0.0
 11
43.79797742
 21
-9.83683518
 31
0.0
  0
LINE
  8
0
  6
CENTER
 62
       2
  5
21
 10
29.4218253
 20
4.53931693
 30
0.0
 11
58.17412953
 21
4.53931693
 31
0.0
  0
LINE
  8
0
  6
CONTINUOUS
 62
       7
  5
22
 10
54.29797742
 20
10.59713913
 30
0.0
 11
54.29797742
 21
-1.51850528
 31
0.0
  0
LINE
  8
0
  6
CONTINUOUS
 62
       7
  5
23
 10
33.29797742
 20
10.59713908
 30
0.0
 11
33.29797742
 21
-1.51850522
 31
0.0
  0
LINE
  8
0
  6
CONTINUOUS
 62
       7
  5
24
 10
-32.76926185
 20
16.54036868
 30
0.0
 11
-29.76926185
 21
16.54036868
 31
0.0
  0
LINE
  8
0
  6
CONTINUOUS
 62
       7
  5
25
 10
43.79797754
 20
16.65931689
 30
0.0
 11
54.29797742
 21
10.59713913
 31
0.0
  0
LINE
  8
0
  6
CONTINUOUS
 62
       7
  5
26
 10
33.29797742
 20
10.59713908
 30
0.0
 11
43.79797748
 21
16.65931695
 31
0.0
  0
LINE
  8
0
  6
CONTINUOUS
 62
       7
  5
27
 10
43.79797748
 20
-7.58068306
 30
0.0
 11
54.29797748
 21
-1.51850522
 31
0.0
  0
LINE
  8
0
  6
CONTINUOUS
 62
       7
  5
28
 10
33.29797748
 20
-1.51850525
 30
0.0
 11
43.79797747
 21
-7.58068308
 31
0.0
  0
CIRCLE
  8
0
  6
CONTINUOUS
 62
       7
  5
29
 10
43.79797742
 20
4.53931693
 30
0.0
 40
10.5
  0
CIRCLE
  8
0
  6
CONTINUOUS
 62
       2
  5
2A
 10
43.79797742
 20
4.53931693
 30
0.0
 40
9.0
  0
CIRCLE
  8
0
  6
CONTINUOUS
 62
       7
  5
2B
 10
43.79797742
 20
4.53931693
 30
0.0
 40
6.0
  0
LINE
  8
0
  6
CONTINUOUS
 62
       7
  5
2C
 10
-17.26926185
 20
-5.57477397
 30
0.0
 11
-17.26926185
 21
14.65340784
 31
0.0
  0
LINE
  8
0
  6
CONTINUOUS
 62
       7
  5
2D
 10
-28.26926185
 20
-5.84173481
 30
0.0
 11
-28.26926185
 21
14.92036868
 31
0.0
  0
LINE
  8
0
  6
CONTINUOUS
 62
       7
  5
2E
 10
-26.76926185
 20
-5.87164897
 30
0.0
 11
-26.76926185
 21
14.95028284
 31
0.0
  0
LINE
  8
0
  6
CONTINUOUS
 62
       7
  5
2F
 10
-28.26926192
 20
14.99715784
 30
0.0
 11
-17.26926185
 21
14.65340784
 31
0.0
  0
LINE
  8
0
  6
CENTER
 62
       2
  5
30
 10
-69.60901639
 20
4.53931693
 30
0.0
 11
-14.47744396
 21
4.53931693
 31
0.0
  0
LINE
  8
0
  6
CONTINUOUS
 62
       2
  5
31
 10
-26.76926185
 20
13.78622832
 30
0.0
 11
-16.32332535
 21
13.4597928
 31
0.0
  0
LINE
  8
0
  6
CONTINUOUS
 62
       7
  5
32
 10
-16.26926189
 20
13.39157366
 30
0.0
 11
-17.26926189
 21
14.65340786
 31
0.0
  0
LINE
  8
0
  6
CONTINUOUS
 62
       2
  5
33
 10
-28.26926181
 20
14.9971578
 30
0.0
 11
-26.76926185
 21
13.78622832
 31
0.0
  0
LINE
  8
0
  6
CONTINUOUS
 62
       7
  5
34
 10
-34.26926185
 20
-5.74063843
 30
0.0
 11
-34.26926185
 21
14.8192723
 31
0.0
  0
ARC
  8
0
  6
CONTINUOUS
 62
       7
  5
35
 10
-27.09130985
 20
14.86982049
 30
0.0
 40
7.17812998
 50
180.4034786
 51
217.72027075
  0
ARC
  8
0
  6
CONTINUOUS
 62
       7
  5
36
 10
-21.95671542
 20
4.58836528
 30
0.0
 40
12.31264412
 50
151.42192397
 51
180.22824264
  0
ARC
  8
0
  6
CONTINUOUS
 62
       7
  5
37
 10
-38.94551174
 20
16.03253692
 30
0.0
 40
10.7263378
 50
328.81365398
 51
354.46079681
  0
ARC
  8
0
  6
CONTINUOUS
 62
       7
  5
38
 10
-40.77600289
 20
4.53931693
 30
0.0
 40
12.50674104
 50
0.0
 51
28.34983339
  0
LINE
  8
0
  6
CONTINUOUS
 62
       7
  5
39
 10
-34.26926185
 20
14.8192723
 30
0.0
 11
-32.76926185
 21
16.54036868
 31
0.0
  0
LINE
  8
0
  6
CONTINUOUS
 62
       7
  5
3A
 10
-29.76926185
 20
16.54036868
 30
0.0
 11
-28.2692618
 21
14.99715784
 31
0.0
  0
LINE
  8
0
  6
CONTINUOUS
 62
       7
  5
3B
 10
-36.76926185
 20
-4.21068307
 30
0.0
 11
-36.76926185
 21
13.28931693
 31
0.0
  0
LINE
  8
0
  6
CONTINUOUS
 62
       7
  5
3C
 10
-32.76926185
 20
10.47819083
 30
0.0
 11
-29.76926185
 21
10.47819083
 31
0.0
  0
LINE
  8
0
  6
CONTINUOUS
 62
       7
  5
3D
 10
-67.26926186
 20
13.28931693
 30
0.0
 11
-36.76926185
 21
13.28931693
 31
0.0
  0
LINE
  8
0
  6
CONTINUOUS
 62
       7
  5
3E
 10
-67.26926185
 20
-4.21068307
 30
0.0
 11
-67.26926185
 21
13.28931693
 31
0.0
  0
LINE
  8
0
  6
CONTINUOUS
 62
       7
  5
3F
 10
-35.23930648
 20
14.8192723
 30
0.0
 11
-34.26926185
 21
14.8192723
 31
0.0
  0
ARC
  8
0
  6
CONTINUOUS
 62
       7
  5
40
 10
-35.23930648
 20
13.28931693
 30
0.0
 40
1.52995537
 50
90.0
 51
180.0
  0
LINE
  8
0
  6
CONTINUOUS
 62
       7
  5
41
 10
-67.26926186
 20
-4.21068307
 30
0.0
 11
-36.76926185
 21
-4.21068307
 31
0.0
  0
ARC
  8
0
  6
CONTINUOUS
 62
       7
  5
42
 10
-21.95671542
 20
4.49026859
 30
0.0
 40
12.31264412
 50
179.77175736
 51
208.57807603
  0
ARC
  8
0
  6
CONTINUOUS
 62
       7
  5
43
 10
-40.77600289
 20
4.53931693
 30
0.0
 40
12.50674104
 50
331.65016661
 51
0.0
  0
ARC
  8
0
  6
CONTINUOUS
 62
       7
  5
44
 10
-35.23930648
 20
-4.21068307
 30
0.0
 40
1.52995537
 50
180.0
 51
270.0
  0
LINE
  8
0
  6
CONTINUOUS
 62
       7
  5
45
 10
-35.23930648
 20
-5.74063843
 30
0.0
 11
-34.26926185
 21
-5.74063843
 31
0.0
  0
LINE
  8
0
  6
CONTINUOUS
 62
       7
  5
46
 10
-32.76926185
 20
-1.39955696
 30
0.0
 11
-29.76926185
 21
-1.39955696
 31
0.0
  0
LINE
  8
0
  6
CONTINUOUS
 62
       7
  5
47
 10
-29.76926185
 20
-7.46173481
 30
0.0
 11
-28.2692618
 21
-5.91852397
 31
0.0
  0
LINE
  8
0
  6
CONTINUOUS
 62
       7
  5
48
 10
-34.26926185
 20
-5.74063843
 30
0.0
 11
-32.76926185
 21
-7.46173481
 31
0.0
  0
ARC
  8
0
  6
CONTINUOUS
 62
       7
  5
49
 10
-38.94551174
 20
-6.95390305
 30
0.0
 40
10.7263378
 50
5.53920319
 51
31.18634602
  0
ARC
  8
0
  6
CONTINUOUS
 62
       7
  5
4A
 10
-27.09130985
 20
-5.79118662
 30
0.0
 40
7.17812998
 50
142.27972925
 51
179.5965214
  0
LINE
  8
0
  6
CONTINUOUS
 62
       2
  5
4B
 10
-28.26926181
 20
-5.91852393
 30
0.0
 11
-26.76926185
 21
-4.70759445
 31
0.0
  0
LINE
  8
0
  6
CONTINUOUS
 62
       7
  5
4C
 10
-16.26926189
 20
-4.31293979
 30
0.0
 11
-17.26926189
 21
-5.57477399
 31
0.0
  0
LINE
  8
0
  6
CONTINUOUS
 62
       2
  5
4D
 10
-26.76926185
 20
-4.70759445
 30
0.0
 11
-16.32332535
 21
-4.38115894
 31
0.0
  0
LINE
  8
0
  6
CONTINUOUS
 62
       7
  5
4E
 10
-28.26926192
 20
-5.91852397
 30
0.0
 11
-17.26926185
 21
-5.57477397
 31
0.0
  0
LINE
  8
0
  6
CONTINUOUS
 62
       7
  5
4F
 10
-32.76926185
 20
-7.46173481
 30
0.0
 11
-29.76926185
 21
-7.46173481
 31
0.0
  0
CIRCLE
  8
0
  6
CONTINUOUS
 62
       7
  5
50
 10
43.79797742
 20
4.53931693
 30
0.0
 40
10.233492
  0
LINE
  8
0
  6
CONTINUOUS
 62
       7
  5
51
 10
-138.3999939
 20
94.5
 30
0.0
 11
138.3500061
 21
94.5
 31
0.0
  0
LINE
  8
0
  6
CONTINUOUS
 62
       7
  5
52
 10
138.3500061
 20
94.5
 30
0.0
 11
138.3500061
 21
-94.80000305
 31
0.0
  0
LINE
  8
0
  6
CONTINUOUS
 62
       7
  5
53
 10
-138.3999939
 20
-94.80000305
 30
0.0
 11
138.3500061
 21
-94.80000305
 31
0.0
  0
LINE
  8
0
  6
CONTINUOUS
 62
       7
  5
54
 10
-138.3999939
 20
94.5
 30
0.0
 11
-138.3999939
 21
-94.80000305
 31
0.0
  0
TEXT
  8
0
  6
CONTINUOUS
 62
       7
  5
55
 10
-129.42856526
 20
72.9000001
 30
0.0
 40
3.19999981
  1
MODEL:KM-4
 41
1.07142857
  7
MX_NOTE_STANDARD
 11
-129.42856526
 21
74.5
 31
0.0
 73
       2
  0
ENDSEC
  0
EOF
