  0
SECTION
  2
HEADER
  0
ENDSEC
  0
SECTION
  2
TABLES
  0
TABLE
  2
LTYPE
 70
     4
  0
LTYPE
  2
CONTINUOUS
 70
    64
  3
Solid line
 72
    65
 73
     0
 40
0.000000
  0
LTYPE
  2
DASHED
 70
    64
  3
__ __ __ __ __ __ __ __ __ __ __ __ __ __ __
 72
    65
 73
     2
 40
3.500000
 49
2.000000
 49
-1.500000
  0
LTYPE
  2
CENTER
 70
    64
  3
____ _ ____ _ ____ _ ____ _ ____ _ ____ _ ____
 72
    65
 73
     4
 40
17.500000
 49
13.000000
 49
-1.500000
 49
1.500000
 49
-1.500000
  0
LTYPE
  2
PHANTOM
 70
    64
  3
_____ _ _ _____ _ _ _____ _ _ _____ _ _ ____  
 72
    65
 73
     6
 40
15.500000
 49
8.000000
 49
-1.500000
 49
1.500000
 49
-1.500000
 49
1.500000
 49
-1.500000
  0
LTYPE
  2
DASHED1
 70
    64
  3
__ __ __ __ __ __ __ __ __ __ __ __ __ __ __
 72
    65
 73
     2
 40
1.500000
 49
1.000000
 49
-0.500000
  0
LTYPE
  2
DASHED2
 70
    64
  3
__ __ __ __ __ __ __ __ __ __ __ __ __ __ __
 72
    65
 73
     2
 40
3.500000
 49
2.500000
 49
-1.000000
  0
LTYPE
  2
DASHED3
 70
    64
  3
__ __ __ __ __ __ __ __ __ __ __ __ __ __ __
 72
    65
 73
     2
 40
6.000000
 49
4.000000
 49
-2.000000
  0
LTYPE
  2
DASHED4
 70
    64
  3
__ __ __ __ __ __ __ __ __ __ __ __ __ __ __
 72
    65
 73
     2
 40
12.000000
 49
10.000000
 49
-2.000000
  0
LTYPE
  2
DASHED5
 70
    64
  3
__ __ __ __ __ __ __ __ __ __ __ __ __ __ __
 72
    65
 73
     2
 40
17.000000
 49
15.000000
 49
-2.000000
  0
LTYPE
  2
DASHED6
 70
    64
  3
__ __ __ __ __ __ __ __ __ __ __ __ __ __ __
 72
    65
 73
     2
 40
29.000000
 49
27.000000
 49
-2.000000
  0
LTYPE
  2
PHANTOM1
 70
    64
  3
_____ _ _ _____ _ _ _____ _ _ _____ _ _ ____  
 72
    65
 73
     6
 40
31.000000
 49
25.000000
 49
-1.500000
 49
1.000000
 49
-1.000000
 49
1.000000
 49
-1.500000
  0
LTYPE
  2
PHANTOM2
 70
    64
  3
_____ _ _ _____ _ _ _____ _ _ _____ _ _ ____  
 72
    65
 73
     6
 40
36.000000
 49
27.000000
 49
-1.500000
 49
2.500000
 49
-1.000000
 49
2.500000
 49
-1.500000
  0
LTYPE
  2
PHANTOM3
 70
    64
  3
_____ _ _ _____ _ _ _____ _ _ _____ _ _ ____  
 72
    65
 73
     6
 40
78.000000
 49
64.000000
 49
-2.000000
 49
4.000000
 49
-2.000000
 49
4.000000
 49
-2.000000
  0
LTYPE
  2
CENTER1
 70
    64
  3
____ _ ____ _ ____ _ ____ _ ____ _ ____ _ ____
 72
    65
 73
     4
 40
19.000000
 49
14.000000
 49
-1.000000
 49
3.000000
 49
-1.000000
  0
LTYPE
  2
CENTER2
 70
    64
  3
____ _ ____ _ ____ _ ____ _ ____ _ ____ _ ____
 72
    65
 73
     4
 40
28.500000
 49
25.000000
 49
-1.000000
 49
1.500000
 49
-1.000000
  0
LTYPE
  2
CENTER3
 70
    64
  3
____ _ ____ _ ____ _ ____ _ ____ _ ____ _ ____
 72
    65
 73
     4
 40
31.500000
 49
27.000000
 49
-1.000000
 49
2.500000
 49
-1.000000
  0
LTYPE
  2
CENTER4
 70
    64
  3
____ _ ____ _ ____ _ ____ _ ____ _ ____ _ ____
 72
    65
 73
     4
 40
50.000000
 49
45.000000
 49
-1.000000
 49
3.000000
 49
-1.000000
  0
LTYPE
  2
CENTER5
 70
    64
  3
____ _ ____ _ ____ _ ____ _ ____ _ ____ _ ____
 72
    65
 73
     4
 40
100.000000
 49
92.000000
 49
-2.000000
 49
4.000000
 49
-2.000000
  0
LTYPE
  2
SBK1
 70
    64
  3
______ _ _ _ ______ _ _ _ ______ _ _ _ _____  
 72
    65
 73
     8
 40
60.500000
 49
45.000000
 49
-2.000000
 49
2.500000
 49
-2.000000
 49
2.500000
 49
-2.000000
 49
2.500000
 49
-2.000000
  0
LTYPE
  2
SBK2
 70
    64
  3
______ _ _ _ ______ _ _ _ ______ _ _ _ _____  
 72
    65
 73
     8
 40
84.000000
 49
64.000000
 49
-2.000000
 49
4.000000
 49
-2.000000
 49
4.000000
 49
-2.000000
 49
4.000000
 49
-2.000000
  0
LTYPE
  2
STCH
 70
    64
  3
__ __ __ __ __ __ __ __ __ __ __ __ __ __ __
 72
    65
 73
     2
 40
3.000000
 49
1.000000
 49
-2.000000
  0
LTYPE
  2
MTCH
 70
    64
  3
_____ _ _ _____ _ _ _____ _ _ _____ _ _ ____  
 72
    65
 73
     6
 40
80.000000
 49
66.000000
 49
-2.000000
 49
4.000000
 49
-2.000000
 49
4.000000
 49
-2.000000
  0
ENDTAB
  0
TABLE
  2
LAYER
 70
     1
  0
LAYER
  2
0
 70
     0
 62
     7
  6
CONTINUOUS
  0
ENDTAB
  0
TABLE
  2
STYLE
 70
     1
  0
STYLE
  2
STANDARD
 70
     0
 40
0.000000
 41
1.000000
 50
0.000000
 71
     0
 42
0.200000
  3
txt
  4
BIGFONT
  0
ENDTAB
  0
TABLE
  2
VIEW
 70
     0
  0
ENDTAB
  0
ENDSEC
  0
SECTION
  2
BLOCKS
  0
ENDSEC
  0
SECTION
  2
ENTITIES
  0
LINE
  8
0
 10
116.989990
 20
118.298965
 11
194.800003
 21
118.298965
  0
LINE
  8
0
 10
-194.250000
 20
118.298965
 11
-116.440002
 21
118.298965
  0
LINE
  8
0
 10
-194.250000
 20
132.600006
 11
194.800003
 21
132.600006
  0
LINE
  8
0
 10
194.800003
 20
132.600006
 11
194.800003
 21
-133.500000
  0
LINE
  8
0
 10
-194.250000
 20
132.600006
 11
-194.250000
 21
-133.500000
  0
LINE
  8
0
 10
-194.250000
 20
-133.500000
 11
194.800003
 21
-133.500000
  0
LINE
  8
0
 10
116.989990
 20
-119.198959
 11
194.800003
 21
-119.198959
  0
LINE
  8
0
 10
210.000000
 20
148.500000
 11
210.000000
 21
-148.500000
  0
LINE
  8
0
 10
-210.000000
 20
148.500000
 11
-210.000000
 21
-148.500000
  0
LINE
  8
0
 10
-210.000000
 20
148.500000
 11
210.000000
 21
148.500000
  0
LINE
  8
0
 10
-210.000000
 20
-148.500000
 11
210.000000
 21
-148.500000
  0
LINE
  8
0
 10
-116.440002
 20
132.600006
 11
-116.440002
 21
-133.500000
  0
LINE
  8
0
 10
-38.630005
 20
-133.500000
 11
-38.630005
 21
132.600006
  0
LINE
  8
0
 10
39.179993
 20
132.600006
 11
39.179993
 21
-133.500000
  0
LINE
  8
0
 10
116.989990
 20
-133.500000
 11
116.989990
 21
132.600006
  0
LINE
  8
0
 10
194.800003
 20
49.900002
 11
-194.250000
 21
49.900002
  0
LINE
  8
0
 10
194.800003
 20
37.900002
 11
-194.250000
 21
37.900002
  0
LINE
  8
0
 10
-194.250000
 20
-50.800003
 11
194.800003
 21
-50.800003
  0
LINE
  8
0
 10
-194.250000
 20
-38.800003
 11
194.800003
 21
-38.800003
  0
LINE
  8
0
 10
-194.250000
 20
-121.500000
 11
116.989990
 21
-121.500000
  0
TEXT
  8
0
 10
123.699844
 20
-129.849472
 40
5.000000
  1
KOGANEI CORP.
 50
0.000000
 41
1.052632
 51
15.000000
  7
STANDARD
  0
TEXT
  8
0
 10
-185.692200
 20
121.229492
 40
5.800000
  1
VACUUM PAD
 50
0.000000
 41
1.052632
 51
0.000000
  7
STANDARD
  0
TEXT
  8
0
 10
117.896774
 20
121.229485
 40
5.800000
  1
DATE: JUN ,1992
 50
0.000000
 41
0.926511
 51
0.000000
  7
STANDARD
  0
TEXT
  8
0
 10
-185.951874
 20
39.500000
 40
6.000000
  1
MODEL:KP-2
 50
0.000000
 41
1.052632
 51
0.000000
  7
STANDARD
  0
TEXT
  8
0
 10
-114.141876
 20
39.500000
 40
6.000000
  1
MODEL:KP-3.5
 50
0.000000
 41
1.052632
 51
0.000000
  7
STANDARD
  0
TEXT
  8
0
 10
-36.331882
 20
39.500000
 40
6.000000
  1
MODEL:KP-2X4
 50
0.000000
 41
1.052632
 51
0.000000
  7
STANDARD
  0
TEXT
  8
0
 10
39.922874
 20
39.500000
 40
6.000000
  1
MODEL:KP-3.5X7
 50
0.000000
 41
0.943461
 51
0.000000
  7
STANDARD
  0
TEXT
  8
0
 10
125.288116
 20
39.500000
 40
6.000000
  1
MODEL:KP-6
 50
0.000000
 41
1.052632
 51
0.000000
  7
STANDARD
  0
TEXT
  8
0
 10
-185.951874
 20
-49.200005
 40
6.000000
  1
MODEL:KP-8
 50
0.000000
 41
1.052632
 51
0.000000
  7
STANDARD
  0
TEXT
  8
0
 10
-111.141884
 20
-49.200005
 40
6.000000
  1
MODEL:KP-10
 50
0.000000
 41
1.052632
 51
0.000000
  7
STANDARD
  0
TEXT
  8
0
 10
-33.331882
 20
-49.200005
 40
6.000000
  1
MODEL:KP-15
 50
0.000000
 41
1.052632
 51
0.000000
  7
STANDARD
  0
TEXT
  8
0
 10
44.478115
 20
-49.200005
 40
6.000000
  1
MODEL:KP-20
 50
0.000000
 41
1.052632
 51
0.000000
  7
STANDARD
  0
TEXT
  8
0
 10
122.288109
 20
-49.200005
 40
6.000000
  1
MODEL:KP-25
 50
0.000000
 41
1.052632
 51
0.000000
  7
STANDARD
  0
TEXT
  8
0
 10
-188.951874
 20
-131.899994
 40
6.000000
  1
MODEL:KP-30
 50
0.000000
 41
1.052632
 51
0.000000
  7
STANDARD
  0
TEXT
  8
0
 10
-111.141884
 20
-131.899994
 40
6.000000
  1
MODEL:KP-35
 50
0.000000
 41
1.052632
 51
0.000000
  7
STANDARD
  0
TEXT
  8
0
 10
-33.331882
 20
-131.899994
 40
6.000000
  1
MODEL:KP-40
 50
0.000000
 41
1.052632
 51
0.000000
  7
STANDARD
  0
TEXT
  8
0
 10
44.478115
 20
-131.899994
 40
6.000000
  1
MODEL:KP-50
 50
0.000000
 41
1.052632
 51
0.000000
  7
STANDARD
  0
POINT
  8
0
 10
-155.345001
 20
86.250000
  0
POINT
  8
0
 10
-153.595001
 20
86.250000
  0
LINE
  8
0
 10
-153.595001
 20
86.250000
 11
-153.595001
 21
84.250000
  0
LINE
  8
0
 10
-157.095001
 20
86.250000
 11
-157.095001
 21
84.250000
  0
LINE
  8
0
 10
-157.095001
 20
84.250000
 11
-153.595001
 21
84.250000
  0
LINE
  8
0
 10
-157.095001
 20
86.250000
 11
-153.595001
 21
86.250000
  0
LINE
  8
0
 10
-156.595001
 20
82.949997
 11
-154.095001
 21
82.949997
  0
LINE
  8
0
  6
DASHED
 10
-156.595001
 20
86.250000
 11
-156.595001
 21
84.250000
  0
LINE
  8
0
  6
DASHED
 10
-154.095001
 20
86.250000
 11
-154.095001
 21
84.250000
  0
LINE
  8
0
 10
-156.095001
 20
83.750000
 11
-154.595001
 21
83.750000
  0
LINE
  8
0
 10
-157.095001
 20
84.250000
 11
-156.095001
 21
83.750000
  0
LINE
  8
0
 10
-154.595001
 20
83.750000
 11
-153.595001
 21
84.250000
  0
LINE
  8
0
 10
-156.095001
 20
83.750000
 11
-156.595001
 21
82.949997
  0
LINE
  8
0
 10
-154.595001
 20
83.750000
 11
-154.095001
 21
82.949997
  0
LINE
  8
0
  6
DASHED
 10
-154.395004
 20
82.949997
 11
-154.802628
 21
83.750000
  0
LINE
  8
0
  6
DASHED
 10
-156.294998
 20
82.949997
 11
-155.887375
 21
83.750000
  0
LINE
  8
0
  6
DASHED
 10
-156.595001
 20
84.250000
 11
-155.887375
 21
83.750000
  0
LINE
  8
0
  6
DASHED
 10
-154.095001
 20
84.250000
 11
-154.802628
 21
83.750000
  0
LINE
  8
0
  6
CENTER
 10
-155.345001
 20
86.643967
 11
-155.345001
 21
82.686234
  0
POINT
  8
0
  6
CENTER
 10
-77.535004
 20
86.250000
  0
POINT
  8
0
  6
CENTER
 10
-75.785004
 20
86.250000
  0
LINE
  8
0
 10
-75.785004
 20
86.250000
 11
-75.785004
 21
84.250000
  0
LINE
  8
0
 10
-79.285004
 20
86.250000
 11
-79.285004
 21
84.250000
  0
LINE
  8
0
  6
DASHED
 10
-76.285004
 20
86.250000
 11
-76.285004
 21
84.250000
  0
LINE
  8
0
  6
DASHED
 10
-78.785004
 20
86.250000
 11
-78.785004
 21
84.250000
  0
LINE
  8
0
  6
DASHED
 10
-76.735001
 20
84.070000
 11
-76.735001
 21
83.250000
  0
LINE
  8
0
  6
DASHED
 10
-78.335007
 20
84.070000
 11
-78.335007
 21
83.250000
  0
LINE
  8
0
 10
-79.285004
 20
84.250000
 11
-75.785004
 21
84.250000
  0
LINE
  8
0
 10
-79.285004
 20
86.250000
 11
-75.785004
 21
86.250000
  0
LINE
  8
0
 10
-79.285004
 20
82.750000
 11
-75.785004
 21
82.750000
  0
LINE
  8
0
 10
-78.535004
 20
83.949997
 11
-76.535004
 21
83.949997
  0
LINE
  8
0
 10
-78.535004
 20
83.449997
 11
-76.535004
 21
83.449997
  0
LINE
  8
0
 10
-76.535004
 20
83.949997
 11
-76.535004
 21
83.449997
  0
LINE
  8
0
 10
-78.535004
 20
83.949997
 11
-78.535004
 21
83.449997
  0
LINE
  8
0
 10
-79.285004
 20
84.250000
 11
-78.535004
 21
83.949997
  0
LINE
  8
0
 10
-78.535004
 20
83.449997
 11
-79.285004
 21
82.750000
  0
LINE
  8
0
 10
-75.785004
 20
84.250000
 11
-76.535004
 21
83.949997
  0
LINE
  8
0
 10
-76.535004
 20
83.449997
 11
-75.785004
 21
82.750000
  0
LINE
  8
0
  6
DASHED
 10
-78.335007
 20
83.250000
 11
-76.735001
 21
83.250000
  0
LINE
  8
0
  6
DASHED
 10
-78.785004
 20
84.250000
 11
-78.335007
 21
84.070000
  0
LINE
  8
0
  6
DASHED
 10
-76.285004
 20
84.250000
 11
-76.735001
 21
84.070000
  0
LINE
  8
0
  6
DASHED
 10
-75.993721
 20
82.750000
 11
-76.735001
 21
83.250000
  0
LINE
  8
0
  6
DASHED
 10
-79.076286
 20
82.750000
 11
-78.335007
 21
83.250000
  0
LINE
  8
0
  6
DASHED
 10
-78.335007
 20
84.070000
 11
-76.735001
 21
84.070000
  0
LINE
  8
0
  6
CENTER
 10
-77.535004
 20
86.702148
 11
-77.535004
 21
82.338234
  0
POINT
  8
0
  6
CENTER
 10
155.894989
 20
84.099487
  0
POINT
  8
0
  6
CENTER
 10
158.894989
 20
84.099487
  0
LINE
  8
0
  6
CENTER
 10
155.894989
 20
84.699387
 11
155.894989
 21
77.475372
  0
LINE
  8
0
 10
157.894989
 20
80.099487
 11
157.894989
 21
79.306404
  0
LINE
  8
0
 10
153.894989
 20
80.099487
 11
153.894989
 21
79.306404
  0
LINE
  8
0
 10
158.894989
 20
84.099487
 11
158.894989
 21
81.099487
  0
LINE
  8
0
 10
152.894989
 20
84.099487
 11
152.894989
 21
81.099487
  0
LINE
  8
0
  6
DASHED
 10
156.894989
 20
81.099487
 11
156.894989
 21
79.254189
  0
LINE
  8
0
  6
DASHED
 10
154.894989
 20
81.099487
 11
154.894989
 21
79.254189
  0
LINE
  8
0
 10
152.894989
 20
81.099487
 11
158.894989
 21
81.099487
  0
LINE
  8
0
 10
152.894989
 20
84.099487
 11
158.894989
 21
84.099487
  0
LINE
  8
0
 10
152.894989
 20
78.099487
 11
158.894989
 21
78.099487
  0
LINE
  8
0
  6
DASHED
 10
154.494995
 20
84.099487
 11
154.244995
 21
81.099487
  0
LINE
  8
0
  6
DASHED
 10
157.294983
 20
84.099487
 11
157.544983
 21
81.099487
  0
LINE
  8
0
 10
153.894989
 20
80.099487
 11
152.894989
 21
81.099487
  0
LINE
  8
0
 10
157.894989
 20
80.099487
 11
158.894989
 21
81.099487
  0
LINE
  8
0
  6
DASHED
 10
152.894989
 20
78.099487
 11
154.894989
 21
79.254189
  0
LINE
  8
0
  6
DASHED
 10
158.894989
 20
78.099487
 11
156.894989
 21
79.254189
  0
LINE
  8
0
  6
DASHED
 10
154.894989
 20
79.254189
 11
156.894989
 21
79.254189
  0
LINE
  8
0
 10
152.894989
 20
78.099487
 11
152.694992
 21
78.299484
  0
LINE
  8
0
 10
158.894989
 20
78.099487
 11
159.094986
 21
78.299484
  0
LINE
  8
0
 10
152.694992
 20
78.299484
 11
153.894989
 21
79.306404
  0
LINE
  8
0
 10
159.094986
 20
78.299484
 11
157.894989
 21
79.306404
  0
LINE
  8
0
 10
153.894989
 20
80.099487
 11
157.894989
 21
80.099487
  0
LINE
  8
0
 10
157.894989
 20
79.306404
 11
153.894989
 21
79.306404
  0
LINE
  8
0
 10
152.694992
 20
78.299484
 11
159.094986
 21
78.299484
  0
POINT
  8
0
 10
-155.345001
 20
-0.450001
  0
POINT
  8
0
 10
-152.884995
 20
-0.450001
  0
LINE
  8
0
  6
CENTER
 10
-155.345001
 20
0.190695
 11
-155.345001
 21
-6.562896
  0
LINE
  8
0
  6
DASHED
 10
-154.345001
 20
-3.450001
 11
-154.345001
 21
-4.650001
  0
LINE
  8
0
  6
DASHED
 10
-156.345001
 20
-3.450001
 11
-156.345001
 21
-4.650001
  0
LINE
  8
0
 10
-152.345001
 20
-0.990001
 11
-152.345001
 21
-3.450001
  0
LINE
  8
0
 10
-158.345001
 20
-0.990001
 11
-158.345001
 21
-3.450001
  0
LINE
  8
0
 10
-158.345001
 20
-3.450001
 11
-152.345001
 21
-3.450001
  0
LINE
  8
0
 10
-157.805008
 20
-0.450001
 11
-152.884995
 21
-0.450001
  0
LINE
  8
0
 10
-159.345001
 20
-5.950001
 11
-151.345001
 21
-5.950001
  0
LINE
  8
0
  6
DASHED
 10
-157.417679
 20
-4.650001
 11
-153.272324
 21
-4.650001
  0
LINE
  8
0
  6
DASHED
 10
-156.744995
 20
-0.450001
 11
-156.994995
 21
-3.450001
  0
LINE
  8
0
  6
DASHED
 10
-153.945007
 20
-0.450001
 11
-153.695007
 21
-3.450001
  0
LINE
  8
0
  6
DASHED
 10
-159.345001
 20
-5.950001
 11
-157.417679
 21
-4.650002
  0
LINE
  8
0
  6
DASHED
 10
-151.345001
 20
-5.950001
 11
-153.272324
 21
-4.650001
  0
LINE
  8
0
 10
-159.345001
 20
-5.950000
 11
-159.514999
 21
-5.700000
  0
LINE
  8
0
 10
-151.175003
 20
-5.700000
 11
-151.345001
 21
-5.950000
  0
LINE
  8
0
 10
-159.514999
 20
-5.700001
 11
-157.805008
 21
-3.990001
  0
LINE
  8
0
 10
-151.175003
 20
-5.700001
 11
-152.884995
 21
-3.990000
  0
LINE
  8
0
 10
-157.805008
 20
-3.990001
 11
-158.345001
 21
-3.450001
  0
LINE
  8
0
 10
-152.884995
 20
-3.990001
 11
-152.345001
 21
-3.450001
  0
LINE
  8
0
 10
-157.805008
 20
-3.990001
 11
-152.884995
 21
-3.990001
  0
LINE
  8
0
 10
-157.805008
 20
-0.450001
 11
-158.345001
 21
-0.990001
  0
LINE
  8
0
 10
-152.345001
 20
-0.990001
 11
-152.884995
 21
-0.450001
  0
LINE
  8
0
 10
-159.514999
 20
-5.700001
 11
-151.175003
 21
-5.700001
  0
LINE
  8
0
 10
-158.345001
 20
-0.990001
 11
-152.345001
 21
-0.990001
  0
POINT
  8
0
 10
-77.535004
 20
-0.450001
  0
POINT
  8
0
 10
-73.035004
 20
-0.450001
  0
LINE
  8
0
  6
CENTER
 10
-77.535004
 20
0.850884
 11
-77.535004
 21
-10.014897
  0
LINE
  8
0
  6
DASHED
 10
-75.135002
 20
-0.450001
 11
-75.135002
 21
-4.450001
  0
LINE
  8
0
  6
DASHED
 10
-79.935005
 20
-0.450001
 11
-79.935005
 21
-4.450001
  0
LINE
  8
0
 10
-72.535004
 20
-0.950001
 11
-72.535004
 21
-4.050001
  0
LINE
  8
0
 10
-82.535004
 20
-0.950001
 11
-82.535004
 21
-4.050001
  0
LINE
  8
0
  6
DASHED
 10
-74.535004
 20
-4.450001
 11
-74.535004
 21
-7.350001
  0
LINE
  8
0
  6
DASHED
 10
-80.535004
 20
-4.450001
 11
-80.535004
 21
-7.350001
  0
LINE
  8
0
 10
-73.535004
 20
-5.750001
 11
-73.535004
 21
-6.376764
  0
LINE
  8
0
 10
-81.535004
 20
-5.750001
 11
-81.535004
 21
-6.376764
  0
LINE
  8
0
  6
DASHED
 10
-80.535004
 20
-4.450001
 11
-74.535004
 21
-4.450001
  0
LINE
  8
0
 10
-82.035004
 20
-0.450001
 11
-73.035004
 21
-0.450001
  0
LINE
  8
0
 10
-82.535004
 20
-8.450001
 11
-72.535004
 21
-8.450001
  0
LINE
  8
0
  6
DASHED
 10
-81.435005
 20
-7.350001
 11
-73.635002
 21
-7.350001
  0
LINE
  8
0
  6
DASHED
 10
-81.035004
 20
-6.950001
 11
-74.035004
 21
-6.950001
  0
LINE
  8
0
 10
-82.535004
 20
-4.050001
 11
-72.535004
 21
-4.050001
  0
LINE
  8
0
 10
-81.535004
 20
-5.750001
 11
-73.535004
 21
-5.750001
  0
LINE
  8
0
 10
-82.535004
 20
-8.450001
 11
-82.745003
 21
-8.240000
  0
LINE
  8
0
 10
-72.535004
 20
-8.450001
 11
-72.325005
 21
-8.240002
  0
LINE
  8
0
  6
DASHED
 10
-82.535004
 20
-8.450002
 11
-81.035004
 21
-6.950001
  0
LINE
  8
0
  6
DASHED
 10
-72.535004
 20
-8.450001
 11
-74.035004
 21
-6.950001
  0
LINE
  8
0
 10
-72.325005
 20
-8.240001
 11
-73.535004
 21
-6.376764
  0
LINE
  8
0
 10
-82.745003
 20
-8.240001
 11
-81.535004
 21
-6.376764
  0
LINE
  8
0
 10
-82.535004
 20
-4.050001
 11
-81.535004
 21
-5.750001
  0
LINE
  8
0
 10
-72.535004
 20
-4.050001
 11
-73.535004
 21
-5.750001
  0
LINE
  8
0
 10
-73.535004
 20
-6.376764
 11
-81.535004
 21
-6.376764
  0
LINE
  8
0
 10
-82.535004
 20
-0.950001
 11
-82.035004
 21
-0.450002
  0
LINE
  8
0
 10
-72.535004
 20
-0.950001
 11
-73.035004
 21
-0.450002
  0
LINE
  8
0
 10
-82.535004
 20
-0.950001
 11
-72.535004
 21
-0.950001
  0
LINE
  8
0
 10
-82.745003
 20
-8.240001
 11
-72.325005
 21
-8.240001
  0
LINE
  8
0
  6
DASHED
 10
-76.535004
 20
-6.950001
 11
-76.535004
 21
-7.350001
  0
LINE
  8
0
  6
DASHED
 10
-78.535004
 20
-6.950001
 11
-78.535004
 21
-7.350001
  0
POINT
  8
0
  6
DASHED
 10
0.274994
 20
-0.450001
  0
POINT
  8
0
  6
DASHED
 10
4.774995
 20
-0.450001
  0
LINE
  8
0
  6
CENTER
 10
0.274994
 20
0.681759
 11
0.274994
 21
-9.843805
  0
LINE
  8
0
  6
DASHED
 10
2.674994
 20
-0.450001
 11
2.674994
 21
-3.450001
  0
LINE
  8
0
  6
DASHED
 10
-2.125006
 20
-0.450001
 11
-2.125006
 21
-3.450001
  0
LINE
  8
0
 10
-5.225006
 20
-1.450001
 11
-5.225006
 21
-4.450001
  0
LINE
  8
0
 10
5.774994
 20
-1.450001
 11
5.774994
 21
-4.450001
  0
LINE
  8
0
  6
DASHED
 10
4.274994
 20
-3.450001
 11
4.274994
 21
-7.150001
  0
LINE
  8
0
  6
DASHED
 10
-3.725006
 20
-3.450001
 11
-3.725006
 21
-7.150001
  0
LINE
  8
0
 10
5.274994
 20
-5.350001
 11
5.274994
 21
-5.828109
  0
LINE
  8
0
 10
-4.725006
 20
-5.350001
 11
-4.725006
 21
-5.828109
  0
LINE
  8
0
 10
-5.225006
 20
-4.450001
 11
5.774994
 21
-4.450001
  0
LINE
  8
0
 10
-7.225006
 20
-8.450001
 11
7.774994
 21
-8.450001
  0
LINE
  8
0
 10
-4.225006
 20
-0.450001
 11
4.774994
 21
-0.450001
  0
LINE
  8
0
 10
-4.725006
 20
-5.350001
 11
5.274994
 21
-5.350001
  0
LINE
  8
0
  6
DASHED
 10
-3.725006
 20
-3.450001
 11
4.274994
 21
-3.450001
  0
LINE
  8
0
  6
DASHED
 10
-0.725006
 20
-7.150001
 11
1.274994
 21
-7.150001
  0
LINE
  8
0
 10
-5.225005
 20
-4.450000
 11
-4.725005
 21
-5.350000
  0
LINE
  8
0
 10
5.274993
 20
-5.350000
 11
5.774993
 21
-4.450000
  0
LINE
  8
0
 10
-4.225006
 20
-0.450001
 11
-5.225006
 21
-1.450001
  0
LINE
  8
0
 10
5.774994
 20
-1.450000
 11
4.774995
 21
-0.450000
  0
LINE
  8
0
 10
-7.225006
 20
-8.450000
 11
-7.510005
 21
-8.165001
  0
LINE
  8
0
 10
7.774995
 20
-8.450002
 11
8.059995
 21
-8.165003
  0
LINE
  8
0
  6
DASHED
 10
7.774994
 20
-8.450001
 11
4.274994
 21
-6.346988
  0
LINE
  8
0
  6
DASHED
 10
-7.225006
 20
-8.450001
 11
-3.725006
 21
-6.346989
  0
LINE
  8
0
 10
-7.510005
 20
-8.165001
 11
-4.725006
 21
-5.828109
  0
LINE
  8
0
 10
8.059994
 20
-8.165001
 11
5.274994
 21
-5.828109
  0
LINE
  8
0
  6
DASHED
 10
4.274994
 20
-6.346988
 11
1.274994
 21
-6.346988
  0
LINE
  8
0
  6
DASHED
 10
-5.616522
 20
-7.483526
 11
-3.725006
 21
-7.150000
  0
LINE
  8
0
  6
DASHED
 10
4.274994
 20
-7.150000
 11
6.166511
 21
-7.483526
  0
LINE
  8
0
 10
-4.725006
 20
-5.828109
 11
5.274994
 21
-5.828109
  0
LINE
  8
0
  6
DASHED
 10
1.274994
 20
-6.346988
 11
1.274994
 21
-7.483526
  0
LINE
  8
0
  6
DASHED
 10
-0.725006
 20
-6.346988
 11
-0.725006
 21
-7.483526
  0
LINE
  8
0
  6
DASHED
 10
-0.725006
 20
-7.483526
 11
1.274994
 21
-7.483526
  0
LINE
  8
0
  6
DASHED
 10
-0.725006
 20
-6.346988
 11
-3.725006
 21
-6.346988
  0
LINE
  8
0
 10
-7.510006
 20
-8.165001
 11
8.059994
 21
-8.165001
  0
LINE
  8
0
 10
-5.225006
 20
-1.450001
 11
5.774994
 21
-1.450001
  0
POINT
  8
0
 10
78.084991
 20
-0.450001
  0
POINT
  8
0
 10
83.334991
 20
-0.450001
  0
LINE
  8
0
  6
DASHED
 10
80.484993
 20
-0.450001
 11
80.484993
 21
-3.450001
  0
LINE
  8
0
  6
DASHED
 10
75.684990
 20
-0.450001
 11
75.684990
 21
-3.450001
  0
LINE
  8
0
  6
DASHED
 10
83.084991
 20
-3.450001
 11
83.084991
 21
-8.899000
  0
LINE
  8
0
  6
DASHED
 10
73.084991
 20
-3.450001
 11
73.084991
 21
-8.899000
  0
LINE
  8
0
 10
71.084991
 20
-2.450001
 11
71.084991
 21
-6.450001
  0
LINE
  8
0
 10
85.084991
 20
-2.450001
 11
85.084991
 21
-6.450001
  0
LINE
  8
0
  6
DASHED
 10
73.084991
 20
-3.450001
 11
83.084991
 21
-3.450001
  0
LINE
  8
0
 10
72.834991
 20
-0.450001
 11
83.334991
 21
-0.450001
  0
LINE
  8
0
 10
71.084991
 20
-2.450001
 11
85.084991
 21
-2.450001
  0
LINE
  8
0
 10
68.334991
 20
-10.450001
 11
87.834991
 21
-10.450001
  0
LINE
  8
0
 10
71.297684
 20
-7.850001
 11
84.872299
 21
-7.850001
  0
LINE
  8
0
 10
72.834991
 20
-0.450001
 11
83.334991
 21
-0.450001
  0
LINE
  8
0
 10
71.084991
 20
-2.450001
 11
85.084991
 21
-2.450001
  0
LINE
  8
0
 10
72.834991
 20
-0.450001
 11
71.084991
 21
-2.450001
  0
LINE
  8
0
 10
85.084991
 20
-2.450001
 11
83.334991
 21
-0.450001
  0
LINE
  8
0
 10
71.084991
 20
-6.450001
 11
85.084991
 21
-6.450001
  0
LINE
  8
0
 10
68.334991
 20
-10.450002
 11
68.084991
 21
-10.016989
  0
LINE
  8
0
 10
87.834991
 20
-10.450002
 11
88.084991
 21
-10.016988
  0
LINE
  8
0
 10
84.872299
 20
-7.850001
 11
88.084991
 21
-10.016988
  0
LINE
  8
0
 10
68.084991
 20
-10.016989
 11
71.297684
 21
-7.850001
  0
LINE
  8
0
 10
71.084991
 20
-6.450001
 11
71.297684
 21
-7.850001
  0
LINE
  8
0
 10
85.084991
 20
-6.450000
 11
84.872299
 21
-7.850000
  0
LINE
  8
0
  6
DASHED
 10
83.084991
 20
-7.707588
 11
87.834991
 21
-10.450002
  0
LINE
  8
0
  6
DASHED
 10
68.334991
 20
-10.450002
 11
73.084991
 21
-7.707588
  0
LINE
  8
0
  6
DASHED
 10
73.084991
 20
-7.707587
 11
83.084991
 21
-7.707587
  0
LINE
  8
0
  6
DASHED
 10
83.084991
 20
-8.899002
 11
85.928696
 21
-9.349401
  0
LINE
  8
0
  6
DASHED
 10
70.241287
 20
-9.349401
 11
73.084991
 21
-8.899002
  0
LINE
  8
0
  6
DASHED
 10
79.084991
 20
-7.707587
 11
79.084991
 21
-8.899000
  0
LINE
  8
0
  6
DASHED
 10
77.084991
 20
-7.707587
 11
77.084991
 21
-8.899000
  0
LINE
  8
0
  6
DASHED
 10
77.084991
 20
-8.899000
 11
79.084991
 21
-8.899000
  0
LINE
  8
0
 10
88.084991
 20
-10.016988
 11
68.084991
 21
-10.016988
  0
LINE
  8
0
  6
CENTER
 10
78.084991
 20
0.825072
 11
78.084991
 21
-11.798820
  0
POINT
  8
0
  6
CENTER
 10
155.894989
 20
-0.450001
  0
POINT
  8
0
  6
CENTER
 10
161.644989
 20
-0.450001
  0
LINE
  8
0
  6
CENTER
 10
155.894989
 20
0.787462
 11
155.894989
 21
-16.309883
  0
LINE
  8
0
  6
DASHED
 10
158.794983
 20
-0.450001
 11
158.794983
 21
-4.450001
  0
LINE
  8
0
  6
DASHED
 10
152.994995
 20
-0.450001
 11
152.994995
 21
-4.450001
  0
LINE
  8
0
 10
163.394989
 20
-1.950001
 11
163.394989
 21
-6.950001
  0
LINE
  8
0
 10
148.394989
 20
-1.950001
 11
148.394989
 21
-6.950001
  0
LINE
  8
0
  6
DASHED
 10
161.144989
 20
-4.450001
 11
161.144989
 21
-12.223001
  0
LINE
  8
0
  6
DASHED
 10
150.644989
 20
-4.450001
 11
150.644989
 21
-12.223001
  0
LINE
  8
0
 10
148.394989
 20
-6.950001
 11
163.394989
 21
-6.950001
  0
LINE
  8
0
 10
150.144989
 20
-0.450001
 11
161.644989
 21
-0.450001
  0
LINE
  8
0
 10
148.394989
 20
-1.950001
 11
163.394989
 21
-1.950001
  0
LINE
  8
0
  6
DASHED
 10
150.644989
 20
-4.450001
 11
161.144989
 21
-4.450001
  0
LINE
  8
0
 10
143.644989
 20
-14.450001
 11
168.144989
 21
-14.450001
  0
LINE
  8
0
 10
149.455582
 20
-9.450001
 11
162.334396
 21
-9.450001
  0
LINE
  8
0
 10
150.144989
 20
-0.450001
 11
148.394989
 21
-1.950001
  0
LINE
  8
0
 10
161.644989
 20
-0.450001
 11
163.394989
 21
-1.950001
  0
LINE
  8
0
 10
168.144989
 20
-14.450002
 11
168.394989
 21
-14.016990
  0
LINE
  8
0
 10
143.394989
 20
-14.016990
 11
143.644989
 21
-14.450002
  0
LINE
  8
0
 10
162.334396
 20
-9.450001
 11
168.394989
 21
-14.016988
  0
LINE
  8
0
 10
143.346329
 20
-14.053659
 11
149.455582
 21
-9.450001
  0
LINE
  8
0
 10
148.394989
 20
-6.950001
 11
149.455582
 21
-9.450002
  0
LINE
  8
0
 10
163.394989
 20
-6.950001
 11
162.334396
 21
-9.450002
  0
LINE
  8
0
 10
143.394989
 20
-14.016988
 11
168.394989
 21
-14.016988
  0
LINE
  8
0
  6
DASHED
 10
161.144989
 20
-11.478677
 11
168.144989
 21
-14.450001
  0
LINE
  8
0
  6
DASHED
 10
143.644989
 20
-14.450001
 11
150.644989
 21
-11.478677
  0
LINE
  8
0
  6
DASHED
 10
161.144989
 20
-12.223001
 11
165.394699
 21
-13.282572
  0
LINE
  8
0
  6
DASHED
 10
146.395279
 20
-13.282572
 11
150.644989
 21
-12.223001
  0
LINE
  8
0
  6
DASHED
 10
154.894989
 20
-13.282572
 11
156.894989
 21
-13.282572
  0
LINE
  8
0
  6
DASHED
 10
150.644989
 20
-11.478678
 11
161.144989
 21
-11.478678
  0
LINE
  8
0
  6
DASHED
 10
156.894989
 20
-11.478678
 11
156.894989
 21
-13.282572
  0
LINE
  8
0
  6
DASHED
 10
154.894989
 20
-11.478678
 11
154.894989
 21
-13.282572
  0
POINT
  8
0
  6
DASHED
 10
-155.345001
 20
-86.150002
  0
POINT
  8
0
  6
DASHED
 10
-150.095001
 20
-86.150002
  0
LINE
  8
0
  6
CENTER
 10
-155.345001
 20
-84.249222
 11
-155.345001
 21
-100.760460
  0
LINE
  8
0
  6
DASHED
 10
-158.244995
 20
-86.150002
 11
-158.244995
 21
-91.150002
  0
LINE
  8
0
  6
DASHED
 10
-152.445007
 20
-86.150002
 11
-152.445007
 21
-91.150002
  0
LINE
  8
0
 10
-147.845001
 20
-88.150002
 11
-147.845001
 21
-92.150002
  0
LINE
  8
0
 10
-162.845001
 20
-88.150002
 11
-162.845001
 21
-92.150002
  0
LINE
  8
0
  6
DASHED
 10
-150.244995
 20
-91.150002
 11
-150.244995
 21
-95.531998
  0
LINE
  8
0
  6
DASHED
 10
-160.445007
 20
-91.150002
 11
-160.445007
 21
-95.531998
  0
LINE
  8
0
 10
-161.381775
 20
-93.150002
 11
-149.308228
 21
-93.150002
  0
LINE
  8
0
 10
-161.381775
 20
-93.150002
 11
-149.308228
 21
-93.150002
  0
LINE
  8
0
 10
-170.095001
 20
-98.150002
 11
-140.595001
 21
-98.150002
  0
LINE
  8
0
 10
-160.595001
 20
-86.150002
 11
-150.095001
 21
-86.150002
  0
LINE
  8
0
  6
DASHED
 10
-160.445007
 20
-91.150002
 11
-150.244995
 21
-91.150002
  0
LINE
  8
0
 10
-162.845001
 20
-88.150002
 11
-147.845001
 21
-88.150002
  0
LINE
  8
0
 10
-160.595001
 20
-86.150002
 11
-162.845001
 21
-88.150002
  0
LINE
  8
0
 10
-150.095001
 20
-86.150002
 11
-147.845001
 21
-88.150002
  0
LINE
  8
0
 10
-170.345001
 20
-97.716988
 11
-170.095001
 21
-98.150002
  0
LINE
  8
0
 10
-140.595001
 20
-98.150002
 11
-140.345001
 21
-97.716988
  0
LINE
  8
0
  6
DASHED
 10
-170.095001
 20
-98.150002
 11
-160.445007
 21
-94.637688
  0
LINE
  8
0
  6
DASHED
 10
-150.244995
 20
-94.637688
 11
-140.595001
 21
-98.150002
  0
LINE
  8
0
 10
-170.345001
 20
-97.716988
 11
-161.381775
 21
-93.150002
  0
LINE
  8
0
 10
-149.308228
 20
-93.150002
 11
-140.345001
 21
-97.716988
  0
LINE
  8
0
 10
-162.845001
 20
-92.150002
 11
-147.845001
 21
-92.150002
  0
LINE
  8
0
 10
-162.845001
 20
-92.150002
 11
-161.381775
 21
-93.150002
  0
LINE
  8
0
 10
-147.845001
 20
-92.150002
 11
-149.308228
 21
-93.150002
  0
LINE
  8
0
  6
DASHED
 10
-160.445007
 20
-94.637688
 11
-150.244995
 21
-94.637688
  0
LINE
  8
0
  6
DASHED
 10
-167.164001
 20
-97.083206
 11
-160.445007
 21
-95.531998
  0
LINE
  8
0
  6
DASHED
 10
-150.244995
 20
-95.531998
 11
-143.526001
 21
-97.083206
  0
LINE
  8
0
 10
-170.345001
 20
-97.716988
 11
-140.345001
 21
-97.716988
  0
LINE
  8
0
  6
DASHED
 10
-154.595001
 20
-97.083206
 11
-156.095001
 21
-97.083206
  0
LINE
  8
0
  6
DASHED
 10
-154.595001
 20
-94.637688
 11
-154.595001
 21
-97.083206
  0
LINE
  8
0
  6
DASHED
 10
-156.095001
 20
-94.637688
 11
-156.095001
 21
-97.083206
  0
POINT
  8
0
  6
DASHED
 10
-77.535004
 20
-86.150002
  0
POINT
  8
0
  6
DASHED
 10
-72.285004
 20
-86.150002
  0
LINE
  8
0
  6
CENTER
 10
-77.535004
 20
-84.590050
 11
-77.535004
 21
-102.383789
  0
LINE
  8
0
  6
DASHED
 10
-80.435005
 20
-86.150002
 11
-80.435005
 21
-92.150002
  0
LINE
  8
0
  6
DASHED
 10
-74.635002
 20
-86.150002
 11
-74.635002
 21
-92.150002
  0
LINE
  8
0
 10
-85.035004
 20
-88.150002
 11
-85.035004
 21
-93.150002
  0
LINE
  8
0
 10
-70.035004
 20
-88.150002
 11
-70.035004
 21
-93.150002
  0
LINE
  8
0
  6
DASHED
 10
-82.635002
 20
-92.150002
 11
-82.635002
 21
-98.522003
  0
LINE
  8
0
  6
DASHED
 10
-72.435005
 20
-92.150002
 11
-72.435005
 21
-98.522003
  0
LINE
  8
0
 10
-84.777382
 20
-95.150002
 11
-70.292625
 21
-95.150002
  0
LINE
  8
0
 10
-94.785004
 20
-100.150002
 11
-60.285004
 21
-100.150002
  0
LINE
  8
0
 10
-82.785004
 20
-86.150002
 11
-72.285004
 21
-86.150002
  0
LINE
  8
0
  6
DASHED
 10
-82.635002
 20
-92.150002
 11
-72.435005
 21
-92.150002
  0
LINE
  8
0
 10
-85.035004
 20
-88.150002
 11
-70.035004
 21
-88.150002
  0
LINE
  8
0
 10
-82.785004
 20
-86.150002
 11
-85.035004
 21
-88.150002
  0
LINE
  8
0
 10
-72.285004
 20
-86.150002
 11
-70.035004
 21
-88.150002
  0
LINE
  8
0
 10
-95.035004
 20
-99.716995
 11
-94.785004
 21
-100.150002
  0
LINE
  8
0
 10
-60.285000
 20
-100.150002
 11
-60.035000
 21
-99.716995
  0
LINE
  8
0
  6
DASHED
 10
-72.435005
 20
-97.344955
 11
-60.285004
 21
-100.150002
  0
LINE
  8
0
  6
DASHED
 10
-94.785004
 20
-100.150002
 11
-82.635002
 21
-97.344955
  0
LINE
  8
0
 10
-95.035004
 20
-99.716988
 11
-84.777382
 21
-95.150002
  0
LINE
  8
0
 10
-70.292625
 20
-95.150002
 11
-60.035004
 21
-99.716988
  0
LINE
  8
0
 10
-85.035004
 20
-93.150002
 11
-70.035004
 21
-93.150002
  0
LINE
  8
0
 10
-84.777382
 20
-95.150002
 11
-85.035004
 21
-93.150002
  0
LINE
  8
0
 10
-70.035004
 20
-93.150002
 11
-70.292625
 21
-95.150002
  0
LINE
  8
0
  6
DASHED
 10
-82.635002
 20
-97.344955
 11
-72.435005
 21
-97.344955
  0
LINE
  8
0
  6
DASHED
 10
-72.435005
 20
-98.522003
 11
-63.075817
 21
-99.505692
  0
LINE
  8
0
  6
DASHED
 10
-91.994194
 20
-99.505692
 11
-82.635002
 21
-98.522003
  0
LINE
  8
0
  6
DASHED
 10
-76.785004
 20
-97.344955
 11
-76.785004
 21
-99.505692
  0
LINE
  8
0
  6
DASHED
 10
-78.285004
 20
-97.344955
 11
-78.285004
 21
-99.505692
  0
LINE
  8
0
  6
DASHED
 10
-78.285004
 20
-99.505692
 11
-76.785004
 21
-99.505692
  0
LINE
  8
0
 10
-95.035004
 20
-99.716988
 11
-60.035004
 21
-99.716988
  0
POINT
  8
0
 10
0.274994
 20
-86.150002
  0
POINT
  8
0
 10
6.524994
 20
-86.150002
  0
LINE
  8
0
  6
CENTER
 10
0.274994
 20
-84.377441
 11
0.274994
 21
-102.551758
  0
LINE
  8
0
  6
DASHED
 10
3.174994
 20
-86.150002
 11
3.174994
 21
-92.150002
  0
LINE
  8
0
  6
DASHED
 10
-2.625006
 20
-86.150002
 11
-2.625006
 21
-92.150002
  0
LINE
  8
0
 10
-7.725006
 20
-88.150002
 11
-7.725006
 21
-94.374245
  0
LINE
  8
0
 10
8.274994
 20
-88.150002
 11
8.274994
 21
-94.374245
  0
LINE
  8
0
  6
DASHED
 10
5.374994
 20
-92.150002
 11
5.374994
 21
-96.984001
  0
LINE
  8
0
  6
DASHED
 10
-4.825006
 20
-92.150002
 11
-4.825006
 21
-96.984001
  0
LINE
  8
0
 10
-19.475006
 20
-100.150002
 11
20.024994
 21
-100.150002
  0
LINE
  8
0
 10
-5.975007
 20
-86.150002
 11
6.524994
 21
-86.150002
  0
LINE
  8
0
  6
DASHED
 10
-4.825006
 20
-92.150002
 11
5.374994
 21
-92.150002
  0
LINE
  8
0
 10
-7.725006
 20
-88.150002
 11
8.274994
 21
-88.150002
  0
LINE
  8
0
 10
-5.975007
 20
-86.150002
 11
-7.725007
 21
-88.150002
  0
LINE
  8
0
 10
6.524994
 20
-86.150002
 11
8.274995
 21
-88.150002
  0
LINE
  8
0
 10
-19.725008
 20
-99.716995
 11
-19.475008
 21
-100.150002
  0
LINE
  8
0
 10
20.024996
 20
-100.150002
 11
20.274996
 21
-99.716995
  0
LINE
  8
0
  6
DASHED
 10
-19.475008
 20
-100.150002
 11
-4.825006
 21
-95.671051
  0
LINE
  8
0
  6
DASHED
 10
5.374994
 20
-95.671051
 11
20.024996
 21
-100.150002
  0
LINE
  8
0
 10
-19.677259
 20
-99.695732
 11
-7.725006
 21
-94.374245
  0
LINE
  8
0
 10
8.274994
 20
-94.374245
 11
20.274994
 21
-99.716988
  0
LINE
  8
0
 10
-7.725006
 20
-94.374245
 11
8.274994
 21
-94.374245
  0
LINE
  8
0
  6
DASHED
 10
-4.825006
 20
-95.671051
 11
5.374994
 21
-95.671051
  0
LINE
  8
0
  6
DASHED
 10
-14.971194
 20
-98.773048
 11
-4.825006
 21
-96.984001
  0
LINE
  8
0
  6
DASHED
 10
5.374994
 20
-96.984001
 11
15.521182
 21
-98.773048
  0
LINE
  8
0
  6
DASHED
 10
-0.725006
 20
-98.773048
 11
1.274994
 21
-98.773048
  0
LINE
  8
0
  6
DASHED
 10
1.274994
 20
-95.671051
 11
1.274994
 21
-98.773048
  0
LINE
  8
0
  6
DASHED
 10
-0.725006
 20
-95.671051
 11
-0.725006
 21
-98.773048
  0
LINE
  8
0
 10
-19.725006
 20
-99.716988
 11
20.274994
 21
-99.716988
  0
POINT
  8
0
 10
78.084991
 20
-86.150002
  0
POINT
  8
0
 10
86.584991
 20
-86.150002
  0
LINE
  8
0
  6
CENTER
 10
78.084991
 20
-84.356911
 11
78.084991
 21
-103.452377
  0
LINE
  8
0
  6
DASHED
 10
82.084991
 20
-86.150002
 11
82.084991
 21
-92.650002
  0
LINE
  8
0
  6
DASHED
 10
74.084991
 20
-86.150002
 11
74.084991
 21
-92.650002
  0
LINE
  8
0
 10
66.084991
 20
-88.150002
 11
66.084991
 21
-94.150002
  0
LINE
  8
0
 10
90.084991
 20
-88.150002
 11
90.084991
 21
-94.150002
  0
LINE
  8
0
  6
DASHED
 10
68.084991
 20
-92.650002
 11
68.084991
 21
-98.047005
  0
LINE
  8
0
  6
DASHED
 10
88.084991
 20
-92.650002
 11
88.084991
 21
-98.047005
  0
LINE
  8
0
 10
66.084991
 20
-94.150002
 11
90.084991
 21
-94.150002
  0
LINE
  8
0
 10
66.084991
 20
-94.150002
 11
90.084991
 21
-94.150002
  0
LINE
  8
0
 10
53.084991
 20
-101.150002
 11
103.084991
 21
-101.150002
  0
LINE
  8
0
 10
69.584991
 20
-86.150002
 11
86.584991
 21
-86.150002
  0
LINE
  8
0
  6
DASHED
 10
68.084991
 20
-92.650002
 11
88.084991
 21
-92.650002
  0
LINE
  8
0
 10
66.084991
 20
-88.150002
 11
90.084991
 21
-88.150002
  0
LINE
  8
0
 10
66.084991
 20
-88.150002
 11
69.584991
 21
-86.150002
  0
LINE
  8
0
 10
86.584991
 20
-86.150002
 11
90.084991
 21
-88.150002
  0
LINE
  8
0
 10
52.834988
 20
-100.716988
 11
53.084988
 21
-101.150002
  0
LINE
  8
0
 10
103.084991
 20
-101.150002
 11
103.334991
 21
-100.716988
  0
LINE
  8
0
  6
DASHED
 10
52.959991
 20
-101.183495
 11
68.084991
 21
-97.130760
  0
LINE
  8
0
  6
DASHED
 10
88.084991
 20
-97.130760
 11
103.084991
 21
-101.150002
  0
LINE
  8
0
 10
66.084991
 20
-94.150002
 11
52.834991
 21
-100.716988
  0
LINE
  8
0
 10
90.084991
 20
-94.150002
 11
103.334991
 21
-100.716988
  0
LINE
  8
0
  6
DASHED
 10
68.084991
 20
-97.130768
 11
88.084991
 21
-97.130768
  0
LINE
  8
0
  6
DASHED
 10
59.722466
 20
-99.371498
 11
68.084991
 21
-98.047005
  0
LINE
  8
0
  6
DASHED
 10
88.084991
 20
-98.047005
 11
96.447517
 21
-99.371498
  0
LINE
  8
0
  6
DASHED
 10
77.084991
 20
-99.371498
 11
79.084991
 21
-99.371498
  0
LINE
  8
0
  6
DASHED
 10
79.084991
 20
-97.130768
 11
79.084991
 21
-99.371498
  0
LINE
  8
0
  6
DASHED
 10
77.084991
 20
-97.130768
 11
77.084991
 21
-99.371498
  0
LINE
  8
0
 10
52.834991
 20
-100.716988
 11
103.334991
 21
-100.716988
  0
POINT
  8
0
 10
0.274994
 20
106.925003
  0
POINT
  8
0
 10
1.749994
 20
106.925003
  0
LINE
  8
0
 10
-2.475006
 20
104.925003
 11
3.024994
 21
104.925003
  0
LINE
  8
0
 10
-1.200006
 20
106.925003
 11
1.749994
 21
106.925003
  0
LINE
  8
0
  6
DASHED
 10
-1.625006
 20
103.925003
 11
2.174994
 21
103.925003
  0
LINE
  8
0
 10
2.024994
 20
106.650002
 11
2.024994
 21
104.925003
  0
LINE
  8
0
 10
-1.475006
 20
106.650002
 11
-1.475006
 21
104.925003
  0
LINE
  8
0
  6
DASHED
 10
1.474994
 20
106.925003
 11
1.474994
 21
104.925003
  0
LINE
  8
0
  6
DASHED
 10
-0.925006
 20
106.925003
 11
-0.925006
 21
104.925003
  0
LINE
  8
0
  6
DASHED
 10
1.174994
 20
104.925003
 11
1.174994
 21
103.925003
  0
LINE
  8
0
  6
DASHED
 10
-0.625006
 20
104.925003
 11
-0.625006
 21
103.925003
  0
LINE
  8
0
 10
-2.025006
 20
102.925003
 11
2.574994
 21
102.925003
  0
LINE
  8
0
 10
-2.475006
 20
104.925003
 11
-2.025006
 21
102.925003
  0
LINE
  8
0
  6
DASHED
 10
-1.725006
 20
102.925003
 11
-1.625006
 21
103.925003
  0
LINE
  8
0
  6
DASHED
 10
2.174994
 20
103.925003
 11
2.274993
 21
102.925003
  0
LINE
  8
0
 10
2.574994
 20
102.925003
 11
3.024994
 21
104.925003
  0
LINE
  8
0
 10
-1.475006
 20
106.650002
 11
-1.200006
 21
106.925003
  0
LINE
  8
0
 10
2.024994
 20
106.650002
 11
1.749994
 21
106.925003
  0
LINE
  8
0
 10
-1.475006
 20
106.650002
 11
2.024994
 21
106.650002
  0
LINE
  8
0
  6
CENTER
 10
0.274994
 20
107.251450
 11
0.274994
 21
102.458595
  0
POINT
  8
0
  6
CENTER
 10
0.274994
 20
65.574997
  0
POINT
  8
0
  6
CENTER
 10
3.024994
 20
65.574997
  0
LINE
  8
0
 10
-0.725006
 20
67.324997
 11
1.274994
 21
67.324997
  0
LINE
  8
0
 10
-0.725006
 20
63.824997
 11
1.274994
 21
63.824997
  0
LINE
  8
0
 10
-0.725006
 20
66.574997
 11
1.274994
 21
66.574997
  0
LINE
  8
0
 10
-0.725006
 20
64.574997
 11
1.274994
 21
64.574997
  0
LINE
  8
0
 10
-0.725006
 20
66.474998
 11
1.274994
 21
66.474998
  0
LINE
  8
0
 10
-0.725006
 20
64.674995
 11
1.274994
 21
64.674995
  0
LINE
  8
0
 10
-0.725006
 20
64.274994
 11
1.274994
 21
64.274994
  0
LINE
  8
0
 10
-0.725006
 20
66.875000
 11
1.274994
 21
66.875000
  0
LINE
  8
0
  6
CENTER
 10
0.274994
 20
67.978775
 11
0.274994
 21
63.202301
  0
LINE
  8
0
  6
CENTER
 10
-3.002394
 20
65.574997
 11
3.447589
 21
65.574997
  0
CIRCLE
  8
0
 10
0.274994
 20
65.574997
 40
0.900000
  0
ARC
  8
0
 10
-0.725006
 20
65.574997
 40
0.900002
 50
89.999985
 51
270.000000
  0
ARC
  8
0
 10
1.274994
 20
65.574997
 40
0.900002
 50
270.000000
 51
89.999985
  0
ARC
  8
0
 10
-0.725006
 20
65.574997
 40
1.000000
 50
89.999985
 51
270.000000
  0
ARC
  8
0
 10
1.274994
 20
65.574997
 40
1.000000
 50
270.000031
 51
89.999977
  0
ARC
  8
0
 10
-0.725006
 20
65.574997
 40
1.300003
 50
89.999985
 51
270.000000
  0
ARC
  8
0
 10
1.274994
 20
65.574997
 40
1.300003
 50
270.000031
 51
89.999985
  0
ARC
  8
0
 10
-0.725006
 20
65.574997
 40
1.750000
 50
89.999985
 51
270.000000
  0
ARC
  8
0
 10
1.274994
 20
65.574997
 40
1.750000
 50
270.000031
 51
89.999977
  0
POINT
  8
0
 10
79.534988
 20
106.925003
  0
POINT
  8
0
 10
78.084991
 20
106.925003
  0
LINE
  8
0
  6
CENTER
 10
78.084991
 20
107.478218
 11
78.084991
 21
101.788651
  0
LINE
  8
0
  6
DASHED
 10
79.084991
 20
104.925003
 11
79.084991
 21
103.925003
  0
LINE
  8
0
  6
DASHED
 10
77.084991
 20
104.925003
 11
77.084991
 21
103.925003
  0
LINE
  8
0
  6
DASHED
 10
79.284988
 20
106.925003
 11
79.284988
 21
104.925003
  0
LINE
  8
0
  6
DASHED
 10
76.884995
 20
106.925003
 11
76.884995
 21
104.925003
  0
LINE
  8
0
 10
79.834991
 20
106.625000
 11
79.834991
 21
104.925003
  0
LINE
  8
0
 10
76.334991
 20
106.625000
 11
76.334991
 21
104.925003
  0
LINE
  8
0
 10
74.384995
 20
104.925003
 11
81.784988
 21
104.925003
  0
LINE
  8
0
 10
76.634995
 20
106.925003
 11
79.534988
 21
106.925003
  0
LINE
  8
0
 10
74.284988
 20
102.425003
 11
81.884995
 21
102.425003
  0
LINE
  8
0
  6
DASHED
 10
75.084991
 20
103.925003
 11
81.084991
 21
103.925003
  0
LINE
  8
0
 10
76.634995
 20
106.925003
 11
76.334991
 21
106.625000
  0
LINE
  8
0
 10
79.834991
 20
106.625000
 11
79.534988
 21
106.925003
  0
LINE
  8
0
 10
74.084991
 20
104.625000
 11
74.384995
 21
104.925003
  0
LINE
  8
0
 10
82.084991
 20
104.625000
 11
81.784988
 21
104.925003
  0
LINE
  8
0
 10
74.084991
 20
104.625000
 11
74.284988
 21
102.425003
  0
LINE
  8
0
  6
DASHED
 10
74.584991
 20
102.425003
 11
75.084991
 21
103.925003
  0
LINE
  8
0
  6
DASHED
 10
81.084991
 20
103.925003
 11
81.584991
 21
102.425003
  0
LINE
  8
0
 10
81.884995
 20
102.425003
 11
82.084991
 21
104.625000
  0
LINE
  8
0
 10
76.334991
 20
106.625000
 11
79.834991
 21
106.625000
  0
LINE
  8
0
 10
74.084991
 20
104.625000
 11
82.084991
 21
104.625000
  0
POINT
  8
0
 10
78.084991
 20
65.574997
  0
POINT
  8
0
 10
82.084991
 20
65.574997
  0
LINE
  8
0
 10
76.334991
 20
64.324997
 11
79.834991
 21
64.324997
  0
LINE
  8
0
 10
76.334991
 20
66.824997
 11
79.834991
 21
66.824997
  0
LINE
  8
0
 10
76.334991
 20
63.824997
 11
79.834991
 21
63.824997
  0
LINE
  8
0
 10
76.334991
 20
67.324997
 11
79.834991
 21
67.324997
  0
LINE
  8
0
 10
76.334991
 20
67.625000
 11
79.834991
 21
67.625000
  0
LINE
  8
0
 10
76.334991
 20
63.524998
 11
79.834991
 21
63.524998
  0
LINE
  8
0
 10
76.334991
 20
67.824997
 11
79.834991
 21
67.824997
  0
LINE
  8
0
 10
76.334991
 20
63.324997
 11
79.834991
 21
63.324997
  0
LINE
  8
0
  6
CENTER
 10
78.084991
 20
68.553368
 11
78.084991
 21
62.736256
  0
LINE
  8
0
  6
CENTER
 10
73.452248
 20
65.574997
 11
82.645958
 21
65.574997
  0
CIRCLE
  8
0
 10
78.084991
 20
65.574997
 40
1.000000
  0
ARC
  8
0
 10
76.334991
 20
65.574997
 40
1.250000
 50
90.000000
 51
270.000000
  0
ARC
  8
0
 10
79.834991
 20
65.574997
 40
1.250000
 50
270.000000
 51
90.000000
  0
ARC
  8
0
 10
76.334991
 20
65.574997
 40
1.750000
 50
90.000000
 51
270.000000
  0
ARC
  8
0
 10
79.834991
 20
65.574997
 40
1.750000
 50
270.000000
 51
90.000000
  0
ARC
  8
0
 10
76.334991
 20
65.574997
 40
2.050003
 50
90.000000
 51
270.000000
  0
ARC
  8
0
 10
79.834991
 20
65.574997
 40
2.049999
 50
270.000000
 51
90.000000
  0
ARC
  8
0
 10
76.334991
 20
65.574997
 40
2.250000
 50
90.000000
 51
270.000000
  0
ARC
  8
0
 10
79.834991
 20
65.574997
 40
2.250000
 50
270.000000
 51
90.000000
  0
ENDSEC
  0
EOF
