  0
SECTION
  2
HEADER
  0
ENDSEC
  0
SECTION
  2
TABLES
  0
TABLE
  2
LTYPE
 70
     4
  0
LTYPE
  2
CONTINUOUS
 70
    64
  3
Solid line
 72
    65
 73
     0
 40
0.000000
  0
LTYPE
  2
DASHED
 70
    64
  3
__ __ __ __ __ __ __ __ __ __ __ __ __ __ __
 72
    65
 73
     2
 40
3.500000
 49
2.000000
 49
-1.500000
  0
LTYPE
  2
CENTER
 70
    64
  3
____ _ ____ _ ____ _ ____ _ ____ _ ____ _ ____
 72
    65
 73
     4
 40
17.500000
 49
13.000000
 49
-1.500000
 49
1.500000
 49
-1.500000
  0
LTYPE
  2
PHANTOM
 70
    64
  3
_____ _ _ _____ _ _ _____ _ _ _____ _ _ ____  
 72
    65
 73
     6
 40
15.500000
 49
8.000000
 49
-1.500000
 49
1.500000
 49
-1.500000
 49
1.500000
 49
-1.500000
  0
LTYPE
  2
DASHED1
 70
    64
  3
__ __ __ __ __ __ __ __ __ __ __ __ __ __ __
 72
    65
 73
     2
 40
1.500000
 49
1.000000
 49
-0.500000
  0
LTYPE
  2
DASHED2
 70
    64
  3
__ __ __ __ __ __ __ __ __ __ __ __ __ __ __
 72
    65
 73
     2
 40
3.500000
 49
2.500000
 49
-1.000000
  0
LTYPE
  2
DASHED3
 70
    64
  3
__ __ __ __ __ __ __ __ __ __ __ __ __ __ __
 72
    65
 73
     2
 40
6.000000
 49
4.000000
 49
-2.000000
  0
LTYPE
  2
DASHED4
 70
    64
  3
__ __ __ __ __ __ __ __ __ __ __ __ __ __ __
 72
    65
 73
     2
 40
12.000000
 49
10.000000
 49
-2.000000
  0
LTYPE
  2
DASHED5
 70
    64
  3
__ __ __ __ __ __ __ __ __ __ __ __ __ __ __
 72
    65
 73
     2
 40
17.000000
 49
15.000000
 49
-2.000000
  0
LTYPE
  2
DASHED6
 70
    64
  3
__ __ __ __ __ __ __ __ __ __ __ __ __ __ __
 72
    65
 73
     2
 40
29.000000
 49
27.000000
 49
-2.000000
  0
LTYPE
  2
PHANTOM1
 70
    64
  3
_____ _ _ _____ _ _ _____ _ _ _____ _ _ ____  
 72
    65
 73
     6
 40
31.000000
 49
25.000000
 49
-1.500000
 49
1.000000
 49
-1.000000
 49
1.000000
 49
-1.500000
  0
LTYPE
  2
PHANTOM2
 70
    64
  3
_____ _ _ _____ _ _ _____ _ _ _____ _ _ ____  
 72
    65
 73
     6
 40
36.000000
 49
27.000000
 49
-1.500000
 49
2.500000
 49
-1.000000
 49
2.500000
 49
-1.500000
  0
LTYPE
  2
PHANTOM3
 70
    64
  3
_____ _ _ _____ _ _ _____ _ _ _____ _ _ ____  
 72
    65
 73
     6
 40
78.000000
 49
64.000000
 49
-2.000000
 49
4.000000
 49
-2.000000
 49
4.000000
 49
-2.000000
  0
LTYPE
  2
CENTER1
 70
    64
  3
____ _ ____ _ ____ _ ____ _ ____ _ ____ _ ____
 72
    65
 73
     4
 40
19.000000
 49
14.000000
 49
-1.000000
 49
3.000000
 49
-1.000000
  0
LTYPE
  2
CENTER2
 70
    64
  3
____ _ ____ _ ____ _ ____ _ ____ _ ____ _ ____
 72
    65
 73
     4
 40
28.500000
 49
25.000000
 49
-1.000000
 49
1.500000
 49
-1.000000
  0
LTYPE
  2
CENTER3
 70
    64
  3
____ _ ____ _ ____ _ ____ _ ____ _ ____ _ ____
 72
    65
 73
     4
 40
31.500000
 49
27.000000
 49
-1.000000
 49
2.500000
 49
-1.000000
  0
LTYPE
  2
CENTER4
 70
    64
  3
____ _ ____ _ ____ _ ____ _ ____ _ ____ _ ____
 72
    65
 73
     4
 40
50.000000
 49
45.000000
 49
-1.000000
 49
3.000000
 49
-1.000000
  0
LTYPE
  2
CENTER5
 70
    64
  3
____ _ ____ _ ____ _ ____ _ ____ _ ____ _ ____
 72
    65
 73
     4
 40
100.000000
 49
92.000000
 49
-2.000000
 49
4.000000
 49
-2.000000
  0
LTYPE
  2
SBK1
 70
    64
  3
______ _ _ _ ______ _ _ _ ______ _ _ _ _____  
 72
    65
 73
     8
 40
60.500000
 49
45.000000
 49
-2.000000
 49
2.500000
 49
-2.000000
 49
2.500000
 49
-2.000000
 49
2.500000
 49
-2.000000
  0
LTYPE
  2
SBK2
 70
    64
  3
______ _ _ _ ______ _ _ _ ______ _ _ _ _____  
 72
    65
 73
     8
 40
84.000000
 49
64.000000
 49
-2.000000
 49
4.000000
 49
-2.000000
 49
4.000000
 49
-2.000000
 49
4.000000
 49
-2.000000
  0
LTYPE
  2
STCH
 70
    64
  3
__ __ __ __ __ __ __ __ __ __ __ __ __ __ __
 72
    65
 73
     2
 40
3.000000
 49
1.000000
 49
-2.000000
  0
LTYPE
  2
MTCH
 70
    64
  3
_____ _ _ _____ _ _ _____ _ _ _____ _ _ ____  
 72
    65
 73
     6
 40
80.000000
 49
66.000000
 49
-2.000000
 49
4.000000
 49
-2.000000
 49
4.000000
 49
-2.000000
  0
ENDTAB
  0
TABLE
  2
LAYER
 70
     1
  0
LAYER
  2
0
 70
     0
 62
     7
  6
CONTINUOUS
  0
ENDTAB
  0
TABLE
  2
STYLE
 70
     1
  0
STYLE
  2
STANDARD
 70
     0
 40
0.000000
 41
1.000000
 50
0.000000
 71
     0
 42
0.200000
  3
txt
  4
BIGFONT
  0
ENDTAB
  0
TABLE
  2
VIEW
 70
     0
  0
ENDTAB
  0
ENDSEC
  0
SECTION
  2
BLOCKS
  0
ENDSEC
  0
SECTION
  2
ENTITIES
  0
LINE
  8
0
 10
-181.250000
 20
195.500000
 11
-181.250000
 21
180.500000
  0
LINE
  8
0
 10
182.099976
 20
195.500000
 11
182.099976
 21
180.500000
  0
LINE
  8
0
 10
-281.250000
 20
180.500000
 11
-181.250000
 21
180.500000
  0
LINE
  8
0
 10
182.099976
 20
-175.000000
 11
182.099976
 21
-195.000000
  0
LINE
  8
0
 10
182.099976
 20
180.500000
 11
282.099976
 21
180.500000
  0
LINE
  8
0
 10
182.099976
 20
-175.000000
 11
282.099976
 21
-175.000000
  0
LINE
  8
0
 10
-297.000000
 20
210.000000
 11
297.000000
 21
210.000000
  0
LINE
  8
0
 10
-297.000000
 20
-210.000000
 11
297.000000
 21
-210.000000
  0
LINE
  8
0
 10
297.000000
 20
210.000000
 11
297.000000
 21
-210.000000
  0
LINE
  8
0
 10
-297.000000
 20
210.000000
 11
-297.000000
 21
-210.000000
  0
LINE
  8
0
 10
-281.250000
 20
195.500000
 11
282.099976
 21
195.500000
  0
LINE
  8
0
 10
-281.250000
 20
195.500000
 11
-281.250000
 21
-195.000000
  0
LINE
  8
0
 10
282.099976
 20
195.500000
 11
282.099976
 21
-195.000000
  0
LINE
  8
0
 10
-281.250000
 20
-195.000000
 11
282.099976
 21
-195.000000
  0
LINE
  8
0
 10
-281.250000
 20
5.500000
 11
282.099976
 21
5.500000
  0
LINE
  8
0
 10
-281.250000
 20
15.500000
 11
282.099976
 21
15.500000
  0
LINE
  8
0
 10
-11.250000
 20
195.500000
 11
-11.250000
 21
5.500000
  0
LINE
  8
0
 10
133.750000
 20
195.500000
 11
133.750000
 21
5.500000
  0
LINE
  8
0
 10
-146.250000
 20
195.500000
 11
-146.250000
 21
5.500000
  0
LINE
  8
0
 10
-121.250000
 20
5.500000
 11
-121.250000
 21
-195.000000
  0
LINE
  8
0
 10
48.750000
 20
5.500000
 11
48.750000
 21
-195.000000
  0
LINE
  8
0
 10
-281.250000
 20
-185.000000
 11
182.099976
 21
-185.000000
  0
TEXT
  8
0
 10
188.021667
 20
183.779999
 40
5.800000
  1
DATE: JUN ,1992
 50
0.000000
 41
1.052632
 51
0.000000
  7
STANDARD
  0
TEXT
  8
0
 10
162.643127
 20
6.100000
 40
6.000000
  1
MODEL : KPHF-100
 50
0.000000
 41
1.052632
 51
0.000000
  7
STANDARD
  0
TEXT
  8
0
 10
-259.356873
 20
6.100000
 40
6.000000
  1
MODEL : KPHF-60
 50
0.000000
 41
1.052632
 51
0.000000
  7
STANDARD
  0
TEXT
  8
0
 10
-124.356880
 20
6.100000
 40
6.000000
  1
MODEL : KPHF-80
 50
0.000000
 41
1.052632
 51
0.000000
  7
STANDARD
  0
TEXT
  8
0
 10
20.643124
 20
6.100000
 40
6.000000
  1
MODEL : KPHF-95
 50
0.000000
 41
1.052632
 51
0.000000
  7
STANDARD
  0
TEXT
  8
0
 10
66.818108
 20
-194.399994
 40
6.000000
  1
MODEL : KPHF-200
 50
0.000000
 41
1.052632
 51
0.000000
  7
STANDARD
  0
TEXT
  8
0
 10
-249.856873
 20
-194.399994
 40
6.000000
  1
MODEL : KPHF-120
 50
0.000000
 41
1.052632
 51
0.000000
  7
STANDARD
  0
TEXT
  8
0
 10
-84.856880
 20
-194.399994
 40
6.000000
  1
MODEL : KPHF-150
 50
0.000000
 41
1.052632
 51
0.000000
  7
STANDARD
  0
TEXT
  8
0
 10
185.850296
 20
-190.300003
 40
7.000000
  1
KOGANEI CORP.
 50
0.000000
 41
1.052632
 51
15.000000
  7
STANDARD
  0
TEXT
  8
0
 10
-261.856873
 20
183.600006
 40
6.000000
  1
VACUUM PAD
 50
0.000000
 41
1.052632
 51
0.000000
  7
STANDARD
  0
POINT
  8
0
 10
-213.750000
 20
123.333328
  0
POINT
  8
0
 10
-201.699997
 20
123.333328
  0
LINE
  8
0
 10
-183.750000
 20
68.333328
 11
-183.184311
 21
68.899017
  0
LINE
  8
0
 10
-186.477203
 20
72.191902
 11
-183.184311
 21
68.899017
  0
LINE
  8
0
 10
-183.750000
 20
77.333328
 11
-183.750000
 21
76.333328
  0
LINE
  8
0
 10
-186.477203
 20
73.606117
 11
-183.750000
 21
76.333328
  0
LINE
  8
0
  6
DASHED
 10
-213.750000
 20
76.333328
 11
-186.750000
 21
76.333328
  0
LINE
  8
0
 10
-183.750000
 20
68.333328
 11
-243.750000
 21
68.333328
  0
LINE
  8
0
 10
-243.750000
 20
68.333328
 11
-244.315689
 21
68.899017
  0
LINE
  8
0
 10
-241.022797
 20
72.191902
 11
-244.315689
 21
68.899010
  0
LINE
  8
0
 10
-243.750000
 20
77.333328
 11
-243.750000
 21
76.333328
  0
LINE
  8
0
 10
-241.022797
 20
73.606117
 11
-243.750015
 21
76.333328
  0
LINE
  8
0
  6
DASHED
 10
-213.750000
 20
76.333328
 11
-240.750000
 21
76.333328
  0
LINE
  8
0
  6
DASHED
 10
-240.750000
 20
77.333328
 11
-240.750000
 21
76.333328
  0
LINE
  8
0
 10
-239.510010
 20
72.899017
 11
-188.130005
 21
72.899017
  0
LINE
  8
0
 10
-183.750000
 20
76.333328
 11
-243.750000
 21
76.333328
  0
LINE
  8
0
 10
-244.315689
 20
68.899017
 11
-183.184311
 21
68.899017
  0
LINE
  8
0
 10
-244.250000
 20
85.333328
 11
-213.750000
 21
85.333328
  0
LINE
  8
0
 10
-213.750000
 20
85.333328
 11
-183.250000
 21
85.333328
  0
LINE
  8
0
 10
-213.750000
 20
77.333328
 11
-181.750000
 21
77.333328
  0
LINE
  8
0
 10
-245.750000
 20
77.333328
 11
-213.750000
 21
77.333328
  0
LINE
  8
0
 10
-181.750000
 20
77.333328
 11
-181.750000
 21
83.833328
  0
LINE
  8
0
 10
-245.750000
 20
77.333328
 11
-245.750000
 21
83.833328
  0
LINE
  8
0
 10
-236.949997
 20
88.333328
 11
-213.750000
 21
88.333328
  0
LINE
  8
0
 10
-213.750000
 20
88.333328
 11
-190.550003
 21
88.333328
  0
LINE
  8
0
 10
-189.550003
 20
85.333328
 11
-189.550003
 21
87.333328
  0
LINE
  8
0
 10
-237.949997
 20
85.333328
 11
-237.949997
 21
87.333328
  0
LINE
  8
0
 10
-189.550003
 20
87.333313
 11
-190.550003
 21
88.333313
  0
LINE
  8
0
 10
-236.949997
 20
88.333328
 11
-237.949997
 21
87.333328
  0
LINE
  8
0
 10
-224.750000
 20
108.333328
 11
-202.750000
 21
108.333328
  0
LINE
  8
0
 10
-220.750000
 20
138.333328
 11
-206.750000
 21
138.333328
  0
LINE
  8
0
 10
-221.750000
 20
108.333328
 11
-221.750000
 21
117.333328
  0
LINE
  8
0
 10
-205.750000
 20
108.333328
 11
-205.750000
 21
117.333328
  0
LINE
  8
0
 10
-221.000000
 20
111.333328
 11
-221.000000
 21
117.333328
  0
LINE
  8
0
 10
-206.500000
 20
111.333328
 11
-206.500000
 21
117.333328
  0
LINE
  8
0
 10
-220.749985
 20
138.333313
 11
-221.749985
 21
137.333328
  0
LINE
  8
0
 10
-205.750000
 20
137.333328
 11
-206.750000
 21
138.333328
  0
LINE
  8
0
 10
-221.750000
 20
137.333328
 11
-205.750000
 21
137.333328
  0
LINE
  8
0
 10
-221.750000
 20
111.333328
 11
-205.750000
 21
111.333328
  0
LINE
  8
0
 10
-224.250000
 20
129.333328
 11
-203.250000
 21
129.333328
  0
LINE
  8
0
 10
-224.250000
 20
123.333328
 11
-203.250000
 21
123.333328
  0
LINE
  8
0
 10
-201.699997
 20
124.228226
 11
-201.699997
 21
128.438431
  0
LINE
  8
0
 10
-225.800003
 20
124.228226
 11
-225.800003
 21
128.438431
  0
LINE
  8
0
 10
-221.750000
 20
129.333328
 11
-221.750000
 21
137.333344
  0
LINE
  8
0
 10
-221.000000
 20
129.333328
 11
-221.000000
 21
138.083344
  0
LINE
  8
0
 10
-206.500000
 20
129.333328
 11
-206.500000
 21
138.083328
  0
LINE
  8
0
 10
-205.750000
 20
129.333328
 11
-205.750000
 21
137.333328
  0
LINE
  8
0
 10
-219.812180
 20
124.228226
 11
-219.812180
 21
128.438431
  0
LINE
  8
0
 10
-207.687820
 20
124.228218
 11
-207.687820
 21
128.438446
  0
LINE
  8
0
 10
-224.250015
 20
123.333328
 11
-225.800003
 21
124.228218
  0
LINE
  8
0
 10
-203.250000
 20
123.333344
 11
-201.700012
 21
124.228233
  0
LINE
  8
0
 10
-203.250000
 20
129.333328
 11
-201.699997
 21
128.438431
  0
LINE
  8
0
 10
-224.249985
 20
129.333328
 11
-225.799988
 21
128.438431
  0
LINE
  8
0
 10
-224.250000
 20
123.333328
 11
-203.250000
 21
123.333328
  0
LINE
  8
0
 10
-224.250000
 20
117.333328
 11
-203.250000
 21
117.333328
  0
LINE
  8
0
 10
-201.699997
 20
118.228226
 11
-201.699997
 21
122.438431
  0
LINE
  8
0
 10
-225.800003
 20
118.228226
 11
-225.800003
 21
122.438431
  0
LINE
  8
0
 10
-203.250000
 20
117.333336
 11
-201.699997
 21
118.228226
  0
LINE
  8
0
 10
-203.250015
 20
123.333328
 11
-201.700012
 21
122.438438
  0
LINE
  8
0
 10
-224.250000
 20
123.333313
 11
-225.799988
 21
122.438423
  0
LINE
  8
0
 10
-219.812180
 20
118.228226
 11
-219.812180
 21
122.438431
  0
LINE
  8
0
 10
-207.687820
 20
118.228218
 11
-207.687820
 21
122.438438
  0
LINE
  8
0
 10
-224.250015
 20
117.333328
 11
-225.800003
 21
118.228218
  0
LINE
  8
0
 10
-228.150009
 20
98.333328
 11
-194.416672
 21
98.333328
  0
LINE
  8
0
 10
-217.883987
 20
139.633331
 11
-209.616028
 21
139.633331
  0
LINE
  8
0
 10
-218.750000
 20
139.133331
 11
-208.750000
 21
139.133331
  0
LINE
  8
0
 10
-208.750000
 20
139.133347
 11
-209.616028
 21
139.633347
  0
LINE
  8
0
 10
-218.750015
 20
139.133362
 11
-217.884003
 21
139.633362
  0
LINE
  8
0
 10
-218.722061
 20
138.333328
 11
-218.750000
 21
139.133331
  0
LINE
  8
0
 10
-208.777939
 20
138.333328
 11
-208.750000
 21
139.133331
  0
LINE
  8
0
 10
-213.750000
 20
63.333328
 11
-213.750000
 21
144.633331
  0
LINE
  8
0
 10
-224.750000
 20
88.333328
 11
-224.750000
 21
108.333328
  0
LINE
  8
0
 10
-202.750000
 20
88.333328
 11
-202.750000
 21
108.333328
  0
LINE
  8
0
  6
DASHED
 10
-209.035126
 20
130.168686
 11
-208.750000
 21
138.333344
  0
LINE
  8
0
  6
DASHED
 10
-209.784668
 20
130.194855
 11
-209.500473
 21
138.333328
  0
LINE
  8
0
  6
DASHED
 10
-218.464890
 20
130.168686
 11
-218.750015
 21
138.333328
  0
LINE
  8
0
  6
DASHED
 10
-217.715363
 20
130.194855
 11
-217.999557
 21
138.333328
  0
LINE
  8
0
 10
-213.750000
 20
88.333328
 11
-213.750000
 21
108.333328
  0
LINE
  8
0
  6
DASHED
 10
-210.888474
 20
94.367981
 11
-202.750000
 21
94.083786
  0
LINE
  8
0
  6
DASHED
 10
-210.914658
 20
93.618446
 11
-202.750000
 21
93.333328
  0
LINE
  8
0
  6
DASHED
 10
-210.888474
 20
102.298660
 11
-202.750000
 21
102.582863
  0
LINE
  8
0
  6
DASHED
 10
-210.914642
 20
103.048210
 11
-202.750000
 21
103.333328
  0
LINE
  8
0
 10
-205.750000
 20
110.034279
 11
-206.500000
 21
111.333321
  0
LINE
  8
0
 10
-221.750015
 20
110.034294
 11
-221.000000
 21
111.333336
  0
LINE
  8
0
 10
-189.550003
 20
87.333328
 11
-237.949997
 21
87.333328
  0
ARC
  8
0
 10
-185.770096
 20
72.899017
 40
1.000001
 50
135.000000
 51
225.000000
  0
ARC
  8
0
 10
-241.729904
 20
72.899017
 40
1.000001
 50
315.000000
 51
45.000000
  0
ARC
  8
0
 10
-244.250000
 20
83.833328
 40
1.500000
 50
90.000000
 51
180.000000
  0
ARC
  8
0
 10
-183.250000
 20
83.833328
 40
1.500000
 50
0.000000
 51
90.000000
  0
ARC
  8
0
 10
-222.806091
 20
128.681107
 40
5.365797
 50
265.304230
 51
303.915009
  0
ARC
  8
0
 10
-204.693909
 20
128.681122
 40
5.365805
 50
236.085068
 51
274.695587
  0
ARC
  8
0
 10
-213.750000
 20
144.313934
 40
20.980606
 50
253.205414
 51
286.794586
  0
ARC
  8
0
 10
-213.750000
 20
108.352715
 40
20.980610
 50
73.205376
 51
106.794571
  0
ARC
  8
0
 10
-222.806091
 20
123.985550
 40
5.365798
 50
56.085026
 51
94.695770
  0
ARC
  8
0
 10
-204.693909
 20
123.985542
 40
5.365795
 50
85.304398
 51
123.915024
  0
ARC
  8
0
 10
-204.693909
 20
122.681114
 40
5.365798
 50
236.085022
 51
274.695587
  0
ARC
  8
0
 10
-213.750000
 20
138.313934
 40
20.980606
 50
253.205414
 51
286.794586
  0
ARC
  8
0
 10
-204.693909
 20
117.985542
 40
5.365795
 50
85.304398
 51
123.914978
  0
ARC
  8
0
 10
-213.750000
 20
102.352715
 40
20.980618
 50
73.205383
 51
106.794571
  0
ARC
  8
0
 10
-222.806091
 20
117.985550
 40
5.365792
 50
56.084980
 51
94.695763
  0
ARC
  8
0
 10
-222.806091
 20
122.681107
 40
5.365797
 50
265.304230
 51
303.915009
  0
ARC
  8
0
 10
-219.250000
 20
92.733330
 40
15.599998
 50
90.000000
 51
110.644226
  0
ARC
  8
0
 10
-208.250000
 20
92.733330
 40
15.599998
 50
90.000000
 51
110.644226
  0
ARC
  8
0
 10
-208.250000
 20
103.933327
 40
15.600001
 50
249.355774
 51
290.644165
  0
ARC
  8
0
 10
-219.250000
 20
103.933327
 40
15.600001
 50
249.355774
 51
290.644165
  0
ARC
  8
0
 10
-208.250000
 20
92.733330
 40
15.600001
 50
69.355774
 51
90.000000
  0
ARC
  8
0
 10
-219.250000
 20
92.733330
 40
15.600001
 50
69.355774
 51
90.000000
  0
POINT
  8
0
 10
-78.750000
 20
123.333328
  0
POINT
  8
0
 10
-66.699997
 20
123.333328
  0
LINE
  8
0
 10
-47.044304
 20
72.117676
 11
-38.175583
 21
65.907730
  0
LINE
  8
0
 10
-48.750000
 20
77.333328
 11
-48.750000
 21
75.394287
  0
LINE
  8
0
 10
-38.749989
 20
65.333313
 11
-38.175575
 21
65.907730
  0
LINE
  8
0
  6
DASHED
 10
-78.750000
 20
73.333328
 11
-54.450882
 21
73.333328
  0
LINE
  8
0
 10
-38.749989
 20
65.333328
 11
-118.750000
 21
65.333328
  0
LINE
  8
0
 10
-110.455696
 20
72.117676
 11
-119.324417
 21
65.907730
  0
LINE
  8
0
 10
-108.750000
 20
77.333328
 11
-108.750000
 21
75.394287
  0
LINE
  8
0
 10
-118.749977
 20
65.333359
 11
-119.324394
 21
65.907761
  0
LINE
  8
0
  6
DASHED
 10
-78.750000
 20
73.333328
 11
-103.049118
 21
73.333328
  0
LINE
  8
0
 10
-50.236664
 20
73.312027
 11
-107.076668
 21
73.312027
  0
LINE
  8
0
 10
-119.324417
 20
65.907738
 11
-38.175587
 21
65.907738
  0
LINE
  8
0
 10
-109.250000
 20
85.333328
 11
-78.750000
 21
85.333328
  0
LINE
  8
0
 10
-78.750000
 20
85.333328
 11
-48.250004
 21
85.333328
  0
LINE
  8
0
 10
-78.750000
 20
77.333328
 11
-46.750004
 21
77.333328
  0
LINE
  8
0
 10
-110.750000
 20
77.333328
 11
-78.750000
 21
77.333328
  0
LINE
  8
0
 10
-46.750000
 20
77.333328
 11
-46.750000
 21
83.833328
  0
LINE
  8
0
 10
-110.750000
 20
77.333328
 11
-110.750000
 21
83.833328
  0
LINE
  8
0
 10
-101.949997
 20
88.333328
 11
-78.750000
 21
88.333328
  0
LINE
  8
0
 10
-78.750000
 20
88.333328
 11
-55.550003
 21
88.333328
  0
LINE
  8
0
 10
-54.549999
 20
85.333328
 11
-54.549999
 21
87.333328
  0
LINE
  8
0
 10
-102.949997
 20
85.333328
 11
-102.949997
 21
87.333328
  0
LINE
  8
0
 10
-54.550003
 20
87.333313
 11
-55.550003
 21
88.333313
  0
LINE
  8
0
 10
-101.949997
 20
88.333328
 11
-102.949997
 21
87.333328
  0
LINE
  8
0
 10
-89.750000
 20
108.333328
 11
-67.750000
 21
108.333328
  0
LINE
  8
0
 10
-85.750000
 20
138.333328
 11
-71.750000
 21
138.333328
  0
LINE
  8
0
 10
-86.750000
 20
108.333328
 11
-86.750000
 21
117.333328
  0
LINE
  8
0
 10
-70.750000
 20
108.333328
 11
-70.750000
 21
117.333328
  0
LINE
  8
0
 10
-86.000000
 20
111.333328
 11
-86.000000
 21
117.333328
  0
LINE
  8
0
 10
-71.500000
 20
111.333328
 11
-71.500000
 21
117.333328
  0
LINE
  8
0
 10
-85.749992
 20
138.333313
 11
-86.749992
 21
137.333328
  0
LINE
  8
0
 10
-70.750008
 20
137.333328
 11
-71.750000
 21
138.333328
  0
LINE
  8
0
 10
-86.750000
 20
137.333328
 11
-70.750000
 21
137.333328
  0
LINE
  8
0
 10
-86.750000
 20
111.333328
 11
-70.750000
 21
111.333328
  0
LINE
  8
0
 10
-89.250000
 20
129.333328
 11
-68.250008
 21
129.333328
  0
LINE
  8
0
 10
-89.250000
 20
123.333328
 11
-68.250000
 21
123.333328
  0
LINE
  8
0
 10
-66.699997
 20
124.228226
 11
-66.699997
 21
128.438431
  0
LINE
  8
0
 10
-90.800003
 20
124.228226
 11
-90.800003
 21
128.438431
  0
LINE
  8
0
 10
-86.750000
 20
129.333328
 11
-86.750000
 21
137.333344
  0
LINE
  8
0
 10
-86.000000
 20
129.333328
 11
-86.000000
 21
138.083344
  0
LINE
  8
0
 10
-71.500000
 20
129.333328
 11
-71.500000
 21
138.083328
  0
LINE
  8
0
 10
-70.750000
 20
129.333328
 11
-70.750000
 21
137.333328
  0
LINE
  8
0
 10
-84.812180
 20
124.228226
 11
-84.812180
 21
128.438431
  0
LINE
  8
0
 10
-72.687820
 20
124.228218
 11
-72.687820
 21
128.438446
  0
LINE
  8
0
 10
-89.250008
 20
123.333328
 11
-90.800003
 21
124.228218
  0
LINE
  8
0
 10
-68.250008
 20
123.333344
 11
-66.700005
 21
124.228233
  0
LINE
  8
0
 10
-68.250000
 20
129.333328
 11
-66.700005
 21
128.438431
  0
LINE
  8
0
 10
-89.249985
 20
129.333328
 11
-90.799980
 21
128.438431
  0
LINE
  8
0
 10
-89.250000
 20
123.333328
 11
-68.250008
 21
123.333328
  0
LINE
  8
0
 10
-89.250000
 20
117.333328
 11
-68.250000
 21
117.333328
  0
LINE
  8
0
 10
-66.699997
 20
118.228226
 11
-66.699997
 21
122.438431
  0
LINE
  8
0
 10
-90.800003
 20
118.228226
 11
-90.800003
 21
122.438431
  0
LINE
  8
0
 10
-68.250000
 20
117.333336
 11
-66.700005
 21
118.228226
  0
LINE
  8
0
 10
-68.250008
 20
123.333328
 11
-66.700012
 21
122.438438
  0
LINE
  8
0
 10
-89.249992
 20
123.333313
 11
-90.799988
 21
122.438423
  0
LINE
  8
0
 10
-84.812180
 20
118.228226
 11
-84.812180
 21
122.438431
  0
LINE
  8
0
 10
-72.687820
 20
118.228218
 11
-72.687820
 21
122.438438
  0
LINE
  8
0
 10
-89.250008
 20
117.333328
 11
-90.800003
 21
118.228218
  0
LINE
  8
0
 10
-93.150009
 20
98.333328
 11
-59.416672
 21
98.333328
  0
LINE
  8
0
 10
-82.883987
 20
139.633331
 11
-74.616028
 21
139.633331
  0
LINE
  8
0
 10
-83.750000
 20
139.133331
 11
-73.750000
 21
139.133331
  0
LINE
  8
0
 10
-73.750000
 20
139.133347
 11
-74.616028
 21
139.633347
  0
LINE
  8
0
 10
-83.750015
 20
139.133362
 11
-82.883995
 21
139.633362
  0
LINE
  8
0
 10
-83.722069
 20
138.333328
 11
-83.750000
 21
139.133331
  0
LINE
  8
0
 10
-73.777939
 20
138.333328
 11
-73.750000
 21
139.133331
  0
LINE
  8
0
 10
-78.750000
 20
60.333324
 11
-78.750000
 21
144.633331
  0
LINE
  8
0
 10
-89.750000
 20
88.333328
 11
-89.750000
 21
108.333328
  0
LINE
  8
0
 10
-67.750000
 20
88.333328
 11
-67.750000
 21
108.333328
  0
LINE
  8
0
  6
DASHED
 10
-74.035126
 20
130.168686
 11
-73.750008
 21
138.333344
  0
LINE
  8
0
  6
DASHED
 10
-74.784668
 20
130.194855
 11
-74.500473
 21
138.333328
  0
LINE
  8
0
  6
DASHED
 10
-83.464897
 20
130.168686
 11
-83.750008
 21
138.333328
  0
LINE
  8
0
  6
DASHED
 10
-82.715355
 20
130.194855
 11
-82.999557
 21
138.333328
  0
LINE
  8
0
 10
-78.750000
 20
88.333328
 11
-78.750000
 21
108.333328
  0
LINE
  8
0
  6
DASHED
 10
-75.888474
 20
94.367981
 11
-67.750000
 21
94.083786
  0
LINE
  8
0
  6
DASHED
 10
-75.914650
 20
93.618446
 11
-67.750000
 21
93.333328
  0
LINE
  8
0
  6
DASHED
 10
-75.888474
 20
102.298660
 11
-67.750000
 21
102.582863
  0
LINE
  8
0
  6
DASHED
 10
-75.914642
 20
103.048210
 11
-67.750000
 21
103.333328
  0
LINE
  8
0
 10
-70.749992
 20
110.034279
 11
-71.499992
 21
111.333321
  0
LINE
  8
0
 10
-86.750008
 20
110.034294
 11
-86.000008
 21
111.333336
  0
LINE
  8
0
 10
-54.549999
 20
87.333328
 11
-102.949997
 21
87.333328
  0
ARC
  8
0
 10
-44.750000
 20
75.394287
 40
4.000000
 50
180.000000
 51
235.000000
  0
ARC
  8
0
 10
-112.750000
 20
75.394287
 40
4.000001
 50
304.999939
 51
0.000000
  0
ARC
  8
0
 10
-109.250000
 20
83.833328
 40
1.500000
 50
90.000000
 51
180.000000
  0
ARC
  8
0
 10
-48.250004
 20
83.833328
 40
1.500000
 50
0.000000
 51
90.000000
  0
ARC
  8
0
 10
-87.806091
 20
128.681107
 40
5.365796
 50
265.304321
 51
303.914948
  0
ARC
  8
0
 10
-69.693909
 20
128.681122
 40
5.365805
 50
236.085068
 51
274.695587
  0
ARC
  8
0
 10
-78.750000
 20
144.313934
 40
20.980608
 50
253.205399
 51
286.794586
  0
ARC
  8
0
 10
-78.750000
 20
108.352715
 40
20.980610
 50
73.205376
 51
106.794556
  0
ARC
  8
0
 10
-87.806091
 20
123.985550
 40
5.365798
 50
56.085026
 51
94.695770
  0
ARC
  8
0
 10
-69.693909
 20
123.985542
 40
5.365795
 50
85.304398
 51
123.915024
  0
ARC
  8
0
 10
-69.693909
 20
122.681114
 40
5.365798
 50
236.085022
 51
274.695587
  0
ARC
  8
0
 10
-78.750000
 20
138.313934
 40
20.980608
 50
253.205399
 51
286.794586
  0
ARC
  8
0
 10
-69.693909
 20
117.985542
 40
5.365795
 50
85.304398
 51
123.914978
  0
ARC
  8
0
 10
-78.750000
 20
102.352715
 40
20.980616
 50
73.205399
 51
106.794571
  0
ARC
  8
0
 10
-87.806091
 20
117.985550
 40
5.365792
 50
56.084980
 51
94.695763
  0
ARC
  8
0
 10
-87.806091
 20
122.681107
 40
5.365796
 50
265.304321
 51
303.914948
  0
ARC
  8
0
 10
-84.250000
 20
92.733330
 40
15.599998
 50
90.000000
 51
110.644226
  0
ARC
  8
0
 10
-73.250000
 20
92.733330
 40
15.599998
 50
90.000000
 51
110.644226
  0
ARC
  8
0
 10
-73.250000
 20
103.933327
 40
15.600001
 50
249.355774
 51
290.644165
  0
ARC
  8
0
 10
-84.250000
 20
103.933327
 40
15.600001
 50
249.355774
 51
290.644165
  0
ARC
  8
0
 10
-73.250000
 20
92.733330
 40
15.600001
 50
69.355774
 51
90.000000
  0
ARC
  8
0
 10
-84.250000
 20
92.733330
 40
15.600001
 50
69.355774
 51
90.000000
  0
POINT
  8
0
 10
66.250000
 20
123.333328
  0
POINT
  8
0
 10
78.300003
 20
123.333328
  0
LINE
  8
0
 10
113.750008
 20
62.333324
 11
114.472908
 21
63.056225
  0
LINE
  8
0
 10
98.071442
 20
73.707458
 11
114.472908
 21
63.056229
  0
LINE
  8
0
 10
96.250000
 20
77.333328
 11
96.250000
 21
77.062149
  0
LINE
  8
0
 10
113.750000
 20
62.333328
 11
18.750000
 21
62.333328
  0
LINE
  8
0
 10
18.749992
 20
62.333321
 11
18.027088
 21
63.056221
  0
LINE
  8
0
 10
34.428558
 20
73.707458
 11
18.027088
 21
63.056225
  0
LINE
  8
0
 10
36.250000
 20
77.333328
 11
36.250000
 21
77.062149
  0
LINE
  8
0
 10
37.066666
 20
74.890320
 11
95.466667
 21
74.890320
  0
LINE
  8
0
 10
114.472900
 20
63.056229
 11
18.027096
 21
63.056229
  0
LINE
  8
0
 10
35.749996
 20
85.333328
 11
66.250000
 21
85.333328
  0
LINE
  8
0
 10
66.250000
 20
85.333328
 11
96.750000
 21
85.333328
  0
LINE
  8
0
 10
66.250000
 20
77.333328
 11
98.250000
 21
77.333328
  0
LINE
  8
0
 10
34.249996
 20
77.333328
 11
66.250000
 21
77.333328
  0
LINE
  8
0
 10
98.250000
 20
77.333328
 11
98.250000
 21
83.833328
  0
LINE
  8
0
 10
34.249996
 20
77.333328
 11
34.249996
 21
83.833328
  0
LINE
  8
0
 10
43.049999
 20
88.333328
 11
66.250000
 21
88.333328
  0
LINE
  8
0
 10
66.250000
 20
88.333328
 11
89.449997
 21
88.333328
  0
LINE
  8
0
 10
90.449997
 20
85.333328
 11
90.449997
 21
87.333328
  0
LINE
  8
0
 10
42.049999
 20
85.333328
 11
42.049999
 21
87.333328
  0
LINE
  8
0
 10
90.449997
 20
87.333313
 11
89.449997
 21
88.333313
  0
LINE
  8
0
 10
43.050003
 20
88.333328
 11
42.050003
 21
87.333328
  0
LINE
  8
0
 10
55.249996
 20
108.333328
 11
77.250000
 21
108.333328
  0
LINE
  8
0
 10
59.249996
 20
138.333328
 11
73.250000
 21
138.333328
  0
LINE
  8
0
 10
58.250004
 20
108.333328
 11
58.250004
 21
117.333328
  0
LINE
  8
0
 10
74.250000
 20
108.333328
 11
74.250000
 21
117.333328
  0
LINE
  8
0
 10
59.000004
 20
111.333328
 11
59.000004
 21
117.333328
  0
LINE
  8
0
 10
73.500000
 20
111.333328
 11
73.500000
 21
117.333328
  0
LINE
  8
0
 10
59.250008
 20
138.333313
 11
58.250008
 21
137.333328
  0
LINE
  8
0
 10
74.249992
 20
137.333328
 11
73.250000
 21
138.333328
  0
LINE
  8
0
 10
58.249996
 20
137.333328
 11
74.250000
 21
137.333328
  0
LINE
  8
0
 10
58.249996
 20
111.333328
 11
74.250000
 21
111.333328
  0
LINE
  8
0
 10
55.749996
 20
129.333328
 11
76.749992
 21
129.333328
  0
LINE
  8
0
 10
55.749996
 20
123.333328
 11
76.750000
 21
123.333328
  0
LINE
  8
0
 10
78.300003
 20
124.228226
 11
78.300003
 21
128.438431
  0
LINE
  8
0
 10
54.200001
 20
124.228226
 11
54.200001
 21
128.438431
  0
LINE
  8
0
 10
58.250004
 20
129.333328
 11
58.250004
 21
137.333344
  0
LINE
  8
0
 10
59.000004
 20
129.333328
 11
59.000004
 21
138.083344
  0
LINE
  8
0
 10
73.500000
 20
129.333328
 11
73.500000
 21
138.083328
  0
LINE
  8
0
 10
74.250000
 20
129.333328
 11
74.250000
 21
137.333328
  0
LINE
  8
0
 10
60.187824
 20
124.228226
 11
60.187824
 21
128.438431
  0
LINE
  8
0
 10
72.312180
 20
124.228218
 11
72.312180
 21
128.438446
  0
LINE
  8
0
 10
55.749989
 20
123.333328
 11
54.199997
 21
124.228218
  0
LINE
  8
0
 10
76.749992
 20
123.333344
 11
78.299995
 21
124.228233
  0
LINE
  8
0
 10
76.750000
 20
129.333328
 11
78.299995
 21
128.438431
  0
LINE
  8
0
 10
55.750015
 20
129.333328
 11
54.200020
 21
128.438431
  0
LINE
  8
0
 10
55.749996
 20
123.333328
 11
76.749992
 21
123.333328
  0
LINE
  8
0
 10
55.749996
 20
117.333328
 11
76.750000
 21
117.333328
  0
LINE
  8
0
 10
78.300003
 20
118.228226
 11
78.300003
 21
122.438431
  0
LINE
  8
0
 10
54.200001
 20
118.228226
 11
54.200001
 21
122.438431
  0
LINE
  8
0
 10
76.750000
 20
117.333336
 11
78.299995
 21
118.228226
  0
LINE
  8
0
 10
76.749992
 20
123.333328
 11
78.299988
 21
122.438438
  0
LINE
  8
0
 10
55.750008
 20
123.333313
 11
54.200012
 21
122.438423
  0
LINE
  8
0
 10
60.187824
 20
118.228226
 11
60.187824
 21
122.438431
  0
LINE
  8
0
 10
72.312180
 20
118.228218
 11
72.312180
 21
122.438438
  0
LINE
  8
0
 10
55.749992
 20
117.333328
 11
54.199997
 21
118.228218
  0
LINE
  8
0
 10
51.849995
 20
98.333328
 11
85.583328
 21
98.333328
  0
LINE
  8
0
 10
62.116016
 20
139.633331
 11
70.383972
 21
139.633331
  0
LINE
  8
0
 10
61.249996
 20
139.133331
 11
71.250000
 21
139.133331
  0
LINE
  8
0
 10
71.250000
 20
139.133347
 11
70.383972
 21
139.633347
  0
LINE
  8
0
 10
61.249985
 20
139.133362
 11
62.116005
 21
139.633362
  0
LINE
  8
0
 10
61.277935
 20
138.333328
 11
61.249996
 21
139.133331
  0
LINE
  8
0
 10
71.222061
 20
138.333328
 11
71.250000
 21
139.133331
  0
LINE
  8
0
 10
66.250000
 20
57.333328
 11
66.250000
 21
144.633331
  0
LINE
  8
0
 10
55.250004
 20
88.333328
 11
55.250004
 21
108.333328
  0
LINE
  8
0
 10
77.250000
 20
88.333328
 11
77.250000
 21
108.333328
  0
LINE
  8
0
  6
DASHED
 10
70.964874
 20
130.168686
 11
71.249992
 21
138.333344
  0
LINE
  8
0
  6
DASHED
 10
70.215332
 20
130.194855
 11
70.499527
 21
138.333328
  0
LINE
  8
0
  6
DASHED
 10
61.535103
 20
130.168686
 11
61.249989
 21
138.333328
  0
LINE
  8
0
  6
DASHED
 10
62.284645
 20
130.194855
 11
62.000443
 21
138.333328
  0
LINE
  8
0
 10
66.250000
 20
88.333328
 11
66.250000
 21
108.333328
  0
LINE
  8
0
  6
DASHED
 10
69.111526
 20
94.367981
 11
77.250000
 21
94.083786
  0
LINE
  8
0
  6
DASHED
 10
69.085350
 20
93.618446
 11
77.250000
 21
93.333328
  0
LINE
  8
0
  6
DASHED
 10
69.111526
 20
102.298660
 11
77.250000
 21
102.582863
  0
LINE
  8
0
  6
DASHED
 10
69.085358
 20
103.048210
 11
77.250000
 21
103.333328
  0
LINE
  8
0
 10
74.250008
 20
110.034279
 11
73.500008
 21
111.333321
  0
LINE
  8
0
 10
58.249992
 20
110.034294
 11
58.999992
 21
111.333336
  0
LINE
  8
0
 10
90.449997
 20
87.333328
 11
42.049999
 21
87.333328
  0
ARC
  8
0
 10
100.250000
 20
77.062149
 40
4.000000
 50
180.000000
 51
237.000031
  0
ARC
  8
0
 10
32.250000
 20
77.062149
 40
4.000008
 50
302.999969
 51
0.000000
  0
ARC
  8
0
 10
35.749996
 20
83.833328
 40
1.500000
 50
90.000000
 51
180.000000
  0
ARC
  8
0
 10
96.750000
 20
83.833328
 40
1.500000
 50
0.000000
 51
90.000000
  0
ARC
  8
0
 10
57.193905
 20
128.681107
 40
5.365796
 50
265.304352
 51
303.914978
  0
ARC
  8
0
 10
75.306091
 20
128.681122
 40
5.365805
 50
236.085068
 51
274.695587
  0
ARC
  8
0
 10
66.250000
 20
144.313934
 40
20.980608
 50
253.205399
 51
286.794586
  0
ARC
  8
0
 10
66.250000
 20
108.352715
 40
20.980610
 50
73.205376
 51
106.794556
  0
ARC
  8
0
 10
57.193905
 20
123.985550
 40
5.365798
 50
56.085026
 51
94.695686
  0
ARC
  8
0
 10
75.306091
 20
123.985542
 40
5.365795
 50
85.304398
 51
123.915024
  0
ARC
  8
0
 10
75.306091
 20
122.681114
 40
5.365798
 50
236.085022
 51
274.695587
  0
ARC
  8
0
 10
66.250000
 20
138.313934
 40
20.980608
 50
253.205399
 51
286.794586
  0
ARC
  8
0
 10
75.306091
 20
117.985542
 40
5.365795
 50
85.304398
 51
123.914978
  0
ARC
  8
0
 10
66.250000
 20
102.352715
 40
20.980616
 50
73.205399
 51
106.794563
  0
ARC
  8
0
 10
57.193905
 20
117.985550
 40
5.365792
 50
56.084980
 51
94.695686
  0
ARC
  8
0
 10
57.193905
 20
122.681107
 40
5.365796
 50
265.304352
 51
303.914978
  0
ARC
  8
0
 10
60.749996
 20
92.733330
 40
15.599998
 50
90.000000
 51
110.644226
  0
ARC
  8
0
 10
71.750000
 20
92.733330
 40
15.599998
 50
90.000000
 51
110.644226
  0
ARC
  8
0
 10
71.750000
 20
103.933327
 40
15.600001
 50
249.355774
 51
290.644165
  0
ARC
  8
0
 10
60.749996
 20
103.933327
 40
15.599999
 50
249.355804
 51
290.644196
  0
ARC
  8
0
 10
71.750000
 20
92.733330
 40
15.600001
 50
69.355774
 51
90.000000
  0
ARC
  8
0
 10
60.749996
 20
92.733330
 40
15.600003
 50
69.355759
 51
90.000000
  0
POINT
  8
0
 10
211.250000
 20
123.333328
  0
POINT
  8
0
 10
223.300003
 20
123.333328
  0
LINE
  8
0
 10
261.250000
 20
61.333328
 11
261.972900
 21
62.056229
  0
LINE
  8
0
 10
243.071442
 20
74.330986
 11
261.972900
 21
62.056232
  0
LINE
  8
0
 10
261.250000
 20
61.333328
 11
161.250000
 21
61.333328
  0
LINE
  8
0
 10
161.249985
 20
61.333332
 11
160.527084
 21
62.056232
  0
LINE
  8
0
 10
179.428543
 20
74.330978
 11
160.527100
 21
62.056232
  0
LINE
  8
0
 10
182.287659
 20
75.333328
 11
240.214401
 21
75.333328
  0
LINE
  8
0
 10
261.972900
 20
62.056236
 11
160.527100
 21
62.056236
  0
LINE
  8
0
 10
180.750000
 20
85.333328
 11
211.250000
 21
85.333328
  0
LINE
  8
0
 10
211.250000
 20
85.333328
 11
241.750000
 21
85.333328
  0
LINE
  8
0
 10
211.250000
 20
77.333328
 11
243.250000
 21
77.333328
  0
LINE
  8
0
 10
179.250000
 20
77.333328
 11
211.250000
 21
77.333328
  0
LINE
  8
0
 10
243.250000
 20
77.333328
 11
243.250000
 21
83.833328
  0
LINE
  8
0
 10
179.250000
 20
77.333328
 11
179.250000
 21
83.833328
  0
LINE
  8
0
 10
188.050003
 20
88.333328
 11
211.250000
 21
88.333328
  0
LINE
  8
0
 10
211.250000
 20
88.333328
 11
234.449997
 21
88.333328
  0
LINE
  8
0
 10
235.449997
 20
85.333328
 11
235.449997
 21
87.333328
  0
LINE
  8
0
 10
187.050003
 20
85.333328
 11
187.050003
 21
87.333328
  0
LINE
  8
0
 10
235.449997
 20
87.333313
 11
234.449997
 21
88.333313
  0
LINE
  8
0
 10
188.050003
 20
88.333328
 11
187.050003
 21
87.333328
  0
LINE
  8
0
 10
200.250000
 20
108.333328
 11
222.250000
 21
108.333328
  0
LINE
  8
0
 10
204.250000
 20
138.333328
 11
218.250000
 21
138.333328
  0
LINE
  8
0
 10
203.250000
 20
108.333328
 11
203.250000
 21
117.333328
  0
LINE
  8
0
 10
219.250000
 20
108.333328
 11
219.250000
 21
117.333328
  0
LINE
  8
0
 10
204.000000
 20
111.333328
 11
204.000000
 21
117.333328
  0
LINE
  8
0
 10
218.500000
 20
111.333328
 11
218.500000
 21
117.333328
  0
LINE
  8
0
 10
204.250015
 20
138.333313
 11
203.250015
 21
137.333328
  0
LINE
  8
0
 10
219.250000
 20
137.333328
 11
218.250000
 21
138.333328
  0
LINE
  8
0
 10
203.250000
 20
137.333328
 11
219.250000
 21
137.333328
  0
LINE
  8
0
 10
203.250000
 20
111.333328
 11
219.250000
 21
111.333328
  0
LINE
  8
0
 10
200.750000
 20
129.333328
 11
221.750000
 21
129.333328
  0
LINE
  8
0
 10
200.750000
 20
123.333328
 11
221.750000
 21
123.333328
  0
LINE
  8
0
 10
223.300003
 20
124.228226
 11
223.300003
 21
128.438431
  0
LINE
  8
0
 10
199.199997
 20
124.228226
 11
199.199997
 21
128.438431
  0
LINE
  8
0
 10
203.250000
 20
129.333328
 11
203.250000
 21
137.333344
  0
LINE
  8
0
 10
204.000000
 20
129.333328
 11
204.000000
 21
138.083344
  0
LINE
  8
0
 10
218.500000
 20
129.333328
 11
218.500000
 21
138.083328
  0
LINE
  8
0
 10
219.250000
 20
129.333328
 11
219.250000
 21
137.333328
  0
LINE
  8
0
 10
205.187820
 20
124.228226
 11
205.187820
 21
128.438431
  0
LINE
  8
0
 10
217.312180
 20
124.228218
 11
217.312180
 21
128.438446
  0
LINE
  8
0
 10
200.749985
 20
123.333328
 11
199.199997
 21
124.228218
  0
LINE
  8
0
 10
221.750000
 20
123.333344
 11
223.299988
 21
124.228233
  0
LINE
  8
0
 10
221.750000
 20
129.333328
 11
223.300003
 21
128.438431
  0
LINE
  8
0
 10
200.750015
 20
129.333328
 11
199.200012
 21
128.438431
  0
LINE
  8
0
 10
200.750000
 20
123.333328
 11
221.750000
 21
123.333328
  0
LINE
  8
0
 10
200.750000
 20
117.333328
 11
221.750000
 21
117.333328
  0
LINE
  8
0
 10
223.300003
 20
118.228226
 11
223.300003
 21
122.438431
  0
LINE
  8
0
 10
199.199997
 20
118.228226
 11
199.199997
 21
122.438431
  0
LINE
  8
0
 10
221.750000
 20
117.333336
 11
223.300003
 21
118.228226
  0
LINE
  8
0
 10
221.749985
 20
123.333328
 11
223.299988
 21
122.438438
  0
LINE
  8
0
 10
200.750000
 20
123.333313
 11
199.200012
 21
122.438423
  0
LINE
  8
0
 10
205.187820
 20
118.228226
 11
205.187820
 21
122.438431
  0
LINE
  8
0
 10
217.312180
 20
118.228218
 11
217.312180
 21
122.438438
  0
LINE
  8
0
 10
200.749985
 20
117.333328
 11
199.199997
 21
118.228218
  0
LINE
  8
0
 10
196.849991
 20
98.333328
 11
230.583328
 21
98.333328
  0
LINE
  8
0
 10
207.116013
 20
139.633331
 11
215.383972
 21
139.633331
  0
LINE
  8
0
 10
206.250000
 20
139.133331
 11
216.250000
 21
139.133331
  0
LINE
  8
0
 10
216.250000
 20
139.133347
 11
215.383972
 21
139.633347
  0
LINE
  8
0
 10
206.249985
 20
139.133362
 11
207.115997
 21
139.633362
  0
LINE
  8
0
 10
206.277939
 20
138.333328
 11
206.250000
 21
139.133331
  0
LINE
  8
0
 10
216.222061
 20
138.333328
 11
216.250000
 21
139.133331
  0
LINE
  8
0
 10
211.250000
 20
56.333328
 11
211.250000
 21
144.633331
  0
LINE
  8
0
 10
200.250000
 20
88.333328
 11
200.250000
 21
108.333328
  0
LINE
  8
0
 10
222.250000
 20
88.333328
 11
222.250000
 21
108.333328
  0
LINE
  8
0
  6
DASHED
 10
215.964874
 20
130.168686
 11
216.250000
 21
138.333344
  0
LINE
  8
0
  6
DASHED
 10
215.215332
 20
130.194855
 11
215.499527
 21
138.333328
  0
LINE
  8
0
  6
DASHED
 10
206.535110
 20
130.168686
 11
206.249985
 21
138.333328
  0
LINE
  8
0
  6
DASHED
 10
207.284637
 20
130.194855
 11
207.000443
 21
138.333328
  0
LINE
  8
0
 10
211.250000
 20
88.333328
 11
211.250000
 21
108.333328
  0
LINE
  8
0
  6
DASHED
 10
214.111526
 20
94.367981
 11
222.250000
 21
94.083786
  0
LINE
  8
0
  6
DASHED
 10
214.085342
 20
93.618446
 11
222.250000
 21
93.333328
  0
LINE
  8
0
  6
DASHED
 10
214.111526
 20
102.298660
 11
222.250000
 21
102.582863
  0
LINE
  8
0
  6
DASHED
 10
214.085358
 20
103.048210
 11
222.250000
 21
103.333328
  0
LINE
  8
0
 10
219.250000
 20
110.034279
 11
218.500000
 21
111.333321
  0
LINE
  8
0
 10
203.249985
 20
110.034294
 11
204.000000
 21
111.333336
  0
LINE
  8
0
 10
235.449997
 20
87.333328
 11
187.050003
 21
87.333328
  0
ARC
  8
0
 10
245.250000
 20
77.685669
 40
4.000000
 50
185.053452
 51
237.000031
  0
ARC
  8
0
 10
177.250000
 20
77.685669
 40
4.000008
 50
302.999969
 51
354.946533
  0
ARC
  8
0
 10
180.750000
 20
83.833328
 40
1.500000
 50
90.000000
 51
180.000000
  0
ARC
  8
0
 10
241.750000
 20
83.833328
 40
1.500000
 50
0.000000
 51
90.000000
  0
ARC
  8
0
 10
202.193909
 20
128.681107
 40
5.365797
 50
265.304230
 51
303.915009
  0
ARC
  8
0
 10
220.306091
 20
128.681122
 40
5.365805
 50
236.085068
 51
274.695587
  0
ARC
  8
0
 10
211.250000
 20
144.313934
 40
20.980606
 50
253.205414
 51
286.794586
  0
ARC
  8
0
 10
211.250000
 20
108.352715
 40
20.980610
 50
73.205376
 51
106.794571
  0
ARC
  8
0
 10
202.193909
 20
123.985550
 40
5.365798
 50
56.085026
 51
94.695770
  0
ARC
  8
0
 10
220.306091
 20
123.985542
 40
5.365795
 50
85.304398
 51
123.915024
  0
ARC
  8
0
 10
220.306091
 20
122.681114
 40
5.365798
 50
236.085022
 51
274.695587
  0
ARC
  8
0
 10
211.250000
 20
138.313934
 40
20.980606
 50
253.205414
 51
286.794586
  0
ARC
  8
0
 10
220.306091
 20
117.985542
 40
5.365795
 50
85.304398
 51
123.914978
  0
ARC
  8
0
 10
211.250000
 20
102.352715
 40
20.980618
 50
73.205383
 51
106.794571
  0
ARC
  8
0
 10
202.193909
 20
117.985550
 40
5.365792
 50
56.084980
 51
94.695763
  0
ARC
  8
0
 10
202.193909
 20
122.681107
 40
5.365797
 50
265.304230
 51
303.915009
  0
ARC
  8
0
 10
205.750000
 20
92.733330
 40
15.599998
 50
90.000000
 51
110.644226
  0
ARC
  8
0
 10
216.750000
 20
92.733330
 40
15.599998
 50
90.000000
 51
110.644226
  0
ARC
  8
0
 10
216.750000
 20
103.933327
 40
15.600001
 50
249.355774
 51
290.644165
  0
ARC
  8
0
 10
205.750000
 20
103.933327
 40
15.600001
 50
249.355774
 51
290.644165
  0
ARC
  8
0
 10
216.750000
 20
92.733330
 40
15.600001
 50
69.355774
 51
90.000000
  0
ARC
  8
0
 10
205.750000
 20
92.733330
 40
15.600001
 50
69.355774
 51
90.000000
  0
POINT
  8
0
 10
-201.250000
 20
-56.666672
  0
POINT
  8
0
 10
-189.199997
 20
-56.666672
  0
LINE
  8
0
 10
-176.250000
 20
-91.666672
 11
-176.250000
 21
-92.666672
  0
LINE
  8
0
 10
-141.249985
 20
-115.666687
 11
-140.181366
 21
-114.598053
  0
LINE
  8
0
 10
-149.712646
 20
-107.151398
 11
-140.181366
 21
-114.598045
  0
LINE
  8
0
 10
-151.250000
 20
-96.666672
 11
-151.250000
 21
-103.999359
  0
LINE
  8
0
 10
-155.250000
 20
-92.666672
 11
-247.250000
 21
-92.666672
  0
LINE
  8
0
 10
-141.249985
 20
-115.666672
 11
-261.250000
 21
-115.666672
  0
LINE
  8
0
 10
-176.250000
 20
-91.666672
 11
-226.250000
 21
-91.666672
  0
LINE
  8
0
 10
-226.250000
 20
-91.666672
 11
-226.250000
 21
-92.666672
  0
LINE
  8
0
 10
-261.250000
 20
-115.666672
 11
-262.318634
 21
-114.598053
  0
LINE
  8
0
 10
-252.787354
 20
-107.151398
 11
-262.318634
 21
-114.598045
  0
LINE
  8
0
 10
-251.250000
 20
-96.666672
 11
-251.250000
 21
-103.999359
  0
LINE
  8
0
 10
-250.081772
 20
-105.950287
 11
-152.410217
 21
-105.950287
  0
LINE
  8
0
 10
-140.181366
 20
-114.598045
 11
-262.318634
 21
-114.598045
  0
LINE
  8
0
 10
-212.250000
 20
-71.666672
 11
-190.250000
 21
-71.666672
  0
LINE
  8
0
 10
-208.250000
 20
-41.666672
 11
-194.250000
 21
-41.666672
  0
LINE
  8
0
 10
-209.250000
 20
-71.666672
 11
-209.250000
 21
-62.666672
  0
LINE
  8
0
 10
-193.250000
 20
-71.666672
 11
-193.250000
 21
-62.666672
  0
LINE
  8
0
 10
-208.500000
 20
-68.666672
 11
-208.500000
 21
-62.666672
  0
LINE
  8
0
 10
-194.000000
 20
-68.666672
 11
-194.000000
 21
-62.666672
  0
LINE
  8
0
 10
-208.249985
 20
-41.666679
 11
-209.249985
 21
-42.666668
  0
LINE
  8
0
 10
-193.250015
 20
-42.666679
 11
-194.250015
 21
-41.666683
  0
LINE
  8
0
 10
-209.250000
 20
-42.666672
 11
-193.250000
 21
-42.666672
  0
LINE
  8
0
 10
-209.250000
 20
-68.666672
 11
-193.250000
 21
-68.666672
  0
LINE
  8
0
 10
-211.750000
 20
-50.666672
 11
-190.750000
 21
-50.666672
  0
LINE
  8
0
 10
-211.750000
 20
-56.666672
 11
-190.750000
 21
-56.666672
  0
LINE
  8
0
 10
-189.199997
 20
-55.771774
 11
-189.199997
 21
-51.561569
  0
LINE
  8
0
 10
-213.300003
 20
-55.771774
 11
-213.300003
 21
-51.561569
  0
LINE
  8
0
 10
-209.250000
 20
-50.666672
 11
-209.250000
 21
-42.666664
  0
LINE
  8
0
 10
-208.500000
 20
-50.666672
 11
-208.500000
 21
-41.916664
  0
LINE
  8
0
 10
-194.000000
 20
-50.666672
 11
-194.000000
 21
-41.916672
  0
LINE
  8
0
 10
-193.250000
 20
-50.666672
 11
-193.250000
 21
-42.666672
  0
LINE
  8
0
 10
-207.312180
 20
-55.771774
 11
-207.312180
 21
-51.561569
  0
LINE
  8
0
 10
-195.187820
 20
-55.771782
 11
-195.187820
 21
-51.561562
  0
LINE
  8
0
 10
-211.750000
 20
-56.666660
 11
-213.299988
 21
-55.771770
  0
LINE
  8
0
 10
-190.750015
 20
-56.666656
 11
-189.200012
 21
-55.771763
  0
LINE
  8
0
 10
-190.750000
 20
-50.666664
 11
-189.199997
 21
-51.561554
  0
LINE
  8
0
 10
-211.749969
 20
-50.666710
 11
-213.299973
 21
-51.561604
  0
LINE
  8
0
 10
-211.750000
 20
-56.666672
 11
-190.750000
 21
-56.666672
  0
LINE
  8
0
 10
-211.750000
 20
-62.666672
 11
-190.750000
 21
-62.666672
  0
LINE
  8
0
 10
-189.199997
 20
-61.771774
 11
-189.199997
 21
-57.561569
  0
LINE
  8
0
 10
-213.300003
 20
-61.771774
 11
-213.300003
 21
-57.561569
  0
LINE
  8
0
 10
-190.750015
 20
-62.666668
 11
-189.200012
 21
-61.771774
  0
LINE
  8
0
 10
-190.749985
 20
-56.666664
 11
-189.199982
 21
-57.561558
  0
LINE
  8
0
 10
-211.749969
 20
-56.666714
 11
-213.299957
 21
-57.561607
  0
LINE
  8
0
 10
-207.312180
 20
-61.771774
 11
-207.312180
 21
-57.561569
  0
LINE
  8
0
 10
-195.187820
 20
-61.771782
 11
-195.187820
 21
-57.561562
  0
LINE
  8
0
 10
-211.750000
 20
-62.666649
 11
-213.300003
 21
-61.771759
  0
LINE
  8
0
 10
-215.650009
 20
-81.666672
 11
-182.383331
 21
-81.666672
  0
LINE
  8
0
 10
-205.383987
 20
-40.366669
 11
-197.116028
 21
-40.366669
  0
LINE
  8
0
 10
-206.250000
 20
-40.866669
 11
-196.250000
 21
-40.866669
  0
LINE
  8
0
 10
-196.250000
 20
-40.866653
 11
-197.116028
 21
-40.366653
  0
LINE
  8
0
 10
-206.250015
 20
-40.866631
 11
-205.384003
 21
-40.366634
  0
LINE
  8
0
 10
-206.222061
 20
-41.666676
 11
-206.250000
 21
-40.866665
  0
LINE
  8
0
 10
-196.277939
 20
-41.666672
 11
-196.250000
 21
-40.866665
  0
LINE
  8
0
 10
-201.250000
 20
-120.666672
 11
-201.250000
 21
-35.366669
  0
LINE
  8
0
 10
-212.250000
 20
-91.666672
 11
-212.250000
 21
-71.666672
  0
LINE
  8
0
 10
-190.250000
 20
-91.666672
 11
-190.250000
 21
-71.666672
  0
LINE
  8
0
  6
DASHED
 10
-196.535126
 20
-49.831326
 11
-196.250000
 21
-41.666676
  0
LINE
  8
0
  6
DASHED
 10
-197.284683
 20
-49.805141
 11
-197.000473
 21
-41.666664
  0
LINE
  8
0
  6
DASHED
 10
-205.964905
 20
-49.831314
 11
-206.250015
 21
-41.666664
  0
LINE
  8
0
  6
DASHED
 10
-205.215347
 20
-49.805141
 11
-205.499557
 21
-41.666664
  0
LINE
  8
0
 10
-201.250000
 20
-91.666672
 11
-201.250000
 21
-71.666672
  0
LINE
  8
0
  6
DASHED
 10
-198.414658
 20
-76.951782
 11
-190.250015
 21
-76.666672
  0
LINE
  8
0
  6
DASHED
 10
-198.388489
 20
-77.701324
 11
-190.250015
 21
-77.417122
  0
LINE
  8
0
  6
DASHED
 10
-198.388474
 20
-85.631996
 11
-190.250000
 21
-85.916199
  0
LINE
  8
0
  6
DASHED
 10
-198.414658
 20
-86.381554
 11
-190.250000
 21
-86.666672
  0
LINE
  8
0
 10
-209.250015
 20
-69.965714
 11
-208.500015
 21
-68.666672
  0
LINE
  8
0
 10
-193.250000
 20
-69.965706
 11
-194.000000
 21
-68.666672
  0
ARC
  8
0
 10
-147.250000
 20
-103.999359
 40
4.000000
 50
180.000000
 51
231.999954
  0
ARC
  8
0
 10
-255.250000
 20
-103.999359
 40
3.999997
 50
308.000031
 51
0.000000
  0
ARC
  8
0
 10
-247.250000
 20
-96.666672
 40
4.000000
 50
90.000000
 51
180.000000
  0
ARC
  8
0
 10
-155.250000
 20
-96.666672
 40
4.000000
 50
0.000000
 51
90.000000
  0
ARC
  8
0
 10
-210.306091
 20
-51.318893
 40
5.365791
 50
265.304382
 51
303.915009
  0
ARC
  8
0
 10
-192.193909
 20
-51.318886
 40
5.365795
 50
236.085007
 51
274.695587
  0
ARC
  8
0
 10
-201.250000
 20
-35.686058
 40
20.980614
 50
253.205414
 51
286.794586
  0
ARC
  8
0
 10
-201.250000
 20
-71.647285
 40
20.980614
 50
73.205376
 51
106.794579
  0
ARC
  8
0
 10
-210.306091
 20
-56.014450
 40
5.365792
 50
56.084980
 51
94.695770
  0
ARC
  8
0
 10
-192.193909
 20
-56.014458
 40
5.365795
 50
85.304398
 51
123.914978
  0
ARC
  8
0
 10
-192.193909
 20
-57.318886
 40
5.365795
 50
236.085007
 51
274.695587
  0
ARC
  8
0
 10
-201.250000
 20
-41.686058
 40
20.980614
 50
253.205414
 51
286.794586
  0
ARC
  8
0
 10
-192.193909
 20
-62.014458
 40
5.365795
 50
85.304398
 51
123.914978
  0
ARC
  8
0
 10
-201.250000
 20
-77.647285
 40
20.980614
 50
73.205376
 51
106.794579
  0
ARC
  8
0
 10
-210.306091
 20
-62.014450
 40
5.365792
 50
56.084980
 51
94.695770
  0
ARC
  8
0
 10
-210.306091
 20
-57.318893
 40
5.365791
 50
265.304382
 51
303.915009
  0
ARC
  8
0
 10
-206.750000
 20
-87.266670
 40
15.599998
 50
90.000000
 51
110.644226
  0
ARC
  8
0
 10
-195.750000
 20
-87.266670
 40
15.599998
 50
90.000000
 51
110.644226
  0
ARC
  8
0
 10
-195.750000
 20
-76.066673
 40
15.600001
 50
249.355774
 51
290.644165
  0
ARC
  8
0
 10
-206.750000
 20
-76.066673
 40
15.600001
 50
249.355774
 51
290.644165
  0
ARC
  8
0
 10
-195.750000
 20
-87.266670
 40
15.600001
 50
69.355774
 51
90.000000
  0
ARC
  8
0
 10
-206.750000
 20
-87.266670
 40
15.600001
 50
69.355774
 51
90.000000
  0
POINT
  8
0
 10
-36.250000
 20
-56.666672
  0
POINT
  8
0
 10
-24.200001
 20
-56.666672
  0
LINE
  8
0
 10
-11.250000
 20
-91.666672
 11
-11.250000
 21
-92.666672
  0
LINE
  8
0
 10
13.750000
 20
-96.666672
 11
13.750000
 21
-100.705353
  0
LINE
  8
0
 10
9.750000
 20
-92.666672
 11
-82.250000
 21
-92.666672
  0
LINE
  8
0
 10
38.750000
 20
-118.666672
 11
-111.250000
 21
-118.666672
  0
LINE
  8
0
 10
-11.250000
 20
-91.666672
 11
-61.250000
 21
-91.666672
  0
LINE
  8
0
 10
-61.250000
 20
-91.666672
 11
-61.250000
 21
-92.666672
  0
LINE
  8
0
 10
-86.250000
 20
-96.666672
 11
-86.250000
 21
-100.705353
  0
LINE
  8
0
 10
38.750008
 20
-118.666672
 11
40.228844
 21
-117.187843
  0
LINE
  8
0
 10
15.872112
 20
-104.237137
 11
40.228836
 21
-117.187836
  0
LINE
  8
0
 10
-111.250000
 20
-118.666656
 11
-112.728828
 21
-117.187820
  0
LINE
  8
0
 10
-88.372101
 20
-104.237137
 11
-112.728828
 21
-117.187836
  0
LINE
  8
0
 10
-112.728836
 20
-117.187836
 11
40.228836
 21
-117.187836
  0
LINE
  8
0
 10
-85.127502
 20
-103.108795
 11
12.090839
 21
-103.108795
  0
LINE
  8
0
 10
-47.250008
 20
-71.666672
 11
-25.250004
 21
-71.666672
  0
LINE
  8
0
 10
-43.250000
 20
-41.666672
 11
-29.249996
 21
-41.666672
  0
LINE
  8
0
 10
-44.250000
 20
-71.666672
 11
-44.250000
 21
-62.666672
  0
LINE
  8
0
 10
-28.250000
 20
-71.666672
 11
-28.250000
 21
-62.666672
  0
LINE
  8
0
 10
-43.500000
 20
-68.666672
 11
-43.500000
 21
-62.666672
  0
LINE
  8
0
 10
-29.000000
 20
-68.666672
 11
-29.000000
 21
-62.666672
  0
LINE
  8
0
 10
-43.249989
 20
-41.666679
 11
-44.249989
 21
-42.666668
  0
LINE
  8
0
 10
-28.250021
 20
-42.666679
 11
-29.250015
 21
-41.666683
  0
LINE
  8
0
 10
-44.250000
 20
-42.666672
 11
-28.250000
 21
-42.666672
  0
LINE
  8
0
 10
-44.250004
 20
-68.666672
 11
-28.250004
 21
-68.666672
  0
LINE
  8
0
 10
-46.750004
 20
-50.666672
 11
-25.750008
 21
-50.666672
  0
LINE
  8
0
 10
-46.750000
 20
-56.666672
 11
-25.750000
 21
-56.666672
  0
LINE
  8
0
 10
-24.200001
 20
-55.771774
 11
-24.200001
 21
-51.561569
  0
LINE
  8
0
 10
-48.299999
 20
-55.771774
 11
-48.299999
 21
-51.561569
  0
LINE
  8
0
 10
-44.250000
 20
-50.666672
 11
-44.250000
 21
-42.666664
  0
LINE
  8
0
 10
-43.500000
 20
-50.666672
 11
-43.500000
 21
-41.916664
  0
LINE
  8
0
 10
-29.000000
 20
-50.666672
 11
-29.000000
 21
-41.916672
  0
LINE
  8
0
 10
-28.250000
 20
-50.666672
 11
-28.250000
 21
-42.666672
  0
LINE
  8
0
 10
-42.312180
 20
-55.771774
 11
-42.312180
 21
-51.561569
  0
LINE
  8
0
 10
-30.187824
 20
-55.771782
 11
-30.187824
 21
-51.561562
  0
LINE
  8
0
 10
-46.749996
 20
-56.666660
 11
-48.299992
 21
-55.771770
  0
LINE
  8
0
 10
-25.750011
 20
-56.666656
 11
-24.200012
 21
-55.771763
  0
LINE
  8
0
 10
-25.749994
 20
-50.666664
 11
-24.200001
 21
-51.561554
  0
LINE
  8
0
 10
-46.749973
 20
-50.666710
 11
-48.299969
 21
-51.561604
  0
LINE
  8
0
 10
-46.750004
 20
-56.666672
 11
-25.750008
 21
-56.666672
  0
LINE
  8
0
 10
-46.750000
 20
-62.666672
 11
-25.750000
 21
-62.666672
  0
LINE
  8
0
 10
-24.200001
 20
-61.771774
 11
-24.200001
 21
-57.561569
  0
LINE
  8
0
 10
-48.299999
 20
-61.771774
 11
-48.299999
 21
-57.561569
  0
LINE
  8
0
 10
-25.750008
 20
-62.666668
 11
-24.200010
 21
-61.771774
  0
LINE
  8
0
 10
-25.749989
 20
-56.666664
 11
-24.199989
 21
-57.561558
  0
LINE
  8
0
 10
-46.749969
 20
-56.666714
 11
-48.299965
 21
-57.561607
  0
LINE
  8
0
 10
-42.312180
 20
-61.771774
 11
-42.312180
 21
-57.561569
  0
LINE
  8
0
 10
-30.187824
 20
-61.771782
 11
-30.187824
 21
-57.561562
  0
LINE
  8
0
 10
-46.750008
 20
-62.666649
 11
-48.299999
 21
-61.771759
  0
LINE
  8
0
 10
-50.650005
 20
-81.666672
 11
-17.383335
 21
-81.666672
  0
LINE
  8
0
 10
-40.383984
 20
-40.366669
 11
-32.116024
 21
-40.366669
  0
LINE
  8
0
 10
-41.250000
 20
-40.866669
 11
-31.250000
 21
-40.866669
  0
LINE
  8
0
 10
-31.250000
 20
-40.866653
 11
-32.116024
 21
-40.366653
  0
LINE
  8
0
 10
-41.250015
 20
-40.866631
 11
-40.383999
 21
-40.366634
  0
LINE
  8
0
 10
-41.222069
 20
-41.666676
 11
-41.250004
 21
-40.866665
  0
LINE
  8
0
 10
-31.277937
 20
-41.666672
 11
-31.250000
 21
-40.866665
  0
LINE
  8
0
 10
-36.250000
 20
-122.366669
 11
-36.250000
 21
-35.366669
  0
LINE
  8
0
 10
-47.250000
 20
-91.666672
 11
-47.250000
 21
-71.666672
  0
LINE
  8
0
 10
-25.250000
 20
-91.666672
 11
-25.250000
 21
-71.666672
  0
LINE
  8
0
  6
DASHED
 10
-31.535118
 20
-49.831326
 11
-31.250004
 21
-41.666676
  0
LINE
  8
0
  6
DASHED
 10
-32.284679
 20
-49.805141
 11
-32.000477
 21
-41.666664
  0
LINE
  8
0
  6
DASHED
 10
-40.964901
 20
-49.831314
 11
-41.250015
 21
-41.666664
  0
LINE
  8
0
  6
DASHED
 10
-40.215351
 20
-49.805141
 11
-40.499554
 21
-41.666664
  0
LINE
  8
0
 10
-36.250000
 20
-91.666672
 11
-36.250000
 21
-71.666672
  0
LINE
  8
0
  6
DASHED
 10
-33.414658
 20
-76.951782
 11
-25.250008
 21
-76.666672
  0
LINE
  8
0
  6
DASHED
 10
-33.388481
 20
-77.701324
 11
-25.250011
 21
-77.417122
  0
LINE
  8
0
  6
DASHED
 10
-33.388474
 20
-85.631996
 11
-25.250000
 21
-85.916199
  0
LINE
  8
0
  6
DASHED
 10
-33.414650
 20
-86.381554
 11
-25.250004
 21
-86.666672
  0
LINE
  8
0
 10
-44.250008
 20
-69.965714
 11
-43.500008
 21
-68.666672
  0
LINE
  8
0
 10
-28.250002
 20
-69.965706
 11
-29.000000
 21
-68.666672
  0
ARC
  8
0
 10
-82.250000
 20
-96.666672
 40
4.000000
 50
90.000000
 51
180.000000
  0
ARC
  8
0
 10
9.750000
 20
-96.666672
 40
4.000000
 50
0.000000
 51
90.000000
  0
ARC
  8
0
 10
17.750000
 20
-100.705353
 40
4.000000
 50
180.000000
 51
241.999939
  0
ARC
  8
0
 10
-90.250000
 20
-100.705353
 40
4.000000
 50
297.999969
 51
0.000000
  0
ARC
  8
0
 10
-45.306091
 20
-51.318893
 40
5.365792
 50
265.304352
 51
303.915009
  0
ARC
  8
0
 10
-27.193913
 20
-51.318886
 40
5.365795
 50
236.085007
 51
274.695648
  0
ARC
  8
0
 10
-36.250000
 20
-35.686058
 40
20.980616
 50
253.205399
 51
286.794586
  0
ARC
  8
0
 10
-36.250004
 20
-71.647285
 40
20.980614
 50
73.205376
 51
106.794556
  0
ARC
  8
0
 10
-45.306091
 20
-56.014450
 40
5.365792
 50
56.084980
 51
94.695686
  0
ARC
  8
0
 10
-27.193913
 20
-56.014458
 40
5.365796
 50
85.304337
 51
123.914940
  0
ARC
  8
0
 10
-27.193913
 20
-57.318886
 40
5.365795
 50
236.085007
 51
274.695648
  0
ARC
  8
0
 10
-36.250000
 20
-41.686058
 40
20.980616
 50
253.205399
 51
286.794586
  0
ARC
  8
0
 10
-27.193913
 20
-62.014458
 40
5.365796
 50
85.304337
 51
123.914940
  0
ARC
  8
0
 10
-36.250004
 20
-77.647285
 40
20.980614
 50
73.205376
 51
106.794556
  0
ARC
  8
0
 10
-45.306095
 20
-62.014450
 40
5.365792
 50
56.084980
 51
94.695686
  0
ARC
  8
0
 10
-45.306091
 20
-57.318893
 40
5.365792
 50
265.304352
 51
303.915009
  0
ARC
  8
0
 10
-41.750004
 20
-87.266670
 40
15.599998
 50
90.000000
 51
110.644226
  0
ARC
  8
0
 10
-30.750004
 20
-87.266670
 40
15.599998
 50
90.000000
 51
110.644226
  0
ARC
  8
0
 10
-30.750004
 20
-76.066673
 40
15.599999
 50
249.355804
 51
290.644196
  0
ARC
  8
0
 10
-41.750004
 20
-76.066673
 40
15.599999
 50
249.355804
 51
290.644196
  0
ARC
  8
0
 10
-30.750004
 20
-87.266670
 40
15.600001
 50
69.355774
 51
90.000000
  0
ARC
  8
0
 10
-41.750004
 20
-87.266670
 40
15.600001
 50
69.355774
 51
90.000000
  0
POINT
  8
0
 10
163.750000
 20
-56.666672
  0
POINT
  8
0
 10
175.800003
 20
-56.666672
  0
LINE
  8
0
 10
94.750000
 20
-92.666672
 11
232.750000
 21
-92.666672
  0
LINE
  8
0
 10
138.750000
 20
-91.666672
 11
188.750000
 21
-91.666672
  0
LINE
  8
0
 10
188.750000
 20
-91.666672
 11
188.750000
 21
-92.666672
  0
LINE
  8
0
 10
138.750000
 20
-91.666672
 11
138.750000
 21
-92.666672
  0
LINE
  8
0
 10
90.750000
 20
-96.666672
 11
90.750000
 21
-102.304718
  0
LINE
  8
0
 10
236.750000
 20
-96.666672
 11
236.750000
 21
-102.304710
  0
LINE
  8
0
 10
263.750000
 20
-123.666672
 11
63.750000
 21
-123.666672
  0
LINE
  8
0
 10
61.553818
 20
-121.470535
 11
63.749977
 21
-123.666695
  0
LINE
  8
0
 10
61.553833
 20
-121.470520
 11
88.749992
 21
-105.768814
  0
LINE
  8
0
 10
265.946167
 20
-121.470520
 11
238.750000
 21
-105.768814
  0
LINE
  8
0
 10
265.946198
 20
-121.470535
 11
263.750031
 21
-123.666695
  0
LINE
  8
0
 10
234.426514
 20
-104.614113
 11
92.886520
 21
-104.614113
  0
LINE
  8
0
 10
265.946167
 20
-121.470520
 11
61.553848
 21
-121.470520
  0
LINE
  8
0
 10
152.750000
 20
-71.666672
 11
174.750000
 21
-71.666672
  0
LINE
  8
0
 10
156.750000
 20
-41.666672
 11
170.750000
 21
-41.666672
  0
LINE
  8
0
 10
155.750000
 20
-71.666672
 11
155.750000
 21
-62.666672
  0
LINE
  8
0
 10
171.750000
 20
-71.666672
 11
171.750000
 21
-62.666672
  0
LINE
  8
0
 10
156.500000
 20
-68.666672
 11
156.500000
 21
-62.666672
  0
LINE
  8
0
 10
171.000000
 20
-68.666672
 11
171.000000
 21
-62.666672
  0
LINE
  8
0
 10
156.750015
 20
-41.666679
 11
155.750015
 21
-42.666668
  0
LINE
  8
0
 10
171.749985
 20
-42.666679
 11
170.749985
 21
-41.666683
  0
LINE
  8
0
 10
155.750000
 20
-42.666672
 11
171.750000
 21
-42.666672
  0
LINE
  8
0
 10
155.750000
 20
-68.666672
 11
171.750000
 21
-68.666672
  0
LINE
  8
0
 10
153.250000
 20
-50.666672
 11
174.250000
 21
-50.666672
  0
LINE
  8
0
 10
153.250000
 20
-56.666672
 11
174.250000
 21
-56.666672
  0
LINE
  8
0
 10
175.800003
 20
-55.771774
 11
175.800003
 21
-51.561569
  0
LINE
  8
0
 10
151.699997
 20
-55.771774
 11
151.699997
 21
-51.561569
  0
LINE
  8
0
 10
155.750000
 20
-50.666672
 11
155.750000
 21
-42.666664
  0
LINE
  8
0
 10
156.500000
 20
-50.666672
 11
156.500000
 21
-41.916664
  0
LINE
  8
0
 10
171.000000
 20
-50.666672
 11
171.000000
 21
-41.916672
  0
LINE
  8
0
 10
171.750000
 20
-50.666672
 11
171.750000
 21
-42.666672
  0
LINE
  8
0
 10
157.687820
 20
-55.771774
 11
157.687820
 21
-51.561569
  0
LINE
  8
0
 10
169.812180
 20
-55.771782
 11
169.812180
 21
-51.561562
  0
LINE
  8
0
 10
153.250000
 20
-56.666656
 11
151.700012
 21
-55.771767
  0
LINE
  8
0
 10
174.249985
 20
-56.666656
 11
175.799988
 21
-55.771763
  0
LINE
  8
0
 10
174.250000
 20
-50.666664
 11
175.800003
 21
-51.561554
  0
LINE
  8
0
 10
153.250031
 20
-50.666710
 11
151.700027
 21
-51.561604
  0
LINE
  8
0
 10
153.250000
 20
-56.666672
 11
174.250000
 21
-56.666672
  0
LINE
  8
0
 10
153.250000
 20
-62.666672
 11
174.250000
 21
-62.666672
  0
LINE
  8
0
 10
175.800003
 20
-61.771774
 11
175.800003
 21
-57.561569
  0
LINE
  8
0
 10
151.699997
 20
-61.771774
 11
151.699997
 21
-57.561569
  0
LINE
  8
0
 10
174.250000
 20
-62.666668
 11
175.799988
 21
-61.771778
  0
LINE
  8
0
 10
174.250015
 20
-56.666664
 11
175.800018
 21
-57.561558
  0
LINE
  8
0
 10
153.250031
 20
-56.666714
 11
151.700027
 21
-57.561607
  0
LINE
  8
0
 10
157.687820
 20
-61.771774
 11
157.687820
 21
-57.561569
  0
LINE
  8
0
 10
169.812180
 20
-61.771782
 11
169.812180
 21
-57.561562
  0
LINE
  8
0
 10
153.250000
 20
-62.666649
 11
151.699997
 21
-61.771759
  0
LINE
  8
0
 10
149.349991
 20
-81.666672
 11
182.616669
 21
-81.666672
  0
LINE
  8
0
 10
159.616013
 20
-40.366669
 11
167.883972
 21
-40.366669
  0
LINE
  8
0
 10
158.750000
 20
-40.866669
 11
168.750000
 21
-40.866669
  0
LINE
  8
0
 10
168.750000
 20
-40.866653
 11
167.883972
 21
-40.366653
  0
LINE
  8
0
 10
158.749985
 20
-40.866627
 11
159.615997
 21
-40.366634
  0
LINE
  8
0
 10
158.777939
 20
-41.666676
 11
158.750000
 21
-40.866665
  0
LINE
  8
0
 10
168.722061
 20
-41.666672
 11
168.750000
 21
-40.866665
  0
LINE
  8
0
 10
163.750000
 20
-128.666672
 11
163.750000
 21
-35.366669
  0
LINE
  8
0
 10
152.750000
 20
-91.666672
 11
152.750000
 21
-71.666672
  0
LINE
  8
0
 10
174.750000
 20
-91.666672
 11
174.750000
 21
-71.666672
  0
LINE
  8
0
  6
DASHED
 10
168.464874
 20
-49.831322
 11
168.750000
 21
-41.666672
  0
LINE
  8
0
  6
DASHED
 10
167.715317
 20
-49.805141
 11
167.999527
 21
-41.666664
  0
LINE
  8
0
  6
DASHED
 10
159.035095
 20
-49.831314
 11
158.749985
 21
-41.666664
  0
LINE
  8
0
  6
DASHED
 10
159.784653
 20
-49.805145
 11
159.500443
 21
-41.666664
  0
LINE
  8
0
 10
163.750000
 20
-91.666672
 11
163.750000
 21
-71.666672
  0
LINE
  8
0
  6
DASHED
 10
166.585342
 20
-76.951790
 11
174.749985
 21
-76.666672
  0
LINE
  8
0
  6
DASHED
 10
166.611511
 20
-77.701332
 11
174.749985
 21
-77.417130
  0
LINE
  8
0
  6
DASHED
 10
166.611526
 20
-85.631996
 11
174.750000
 21
-85.916199
  0
LINE
  8
0
  6
DASHED
 10
166.585342
 20
-86.381554
 11
174.750000
 21
-86.666672
  0
LINE
  8
0
 10
155.749985
 20
-69.965714
 11
156.499985
 21
-68.666672
  0
LINE
  8
0
 10
171.750000
 20
-69.965706
 11
171.000000
 21
-68.666672
  0
ARC
  8
0
 10
94.750000
 20
-96.666672
 40
4.000000
 50
90.000000
 51
180.000000
  0
ARC
  8
0
 10
232.750000
 20
-96.666672
 40
4.000000
 50
0.000000
 51
90.000000
  0
ARC
  8
0
 10
86.750000
 20
-102.304718
 40
3.999995
 50
300.000031
 51
0.000000
  0
ARC
  8
0
 10
240.750000
 20
-102.304710
 40
4.000000
 50
180.000000
 51
240.000015
  0
ARC
  8
0
 10
154.693909
 20
-51.318893
 40
5.365791
 50
265.304382
 51
303.915009
  0
ARC
  8
0
 10
172.806091
 20
-51.318886
 40
5.365795
 50
236.085007
 51
274.695587
  0
ARC
  8
0
 10
163.750000
 20
-35.686058
 40
20.980614
 50
253.205414
 51
286.794586
  0
ARC
  8
0
 10
163.750000
 20
-71.647285
 40
20.980614
 50
73.205376
 51
106.794579
  0
ARC
  8
0
 10
154.693909
 20
-56.014450
 40
5.365792
 50
56.084980
 51
94.695770
  0
ARC
  8
0
 10
172.806091
 20
-56.014458
 40
5.365795
 50
85.304398
 51
123.914978
  0
ARC
  8
0
 10
172.806091
 20
-57.318886
 40
5.365795
 50
236.085007
 51
274.695587
  0
ARC
  8
0
 10
163.750000
 20
-41.686058
 40
20.980614
 50
253.205414
 51
286.794586
  0
ARC
  8
0
 10
172.806091
 20
-62.014458
 40
5.365795
 50
85.304398
 51
123.914978
  0
ARC
  8
0
 10
163.750000
 20
-77.647285
 40
20.980614
 50
73.205376
 51
106.794579
  0
ARC
  8
0
 10
154.693909
 20
-62.014450
 40
5.365792
 50
56.084980
 51
94.695770
  0
ARC
  8
0
 10
154.693909
 20
-57.318893
 40
5.365791
 50
265.304382
 51
303.915009
  0
ARC
  8
0
 10
158.250000
 20
-87.266670
 40
15.599998
 50
90.000000
 51
110.644226
  0
ARC
  8
0
 10
169.250000
 20
-87.266670
 40
15.599998
 50
90.000000
 51
110.644226
  0
ARC
  8
0
 10
169.250000
 20
-76.066673
 40
15.600001
 50
249.355774
 51
290.644165
  0
ARC
  8
0
 10
158.250000
 20
-76.066673
 40
15.600001
 50
249.355774
 51
290.644165
  0
ARC
  8
0
 10
169.250000
 20
-87.266670
 40
15.600001
 50
69.355774
 51
90.000000
  0
ARC
  8
0
 10
158.250000
 20
-87.266670
 40
15.600001
 50
69.355774
 51
90.000000
  0
ENDSEC
  0
EOF
