  0
SECTION
  2
HEADER
  0
ENDSEC
  0
SECTION
  2
TABLES
  0
TABLE
  2
LTYPE
 70
     4
  0
LTYPE
  2
CONTINUOUS
 70
    64
  3
Solid line
 72
    65
 73
     0
 40
0.000000
  0
LTYPE
  2
DASHED
 70
    64
  3
__ __ __ __ __ __ __ __ __ __ __ __ __ __ __
 72
    65
 73
     2
 40
3.500000
 49
2.000000
 49
-1.500000
  0
LTYPE
  2
CENTER
 70
    64
  3
____ _ ____ _ ____ _ ____ _ ____ _ ____ _ ____
 72
    65
 73
     4
 40
17.500000
 49
13.000000
 49
-1.500000
 49
1.500000
 49
-1.500000
  0
LTYPE
  2
PHANTOM
 70
    64
  3
_____ _ _ _____ _ _ _____ _ _ _____ _ _ ____  
 72
    65
 73
     6
 40
15.500000
 49
8.000000
 49
-1.500000
 49
1.500000
 49
-1.500000
 49
1.500000
 49
-1.500000
  0
LTYPE
  2
DASHED1
 70
    64
  3
__ __ __ __ __ __ __ __ __ __ __ __ __ __ __
 72
    65
 73
     2
 40
1.500000
 49
1.000000
 49
-0.500000
  0
LTYPE
  2
DASHED2
 70
    64
  3
__ __ __ __ __ __ __ __ __ __ __ __ __ __ __
 72
    65
 73
     2
 40
3.500000
 49
2.500000
 49
-1.000000
  0
LTYPE
  2
DASHED3
 70
    64
  3
__ __ __ __ __ __ __ __ __ __ __ __ __ __ __
 72
    65
 73
     2
 40
6.000000
 49
4.000000
 49
-2.000000
  0
LTYPE
  2
DASHED4
 70
    64
  3
__ __ __ __ __ __ __ __ __ __ __ __ __ __ __
 72
    65
 73
     2
 40
12.000000
 49
10.000000
 49
-2.000000
  0
LTYPE
  2
DASHED5
 70
    64
  3
__ __ __ __ __ __ __ __ __ __ __ __ __ __ __
 72
    65
 73
     2
 40
17.000000
 49
15.000000
 49
-2.000000
  0
LTYPE
  2
DASHED6
 70
    64
  3
__ __ __ __ __ __ __ __ __ __ __ __ __ __ __
 72
    65
 73
     2
 40
29.000000
 49
27.000000
 49
-2.000000
  0
LTYPE
  2
PHANTOM1
 70
    64
  3
_____ _ _ _____ _ _ _____ _ _ _____ _ _ ____  
 72
    65
 73
     6
 40
31.000000
 49
25.000000
 49
-1.500000
 49
1.000000
 49
-1.000000
 49
1.000000
 49
-1.500000
  0
LTYPE
  2
PHANTOM2
 70
    64
  3
_____ _ _ _____ _ _ _____ _ _ _____ _ _ ____  
 72
    65
 73
     6
 40
36.000000
 49
27.000000
 49
-1.500000
 49
2.500000
 49
-1.000000
 49
2.500000
 49
-1.500000
  0
LTYPE
  2
PHANTOM3
 70
    64
  3
_____ _ _ _____ _ _ _____ _ _ _____ _ _ ____  
 72
    65
 73
     6
 40
78.000000
 49
64.000000
 49
-2.000000
 49
4.000000
 49
-2.000000
 49
4.000000
 49
-2.000000
  0
LTYPE
  2
CENTER1
 70
    64
  3
____ _ ____ _ ____ _ ____ _ ____ _ ____ _ ____
 72
    65
 73
     4
 40
19.000000
 49
14.000000
 49
-1.000000
 49
3.000000
 49
-1.000000
  0
LTYPE
  2
CENTER2
 70
    64
  3
____ _ ____ _ ____ _ ____ _ ____ _ ____ _ ____
 72
    65
 73
     4
 40
28.500000
 49
25.000000
 49
-1.000000
 49
1.500000
 49
-1.000000
  0
LTYPE
  2
CENTER3
 70
    64
  3
____ _ ____ _ ____ _ ____ _ ____ _ ____ _ ____
 72
    65
 73
     4
 40
31.500000
 49
27.000000
 49
-1.000000
 49
2.500000
 49
-1.000000
  0
LTYPE
  2
CENTER4
 70
    64
  3
____ _ ____ _ ____ _ ____ _ ____ _ ____ _ ____
 72
    65
 73
     4
 40
50.000000
 49
45.000000
 49
-1.000000
 49
3.000000
 49
-1.000000
  0
LTYPE
  2
CENTER5
 70
    64
  3
____ _ ____ _ ____ _ ____ _ ____ _ ____ _ ____
 72
    65
 73
     4
 40
100.000000
 49
92.000000
 49
-2.000000
 49
4.000000
 49
-2.000000
  0
LTYPE
  2
SBK1
 70
    64
  3
______ _ _ _ ______ _ _ _ ______ _ _ _ _____  
 72
    65
 73
     8
 40
60.500000
 49
45.000000
 49
-2.000000
 49
2.500000
 49
-2.000000
 49
2.500000
 49
-2.000000
 49
2.500000
 49
-2.000000
  0
LTYPE
  2
SBK2
 70
    64
  3
______ _ _ _ ______ _ _ _ ______ _ _ _ _____  
 72
    65
 73
     8
 40
84.000000
 49
64.000000
 49
-2.000000
 49
4.000000
 49
-2.000000
 49
4.000000
 49
-2.000000
 49
4.000000
 49
-2.000000
  0
LTYPE
  2
STCH
 70
    64
  3
__ __ __ __ __ __ __ __ __ __ __ __ __ __ __
 72
    65
 73
     2
 40
3.000000
 49
1.000000
 49
-2.000000
  0
LTYPE
  2
MTCH
 70
    64
  3
_____ _ _ _____ _ _ _____ _ _ _____ _ _ ____  
 72
    65
 73
     6
 40
80.000000
 49
66.000000
 49
-2.000000
 49
4.000000
 49
-2.000000
 49
4.000000
 49
-2.000000
  0
ENDTAB
  0
TABLE
  2
LAYER
 70
     1
  0
LAYER
  2
0
 70
     0
 62
     7
  6
CONTINUOUS
  0
ENDTAB
  0
TABLE
  2
STYLE
 70
     1
  0
STYLE
  2
STANDARD
 70
     0
 40
0.000000
 41
1.000000
 50
0.000000
 71
     0
 42
0.200000
  3
txt
  4
BIGFONT
  0
ENDTAB
  0
TABLE
  2
VIEW
 70
     0
  0
ENDTAB
  0
ENDSEC
  0
SECTION
  2
BLOCKS
  0
ENDSEC
  0
SECTION
  2
ENTITIES
  0
LINE
  8
0
 10
-299.250000
 20
276.250000
 11
-299.250000
 21
261.250000
  0
LINE
  8
0
 10
-299.250000
 20
261.250000
 11
-399.250000
 21
261.250000
  0
LINE
  8
0
 10
299.799988
 20
276.250000
 11
299.799988
 21
261.250000
  0
LINE
  8
0
 10
299.799988
 20
-256.750000
 11
299.799988
 21
-276.750000
  0
LINE
  8
0
 10
299.799988
 20
261.250000
 11
399.799988
 21
261.250000
  0
LINE
  8
0
 10
299.799988
 20
-256.750000
 11
399.799988
 21
-256.750000
  0
LINE
  8
0
 10
-420.500000
 20
297.000000
 11
420.500000
 21
297.000000
  0
LINE
  8
0
 10
-420.500000
 20
-297.000000
 11
420.500000
 21
-297.000000
  0
LINE
  8
0
 10
420.500000
 20
297.000000
 11
420.500000
 21
-297.000000
  0
LINE
  8
0
 10
-420.500000
 20
297.000000
 11
-420.500000
 21
-297.000000
  0
LINE
  8
0
 10
399.799988
 20
276.250000
 11
399.799988
 21
-276.750000
  0
LINE
  8
0
 10
-399.250000
 20
276.250000
 11
-399.250000
 21
-276.750000
  0
LINE
  8
0
 10
-399.250000
 20
276.250000
 11
399.799988
 21
276.250000
  0
LINE
  8
0
 10
-399.250000
 20
-276.750000
 11
399.799988
 21
-276.750000
  0
LINE
  8
0
 10
-239.440002
 20
-276.750000
 11
-239.440002
 21
276.250000
  0
LINE
  8
0
 10
-79.630005
 20
276.250000
 11
-79.630005
 21
-276.750000
  0
LINE
  8
0
 10
80.179993
 20
-276.750000
 11
80.179993
 21
276.250000
  0
LINE
  8
0
 10
239.989990
 20
276.250000
 11
239.989990
 21
-276.750000
  0
LINE
  8
0
 10
-399.250000
 20
95.916672
 11
399.799988
 21
95.916672
  0
LINE
  8
0
 10
-399.250000
 20
107.916672
 11
399.799988
 21
107.916672
  0
LINE
  8
0
 10
-399.250000
 20
-86.416656
 11
399.799988
 21
-86.416656
  0
LINE
  8
0
 10
-399.250000
 20
-98.416656
 11
399.799988
 21
-98.416656
  0
LINE
  8
0
 10
-399.250000
 20
-264.750000
 11
239.989990
 21
-264.750000
  0
TEXT
  8
0
 10
-379.856873
 20
264.350006
 40
6.000000
  1
VACUUM PAD
 50
0.000000
 41
1.052632
 51
0.000000
  7
STANDARD
  0
TEXT
  8
0
 10
304.193115
 20
264.350006
 40
6.000000
  1
DATE: JUN ,1992
 50
0.000000
 41
1.052632
 51
0.000000
  7
STANDARD
  0
TEXT
  8
0
 10
295.700867
 20
-272.049988
 40
7.000000
  1
ＫＯＧＡＮＥＩ，ＣＯＲＰ．
 50
0.000000
 41
0.902367
 51
15.000000
  7
STANDARD
  0
TEXT
  8
0
 10
-355.951874
 20
97.516670
 40
6.000000
  1
MODEL:KPHS-2
 50
0.000000
 41
1.052632
 51
0.000000
  7
STANDARD
  0
TEXT
  8
0
 10
-202.141876
 20
97.516670
 40
6.000000
  1
MODEL:KPHS-3.5
 50
0.000000
 41
1.052632
 51
0.000000
  7
STANDARD
  0
TEXT
  8
0
 10
-42.331882
 20
97.516670
 40
6.000000
  1
MODEL:KPHS-2X4
 50
0.000000
 41
1.052632
 51
0.000000
  7
STANDARD
  0
TEXT
  8
0
 10
111.478111
 20
97.516670
 40
6.000000
  1
MODEL:KPHS-3.5X7
 50
0.000000
 41
1.052632
 51
0.000000
  7
STANDARD
  0
TEXT
  8
0
 10
283.288116
 20
97.516670
 40
6.000000
  1
MODEL:KPHS-6
 50
0.000000
 41
1.052632
 51
0.000000
  7
STANDARD
  0
TEXT
  8
0
 10
-355.951874
 20
-96.816658
 40
6.000000
  1
MODEL:KPHS-8
 50
0.000000
 41
1.052632
 51
0.000000
  7
STANDARD
  0
TEXT
  8
0
 10
-199.141876
 20
-96.816658
 40
6.000000
  1
MODEL:KPHS-10
 50
0.000000
 41
1.052632
 51
0.000000
  7
STANDARD
  0
TEXT
  8
0
 10
-39.331886
 20
-96.816658
 40
6.000000
  1
MODEL:KPHS-15
 50
0.000000
 41
1.052632
 51
0.000000
  7
STANDARD
  0
TEXT
  8
0
 10
120.478111
 20
-96.816658
 40
6.000000
  1
MODEL:KPHS-20
 50
0.000000
 41
1.052632
 51
0.000000
  7
STANDARD
  0
TEXT
  8
0
 10
280.288116
 20
-96.816658
 40
6.000000
  1
MODEL:KPHS-25
 50
0.000000
 41
1.052632
 51
0.000000
  7
STANDARD
  0
TEXT
  8
0
 10
-358.951874
 20
-275.149994
 40
6.000000
  1
MODEL:KPHS-30
 50
0.000000
 41
1.052632
 51
0.000000
  7
STANDARD
  0
TEXT
  8
0
 10
-199.141876
 20
-275.149994
 40
6.000000
  1
MODEL:KPHS-35
 50
0.000000
 41
1.052632
 51
0.000000
  7
STANDARD
  0
TEXT
  8
0
 10
-39.331886
 20
-275.149994
 40
6.000000
  1
MODEL:KPHS-40
 50
0.000000
 41
1.052632
 51
0.000000
  7
STANDARD
  0
TEXT
  8
0
 10
120.478111
 20
-275.149994
 40
6.000000
  1
MODEL:KPHS-50
 50
0.000000
 41
1.052632
 51
0.000000
  7
STANDARD
  0
POINT
  8
0
 10
-339.345032
 20
162.999985
  0
POINT
  8
0
 10
-335.303589
 20
162.999985
  0
LINE
  8
0
 10
-351.475800
 20
142.999985
 11
-340.576782
 21
142.999985
  0
LINE
  8
0
 10
-339.345032
 20
172.695160
 11
-339.345032
 21
133.336151
  0
LINE
  8
0
 10
-336.845032
 20
145.999985
 11
-336.845032
 21
142.753448
  0
LINE
  8
0
 10
-341.845032
 20
145.999985
 11
-341.845032
 21
142.753448
  0
LINE
  8
0
 10
-341.845032
 20
145.999985
 11
-336.845032
 21
145.999985
  0
LINE
  8
0
 10
-341.095032
 20
138.499985
 11
-337.595032
 21
138.499985
  0
LINE
  8
0
 10
-337.595032
 20
138.499985
 11
-337.595032
 21
136.999985
  0
LINE
  8
0
 10
-341.095032
 20
138.499985
 11
-341.095032
 21
136.999985
  0
LINE
  8
0
 10
-337.595032
 20
138.499985
 11
-336.845032
 21
142.753448
  0
LINE
  8
0
 10
-341.095032
 20
138.499985
 11
-341.845032
 21
142.753448
  0
LINE
  8
0
 10
-341.845032
 20
167.999985
 11
-336.845032
 21
167.999985
  0
LINE
  8
0
 10
-341.845032
 20
148.999985
 11
-336.845032
 21
148.999985
  0
LINE
  8
0
 10
-341.845032
 20
167.999985
 11
-341.845032
 21
165.999985
  0
LINE
  8
0
 10
-336.845032
 20
167.999985
 11
-336.845032
 21
165.999985
  0
LINE
  8
0
 10
-337.095032
 20
167.999985
 11
-337.095032
 21
165.999985
  0
LINE
  8
0
 10
-341.595032
 20
167.999985
 11
-341.595032
 21
165.999985
  0
LINE
  8
0
 10
-337.495026
 20
148.999985
 11
-337.495026
 21
145.999985
  0
LINE
  8
0
 10
-341.195038
 20
148.999985
 11
-341.195038
 21
145.999985
  0
LINE
  8
0
 10
-342.845032
 20
162.999985
 11
-335.845032
 21
162.999985
  0
LINE
  8
0
 10
-339.345032
 20
168.333313
 11
-339.345032
 21
161.765030
  0
LINE
  8
0
 10
-343.386475
 20
165.802917
 11
-343.386475
 21
163.197052
  0
LINE
  8
0
 10
-341.365753
 20
165.802917
 11
-341.365753
 21
163.197052
  0
LINE
  8
0
 10
-337.324310
 20
165.802917
 11
-337.324310
 21
163.191437
  0
LINE
  8
0
 10
-335.303589
 20
165.802917
 11
-335.303589
 21
163.197052
  0
LINE
  8
0
 10
-342.845032
 20
165.999985
 11
-335.845032
 21
165.999985
  0
LINE
  8
0
 10
-342.845032
 20
165.999985
 11
-343.386475
 21
165.802917
  0
LINE
  8
0
 10
-335.845032
 20
162.999985
 11
-335.303589
 21
163.197052
  0
LINE
  8
0
 10
-335.845032
 20
165.999985
 11
-335.303589
 21
165.802917
  0
LINE
  8
0
 10
-342.845032
 20
162.999985
 11
-343.386475
 21
163.197052
  0
LINE
  8
0
 10
-342.845032
 20
159.999985
 11
-335.845032
 21
159.999985
  0
LINE
  8
0
 10
-339.345032
 20
165.333313
 11
-339.345032
 21
158.765030
  0
LINE
  8
0
 10
-343.386475
 20
162.802917
 11
-343.386475
 21
160.197052
  0
LINE
  8
0
 10
-341.365753
 20
162.802917
 11
-341.365753
 21
160.197052
  0
LINE
  8
0
 10
-337.324310
 20
162.802917
 11
-337.324310
 21
160.191437
  0
LINE
  8
0
 10
-335.303589
 20
162.802917
 11
-335.303589
 21
160.197052
  0
LINE
  8
0
 10
-342.845032
 20
162.999985
 11
-335.845032
 21
162.999985
  0
LINE
  8
0
 10
-342.845032
 20
162.999985
 11
-343.386475
 21
162.802917
  0
LINE
  8
0
 10
-335.845032
 20
159.999985
 11
-335.303589
 21
160.197052
  0
LINE
  8
0
 10
-335.845032
 20
162.999985
 11
-335.303589
 21
162.802917
  0
LINE
  8
0
 10
-342.845032
 20
159.999985
 11
-343.386475
 21
160.197052
  0
LINE
  8
0
 10
-341.845032
 20
159.999985
 11
-341.845032
 21
148.999985
  0
LINE
  8
0
 10
-341.595032
 20
159.999985
 11
-341.595032
 21
148.999985
  0
LINE
  8
0
 10
-337.095032
 20
159.999985
 11
-337.095032
 21
148.999985
  0
LINE
  8
0
 10
-336.845032
 20
159.999985
 11
-336.845032
 21
148.999985
  0
LINE
  8
0
 10
-350.345032
 20
144.099991
 11
-350.345032
 21
141.899979
  0
LINE
  8
0
 10
-349.845032
 20
144.499985
 11
-349.845032
 21
141.499985
  0
LINE
  8
0
 10
-348.345032
 20
144.499985
 11
-348.345032
 21
141.499985
  0
LINE
  8
0
 10
-346.845032
 20
144.499985
 11
-346.845032
 21
141.499985
  0
LINE
  8
0
 10
-345.345032
 20
144.499985
 11
-345.345032
 21
141.499985
  0
LINE
  8
0
 10
-345.345032
 20
144.499985
 11
-341.845032
 21
144.499985
  0
LINE
  8
0
 10
-345.345032
 20
141.499985
 11
-341.624023
 21
141.499985
  0
LINE
  8
0
 10
-348.345032
 20
144.499985
 11
-349.845032
 21
143.954025
  0
LINE
  8
0
 10
-346.845032
 20
144.499985
 11
-348.345032
 21
143.954025
  0
LINE
  8
0
 10
-345.345032
 20
144.499985
 11
-346.845032
 21
143.954025
  0
LINE
  8
0
 10
-348.345032
 20
141.499985
 11
-349.845032
 21
142.045944
  0
LINE
  8
0
 10
-346.845032
 20
141.499985
 11
-348.345032
 21
142.045944
  0
LINE
  8
0
 10
-345.345032
 20
141.499985
 11
-346.845032
 21
142.045944
  0
LINE
  8
0
 10
-337.595032
 20
136.999985
 11
-337.595032
 21
135.299988
  0
LINE
  8
0
 10
-341.095032
 20
136.999985
 11
-341.095032
 21
135.299988
  0
LINE
  8
0
 10
-341.095032
 20
135.299988
 11
-337.595032
 21
135.299988
  0
LINE
  8
0
 10
-341.095032
 20
136.999985
 11
-337.595032
 21
136.999985
  0
LINE
  8
0
 10
-340.595032
 20
133.999985
 11
-338.095032
 21
133.999985
  0
LINE
  8
0
 10
-340.095032
 20
134.799988
 11
-338.595032
 21
134.799988
  0
LINE
  8
0
 10
-341.095032
 20
135.299988
 11
-340.095032
 21
134.799988
  0
LINE
  8
0
 10
-338.595032
 20
134.799988
 11
-337.595032
 21
135.299988
  0
LINE
  8
0
 10
-340.095032
 20
134.799988
 11
-340.595032
 21
133.999985
  0
LINE
  8
0
 10
-338.595032
 20
134.799988
 11
-338.095032
 21
133.999985
  0
ARC
  8
0
 10
-339.345032
 20
167.789978
 40
2.210013
 50
5.452765
 51
174.547241
  0
ARC
  8
0
 10
-335.845032
 20
160.349594
 40
5.650391
 50
90.000000
 51
105.176941
  0
ARC
  8
0
 10
-339.345032
 20
155.541397
 40
10.458591
 50
78.859726
 51
101.072121
  0
ARC
  8
0
 10
-342.845612
 20
160.184860
 40
5.815131
 50
75.132576
 51
89.994286
  0
ARC
  8
0
 10
-342.845032
 20
168.650375
 40
5.650391
 50
270.000000
 51
285.176941
  0
ARC
  8
0
 10
-339.345032
 20
173.458572
 40
10.458591
 50
258.859741
 51
281.072113
  0
ARC
  8
0
 10
-335.844452
 20
168.815109
 40
5.815131
 50
255.132584
 51
269.994293
  0
ARC
  8
0
 10
-335.845032
 20
157.349594
 40
5.650391
 50
90.000000
 51
105.176941
  0
ARC
  8
0
 10
-339.345032
 20
152.541397
 40
10.458591
 50
78.859726
 51
101.072121
  0
ARC
  8
0
 10
-342.845612
 20
157.184860
 40
5.815131
 50
75.132576
 51
89.994286
  0
ARC
  8
0
 10
-342.845032
 20
165.650375
 40
5.650391
 50
270.000000
 51
285.176941
  0
ARC
  8
0
 10
-339.345032
 20
170.458572
 40
10.458591
 50
258.859741
 51
281.072113
  0
ARC
  8
0
 10
-335.844452
 20
165.815109
 40
5.815131
 50
255.132584
 51
269.994293
  0
ARC
  8
0
 10
-349.945038
 20
141.899979
 40
0.399994
 50
180.000000
 51
270.000000
  0
ARC
  8
0
 10
-349.945038
 20
144.099991
 40
0.399994
 50
90.000000
 51
180.000000
  0
POLYLINE
  8
0
 66
     1
  0
VERTEX
  8
0
 10
-341.845032
 20
144.946823
  0
VERTEX
  8
0
 10
-341.531738
 20
144.018478
  0
VERTEX
  8
0
 10
-341.094391
 20
143.142258
  0
VERTEX
  8
0
 10
-340.595032
 20
142.753448
  0
VERTEX
  8
0
 10
-340.095673
 20
143.142258
  0
VERTEX
  8
0
 10
-339.658325
 20
144.018478
  0
VERTEX
  8
0
 10
-339.345032
 20
144.946823
  0
SEQEND
  0
POLYLINE
  8
0
 66
     1
  0
VERTEX
  8
0
 10
-339.345032
 20
144.946823
  0
VERTEX
  8
0
 10
-339.031738
 20
144.018478
  0
VERTEX
  8
0
 10
-338.594391
 20
143.142258
  0
VERTEX
  8
0
 10
-338.095032
 20
142.753448
  0
VERTEX
  8
0
 10
-337.595673
 20
143.142258
  0
VERTEX
  8
0
 10
-337.158325
 20
144.018478
  0
VERTEX
  8
0
 10
-336.845032
 20
144.946823
  0
SEQEND
  0
POINT
  8
0
 10
-339.345032
 20
214.083328
  0
POINT
  8
0
 10
-335.303589
 20
214.083328
  0
LINE
  8
0
 10
-350.345032
 20
215.183319
 11
-350.345032
 21
212.983337
  0
LINE
  8
0
 10
-349.845032
 20
215.583328
 11
-349.845032
 21
212.583328
  0
LINE
  8
0
 10
-348.345032
 20
215.583328
 11
-348.345032
 21
212.583328
  0
LINE
  8
0
 10
-346.845032
 20
215.583328
 11
-346.845032
 21
212.583328
  0
LINE
  8
0
 10
-345.345032
 20
215.583328
 11
-345.345032
 21
212.583328
  0
LINE
  8
0
 10
-345.345032
 20
215.583328
 11
-342.520447
 21
215.583328
  0
LINE
  8
0
 10
-345.345032
 20
212.583328
 11
-342.520447
 21
212.583328
  0
LINE
  8
0
 10
-348.345032
 20
215.583328
 11
-349.845032
 21
215.037369
  0
LINE
  8
0
 10
-346.845032
 20
215.583313
 11
-348.345032
 21
215.037354
  0
LINE
  8
0
 10
-345.345032
 20
215.583328
 11
-346.845032
 21
215.037369
  0
LINE
  8
0
 10
-348.345032
 20
212.583328
 11
-349.845032
 21
213.129288
  0
LINE
  8
0
 10
-346.845032
 20
212.583313
 11
-348.345032
 21
213.129272
  0
LINE
  8
0
 10
-345.345032
 20
212.583328
 11
-346.845032
 21
213.129288
  0
LINE
  8
0
 10
-351.238190
 20
214.083328
 11
-333.901825
 21
214.083328
  0
LINE
  8
0
 10
-339.345032
 20
218.919617
 11
-339.345032
 21
208.995819
  0
LINE
  8
0
 10
-341.365753
 20
210.583328
 11
-337.324310
 21
210.583328
  0
LINE
  8
0
 10
-341.365753
 20
217.583328
 11
-337.324310
 21
217.583328
  0
LINE
  8
0
 10
-337.324310
 20
210.583328
 11
-335.303589
 21
214.083328
  0
LINE
  8
0
 10
-343.386475
 20
214.083328
 11
-341.365753
 21
217.583328
  0
LINE
  8
0
 10
-337.324310
 20
217.583328
 11
-335.303589
 21
214.083328
  0
LINE
  8
0
 10
-343.386475
 20
214.083328
 11
-341.365753
 21
210.583328
  0
ARC
  8
0
 10
-349.945038
 20
215.183319
 40
0.400009
 50
90.000000
 51
179.997818
  0
ARC
  8
0
 10
-349.945038
 20
212.983337
 40
0.399994
 50
180.000000
 51
270.000000
  0
CIRCLE
  8
0
 10
-339.345032
 20
214.083328
 40
2.500000
  0
CIRCLE
  8
0
 10
-339.345032
 20
214.083328
 40
2.250000
  0
CIRCLE
  8
0
 10
-339.345032
 20
214.083328
 40
3.500000
  0
POINT
  8
0
 10
-179.535233
 20
163.000137
  0
POINT
  8
0
 10
-175.493774
 20
163.000137
  0
LINE
  8
0
 10
-191.666016
 20
143.000137
 11
-180.766983
 21
143.000137
  0
LINE
  8
0
 10
-179.535233
 20
172.695312
 11
-179.535233
 21
133.103973
  0
LINE
  8
0
 10
-177.035233
 20
146.000137
 11
-177.035233
 21
142.753601
  0
LINE
  8
0
 10
-182.035233
 20
146.000137
 11
-182.035233
 21
142.753601
  0
LINE
  8
0
 10
-182.035233
 20
146.000137
 11
-177.035233
 21
146.000137
  0
LINE
  8
0
 10
-181.285233
 20
138.500137
 11
-177.785233
 21
138.500137
  0
LINE
  8
0
 10
-177.785233
 20
138.500137
 11
-177.785233
 21
137.000137
  0
LINE
  8
0
 10
-181.285233
 20
138.500137
 11
-181.285233
 21
137.000137
  0
LINE
  8
0
 10
-177.785233
 20
138.500137
 11
-177.035233
 21
142.753601
  0
LINE
  8
0
 10
-181.285233
 20
138.500137
 11
-182.035233
 21
142.753601
  0
LINE
  8
0
 10
-182.035233
 20
168.000137
 11
-177.035233
 21
168.000137
  0
LINE
  8
0
 10
-182.035233
 20
149.000137
 11
-177.035233
 21
149.000137
  0
LINE
  8
0
 10
-182.035233
 20
168.000137
 11
-182.035233
 21
166.000137
  0
LINE
  8
0
 10
-177.035233
 20
168.000137
 11
-177.035233
 21
166.000137
  0
LINE
  8
0
 10
-177.285233
 20
168.000137
 11
-177.285233
 21
166.000137
  0
LINE
  8
0
 10
-181.785233
 20
168.000137
 11
-181.785233
 21
166.000137
  0
LINE
  8
0
 10
-177.685226
 20
149.000137
 11
-177.685226
 21
146.000137
  0
LINE
  8
0
 10
-181.385239
 20
149.000137
 11
-181.385239
 21
146.000137
  0
LINE
  8
0
 10
-183.035233
 20
163.000137
 11
-176.035233
 21
163.000137
  0
LINE
  8
0
 10
-179.535233
 20
168.333466
 11
-179.535233
 21
161.765182
  0
LINE
  8
0
 10
-183.576691
 20
165.803070
 11
-183.576691
 21
163.197205
  0
LINE
  8
0
 10
-181.555954
 20
165.803070
 11
-181.555954
 21
163.197205
  0
LINE
  8
0
 10
-177.514511
 20
165.803070
 11
-177.514511
 21
163.191589
  0
LINE
  8
0
 10
-175.493774
 20
165.803070
 11
-175.493774
 21
163.197205
  0
LINE
  8
0
 10
-183.035233
 20
166.000137
 11
-176.035233
 21
166.000137
  0
LINE
  8
0
 10
-183.035233
 20
166.000137
 11
-183.576691
 21
165.803070
  0
LINE
  8
0
 10
-176.035233
 20
163.000137
 11
-175.493774
 21
163.197205
  0
LINE
  8
0
 10
-176.035233
 20
166.000137
 11
-175.493774
 21
165.803070
  0
LINE
  8
0
 10
-183.035233
 20
163.000137
 11
-183.576691
 21
163.197205
  0
LINE
  8
0
 10
-183.035233
 20
160.000137
 11
-176.035233
 21
160.000137
  0
LINE
  8
0
 10
-179.535233
 20
165.333466
 11
-179.535233
 21
158.765182
  0
LINE
  8
0
 10
-183.576691
 20
162.803070
 11
-183.576691
 21
160.197205
  0
LINE
  8
0
 10
-181.555954
 20
162.803070
 11
-181.555954
 21
160.197205
  0
LINE
  8
0
 10
-177.514511
 20
162.803070
 11
-177.514511
 21
160.191589
  0
LINE
  8
0
 10
-175.493774
 20
162.803070
 11
-175.493774
 21
160.197205
  0
LINE
  8
0
 10
-183.035233
 20
163.000137
 11
-176.035233
 21
163.000137
  0
LINE
  8
0
 10
-183.035233
 20
163.000137
 11
-183.576691
 21
162.803070
  0
LINE
  8
0
 10
-176.035233
 20
160.000137
 11
-175.493774
 21
160.197205
  0
LINE
  8
0
 10
-176.035233
 20
163.000137
 11
-175.493774
 21
162.803070
  0
LINE
  8
0
 10
-183.035233
 20
160.000137
 11
-183.576691
 21
160.197205
  0
LINE
  8
0
 10
-182.035233
 20
160.000137
 11
-182.035233
 21
149.000137
  0
LINE
  8
0
 10
-181.785233
 20
160.000137
 11
-181.785233
 21
149.000137
  0
LINE
  8
0
 10
-177.285233
 20
160.000137
 11
-177.285233
 21
149.000137
  0
LINE
  8
0
 10
-177.035233
 20
160.000137
 11
-177.035233
 21
149.000137
  0
LINE
  8
0
 10
-190.535233
 20
144.100143
 11
-190.535233
 21
141.900131
  0
LINE
  8
0
 10
-190.035233
 20
144.500137
 11
-190.035233
 21
141.500137
  0
LINE
  8
0
 10
-188.535233
 20
144.500137
 11
-188.535233
 21
141.500137
  0
LINE
  8
0
 10
-187.035233
 20
144.500137
 11
-187.035233
 21
141.500137
  0
LINE
  8
0
 10
-185.535233
 20
144.500137
 11
-185.535233
 21
141.500137
  0
LINE
  8
0
 10
-185.535233
 20
144.500137
 11
-182.035233
 21
144.500137
  0
LINE
  8
0
 10
-185.535233
 20
141.500137
 11
-181.814209
 21
141.500137
  0
LINE
  8
0
 10
-188.535233
 20
144.500137
 11
-190.035233
 21
143.954178
  0
LINE
  8
0
 10
-187.035233
 20
144.500137
 11
-188.535233
 21
143.954178
  0
LINE
  8
0
 10
-185.535233
 20
144.500137
 11
-187.035233
 21
143.954178
  0
LINE
  8
0
 10
-188.535233
 20
141.500137
 11
-190.035233
 21
142.046097
  0
LINE
  8
0
 10
-187.035233
 20
141.500137
 11
-188.535233
 21
142.046097
  0
LINE
  8
0
 10
-185.535233
 20
141.500137
 11
-187.035233
 21
142.046097
  0
LINE
  8
0
 10
-177.785233
 20
137.000137
 11
-177.785233
 21
135.300140
  0
LINE
  8
0
 10
-181.285233
 20
137.000137
 11
-181.285233
 21
135.300140
  0
LINE
  8
0
 10
-181.285233
 20
135.300140
 11
-177.785233
 21
135.300140
  0
LINE
  8
0
 10
-181.285233
 20
137.000137
 11
-177.785233
 21
137.000137
  0
LINE
  8
0
 10
-181.285233
 20
133.800140
 11
-177.785233
 21
133.800140
  0
LINE
  8
0
 10
-180.535233
 20
135.000137
 11
-178.535233
 21
135.000137
  0
LINE
  8
0
 10
-180.535233
 20
134.500137
 11
-178.535233
 21
134.500137
  0
LINE
  8
0
 10
-178.535233
 20
135.000137
 11
-178.535233
 21
134.500137
  0
LINE
  8
0
 10
-180.535233
 20
135.000137
 11
-180.535233
 21
134.500137
  0
LINE
  8
0
 10
-181.285233
 20
135.300140
 11
-180.535233
 21
135.000137
  0
LINE
  8
0
 10
-180.535233
 20
134.500153
 11
-181.285233
 21
133.800140
  0
LINE
  8
0
 10
-177.785233
 20
135.300140
 11
-178.535233
 21
135.000137
  0
LINE
  8
0
 10
-178.535233
 20
134.500153
 11
-177.785233
 21
133.800140
  0
ARC
  8
0
 10
-179.535233
 20
167.790131
 40
2.209998
 50
5.452803
 51
174.547195
  0
ARC
  8
0
 10
-176.035248
 20
160.349747
 40
5.650391
 50
89.999847
 51
105.176788
  0
ARC
  8
0
 10
-179.535233
 20
155.541550
 40
10.458591
 50
78.859726
 51
101.072121
  0
ARC
  8
0
 10
-183.035797
 20
160.185013
 40
5.815127
 50
75.132721
 51
89.994438
  0
ARC
  8
0
 10
-183.035217
 20
168.650528
 40
5.650391
 50
269.999847
 51
285.176788
  0
ARC
  8
0
 10
-179.535233
 20
173.458725
 40
10.458591
 50
258.859741
 51
281.072113
  0
ARC
  8
0
 10
-176.034668
 20
168.815262
 40
5.815127
 50
255.132721
 51
269.994446
  0
ARC
  8
0
 10
-176.035248
 20
157.349747
 40
5.650391
 50
89.999847
 51
105.176788
  0
ARC
  8
0
 10
-179.535233
 20
152.541550
 40
10.458591
 50
78.859726
 51
101.072121
  0
ARC
  8
0
 10
-183.035797
 20
157.185013
 40
5.815127
 50
75.132721
 51
89.994438
  0
ARC
  8
0
 10
-183.035217
 20
165.650528
 40
5.650391
 50
269.999847
 51
285.176788
  0
ARC
  8
0
 10
-179.535233
 20
170.458725
 40
10.458591
 50
258.859741
 51
281.072113
  0
ARC
  8
0
 10
-176.034668
 20
165.815262
 40
5.815127
 50
255.132721
 51
269.994446
  0
ARC
  8
0
 10
-190.135239
 20
141.900131
 40
0.399994
 50
180.000000
 51
270.000000
  0
ARC
  8
0
 10
-190.135239
 20
144.100143
 40
0.399994
 50
90.000000
 51
180.000000
  0
POLYLINE
  8
0
 66
     1
  0
VERTEX
  8
0
 10
-182.035233
 20
144.946976
  0
VERTEX
  8
0
 10
-181.721924
 20
144.018631
  0
VERTEX
  8
0
 10
-181.284592
 20
143.142410
  0
VERTEX
  8
0
 10
-180.785233
 20
142.753601
  0
VERTEX
  8
0
 10
-180.285873
 20
143.142410
  0
VERTEX
  8
0
 10
-179.848541
 20
144.018631
  0
VERTEX
  8
0
 10
-179.535233
 20
144.946976
  0
SEQEND
  0
POLYLINE
  8
0
 66
     1
  0
VERTEX
  8
0
 10
-179.535233
 20
144.946976
  0
VERTEX
  8
0
 10
-179.221924
 20
144.018631
  0
VERTEX
  8
0
 10
-178.784592
 20
143.142410
  0
VERTEX
  8
0
 10
-178.285233
 20
142.753601
  0
VERTEX
  8
0
 10
-177.785873
 20
143.142410
  0
VERTEX
  8
0
 10
-177.348541
 20
144.018631
  0
VERTEX
  8
0
 10
-177.035233
 20
144.946976
  0
SEQEND
  0
POINT
  8
0
 10
-179.535019
 20
214.083359
  0
POINT
  8
0
 10
-175.493561
 20
214.083359
  0
LINE
  8
0
 10
-190.535019
 20
215.183350
 11
-190.535019
 21
212.983368
  0
LINE
  8
0
 10
-190.035019
 20
215.583359
 11
-190.035019
 21
212.583359
  0
LINE
  8
0
 10
-188.535019
 20
215.583359
 11
-188.535019
 21
212.583359
  0
LINE
  8
0
 10
-187.035019
 20
215.583359
 11
-187.035019
 21
212.583359
  0
LINE
  8
0
 10
-185.535019
 20
215.583359
 11
-185.535019
 21
212.583359
  0
LINE
  8
0
 10
-185.535019
 20
215.583359
 11
-182.710449
 21
215.583359
  0
LINE
  8
0
 10
-185.535019
 20
212.583359
 11
-182.710449
 21
212.583359
  0
LINE
  8
0
 10
-188.535019
 20
215.583359
 11
-190.035019
 21
215.037399
  0
LINE
  8
0
 10
-187.035019
 20
215.583344
 11
-188.535019
 21
215.037399
  0
LINE
  8
0
 10
-185.535019
 20
215.583359
 11
-187.035019
 21
215.037399
  0
LINE
  8
0
 10
-188.535019
 20
212.583359
 11
-190.035019
 21
213.129318
  0
LINE
  8
0
 10
-187.035019
 20
212.583344
 11
-188.535019
 21
213.129303
  0
LINE
  8
0
 10
-185.535019
 20
212.583359
 11
-187.035019
 21
213.129318
  0
LINE
  8
0
 10
-191.428192
 20
214.083359
 11
-174.091797
 21
214.083359
  0
LINE
  8
0
 10
-179.535019
 20
218.919647
 11
-179.535019
 21
208.995850
  0
LINE
  8
0
 10
-181.555740
 20
210.583359
 11
-177.514297
 21
210.583359
  0
LINE
  8
0
 10
-181.555740
 20
217.583359
 11
-177.514297
 21
217.583359
  0
LINE
  8
0
 10
-177.514297
 20
210.583359
 11
-175.493576
 21
214.083359
  0
LINE
  8
0
 10
-183.576477
 20
214.083359
 11
-181.555740
 21
217.583359
  0
LINE
  8
0
 10
-177.514297
 20
217.583359
 11
-175.493561
 21
214.083359
  0
LINE
  8
0
 10
-183.576462
 20
214.083359
 11
-181.555740
 21
210.583359
  0
ARC
  8
0
 10
-190.135025
 20
215.183350
 40
0.400009
 50
90.000000
 51
179.997818
  0
ARC
  8
0
 10
-190.135025
 20
212.983368
 40
0.399994
 50
180.000000
 51
270.000000
  0
CIRCLE
  8
0
 10
-179.535019
 20
214.083359
 40
2.500000
  0
CIRCLE
  8
0
 10
-179.535019
 20
214.083359
 40
2.250000
  0
CIRCLE
  8
0
 10
-179.535019
 20
214.083359
 40
3.500000
  0
POINT
  8
0
 10
-19.724993
 20
163.000031
  0
POINT
  8
0
 10
-15.683540
 20
163.000031
  0
LINE
  8
0
 10
-31.855772
 20
143.000031
 11
-20.956745
 21
143.000031
  0
LINE
  8
0
 10
-19.724993
 20
172.695206
 11
-19.724993
 21
132.267487
  0
LINE
  8
0
 10
-17.224993
 20
146.000031
 11
-17.224993
 21
142.753494
  0
LINE
  8
0
 10
-22.224993
 20
146.000031
 11
-22.224993
 21
142.753494
  0
LINE
  8
0
 10
-22.224993
 20
146.000031
 11
-17.224993
 21
146.000031
  0
LINE
  8
0
 10
-21.474993
 20
138.500031
 11
-17.974993
 21
138.500031
  0
LINE
  8
0
 10
-17.974993
 20
138.500031
 11
-17.974993
 21
137.300034
  0
LINE
  8
0
 10
-21.474993
 20
138.500031
 11
-21.474993
 21
137.300034
  0
LINE
  8
0
 10
-17.974993
 20
138.500031
 11
-17.224993
 21
142.753494
  0
LINE
  8
0
 10
-21.474993
 20
138.500031
 11
-22.224993
 21
142.753494
  0
LINE
  8
0
 10
-22.224993
 20
168.000031
 11
-17.224993
 21
168.000031
  0
LINE
  8
0
 10
-22.224993
 20
149.000031
 11
-17.224993
 21
149.000031
  0
LINE
  8
0
 10
-22.224993
 20
168.000031
 11
-22.224993
 21
166.000031
  0
LINE
  8
0
 10
-17.224993
 20
168.000031
 11
-17.224993
 21
166.000031
  0
LINE
  8
0
 10
-17.474993
 20
168.000031
 11
-17.474993
 21
166.000031
  0
LINE
  8
0
 10
-21.974993
 20
168.000031
 11
-21.974993
 21
166.000031
  0
LINE
  8
0
 10
-17.874992
 20
149.000031
 11
-17.874992
 21
146.000031
  0
LINE
  8
0
 10
-21.574993
 20
149.000031
 11
-21.574993
 21
146.000031
  0
LINE
  8
0
 10
-23.224987
 20
163.000031
 11
-16.224998
 21
163.000031
  0
LINE
  8
0
 10
-19.724993
 20
168.333359
 11
-19.724993
 21
161.765076
  0
LINE
  8
0
 10
-23.766445
 20
165.802963
 11
-23.766445
 21
163.197098
  0
LINE
  8
0
 10
-21.745718
 20
165.802948
 11
-21.745718
 21
163.197113
  0
LINE
  8
0
 10
-17.704268
 20
165.802963
 11
-17.704268
 21
163.191483
  0
LINE
  8
0
 10
-15.683540
 20
165.802963
 11
-15.683540
 21
163.197098
  0
LINE
  8
0
 10
-23.224987
 20
166.000031
 11
-16.224998
 21
166.000031
  0
LINE
  8
0
 10
-23.224987
 20
166.000031
 11
-23.766445
 21
165.802963
  0
LINE
  8
0
 10
-16.224998
 20
163.000031
 11
-15.683541
 21
163.197098
  0
LINE
  8
0
 10
-16.224998
 20
166.000031
 11
-15.683541
 21
165.802963
  0
LINE
  8
0
 10
-23.224987
 20
163.000031
 11
-23.766445
 21
163.197098
  0
LINE
  8
0
 10
-23.224987
 20
160.000031
 11
-16.224998
 21
160.000031
  0
LINE
  8
0
 10
-19.724993
 20
165.333359
 11
-19.724993
 21
158.765076
  0
LINE
  8
0
 10
-23.766445
 20
162.802963
 11
-23.766445
 21
160.197098
  0
LINE
  8
0
 10
-21.745718
 20
162.802948
 11
-21.745718
 21
160.197113
  0
LINE
  8
0
 10
-17.704268
 20
162.802963
 11
-17.704268
 21
160.191483
  0
LINE
  8
0
 10
-15.683540
 20
162.802963
 11
-15.683540
 21
160.197098
  0
LINE
  8
0
 10
-23.224987
 20
163.000031
 11
-16.224998
 21
163.000031
  0
LINE
  8
0
 10
-23.224987
 20
163.000031
 11
-23.766445
 21
162.802963
  0
LINE
  8
0
 10
-16.224997
 20
160.000031
 11
-15.683541
 21
160.197098
  0
LINE
  8
0
 10
-16.224998
 20
163.000031
 11
-15.683540
 21
162.802963
  0
LINE
  8
0
 10
-23.224989
 20
160.000031
 11
-23.766445
 21
160.197098
  0
LINE
  8
0
 10
-22.224993
 20
160.000031
 11
-22.224993
 21
149.000031
  0
LINE
  8
0
 10
-21.974993
 20
160.000031
 11
-21.974993
 21
149.000031
  0
LINE
  8
0
 10
-17.474993
 20
160.000031
 11
-17.474993
 21
149.000031
  0
LINE
  8
0
 10
-17.224993
 20
160.000031
 11
-17.224993
 21
149.000031
  0
LINE
  8
0
 10
-30.724993
 20
144.100037
 11
-30.724993
 21
141.900024
  0
LINE
  8
0
 10
-30.224993
 20
144.500031
 11
-30.224993
 21
141.500031
  0
LINE
  8
0
 10
-28.724993
 20
144.500031
 11
-28.724993
 21
141.500031
  0
LINE
  8
0
 10
-27.224993
 20
144.500031
 11
-27.224993
 21
141.500031
  0
LINE
  8
0
 10
-25.724993
 20
144.500031
 11
-25.724993
 21
141.500031
  0
LINE
  8
0
 10
-25.724993
 20
144.500031
 11
-22.224993
 21
144.500031
  0
LINE
  8
0
 10
-25.724993
 20
141.500031
 11
-22.003975
 21
141.500031
  0
LINE
  8
0
 10
-28.724993
 20
144.500031
 11
-30.224993
 21
143.954071
  0
LINE
  8
0
 10
-27.224993
 20
144.500031
 11
-28.724991
 21
143.954071
  0
LINE
  8
0
 10
-25.724993
 20
144.500031
 11
-27.224991
 21
143.954071
  0
LINE
  8
0
 10
-28.724993
 20
141.500031
 11
-30.224993
 21
142.045990
  0
LINE
  8
0
 10
-27.224993
 20
141.500031
 11
-28.724991
 21
142.045990
  0
LINE
  8
0
 10
-25.724993
 20
141.500031
 11
-27.224993
 21
142.045990
  0
LINE
  8
0
 10
-22.474993
 20
135.300034
 11
-16.974993
 21
135.300034
  0
LINE
  8
0
 10
-21.474993
 20
137.300034
 11
-17.974993
 21
137.300034
  0
LINE
  8
0
 10
-17.974993
 20
137.300034
 11
-17.974993
 21
135.300034
  0
LINE
  8
0
 10
-21.474993
 20
137.300034
 11
-21.474993
 21
135.300034
  0
LINE
  8
0
 10
-22.024992
 20
133.300034
 11
-17.424994
 21
133.300034
  0
LINE
  8
0
 10
-22.474995
 20
135.300034
 11
-22.024994
 21
133.300034
  0
LINE
  8
0
 10
-17.424992
 20
133.300034
 11
-16.974991
 21
135.300034
  0
ARC
  8
0
 10
-19.724993
 20
167.790024
 40
2.210000
 50
5.452798
 51
174.547211
  0
ARC
  8
0
 10
-16.225002
 20
160.349640
 40
5.650391
 50
89.999962
 51
105.176865
  0
ARC
  8
0
 10
-19.724993
 20
155.541443
 40
10.458591
 50
78.859726
 51
101.072144
  0
ARC
  8
0
 10
-23.225565
 20
160.184906
 40
5.815129
 50
75.132668
 51
89.994308
  0
ARC
  8
0
 10
-23.224983
 20
168.650421
 40
5.650391
 50
269.999908
 51
285.176849
  0
ARC
  8
0
 10
-19.724993
 20
173.458618
 40
10.458591
 50
258.859711
 51
281.072113
  0
ARC
  8
0
 10
-16.224421
 20
168.815155
 40
5.815129
 50
255.132645
 51
269.994293
  0
ARC
  8
0
 10
-16.225002
 20
157.349640
 40
5.650391
 50
89.999962
 51
105.176865
  0
ARC
  8
0
 10
-19.724993
 20
152.541443
 40
10.458591
 50
78.859726
 51
101.072144
  0
ARC
  8
0
 10
-23.225565
 20
157.184906
 40
5.815129
 50
75.132668
 51
89.994308
  0
ARC
  8
0
 10
-23.224983
 20
165.650421
 40
5.650391
 50
269.999908
 51
285.176849
  0
ARC
  8
0
 10
-19.724993
 20
170.458618
 40
10.458591
 50
258.859711
 51
281.072113
  0
ARC
  8
0
 10
-16.224421
 20
165.815155
 40
5.815129
 50
255.132645
 51
269.994293
  0
ARC
  8
0
 10
-30.324993
 20
141.900024
 40
0.400000
 50
180.000000
 51
270.000000
  0
ARC
  8
0
 10
-30.324993
 20
144.100037
 40
0.399994
 50
90.000000
 51
180.000000
  0
POLYLINE
  8
0
 66
     1
  0
VERTEX
  8
0
 10
-22.224993
 20
144.946869
  0
VERTEX
  8
0
 10
-21.911690
 20
144.018524
  0
VERTEX
  8
0
 10
-21.474350
 20
143.142303
  0
VERTEX
  8
0
 10
-20.974993
 20
142.753494
  0
VERTEX
  8
0
 10
-20.475636
 20
143.142303
  0
VERTEX
  8
0
 10
-20.038296
 20
144.018524
  0
VERTEX
  8
0
 10
-19.724993
 20
144.946869
  0
SEQEND
  0
POLYLINE
  8
0
 66
     1
  0
VERTEX
  8
0
 10
-19.724993
 20
144.946869
  0
VERTEX
  8
0
 10
-19.411690
 20
144.018524
  0
VERTEX
  8
0
 10
-18.974350
 20
143.142303
  0
VERTEX
  8
0
 10
-18.474993
 20
142.753494
  0
VERTEX
  8
0
 10
-17.975636
 20
143.142303
  0
VERTEX
  8
0
 10
-17.538296
 20
144.018524
  0
VERTEX
  8
0
 10
-17.224993
 20
144.946869
  0
SEQEND
  0
POINT
  8
0
 10
140.085007
 20
163.000015
  0
POINT
  8
0
 10
144.126465
 20
163.000015
  0
LINE
  8
0
 10
127.954224
 20
143.000015
 11
138.853256
 21
143.000015
  0
LINE
  8
0
 10
140.085007
 20
172.695190
 11
140.085007
 21
131.578186
  0
LINE
  8
0
 10
142.585007
 20
146.000015
 11
142.585007
 21
142.753479
  0
LINE
  8
0
 10
137.585007
 20
146.000015
 11
137.585007
 21
142.753479
  0
LINE
  8
0
 10
137.585007
 20
146.000015
 11
142.585007
 21
146.000015
  0
LINE
  8
0
 10
138.335007
 20
138.500015
 11
141.835007
 21
138.500015
  0
LINE
  8
0
 10
141.835007
 20
138.500015
 11
141.835007
 21
137.000015
  0
LINE
  8
0
 10
138.335007
 20
138.500015
 11
138.335007
 21
137.000015
  0
LINE
  8
0
 10
141.835007
 20
138.500015
 11
142.585007
 21
142.753479
  0
LINE
  8
0
 10
138.335007
 20
138.500015
 11
137.585007
 21
142.753479
  0
LINE
  8
0
 10
137.585007
 20
168.000015
 11
142.585007
 21
168.000015
  0
LINE
  8
0
 10
137.585007
 20
149.000015
 11
142.585007
 21
149.000015
  0
LINE
  8
0
 10
137.585007
 20
168.000015
 11
137.585007
 21
166.000015
  0
LINE
  8
0
 10
142.585007
 20
168.000015
 11
142.585007
 21
166.000015
  0
LINE
  8
0
 10
142.335007
 20
168.000015
 11
142.335007
 21
166.000015
  0
LINE
  8
0
 10
137.835007
 20
168.000015
 11
137.835007
 21
166.000015
  0
LINE
  8
0
 10
141.935013
 20
149.000015
 11
141.935013
 21
146.000015
  0
LINE
  8
0
 10
138.235001
 20
149.000015
 11
138.235001
 21
146.000015
  0
LINE
  8
0
 10
136.585007
 20
163.000015
 11
143.585007
 21
163.000015
  0
LINE
  8
0
 10
140.085007
 20
168.333344
 11
140.085007
 21
161.765060
  0
LINE
  8
0
 10
136.043549
 20
165.802948
 11
136.043549
 21
163.197083
  0
LINE
  8
0
 10
138.064285
 20
165.802948
 11
138.064285
 21
163.197083
  0
LINE
  8
0
 10
142.105728
 20
165.802948
 11
142.105728
 21
163.191467
  0
LINE
  8
0
 10
144.126465
 20
165.802948
 11
144.126465
 21
163.197083
  0
LINE
  8
0
 10
136.585007
 20
166.000015
 11
143.585007
 21
166.000015
  0
LINE
  8
0
 10
136.585007
 20
166.000015
 11
136.043549
 21
165.802948
  0
LINE
  8
0
 10
143.585007
 20
163.000015
 11
144.126465
 21
163.197083
  0
LINE
  8
0
 10
143.585007
 20
166.000015
 11
144.126465
 21
165.802948
  0
LINE
  8
0
 10
136.585007
 20
163.000015
 11
136.043549
 21
163.197083
  0
LINE
  8
0
 10
136.585007
 20
160.000015
 11
143.585007
 21
160.000015
  0
LINE
  8
0
 10
140.085007
 20
165.333344
 11
140.085007
 21
158.765060
  0
LINE
  8
0
 10
136.043549
 20
162.802948
 11
136.043549
 21
160.197083
  0
LINE
  8
0
 10
138.064285
 20
162.802948
 11
138.064285
 21
160.197083
  0
LINE
  8
0
 10
142.105728
 20
162.802948
 11
142.105728
 21
160.191467
  0
LINE
  8
0
 10
144.126465
 20
162.802948
 11
144.126465
 21
160.197083
  0
LINE
  8
0
 10
136.585007
 20
163.000015
 11
143.585007
 21
163.000015
  0
LINE
  8
0
 10
136.585007
 20
163.000015
 11
136.043549
 21
162.802948
  0
LINE
  8
0
 10
143.585007
 20
160.000015
 11
144.126465
 21
160.197083
  0
LINE
  8
0
 10
143.585007
 20
163.000015
 11
144.126465
 21
162.802948
  0
LINE
  8
0
 10
136.585007
 20
160.000015
 11
136.043549
 21
160.197083
  0
LINE
  8
0
 10
137.585007
 20
160.000015
 11
137.585007
 21
149.000015
  0
LINE
  8
0
 10
137.835007
 20
160.000015
 11
137.835007
 21
149.000015
  0
LINE
  8
0
 10
142.335007
 20
160.000015
 11
142.335007
 21
149.000015
  0
LINE
  8
0
 10
142.585007
 20
160.000015
 11
142.585007
 21
149.000015
  0
LINE
  8
0
 10
129.085007
 20
144.100021
 11
129.085007
 21
141.900009
  0
LINE
  8
0
 10
129.585007
 20
144.500015
 11
129.585007
 21
141.500015
  0
LINE
  8
0
 10
131.085007
 20
144.500015
 11
131.085007
 21
141.500015
  0
LINE
  8
0
 10
132.585007
 20
144.500015
 11
132.585007
 21
141.500015
  0
LINE
  8
0
 10
134.085007
 20
144.500015
 11
134.085007
 21
141.500015
  0
LINE
  8
0
 10
134.085007
 20
144.500015
 11
137.585007
 21
144.500015
  0
LINE
  8
0
 10
134.085007
 20
141.500015
 11
137.806030
 21
141.500015
  0
LINE
  8
0
 10
131.085007
 20
144.500015
 11
129.585007
 21
143.954056
  0
LINE
  8
0
 10
132.585007
 20
144.500015
 11
131.085007
 21
143.954056
  0
LINE
  8
0
 10
134.085007
 20
144.500015
 11
132.585007
 21
143.954056
  0
LINE
  8
0
 10
131.085007
 20
141.500015
 11
129.585007
 21
142.045975
  0
LINE
  8
0
 10
132.585007
 20
141.500015
 11
131.085007
 21
142.045975
  0
LINE
  8
0
 10
134.085007
 20
141.500015
 11
132.585007
 21
142.045975
  0
LINE
  8
0
 10
141.835007
 20
137.000015
 11
141.835007
 21
135.300018
  0
LINE
  8
0
 10
138.335007
 20
137.000015
 11
138.335007
 21
135.300018
  0
LINE
  8
0
 10
136.385010
 20
135.300018
 11
143.785004
 21
135.300018
  0
LINE
  8
0
 10
138.335007
 20
137.000015
 11
141.835007
 21
137.000015
  0
LINE
  8
0
 10
136.285004
 20
132.800018
 11
143.885010
 21
132.800018
  0
LINE
  8
0
 10
136.085007
 20
135.000015
 11
136.385010
 21
135.300018
  0
LINE
  8
0
 10
144.085007
 20
135.000015
 11
143.785004
 21
135.300018
  0
LINE
  8
0
 10
136.085007
 20
135.000015
 11
136.285004
 21
132.800018
  0
LINE
  8
0
 10
143.885010
 20
132.800018
 11
144.085007
 21
135.000015
  0
LINE
  8
0
 10
136.085007
 20
135.000015
 11
144.085007
 21
135.000015
  0
ARC
  8
0
 10
140.085007
 20
167.790009
 40
2.209998
 50
5.452803
 51
174.547195
  0
ARC
  8
0
 10
143.584991
 20
160.349625
 40
5.650391
 50
89.999847
 51
105.176788
  0
ARC
  8
0
 10
140.085007
 20
155.541428
 40
10.458591
 50
78.859726
 51
101.072121
  0
ARC
  8
0
 10
136.584442
 20
160.184891
 40
5.815127
 50
75.132721
 51
89.994438
  0
ARC
  8
0
 10
136.585022
 20
168.650406
 40
5.650391
 50
269.999847
 51
285.176788
  0
ARC
  8
0
 10
140.085007
 20
173.458603
 40
10.458591
 50
258.859741
 51
281.072113
  0
ARC
  8
0
 10
143.585571
 20
168.815140
 40
5.815127
 50
255.132721
 51
269.994446
  0
ARC
  8
0
 10
143.584991
 20
157.349625
 40
5.650391
 50
89.999847
 51
105.176788
  0
ARC
  8
0
 10
140.085007
 20
152.541428
 40
10.458591
 50
78.859726
 51
101.072121
  0
ARC
  8
0
 10
136.584442
 20
157.184891
 40
5.815127
 50
75.132721
 51
89.994438
  0
ARC
  8
0
 10
136.585022
 20
165.650406
 40
5.650391
 50
269.999847
 51
285.176788
  0
ARC
  8
0
 10
140.085007
 20
170.458603
 40
10.458591
 50
258.859741
 51
281.072113
  0
ARC
  8
0
 10
143.585571
 20
165.815140
 40
5.815127
 50
255.132721
 51
269.994446
  0
ARC
  8
0
 10
129.485001
 20
141.900009
 40
0.399994
 50
180.000000
 51
270.000000
  0
ARC
  8
0
 10
129.485001
 20
144.100021
 40
0.399994
 50
90.000000
 51
180.000000
  0
POLYLINE
  8
0
 66
     1
  0
VERTEX
  8
0
 10
137.585007
 20
144.946854
  0
VERTEX
  8
0
 10
137.898315
 20
144.018509
  0
VERTEX
  8
0
 10
138.335648
 20
143.142288
  0
VERTEX
  8
0
 10
138.835007
 20
142.753479
  0
VERTEX
  8
0
 10
139.334366
 20
143.142288
  0
VERTEX
  8
0
 10
139.771698
 20
144.018509
  0
VERTEX
  8
0
 10
140.085007
 20
144.946854
  0
SEQEND
  0
POLYLINE
  8
0
 66
     1
  0
VERTEX
  8
0
 10
140.085007
 20
144.946854
  0
VERTEX
  8
0
 10
140.398315
 20
144.018509
  0
VERTEX
  8
0
 10
140.835648
 20
143.142288
  0
VERTEX
  8
0
 10
141.335007
 20
142.753479
  0
VERTEX
  8
0
 10
141.834366
 20
143.142288
  0
VERTEX
  8
0
 10
142.271698
 20
144.018509
  0
VERTEX
  8
0
 10
142.585007
 20
144.946854
  0
SEQEND
  0
POINT
  8
0
 10
140.084991
 20
214.083344
  0
POINT
  8
0
 10
144.126450
 20
214.083344
  0
LINE
  8
0
 10
129.084991
 20
215.183350
 11
129.084991
 21
212.983337
  0
LINE
  8
0
 10
129.584991
 20
215.583344
 11
129.584991
 21
212.583344
  0
LINE
  8
0
 10
131.084991
 20
215.583344
 11
131.084991
 21
212.583344
  0
LINE
  8
0
 10
132.584991
 20
215.583344
 11
132.584991
 21
212.583344
  0
LINE
  8
0
 10
134.084991
 20
215.583344
 11
134.084991
 21
212.583344
  0
LINE
  8
0
 10
134.084991
 20
215.583344
 11
136.909561
 21
215.583344
  0
LINE
  8
0
 10
134.084991
 20
212.583344
 11
136.909561
 21
212.583344
  0
LINE
  8
0
 10
131.084991
 20
215.583344
 11
129.584991
 21
215.037384
  0
LINE
  8
0
 10
132.584991
 20
215.583328
 11
131.084991
 21
215.037384
  0
LINE
  8
0
 10
134.084991
 20
215.583344
 11
132.584991
 21
215.037384
  0
LINE
  8
0
 10
131.084991
 20
212.583344
 11
129.584991
 21
213.129303
  0
LINE
  8
0
 10
132.584991
 20
212.583328
 11
131.084991
 21
213.129288
  0
LINE
  8
0
 10
134.084991
 20
212.583344
 11
132.584991
 21
213.129303
  0
LINE
  8
0
 10
128.191818
 20
214.083344
 11
145.528214
 21
214.083344
  0
LINE
  8
0
 10
140.084991
 20
218.919632
 11
140.084991
 21
208.995834
  0
LINE
  8
0
 10
138.064270
 20
210.583344
 11
142.105713
 21
210.583344
  0
LINE
  8
0
 10
138.064270
 20
217.583344
 11
142.105713
 21
217.583344
  0
LINE
  8
0
 10
142.105713
 20
210.583344
 11
144.126434
 21
214.083344
  0
LINE
  8
0
 10
136.043533
 20
214.083344
 11
138.064270
 21
217.583344
  0
LINE
  8
0
 10
142.105713
 20
217.583344
 11
144.126450
 21
214.083344
  0
LINE
  8
0
 10
136.043549
 20
214.083344
 11
138.064270
 21
210.583344
  0
ARC
  8
0
 10
129.484985
 20
215.183350
 40
0.399994
 50
90.000000
 51
180.000000
  0
ARC
  8
0
 10
129.484985
 20
212.983337
 40
0.399994
 50
179.997818
 51
270.000000
  0
CIRCLE
  8
0
 10
140.084991
 20
214.083344
 40
2.500000
  0
CIRCLE
  8
0
 10
140.084991
 20
214.083344
 40
2.250000
  0
CIRCLE
  8
0
 10
140.084991
 20
214.083344
 40
3.500000
  0
ARC
  8
0
 10
138.334991
 20
214.083344
 40
2.250002
 50
121.882401
 51
138.189636
  0
ARC
  8
0
 10
141.834991
 20
214.083344
 40
2.249994
 50
301.882080
 51
358.117859
  0
ARC
  8
0
 10
141.834991
 20
214.083344
 40
2.249993
 50
1.882149
 51
58.117931
  0
ARC
  8
0
 10
138.334991
 20
214.083344
 40
2.249998
 50
221.810364
 51
238.117935
  0
POINT
  8
0
 10
296.895081
 20
163.000076
  0
POINT
  8
0
 10
303.823273
 20
163.000076
  0
LINE
  8
0
 10
292.395081
 20
168.000076
 11
301.395081
 21
168.000076
  0
LINE
  8
0
 10
292.895081
 20
140.500076
 11
300.895081
 21
140.500076
  0
LINE
  8
0
 10
294.895081
 20
128.500076
 11
298.895081
 21
128.500076
  0
LINE
  8
0
 10
298.895081
 20
126.500076
 11
298.895081
 21
128.500076
  0
LINE
  8
0
 10
294.895081
 20
126.500076
 11
294.895081
 21
128.500076
  0
LINE
  8
0
 10
291.895081
 20
133.696228
 11
291.895081
 21
139.500076
  0
LINE
  8
0
 10
301.895081
 20
133.696228
 11
301.895081
 21
139.500076
  0
LINE
  8
0
 10
298.895081
 20
128.500076
 11
301.895081
 21
133.696228
  0
LINE
  8
0
 10
294.895081
 20
128.500076
 11
291.895081
 21
133.696228
  0
LINE
  8
0
 10
301.895081
 20
139.500076
 11
300.895081
 21
140.500076
  0
LINE
  8
0
 10
292.895081
 20
140.500076
 11
291.895081
 21
139.500076
  0
LINE
  8
0
 10
301.395081
 20
145.500076
 11
301.395081
 21
160.000076
  0
LINE
  8
0
 10
292.395081
 20
145.500076
 11
292.395081
 21
160.000076
  0
LINE
  8
0
 10
292.395081
 20
145.500076
 11
301.395081
 21
145.500076
  0
LINE
  8
0
 10
300.895081
 20
145.500076
 11
300.895081
 21
160.000076
  0
LINE
  8
0
 10
292.895081
 20
145.500076
 11
292.895081
 21
160.000076
  0
LINE
  8
0
 10
299.895081
 20
140.500076
 11
299.895081
 21
145.500076
  0
LINE
  8
0
 10
293.895081
 20
140.500076
 11
293.895081
 21
145.500076
  0
LINE
  8
0
 10
290.895081
 20
163.000076
 11
302.895081
 21
163.000076
  0
LINE
  8
0
 10
296.895081
 20
171.839111
 11
296.895081
 21
119.180511
  0
LINE
  8
0
 10
289.966888
 20
165.662231
 11
289.966888
 21
163.337921
  0
LINE
  8
0
 10
293.430969
 20
165.662231
 11
293.430969
 21
163.337921
  0
LINE
  8
0
 10
300.359192
 20
165.662231
 11
300.359192
 21
163.337921
  0
LINE
  8
0
 10
303.823273
 20
165.662231
 11
303.823273
 21
163.337921
  0
LINE
  8
0
 10
290.895081
 20
166.000076
 11
302.895081
 21
166.000076
  0
LINE
  8
0
 10
290.895081
 20
166.000076
 11
289.966888
 21
165.662231
  0
LINE
  8
0
 10
302.895081
 20
163.000076
 11
303.823273
 21
163.337906
  0
LINE
  8
0
 10
302.895081
 20
166.000076
 11
303.823273
 21
165.662231
  0
LINE
  8
0
 10
290.895081
 20
163.000076
 11
289.966888
 21
163.337906
  0
LINE
  8
0
 10
290.895081
 20
160.000076
 11
302.895081
 21
160.000076
  0
LINE
  8
0
 10
289.966888
 20
162.662231
 11
289.966888
 21
160.337921
  0
LINE
  8
0
 10
293.430969
 20
162.662231
 11
293.430969
 21
160.337921
  0
LINE
  8
0
 10
300.359192
 20
162.662231
 11
300.359192
 21
160.337921
  0
LINE
  8
0
 10
303.823273
 20
162.662231
 11
303.823273
 21
160.337921
  0
LINE
  8
0
 10
290.895081
 20
163.000076
 11
302.895081
 21
163.000076
  0
LINE
  8
0
 10
290.895081
 20
163.000076
 11
289.966888
 21
162.662231
  0
LINE
  8
0
 10
302.895081
 20
160.000076
 11
303.823273
 21
160.337921
  0
LINE
  8
0
 10
302.895081
 20
163.000076
 11
303.823273
 21
162.662231
  0
LINE
  8
0
 10
290.895081
 20
160.000076
 11
289.966888
 21
160.337906
  0
LINE
  8
0
 10
292.395081
 20
166.000076
 11
292.395081
 21
168.000076
  0
LINE
  8
0
 10
292.895081
 20
166.000076
 11
292.895081
 21
168.000076
  0
LINE
  8
0
 10
300.895081
 20
166.000076
 11
300.895081
 21
168.000076
  0
LINE
  8
0
 10
301.395081
 20
166.000076
 11
301.395081
 21
168.000076
  0
LINE
  8
0
 10
277.794800
 20
135.000076
 11
292.627625
 21
135.000076
  0
LINE
  8
0
 10
286.895081
 20
132.500076
 11
286.895081
 21
137.500076
  0
LINE
  8
0
 10
278.895081
 20
132.984482
 11
278.895081
 21
137.015671
  0
LINE
  8
0
 10
280.895081
 20
132.500076
 11
280.895081
 21
137.500076
  0
LINE
  8
0
 10
282.895081
 20
132.500076
 11
282.895081
 21
137.500076
  0
LINE
  8
0
 10
284.895081
 20
132.500076
 11
284.895081
 21
137.500076
  0
LINE
  8
0
 10
282.895081
 20
137.500076
 11
280.895081
 21
136.772141
  0
LINE
  8
0
 10
284.895081
 20
137.500076
 11
282.895081
 21
136.772141
  0
LINE
  8
0
 10
282.895081
 20
132.500076
 11
280.895081
 21
133.228012
  0
LINE
  8
0
 10
284.895081
 20
132.500076
 11
282.895081
 21
133.228012
  0
LINE
  8
0
 10
286.895081
 20
132.500076
 11
284.895081
 21
133.228012
  0
LINE
  8
0
 10
286.895081
 20
137.500076
 11
284.895081
 21
136.772141
  0
LINE
  8
0
 10
286.895081
 20
132.500076
 11
292.585693
 21
132.500076
  0
LINE
  8
0
 10
286.895081
 20
137.500076
 11
291.895081
 21
137.500076
  0
LINE
  8
0
 10
280.895081
 20
137.500076
 11
279.274139
 21
137.415131
  0
LINE
  8
0
 10
280.895081
 20
132.500076
 11
279.274139
 21
132.585022
  0
LINE
  8
0
 10
298.895081
 20
122.500076
 11
298.895081
 21
121.707001
  0
LINE
  8
0
 10
294.895081
 20
122.500076
 11
294.895081
 21
121.707001
  0
LINE
  8
0
 10
299.895081
 20
126.500076
 11
299.895081
 21
123.500076
  0
LINE
  8
0
 10
293.895081
 20
126.500076
 11
293.895081
 21
123.500076
  0
LINE
  8
0
 10
293.895081
 20
123.500076
 11
299.895081
 21
123.500076
  0
LINE
  8
0
 10
293.895081
 20
126.500076
 11
299.895081
 21
126.500076
  0
LINE
  8
0
 10
293.895081
 20
120.500076
 11
299.895081
 21
120.500076
  0
LINE
  8
0
 10
294.895081
 20
122.500076
 11
293.895081
 21
123.500076
  0
LINE
  8
0
 10
298.895081
 20
122.500076
 11
299.895081
 21
123.500076
  0
LINE
  8
0
 10
293.895081
 20
120.500076
 11
293.695068
 21
120.700073
  0
LINE
  8
0
 10
299.895081
 20
120.500076
 11
300.095093
 21
120.700073
  0
LINE
  8
0
 10
293.695068
 20
120.700081
 11
294.895081
 21
121.707001
  0
LINE
  8
0
 10
300.095093
 20
120.700073
 11
298.895081
 21
121.707001
  0
LINE
  8
0
 10
294.895081
 20
122.500076
 11
298.895081
 21
122.500076
  0
LINE
  8
0
 10
298.895081
 20
121.707001
 11
294.895081
 21
121.707001
  0
LINE
  8
0
 10
293.695068
 20
120.700073
 11
300.095093
 21
120.700073
  0
ARC
  8
0
 10
296.895081
 20
166.800079
 40
3.699999
 50
18.924601
 51
161.075394
  0
ARC
  8
0
 10
296.895081
 20
148.071320
 40
17.928755
 50
78.859512
 51
101.140488
  0
ARC
  8
0
 10
296.895081
 20
180.929031
 40
17.928949
 50
258.859619
 51
281.140381
  0
ARC
  8
0
 10
290.888824
 20
156.266785
 40
9.733290
 50
74.859886
 51
89.963173
  0
ARC
  8
0
 10
290.895081
 20
172.686554
 40
9.686478
 50
270.000000
 51
285.176697
  0
ARC
  8
0
 10
302.895081
 20
172.686554
 40
9.686468
 50
254.823288
 51
270.000000
  0
ARC
  8
0
 10
302.901245
 20
156.267517
 40
9.732561
 50
90.036293
 51
105.140724
  0
ARC
  8
0
 10
296.895081
 20
145.071320
 40
17.928755
 50
78.859512
 51
101.140488
  0
ARC
  8
0
 10
296.895081
 20
177.929031
 40
17.928949
 50
258.859619
 51
281.140381
  0
ARC
  8
0
 10
290.888824
 20
153.266785
 40
9.733290
 50
74.859886
 51
89.963173
  0
ARC
  8
0
 10
290.895081
 20
169.686554
 40
9.686478
 50
270.000000
 51
285.176697
  0
ARC
  8
0
 10
302.895081
 20
169.686554
 40
9.686468
 50
254.823288
 51
270.000000
  0
ARC
  8
0
 10
302.901245
 20
153.267517
 40
9.732561
 50
90.036293
 51
105.140724
  0
ARC
  8
0
 10
279.295074
 20
137.015671
 40
0.400008
 50
93.000038
 51
180.000000
  0
ARC
  8
0
 10
279.295074
 20
132.984482
 40
0.399994
 50
180.000000
 51
266.999969
  0
POLYLINE
  8
0
 66
     1
  0
VERTEX
  8
0
 10
301.895081
 20
138.726578
  0
VERTEX
  8
0
 10
301.112610
 20
139.131119
  0
VERTEX
  8
0
 10
300.269104
 20
139.401535
  0
VERTEX
  8
0
 10
299.395081
 20
139.500076
  0
VERTEX
  8
0
 10
298.521057
 20
139.401535
  0
VERTEX
  8
0
 10
297.677551
 20
139.131119
  0
VERTEX
  8
0
 10
296.895081
 20
138.726578
  0
SEQEND
  0
POLYLINE
  8
0
 66
     1
  0
VERTEX
  8
0
 10
296.895081
 20
138.726578
  0
VERTEX
  8
0
 10
296.112610
 20
139.131119
  0
VERTEX
  8
0
 10
295.269104
 20
139.401535
  0
VERTEX
  8
0
 10
294.395081
 20
139.500076
  0
VERTEX
  8
0
 10
293.521057
 20
139.401535
  0
VERTEX
  8
0
 10
292.677551
 20
139.131119
  0
VERTEX
  8
0
 10
291.895081
 20
138.726578
  0
SEQEND
  0
POLYLINE
  8
0
 66
     1
  0
VERTEX
  8
0
 10
291.895081
 20
135.035980
  0
VERTEX
  8
0
 10
292.623779
 20
134.381393
  0
VERTEX
  8
0
 10
293.478027
 20
133.889954
  0
VERTEX
  8
0
 10
294.395081
 20
133.696228
  0
VERTEX
  8
0
 10
295.312134
 20
133.889954
  0
VERTEX
  8
0
 10
296.166382
 20
134.381393
  0
VERTEX
  8
0
 10
296.895081
 20
135.035980
  0
SEQEND
  0
POLYLINE
  8
0
 66
     1
  0
VERTEX
  8
0
 10
296.895081
 20
135.035980
  0
VERTEX
  8
0
 10
297.623779
 20
134.381393
  0
VERTEX
  8
0
 10
298.478027
 20
133.889954
  0
VERTEX
  8
0
 10
299.395081
 20
133.696228
  0
VERTEX
  8
0
 10
300.312134
 20
133.889954
  0
VERTEX
  8
0
 10
301.166382
 20
134.381393
  0
VERTEX
  8
0
 10
301.895081
 20
135.035980
  0
SEQEND
  0
POINT
  8
0
 10
296.895081
 20
214.083435
  0
POINT
  8
0
 10
303.823273
 20
214.083435
  0
LINE
  8
0
 10
277.794800
 20
214.083435
 11
305.706055
 21
214.083435
  0
LINE
  8
0
 10
286.895081
 20
211.583435
 11
286.895081
 21
216.583435
  0
LINE
  8
0
 10
278.895081
 20
212.067841
 11
278.895081
 21
216.099030
  0
LINE
  8
0
 10
280.895081
 20
211.583435
 11
280.895081
 21
216.583435
  0
LINE
  8
0
 10
282.895081
 20
211.583435
 11
282.895081
 21
216.583435
  0
LINE
  8
0
 10
284.895081
 20
211.583435
 11
284.895081
 21
216.583435
  0
LINE
  8
0
 10
282.895081
 20
216.583435
 11
280.895081
 21
215.855499
  0
LINE
  8
0
 10
284.895081
 20
216.583435
 11
282.895081
 21
215.855499
  0
LINE
  8
0
 10
282.895081
 20
211.583435
 11
280.895081
 21
212.311371
  0
LINE
  8
0
 10
284.895081
 20
211.583435
 11
282.895081
 21
212.311386
  0
LINE
  8
0
 10
286.895081
 20
211.583435
 11
284.895081
 21
212.311371
  0
LINE
  8
0
 10
286.895081
 20
216.583435
 11
284.895081
 21
215.855499
  0
LINE
  8
0
 10
286.895081
 20
211.583435
 11
291.410248
 21
211.583435
  0
LINE
  8
0
 10
286.895081
 20
216.583435
 11
291.410248
 21
216.583435
  0
LINE
  8
0
 10
280.895081
 20
216.583450
 11
279.274139
 21
216.498505
  0
LINE
  8
0
 10
280.895081
 20
211.583435
 11
279.274139
 21
211.668381
  0
LINE
  8
0
 10
296.895081
 20
205.391205
 11
296.895081
 21
222.486084
  0
LINE
  8
0
 10
293.430969
 20
208.083435
 11
289.966888
 21
214.083435
  0
LINE
  8
0
 10
303.823303
 20
214.083450
 11
300.359192
 21
220.083450
  0
LINE
  8
0
 10
289.966858
 20
214.083435
 11
293.430969
 21
220.083435
  0
LINE
  8
0
 10
300.359192
 20
208.083435
 11
303.823273
 21
214.083435
  0
LINE
  8
0
 10
293.430969
 20
208.083435
 11
300.359192
 21
208.083435
  0
LINE
  8
0
 10
293.430969
 20
220.083435
 11
300.359192
 21
220.083435
  0
ARC
  8
0
 10
279.295074
 20
216.099030
 40
0.400008
 50
93.000038
 51
179.997818
  0
ARC
  8
0
 10
279.295074
 20
212.067841
 40
0.399994
 50
180.000000
 51
266.999847
  0
CIRCLE
  8
0
 10
296.895081
 20
214.083435
 40
4.500000
  0
CIRCLE
  8
0
 10
296.895081
 20
214.083435
 40
4.000000
  0
CIRCLE
  8
0
 10
296.895081
 20
214.083435
 40
6.000000
  0
CIRCLE
  8
0
 10
296.895081
 20
214.083435
 40
3.500000
  0
POINT
  8
0
 10
-344.344818
 20
-17.333303
  0
POINT
  8
0
 10
-337.416626
 20
-17.333303
  0
POINT
  8
0
 10
-344.344818
 20
-9.833304
  0
LINE
  8
0
 10
-348.844818
 20
-12.333303
 11
-339.844818
 21
-12.333303
  0
LINE
  8
0
 10
-348.344818
 20
-39.833305
 11
-340.344818
 21
-39.833305
  0
LINE
  8
0
 10
-346.344818
 20
-51.833305
 11
-342.344818
 21
-51.833305
  0
LINE
  8
0
 10
-342.344818
 20
-53.833305
 11
-342.344818
 21
-51.833305
  0
LINE
  8
0
 10
-346.344818
 20
-53.833305
 11
-346.344818
 21
-51.833305
  0
LINE
  8
0
 10
-349.344818
 20
-46.637154
 11
-349.344818
 21
-40.833305
  0
LINE
  8
0
 10
-339.344818
 20
-46.637150
 11
-339.344818
 21
-40.833305
  0
LINE
  8
0
 10
-342.344818
 20
-51.833305
 11
-339.344818
 21
-46.637154
  0
LINE
  8
0
 10
-346.344818
 20
-51.833298
 11
-349.344818
 21
-46.637150
  0
LINE
  8
0
 10
-339.344818
 20
-40.833302
 11
-340.344818
 21
-39.833305
  0
LINE
  8
0
 10
-348.344818
 20
-39.833302
 11
-349.344818
 21
-40.833302
  0
LINE
  8
0
 10
-339.844818
 20
-34.833305
 11
-339.844818
 21
-20.333303
  0
LINE
  8
0
 10
-348.844818
 20
-34.833305
 11
-348.844818
 21
-20.333303
  0
LINE
  8
0
 10
-348.844818
 20
-34.833305
 11
-339.844818
 21
-34.833305
  0
LINE
  8
0
 10
-340.344818
 20
-34.833305
 11
-340.344818
 21
-20.333303
  0
LINE
  8
0
 10
-348.344818
 20
-34.833305
 11
-348.344818
 21
-20.333303
  0
LINE
  8
0
 10
-341.344818
 20
-39.833305
 11
-341.344818
 21
-34.833305
  0
LINE
  8
0
 10
-347.344818
 20
-39.833305
 11
-347.344818
 21
-34.833305
  0
LINE
  8
0
 10
-350.344818
 20
-17.333303
 11
-338.344818
 21
-17.333303
  0
LINE
  8
0
 10
-344.344818
 20
-8.494261
 11
-344.344818
 21
-60.175598
  0
LINE
  8
0
 10
-351.273010
 20
-14.671144
 11
-351.273010
 21
-16.995466
  0
LINE
  8
0
 10
-347.808929
 20
-14.671141
 11
-347.808929
 21
-16.995466
  0
LINE
  8
0
 10
-340.880707
 20
-14.671141
 11
-340.880707
 21
-16.995466
  0
LINE
  8
0
 10
-337.416626
 20
-14.671144
 11
-337.416626
 21
-16.995466
  0
LINE
  8
0
 10
-350.344818
 20
-14.333303
 11
-338.344818
 21
-14.333303
  0
LINE
  8
0
 10
-350.344818
 20
-14.333304
 11
-351.273010
 21
-14.671147
  0
LINE
  8
0
 10
-338.344818
 20
-17.333305
 11
-337.416626
 21
-16.995466
  0
LINE
  8
0
 10
-338.344818
 20
-14.333303
 11
-337.416626
 21
-14.671145
  0
LINE
  8
0
 10
-350.344818
 20
-17.333305
 11
-351.273010
 21
-16.995466
  0
LINE
  8
0
 10
-350.344818
 20
-20.333303
 11
-338.344818
 21
-20.333303
  0
LINE
  8
0
 10
-351.273010
 20
-17.671144
 11
-351.273010
 21
-19.995466
  0
LINE
  8
0
 10
-347.808929
 20
-17.671141
 11
-347.808929
 21
-19.995466
  0
LINE
  8
0
 10
-340.880707
 20
-17.671141
 11
-340.880707
 21
-19.995466
  0
LINE
  8
0
 10
-337.416626
 20
-17.671144
 11
-337.416626
 21
-19.995466
  0
LINE
  8
0
 10
-350.344818
 20
-17.333303
 11
-338.344818
 21
-17.333303
  0
LINE
  8
0
 10
-350.344818
 20
-17.333305
 11
-351.273010
 21
-17.671148
  0
LINE
  8
0
 10
-338.344818
 20
-20.333303
 11
-337.416626
 21
-19.995464
  0
LINE
  8
0
 10
-338.344818
 20
-17.333307
 11
-337.416626
 21
-17.671150
  0
LINE
  8
0
 10
-350.344818
 20
-20.333305
 11
-351.273010
 21
-19.995468
  0
LINE
  8
0
 10
-348.844818
 20
-14.333303
 11
-348.844818
 21
-12.333303
  0
LINE
  8
0
 10
-348.344818
 20
-14.333303
 11
-348.344818
 21
-12.333303
  0
LINE
  8
0
 10
-340.344818
 20
-14.333303
 11
-340.344818
 21
-12.333303
  0
LINE
  8
0
 10
-339.844818
 20
-14.333303
 11
-339.844818
 21
-12.333303
  0
LINE
  8
0
 10
-363.445129
 20
-45.333305
 11
-348.612274
 21
-45.333305
  0
LINE
  8
0
 10
-354.344818
 20
-47.833305
 11
-354.344818
 21
-42.833305
  0
LINE
  8
0
 10
-362.344818
 20
-47.348900
 11
-362.344818
 21
-43.317703
  0
LINE
  8
0
 10
-360.344818
 20
-47.833305
 11
-360.344818
 21
-42.833305
  0
LINE
  8
0
 10
-358.344818
 20
-47.833305
 11
-358.344818
 21
-42.833305
  0
LINE
  8
0
 10
-356.344818
 20
-47.833305
 11
-356.344818
 21
-42.833305
  0
LINE
  8
0
 10
-358.344818
 20
-42.833305
 11
-360.344818
 21
-43.561245
  0
LINE
  8
0
 10
-356.344818
 20
-42.833302
 11
-358.344818
 21
-43.561241
  0
LINE
  8
0
 10
-358.344818
 20
-47.833305
 11
-360.344818
 21
-47.105366
  0
LINE
  8
0
 10
-356.344818
 20
-47.833305
 11
-358.344818
 21
-47.105362
  0
LINE
  8
0
 10
-354.344818
 20
-47.833305
 11
-356.344818
 21
-47.105362
  0
LINE
  8
0
 10
-354.344818
 20
-42.833302
 11
-356.344818
 21
-43.561241
  0
LINE
  8
0
 10
-354.344818
 20
-47.833305
 11
-348.654205
 21
-47.833305
  0
LINE
  8
0
 10
-354.344818
 20
-42.833305
 11
-349.344818
 21
-42.833305
  0
LINE
  8
0
 10
-360.344818
 20
-42.833302
 11
-361.965759
 21
-42.918251
  0
LINE
  8
0
 10
-360.344818
 20
-47.833298
 11
-361.965759
 21
-47.748352
  0
LINE
  8
0
 10
-341.344818
 20
-54.373306
 11
-341.344818
 21
-56.833305
  0
LINE
  8
0
 10
-347.344818
 20
-54.373306
 11
-347.344818
 21
-56.833305
  0
LINE
  8
0
 10
-347.344818
 20
-56.833305
 11
-341.344818
 21
-56.833305
  0
LINE
  8
0
 10
-346.804810
 20
-53.833305
 11
-341.884827
 21
-53.833305
  0
LINE
  8
0
 10
-348.344818
 20
-59.333305
 11
-340.344818
 21
-59.333305
  0
LINE
  8
0
 10
-348.344818
 20
-59.333298
 11
-348.514801
 21
-59.083298
  0
LINE
  8
0
 10
-340.174805
 20
-59.083298
 11
-340.344818
 21
-59.333298
  0
LINE
  8
0
 10
-348.514832
 20
-59.083305
 11
-346.804810
 21
-57.373306
  0
LINE
  8
0
 10
-340.174805
 20
-59.083298
 11
-341.884827
 21
-57.373299
  0
LINE
  8
0
 10
-346.804810
 20
-57.373306
 11
-347.344818
 21
-56.833305
  0
LINE
  8
0
 10
-341.884827
 20
-57.373306
 11
-341.344818
 21
-56.833305
  0
LINE
  8
0
 10
-346.804810
 20
-57.373306
 11
-341.884827
 21
-57.373306
  0
LINE
  8
0
 10
-346.804810
 20
-53.833305
 11
-347.344818
 21
-54.373299
  0
LINE
  8
0
 10
-341.344818
 20
-54.373306
 11
-341.884827
 21
-53.833305
  0
LINE
  8
0
 10
-348.514832
 20
-59.083305
 11
-340.174805
 21
-59.083305
  0
ARC
  8
0
 10
-344.344818
 20
-13.533304
 40
3.700000
 50
18.924656
 51
161.075378
  0
ARC
  8
0
 10
-344.344818
 20
-32.262054
 40
17.928753
 50
78.859505
 51
101.140495
  0
ARC
  8
0
 10
-344.344818
 20
0.595648
 40
17.928951
 50
258.859619
 51
281.140350
  0
ARC
  8
0
 10
-350.351074
 20
-24.066595
 40
9.733294
 50
74.859894
 51
89.963173
  0
ARC
  8
0
 10
-350.344818
 20
-7.646830
 40
9.686474
 50
270.000000
 51
285.176727
  0
ARC
  8
0
 10
-338.344818
 20
-7.646830
 40
9.686472
 50
254.823288
 51
270.000000
  0
ARC
  8
0
 10
-338.338684
 20
-24.065855
 40
9.732552
 50
90.036110
 51
105.140556
  0
ARC
  8
0
 10
-344.344818
 20
-35.262054
 40
17.928753
 50
78.859505
 51
101.140495
  0
ARC
  8
0
 10
-344.344818
 20
-2.404352
 40
17.928951
 50
258.859619
 51
281.140350
  0
ARC
  8
0
 10
-350.351074
 20
-27.066595
 40
9.733293
 50
74.859886
 51
89.963173
  0
ARC
  8
0
 10
-350.344818
 20
-10.646830
 40
9.686474
 50
270.000000
 51
285.176727
  0
ARC
  8
0
 10
-338.344818
 20
-10.646830
 40
9.686470
 50
254.823288
 51
270.000000
  0
ARC
  8
0
 10
-338.338684
 20
-27.065855
 40
9.732552
 50
90.036110
 51
105.140556
  0
ARC
  8
0
 10
-361.944824
 20
-43.317703
 40
0.400000
 50
93.000092
 51
180.000000
  0
ARC
  8
0
 10
-361.944824
 20
-47.348900
 40
0.399994
 50
180.000000
 51
266.999908
  0
POLYLINE
  8
0
 66
     1
  0
VERTEX
  8
0
 10
-339.344818
 20
-41.606808
  0
VERTEX
  8
0
 10
-340.127289
 20
-41.202263
  0
VERTEX
  8
0
 10
-340.970795
 20
-40.931839
  0
VERTEX
  8
0
 10
-341.844818
 20
-40.833305
  0
VERTEX
  8
0
 10
-342.718842
 20
-40.931839
  0
VERTEX
  8
0
 10
-343.562347
 20
-41.202263
  0
VERTEX
  8
0
 10
-344.344818
 20
-41.606808
  0
SEQEND
  0
POLYLINE
  8
0
 66
     1
  0
VERTEX
  8
0
 10
-344.344818
 20
-41.606808
  0
VERTEX
  8
0
 10
-345.127289
 20
-41.202263
  0
VERTEX
  8
0
 10
-345.970795
 20
-40.931839
  0
VERTEX
  8
0
 10
-346.844818
 20
-40.833305
  0
VERTEX
  8
0
 10
-347.718842
 20
-40.931839
  0
VERTEX
  8
0
 10
-348.562347
 20
-41.202263
  0
VERTEX
  8
0
 10
-349.344818
 20
-41.606808
  0
SEQEND
  0
POLYLINE
  8
0
 66
     1
  0
VERTEX
  8
0
 10
-349.344818
 20
-45.297401
  0
VERTEX
  8
0
 10
-348.616119
 20
-45.951984
  0
VERTEX
  8
0
 10
-347.761871
 20
-46.443432
  0
VERTEX
  8
0
 10
-346.844818
 20
-46.637154
  0
VERTEX
  8
0
 10
-345.927765
 20
-46.443432
  0
VERTEX
  8
0
 10
-345.073517
 20
-45.951984
  0
VERTEX
  8
0
 10
-344.344818
 20
-45.297401
  0
SEQEND
  0
POLYLINE
  8
0
 66
     1
  0
VERTEX
  8
0
 10
-344.344818
 20
-45.297401
  0
VERTEX
  8
0
 10
-343.616119
 20
-45.951984
  0
VERTEX
  8
0
 10
-342.761871
 20
-46.443432
  0
VERTEX
  8
0
 10
-341.844818
 20
-46.637154
  0
VERTEX
  8
0
 10
-340.927765
 20
-46.443432
  0
VERTEX
  8
0
 10
-340.073517
 20
-45.951984
  0
VERTEX
  8
0
 10
-339.344818
 20
-45.297401
  0
SEQEND
  0
POINT
  8
0
 10
-344.344757
 20
33.749687
  0
POINT
  8
0
 10
-337.416534
 20
33.749687
  0
LINE
  8
0
 10
-363.445068
 20
33.749687
 11
-335.533783
 21
33.749687
  0
LINE
  8
0
 10
-354.344757
 20
31.249687
 11
-354.344757
 21
36.249687
  0
LINE
  8
0
 10
-362.344757
 20
31.734093
 11
-362.344757
 21
35.765289
  0
LINE
  8
0
 10
-360.344757
 20
31.249687
 11
-360.344757
 21
36.249687
  0
LINE
  8
0
 10
-358.344757
 20
31.249687
 11
-358.344757
 21
36.249687
  0
LINE
  8
0
 10
-356.344757
 20
31.249687
 11
-356.344757
 21
36.249687
  0
LINE
  8
0
 10
-358.344757
 20
36.249687
 11
-360.344757
 21
35.521744
  0
LINE
  8
0
 10
-356.344757
 20
36.249687
 11
-358.344757
 21
35.521748
  0
LINE
  8
0
 10
-358.344757
 20
31.249685
 11
-360.344757
 21
31.977627
  0
LINE
  8
0
 10
-356.344757
 20
31.249691
 11
-358.344757
 21
31.977633
  0
LINE
  8
0
 10
-354.344757
 20
31.249687
 11
-356.344757
 21
31.977627
  0
LINE
  8
0
 10
-354.344757
 20
36.249683
 11
-356.344757
 21
35.521744
  0
LINE
  8
0
 10
-354.344757
 20
31.249687
 11
-349.829590
 21
31.249687
  0
LINE
  8
0
 10
-354.344757
 20
36.249687
 11
-349.829590
 21
36.249687
  0
LINE
  8
0
 10
-360.344757
 20
36.249702
 11
-361.965698
 21
36.164753
  0
LINE
  8
0
 10
-360.344757
 20
31.249683
 11
-361.965698
 21
31.334633
  0
LINE
  8
0
 10
-344.344757
 20
25.057457
 11
-344.344757
 21
42.152344
  0
LINE
  8
0
 10
-347.808838
 20
27.749689
 11
-351.272949
 21
33.749687
  0
LINE
  8
0
 10
-337.416534
 20
33.749699
 11
-340.880646
 21
39.749702
  0
LINE
  8
0
 10
-351.272980
 20
33.749691
 11
-347.808868
 21
39.749691
  0
LINE
  8
0
 10
-340.880646
 20
27.749685
 11
-337.416565
 21
33.749683
  0
LINE
  8
0
 10
-347.808868
 20
27.749687
 11
-340.880646
 21
27.749687
  0
LINE
  8
0
 10
-347.808868
 20
39.749687
 11
-340.880646
 21
39.749687
  0
ARC
  8
0
 10
-361.944763
 20
35.765289
 40
0.400000
 50
93.000092
 51
180.000000
  0
ARC
  8
0
 10
-361.944763
 20
31.734093
 40
0.399994
 50
180.000000
 51
266.999908
  0
CIRCLE
  8
0
 10
-344.344757
 20
33.749687
 40
4.500000
  0
CIRCLE
  8
0
 10
-344.344757
 20
33.749687
 40
4.000000
  0
CIRCLE
  8
0
 10
-344.344757
 20
33.749687
 40
6.000000
  0
CIRCLE
  8
0
 10
-344.344757
 20
33.749687
 40
3.500000
  0
POINT
  8
0
 10
-159.535019
 20
-27.833336
  0
POINT
  8
0
 10
-151.452118
 20
-27.833336
  0
LINE
  8
0
 10
-154.035019
 20
-17.333336
 11
-154.035019
 21
-24.833336
  0
LINE
  8
0
 10
-165.035019
 20
-17.333336
 11
-165.035019
 21
-24.833336
  0
LINE
  8
0
 10
-165.035019
 20
-17.333336
 11
-154.035019
 21
-17.333336
  0
LINE
  8
0
 10
-154.535019
 20
-17.333336
 11
-154.535019
 21
-24.833336
  0
LINE
  8
0
 10
-164.535019
 20
-17.333336
 11
-164.535019
 21
-24.833336
  0
LINE
  8
0
 10
-165.035019
 20
-30.833336
 11
-165.035019
 21
-47.333336
  0
LINE
  8
0
 10
-164.535019
 20
-30.833336
 11
-164.535019
 21
-47.333336
  0
LINE
  8
0
 10
-159.535019
 20
-11.213375
 11
-159.535019
 21
-76.062073
  0
LINE
  8
0
 10
-154.535019
 20
-30.833336
 11
-154.535019
 21
-47.333336
  0
LINE
  8
0
 10
-154.035019
 20
-30.833336
 11
-154.035019
 21
-47.333336
  0
LINE
  8
0
 10
-166.535019
 20
-27.833336
 11
-152.535019
 21
-27.833336
  0
LINE
  8
0
 10
-166.535019
 20
-24.833336
 11
-152.535019
 21
-24.833336
  0
LINE
  8
0
 10
-167.617920
 20
-25.227482
 11
-167.617920
 21
-27.439194
  0
LINE
  8
0
 10
-151.452118
 20
-25.227482
 11
-151.452118
 21
-27.439194
  0
LINE
  8
0
 10
-166.535019
 20
-24.833340
 11
-167.617920
 21
-25.227486
  0
LINE
  8
0
 10
-152.535019
 20
-27.833334
 11
-151.452118
 21
-27.439192
  0
LINE
  8
0
 10
-166.535019
 20
-27.833334
 11
-167.617920
 21
-27.439192
  0
LINE
  8
0
 10
-152.535019
 20
-24.833340
 11
-151.452118
 21
-25.227486
  0
LINE
  8
0
 10
-163.576477
 20
-25.227482
 11
-163.576477
 21
-27.439194
  0
LINE
  8
0
 10
-155.493561
 20
-25.227486
 11
-155.493561
 21
-27.439194
  0
LINE
  8
0
 10
-152.535019
 20
-30.833332
 11
-151.452118
 21
-30.439190
  0
LINE
  8
0
 10
-166.535019
 20
-30.833332
 11
-167.617920
 21
-30.439190
  0
LINE
  8
0
 10
-155.493561
 20
-28.227486
 11
-155.493561
 21
-30.439194
  0
LINE
  8
0
 10
-152.535019
 20
-27.833336
 11
-151.452118
 21
-28.227482
  0
LINE
  8
0
 10
-163.576477
 20
-28.227482
 11
-163.576477
 21
-30.439194
  0
LINE
  8
0
 10
-166.535019
 20
-30.833336
 11
-152.535019
 21
-30.833336
  0
LINE
  8
0
 10
-167.617920
 20
-28.227482
 11
-167.617920
 21
-30.439194
  0
LINE
  8
0
 10
-151.452118
 20
-28.227482
 11
-151.452118
 21
-30.439194
  0
LINE
  8
0
 10
-166.535019
 20
-27.833336
 11
-167.617920
 21
-28.227482
  0
LINE
  8
0
 10
-165.035019
 20
-47.333336
 11
-154.035019
 21
-47.333336
  0
LINE
  8
0
 10
-154.535019
 20
-53.833336
 11
-154.535019
 21
-62.833336
  0
LINE
  8
0
 10
-164.535019
 20
-53.833336
 11
-164.535019
 21
-62.833336
  0
LINE
  8
0
 10
-164.035019
 20
-63.333336
 11
-155.035019
 21
-63.333336
  0
LINE
  8
0
 10
-155.285019
 20
-47.333336
 11
-155.285019
 21
-53.333336
  0
LINE
  8
0
 10
-163.785019
 20
-47.333336
 11
-163.785019
 21
-53.333336
  0
LINE
  8
0
 10
-164.035019
 20
-53.333336
 11
-155.035019
 21
-53.333336
  0
LINE
  8
0
 10
-155.285019
 20
-63.333336
 11
-155.285019
 21
-66.333336
  0
LINE
  8
0
 10
-163.785019
 20
-63.333336
 11
-163.785019
 21
-66.333336
  0
LINE
  8
0
 10
-164.535019
 20
-62.833336
 11
-154.535019
 21
-62.833336
  0
LINE
  8
0
 10
-164.535019
 20
-53.833336
 11
-154.535019
 21
-53.833336
  0
LINE
  8
0
 10
-164.535019
 20
-53.833336
 11
-164.035019
 21
-53.333336
  0
LINE
  8
0
 10
-155.035019
 20
-53.333336
 11
-154.535019
 21
-53.833336
  0
LINE
  8
0
 10
-155.035019
 20
-63.333336
 11
-154.535019
 21
-62.833332
  0
LINE
  8
0
 10
-164.535019
 20
-62.833332
 11
-164.035019
 21
-63.333336
  0
LINE
  8
0
 10
-159.535019
 20
-61.490993
 11
-159.535019
 21
-55.175674
  0
LINE
  8
0
 10
-178.635315
 20
-58.333336
 11
-163.802475
 21
-58.333336
  0
LINE
  8
0
 10
-169.535019
 20
-60.833336
 11
-169.535019
 21
-55.833336
  0
LINE
  8
0
 10
-177.535019
 20
-60.348934
 11
-177.535019
 21
-56.317734
  0
LINE
  8
0
 10
-175.535019
 20
-60.833336
 11
-175.535019
 21
-55.833336
  0
LINE
  8
0
 10
-173.535019
 20
-60.833336
 11
-173.535019
 21
-55.833336
  0
LINE
  8
0
 10
-171.535019
 20
-60.833336
 11
-171.535019
 21
-55.833336
  0
LINE
  8
0
 10
-173.535019
 20
-55.833336
 11
-175.535019
 21
-56.561272
  0
LINE
  8
0
 10
-171.535019
 20
-55.833336
 11
-173.535019
 21
-56.561279
  0
LINE
  8
0
 10
-173.535019
 20
-60.833344
 11
-175.535019
 21
-60.105404
  0
LINE
  8
0
 10
-171.535019
 20
-60.833340
 11
-173.535019
 21
-60.105400
  0
LINE
  8
0
 10
-169.535019
 20
-60.833340
 11
-171.535019
 21
-60.105400
  0
LINE
  8
0
 10
-169.535019
 20
-55.833336
 11
-171.535019
 21
-56.561275
  0
LINE
  8
0
 10
-169.535019
 20
-60.833336
 11
-164.535019
 21
-60.833336
  0
LINE
  8
0
 10
-169.535019
 20
-55.833336
 11
-164.535019
 21
-55.833336
  0
LINE
  8
0
 10
-175.535019
 20
-55.833336
 11
-177.155945
 21
-55.918289
  0
LINE
  8
0
 10
-175.535019
 20
-60.833328
 11
-177.155945
 21
-60.748379
  0
LINE
  8
0
 10
-154.535019
 20
-66.833336
 11
-154.535019
 21
-69.933334
  0
LINE
  8
0
 10
-164.535019
 20
-66.833336
 11
-164.535019
 21
-69.933334
  0
LINE
  8
0
 10
-155.535019
 20
-71.633331
 11
-155.535019
 21
-72.260101
  0
LINE
  8
0
 10
-163.535019
 20
-71.633331
 11
-163.535019
 21
-72.260101
  0
LINE
  8
0
 10
-164.035019
 20
-66.333336
 11
-155.035019
 21
-66.333336
  0
LINE
  8
0
 10
-164.535019
 20
-74.333336
 11
-154.535019
 21
-74.333336
  0
LINE
  8
0
 10
-164.535019
 20
-69.933334
 11
-154.535019
 21
-69.933334
  0
LINE
  8
0
 10
-163.535019
 20
-71.633331
 11
-155.535019
 21
-71.633331
  0
LINE
  8
0
 10
-164.535019
 20
-74.333336
 11
-164.745026
 21
-74.123337
  0
LINE
  8
0
 10
-154.535019
 20
-74.333344
 11
-154.325012
 21
-74.123337
  0
LINE
  8
0
 10
-154.325012
 20
-74.123337
 11
-155.535019
 21
-72.260101
  0
LINE
  8
0
 10
-164.745026
 20
-74.123337
 11
-163.535019
 21
-72.260101
  0
LINE
  8
0
 10
-164.535019
 20
-69.933334
 11
-163.535019
 21
-71.633331
  0
LINE
  8
0
 10
-154.535019
 20
-69.933334
 11
-155.535019
 21
-71.633331
  0
LINE
  8
0
 10
-155.535019
 20
-72.260101
 11
-163.535019
 21
-72.260101
  0
LINE
  8
0
 10
-164.535019
 20
-66.833328
 11
-164.035019
 21
-66.333328
  0
LINE
  8
0
 10
-154.535019
 20
-66.833328
 11
-155.035019
 21
-66.333328
  0
LINE
  8
0
 10
-164.535019
 20
-66.833336
 11
-154.535019
 21
-66.833336
  0
LINE
  8
0
 10
-164.745026
 20
-74.123337
 11
-154.325012
 21
-74.123337
  0
ARC
  8
0
 10
-159.535019
 20
-45.750313
 40
20.916977
 50
78.859573
 51
101.140427
  0
ARC
  8
0
 10
-159.535019
 20
-6.916161
 40
20.917177
 50
258.859680
 51
281.140320
  0
ARC
  8
0
 10
-166.528793
 20
-36.087387
 40
11.254053
 50
74.791428
 51
90.031776
  0
ARC
  8
0
 10
-166.538651
 20
-16.505131
 40
11.328206
 50
270.018372
 51
285.158356
  0
ARC
  8
0
 10
-152.527740
 20
-36.188862
 40
11.355526
 50
90.036728
 51
105.140091
  0
ARC
  8
0
 10
-152.538437
 20
-16.558014
 40
11.275322
 50
254.805939
 51
270.017365
  0
ARC
  8
0
 10
-159.535019
 20
-48.750313
 40
20.916977
 50
78.859573
 51
101.140427
  0
ARC
  8
0
 10
-152.538437
 20
-19.558014
 40
11.275322
 50
254.805939
 51
270.017365
  0
ARC
  8
0
 10
-152.527740
 20
-39.188862
 40
11.355526
 50
90.036728
 51
105.140091
  0
ARC
  8
0
 10
-166.538651
 20
-19.505131
 40
11.328206
 50
270.018372
 51
285.158356
  0
ARC
  8
0
 10
-166.528793
 20
-39.087387
 40
11.254053
 50
74.791428
 51
90.031776
  0
ARC
  8
0
 10
-159.535019
 20
-9.916161
 40
20.917177
 50
258.859680
 51
281.140320
  0
ARC
  8
0
 10
-159.535019
 20
-18.476192
 40
4.642857
 50
14.250026
 51
165.749969
  0
ARC
  8
0
 10
-177.135025
 20
-60.348934
 40
0.399994
 50
180.000000
 51
266.999908
  0
ARC
  8
0
 10
-177.135025
 20
-56.317734
 40
0.400000
 50
93.000092
 51
180.000000
  0
POLYLINE
  8
0
 66
     1
  0
VERTEX
  8
0
 10
-164.535019
 20
-61.490993
  0
VERTEX
  8
0
 10
-163.806549
 20
-62.146656
  0
VERTEX
  8
0
 10
-162.952240
 20
-62.639145
  0
VERTEX
  8
0
 10
-162.035019
 20
-62.833336
  0
VERTEX
  8
0
 10
-161.117798
 20
-62.639145
  0
VERTEX
  8
0
 10
-160.263489
 20
-62.146656
  0
VERTEX
  8
0
 10
-159.535019
 20
-61.490993
  0
SEQEND
  0
POLYLINE
  8
0
 66
     1
  0
VERTEX
  8
0
 10
-159.535019
 20
-61.490993
  0
VERTEX
  8
0
 10
-158.806549
 20
-62.146656
  0
VERTEX
  8
0
 10
-157.952240
 20
-62.639145
  0
VERTEX
  8
0
 10
-157.035019
 20
-62.833336
  0
VERTEX
  8
0
 10
-156.117798
 20
-62.639145
  0
VERTEX
  8
0
 10
-155.263489
 20
-62.146656
  0
VERTEX
  8
0
 10
-154.535019
 20
-61.490993
  0
SEQEND
  0
POLYLINE
  8
0
 66
     1
  0
VERTEX
  8
0
 10
-164.535019
 20
-55.175674
  0
VERTEX
  8
0
 10
-163.806549
 20
-54.520012
  0
VERTEX
  8
0
 10
-162.952240
 20
-54.027527
  0
VERTEX
  8
0
 10
-162.035019
 20
-53.833336
  0
VERTEX
  8
0
 10
-161.117798
 20
-54.027527
  0
VERTEX
  8
0
 10
-160.263489
 20
-54.520012
  0
VERTEX
  8
0
 10
-159.535019
 20
-55.175674
  0
SEQEND
  0
POLYLINE
  8
0
 66
     1
  0
VERTEX
  8
0
 10
-159.535019
 20
-55.175674
  0
VERTEX
  8
0
 10
-158.806549
 20
-54.520012
  0
VERTEX
  8
0
 10
-157.952240
 20
-54.027527
  0
VERTEX
  8
0
 10
-157.035019
 20
-53.833336
  0
VERTEX
  8
0
 10
-156.117798
 20
-54.027527
  0
VERTEX
  8
0
 10
-155.263489
 20
-54.520012
  0
VERTEX
  8
0
 10
-154.535019
 20
-55.175674
  0
SEQEND
  0
POINT
  8
0
 10
-159.535004
 20
48.749672
  0
POINT
  8
0
 10
-151.452087
 20
48.749672
  0
LINE
  8
0
 10
-179.092773
 20
48.749672
 11
-150.041641
 21
48.749672
  0
LINE
  8
0
 10
-159.535004
 20
39.522530
 11
-159.535004
 21
58.176414
  0
LINE
  8
0
 10
-163.576447
 20
41.749672
 11
-167.617905
 21
48.749676
  0
LINE
  8
0
 10
-151.452087
 20
48.749680
 11
-155.493546
 21
55.749680
  0
LINE
  8
0
 10
-167.617905
 20
48.749676
 11
-163.576447
 21
55.749676
  0
LINE
  8
0
 10
-155.493546
 20
41.749676
 11
-151.452103
 21
48.749676
  0
LINE
  8
0
 10
-163.576462
 20
55.749672
 11
-155.493546
 21
55.749672
  0
LINE
  8
0
 10
-163.576462
 20
41.749672
 11
-155.493546
 21
41.749672
  0
LINE
  8
0
 10
-169.535004
 20
46.249672
 11
-169.535004
 21
51.249672
  0
LINE
  8
0
 10
-177.535004
 20
46.734077
 11
-177.535004
 21
50.765274
  0
LINE
  8
0
 10
-175.535004
 20
46.249672
 11
-175.535004
 21
51.249672
  0
LINE
  8
0
 10
-173.535004
 20
46.249672
 11
-173.535004
 21
51.249672
  0
LINE
  8
0
 10
-171.535004
 20
46.249672
 11
-171.535004
 21
51.249672
  0
LINE
  8
0
 10
-173.535004
 20
51.249676
 11
-175.535004
 21
50.521732
  0
LINE
  8
0
 10
-171.535004
 20
51.249668
 11
-173.535004
 21
50.521729
  0
LINE
  8
0
 10
-173.535004
 20
46.249672
 11
-175.535004
 21
46.977612
  0
LINE
  8
0
 10
-171.535004
 20
46.249672
 11
-173.535004
 21
46.977612
  0
LINE
  8
0
 10
-169.535004
 20
46.249672
 11
-171.535004
 21
46.977612
  0
LINE
  8
0
 10
-169.535004
 20
51.249672
 11
-171.535004
 21
50.521732
  0
LINE
  8
0
 10
-169.535004
 20
46.249672
 11
-166.174530
 21
46.249672
  0
LINE
  8
0
 10
-169.535004
 20
51.249672
 11
-166.174530
 21
51.249672
  0
LINE
  8
0
 10
-175.535004
 20
51.249672
 11
-177.155945
 21
51.164722
  0
LINE
  8
0
 10
-175.535004
 20
46.249664
 11
-177.155945
 21
46.334614
  0
CIRCLE
  8
0
 10
-159.535004
 20
48.749672
 40
5.500000
  0
CIRCLE
  8
0
 10
-159.535004
 20
48.749672
 40
5.000000
  0
CIRCLE
  8
0
 10
-159.535004
 20
48.749672
 40
7.000000
  0
ARC
  8
0
 10
-177.135010
 20
50.765274
 40
0.400000
 50
93.000092
 51
180.000000
  0
ARC
  8
0
 10
-177.135010
 20
46.734077
 40
0.399994
 50
180.000000
 51
266.999908
  0
POINT
  8
0
 10
0.274992
 20
-27.833328
  0
POINT
  8
0
 10
8.357896
 20
-27.833328
  0
POINT
  8
0
 10
0.274992
 20
-13.833328
  0
LINE
  8
0
 10
5.774992
 20
-17.333328
 11
5.774992
 21
-24.833328
  0
LINE
  8
0
 10
-5.225008
 20
-17.333328
 11
-5.225008
 21
-24.833328
  0
LINE
  8
0
 10
-5.225008
 20
-17.333328
 11
5.774992
 21
-17.333328
  0
LINE
  8
0
 10
5.274992
 20
-17.333328
 11
5.274992
 21
-24.833328
  0
LINE
  8
0
 10
-4.725008
 20
-17.333328
 11
-4.725008
 21
-24.833328
  0
LINE
  8
0
 10
-5.225008
 20
-30.833328
 11
-5.225008
 21
-47.333328
  0
LINE
  8
0
 10
-4.725008
 20
-30.833328
 11
-4.725008
 21
-47.333328
  0
LINE
  8
0
 10
0.274992
 20
-11.213367
 11
0.274992
 21
-75.739426
  0
LINE
  8
0
 10
5.274992
 20
-30.833328
 11
5.274992
 21
-47.333328
  0
LINE
  8
0
 10
5.774992
 20
-30.833328
 11
5.774992
 21
-47.333328
  0
LINE
  8
0
 10
-6.725003
 20
-27.833328
 11
7.274987
 21
-27.833328
  0
LINE
  8
0
 10
-6.725008
 20
-24.833328
 11
7.274992
 21
-24.833328
  0
LINE
  8
0
 10
-7.807912
 20
-25.227474
 11
-7.807912
 21
-27.439186
  0
LINE
  8
0
 10
8.357896
 20
-25.227474
 11
8.357896
 21
-27.439186
  0
LINE
  8
0
 10
-6.725008
 20
-24.833332
 11
-7.807910
 21
-25.227478
  0
LINE
  8
0
 10
7.274991
 20
-27.833326
 11
8.357894
 21
-27.439184
  0
LINE
  8
0
 10
-6.725007
 20
-27.833326
 11
-7.807910
 21
-27.439184
  0
LINE
  8
0
 10
7.274992
 20
-24.833332
 11
8.357894
 21
-25.227478
  0
LINE
  8
0
 10
-3.766461
 20
-25.227474
 11
-3.766461
 21
-27.439186
  0
LINE
  8
0
 10
4.316443
 20
-25.227478
 11
4.316443
 21
-27.439186
  0
LINE
  8
0
 10
7.274990
 20
-30.833324
 11
8.357894
 21
-30.439182
  0
LINE
  8
0
 10
-6.725006
 20
-30.833324
 11
-7.807910
 21
-30.439182
  0
LINE
  8
0
 10
4.316443
 20
-28.227478
 11
4.316443
 21
-30.439186
  0
LINE
  8
0
 10
7.274992
 20
-27.833328
 11
8.357895
 21
-28.227474
  0
LINE
  8
0
 10
-3.766461
 20
-28.227474
 11
-3.766461
 21
-30.439186
  0
LINE
  8
0
 10
-6.725003
 20
-30.833328
 11
7.274987
 21
-30.833328
  0
LINE
  8
0
 10
-7.807912
 20
-28.227474
 11
-7.807912
 21
-30.439186
  0
LINE
  8
0
 10
8.357896
 20
-28.227474
 11
8.357896
 21
-30.439186
  0
LINE
  8
0
 10
-6.725008
 20
-27.833328
 11
-7.807911
 21
-28.227474
  0
LINE
  8
0
 10
-5.225008
 20
-47.333328
 11
5.774992
 21
-47.333328
  0
LINE
  8
0
 10
5.274992
 20
-53.833328
 11
5.274992
 21
-62.833328
  0
LINE
  8
0
 10
-4.725008
 20
-53.833328
 11
-4.725008
 21
-62.833328
  0
LINE
  8
0
 10
-4.225008
 20
-63.333328
 11
4.774992
 21
-63.333328
  0
LINE
  8
0
 10
4.524992
 20
-47.333328
 11
4.524992
 21
-53.333328
  0
LINE
  8
0
 10
-3.975008
 20
-47.333328
 11
-3.975008
 21
-53.333328
  0
LINE
  8
0
 10
-4.225008
 20
-53.333328
 11
4.774992
 21
-53.333328
  0
LINE
  8
0
 10
4.524992
 20
-63.333328
 11
4.524992
 21
-66.333328
  0
LINE
  8
0
 10
-3.975008
 20
-63.333328
 11
-3.975008
 21
-66.333328
  0
LINE
  8
0
 10
-4.725008
 20
-62.833328
 11
5.274992
 21
-62.833328
  0
LINE
  8
0
 10
-4.725008
 20
-53.833328
 11
5.274992
 21
-53.833328
  0
LINE
  8
0
 10
-4.725007
 20
-53.833328
 11
-4.225007
 21
-53.333328
  0
LINE
  8
0
 10
4.774992
 20
-53.333328
 11
5.274991
 21
-53.833328
  0
LINE
  8
0
 10
4.774990
 20
-63.333328
 11
5.274991
 21
-62.833324
  0
LINE
  8
0
 10
-4.725007
 20
-62.833324
 11
-4.225006
 21
-63.333328
  0
LINE
  8
0
 10
-18.761881
 20
-58.333328
 11
-2.354802
 21
-58.333328
  0
LINE
  8
0
 10
0.274992
 20
-61.490986
 11
0.274992
 21
-55.175667
  0
LINE
  8
0
 10
-9.725008
 20
-60.833328
 11
-9.725008
 21
-55.833328
  0
LINE
  8
0
 10
-17.725008
 20
-60.348927
 11
-17.725008
 21
-56.317726
  0
LINE
  8
0
 10
-15.725008
 20
-60.833328
 11
-15.725008
 21
-55.833328
  0
LINE
  8
0
 10
-13.725008
 20
-60.833328
 11
-13.725008
 21
-55.833328
  0
LINE
  8
0
 10
-11.725008
 20
-60.833328
 11
-11.725008
 21
-55.833328
  0
LINE
  8
0
 10
-13.725008
 20
-55.833328
 11
-15.725007
 21
-56.561264
  0
LINE
  8
0
 10
-11.725009
 20
-55.833328
 11
-13.725009
 21
-56.561272
  0
LINE
  8
0
 10
-13.725011
 20
-60.833336
 11
-15.725010
 21
-60.105396
  0
LINE
  8
0
 10
-11.725011
 20
-60.833332
 11
-13.725010
 21
-60.105392
  0
LINE
  8
0
 10
-9.725011
 20
-60.833332
 11
-11.725011
 21
-60.105392
  0
LINE
  8
0
 10
-9.725007
 20
-55.833328
 11
-11.725008
 21
-56.561268
  0
LINE
  8
0
 10
-9.725008
 20
-60.833328
 11
-4.725008
 21
-60.833328
  0
LINE
  8
0
 10
-9.725008
 20
-55.833328
 11
-4.725008
 21
-55.833328
  0
LINE
  8
0
 10
-15.725008
 20
-55.833328
 11
-17.345942
 21
-55.918282
  0
LINE
  8
0
 10
-15.725008
 20
-60.833321
 11
-17.345942
 21
-60.748371
  0
LINE
  8
0
 10
-5.225008
 20
-67.333328
 11
-5.225008
 21
-70.333328
  0
LINE
  8
0
 10
5.774992
 20
-67.333328
 11
5.774992
 21
-70.333328
  0
LINE
  8
0
 10
5.274992
 20
-71.233330
 11
5.274992
 21
-71.711441
  0
LINE
  8
0
 10
-4.725008
 20
-71.233330
 11
-4.725008
 21
-71.711441
  0
LINE
  8
0
 10
-5.225008
 20
-70.333328
 11
5.774992
 21
-70.333328
  0
LINE
  8
0
 10
-7.225008
 20
-74.333328
 11
7.774992
 21
-74.333328
  0
LINE
  8
0
 10
-4.225008
 20
-66.333328
 11
4.774992
 21
-66.333328
  0
LINE
  8
0
 10
-4.725008
 20
-71.233330
 11
5.274992
 21
-71.233330
  0
LINE
  8
0
 10
-5.225006
 20
-70.333321
 11
-4.725006
 21
-71.233322
  0
LINE
  8
0
 10
5.274990
 20
-71.233322
 11
5.774990
 21
-70.333321
  0
LINE
  8
0
 10
-4.225011
 20
-66.333328
 11
-5.225010
 21
-67.333328
  0
LINE
  8
0
 10
5.774991
 20
-67.333328
 11
4.774990
 21
-66.333328
  0
LINE
  8
0
 10
-7.225002
 20
-74.333328
 11
-7.510002
 21
-74.048325
  0
LINE
  8
0
 10
7.774997
 20
-74.333328
 11
8.059996
 21
-74.048332
  0
LINE
  8
0
 10
-7.510011
 20
-74.048325
 11
-4.725011
 21
-71.711433
  0
LINE
  8
0
 10
8.059992
 20
-74.048325
 11
5.274992
 21
-71.711441
  0
LINE
  8
0
 10
-4.725008
 20
-71.711441
 11
5.274992
 21
-71.711441
  0
LINE
  8
0
 10
-7.510008
 20
-74.048325
 11
8.059992
 21
-74.048325
  0
LINE
  8
0
 10
-5.225008
 20
-67.333328
 11
5.774992
 21
-67.333328
  0
ARC
  8
0
 10
0.274991
 20
-45.750305
 40
20.916977
 50
78.859573
 51
101.140427
  0
ARC
  8
0
 10
0.274991
 20
-6.916153
 40
20.917177
 50
258.859680
 51
281.140289
  0
ARC
  8
0
 10
-6.718776
 20
-36.087379
 40
11.254051
 50
74.791458
 51
90.031769
  0
ARC
  8
0
 10
-6.728641
 20
-16.505123
 40
11.328206
 50
270.018372
 51
285.158325
  0
ARC
  8
0
 10
7.282277
 20
-36.188854
 40
11.355526
 50
90.036751
 51
105.140099
  0
ARC
  8
0
 10
7.271578
 20
-16.558006
 40
11.275321
 50
254.805954
 51
270.017334
  0
ARC
  8
0
 10
0.274991
 20
-48.750305
 40
20.916977
 50
78.859573
 51
101.140427
  0
ARC
  8
0
 10
7.271578
 20
-19.558006
 40
11.275321
 50
254.805954
 51
270.017334
  0
ARC
  8
0
 10
7.282277
 20
-39.188854
 40
11.355526
 50
90.036751
 51
105.140099
  0
ARC
  8
0
 10
-6.728641
 20
-19.505123
 40
11.328206
 50
270.018372
 51
285.158325
  0
ARC
  8
0
 10
-6.718776
 20
-39.087379
 40
11.254051
 50
74.791458
 51
90.031769
  0
ARC
  8
0
 10
0.274991
 20
-9.916153
 40
20.917177
 50
258.859680
 51
281.140289
  0
ARC
  8
0
 10
0.274992
 20
-18.476185
 40
4.642857
 50
14.250026
 51
165.749969
  0
ARC
  8
0
 10
-17.325008
 20
-60.348927
 40
0.400000
 50
180.000000
 51
266.999908
  0
ARC
  8
0
 10
-17.325008
 20
-56.317726
 40
0.400000
 50
93.000092
 51
180.000000
  0
POLYLINE
  8
0
 66
     1
  0
VERTEX
  8
0
 10
-4.725008
 20
-61.490986
  0
VERTEX
  8
0
 10
-3.996531
 20
-62.146648
  0
VERTEX
  8
0
 10
-3.142227
 20
-62.639137
  0
VERTEX
  8
0
 10
-2.225008
 20
-62.833328
  0
VERTEX
  8
0
 10
-1.307790
 20
-62.639137
  0
VERTEX
  8
0
 10
-0.453485
 20
-62.146648
  0
VERTEX
  8
0
 10
0.274992
 20
-61.490986
  0
SEQEND
  0
POLYLINE
  8
0
 66
     1
  0
VERTEX
  8
0
 10
0.274992
 20
-61.490986
  0
VERTEX
  8
0
 10
1.003469
 20
-62.146648
  0
VERTEX
  8
0
 10
1.857773
 20
-62.639137
  0
VERTEX
  8
0
 10
2.774992
 20
-62.833328
  0
VERTEX
  8
0
 10
3.692210
 20
-62.639137
  0
VERTEX
  8
0
 10
4.546515
 20
-62.146648
  0
VERTEX
  8
0
 10
5.274992
 20
-61.490986
  0
SEQEND
  0
POLYLINE
  8
0
 66
     1
  0
VERTEX
  8
0
 10
-4.725008
 20
-55.175667
  0
VERTEX
  8
0
 10
-3.996531
 20
-54.520004
  0
VERTEX
  8
0
 10
-3.142226
 20
-54.027519
  0
VERTEX
  8
0
 10
-2.225008
 20
-53.833328
  0
VERTEX
  8
0
 10
-1.307790
 20
-54.027519
  0
VERTEX
  8
0
 10
-0.453485
 20
-54.520004
  0
VERTEX
  8
0
 10
0.274992
 20
-55.175667
  0
SEQEND
  0
POLYLINE
  8
0
 66
     1
  0
VERTEX
  8
0
 10
0.274992
 20
-55.175667
  0
VERTEX
  8
0
 10
1.003469
 20
-54.520004
  0
VERTEX
  8
0
 10
1.857774
 20
-54.027519
  0
VERTEX
  8
0
 10
2.774992
 20
-53.833328
  0
VERTEX
  8
0
 10
3.692210
 20
-54.027519
  0
VERTEX
  8
0
 10
4.546515
 20
-54.520004
  0
VERTEX
  8
0
 10
5.274992
 20
-55.175667
  0
SEQEND
  0
POINT
  8
0
 10
0.274995
 20
48.749683
  0
POINT
  8
0
 10
8.357909
 20
48.749683
  0
LINE
  8
0
 10
-19.282772
 20
48.749683
 11
9.768356
 21
48.749683
  0
LINE
  8
0
 10
0.274995
 20
39.522541
 11
0.274995
 21
58.176426
  0
LINE
  8
0
 10
-3.766453
 20
41.749683
 11
-7.807905
 21
48.749687
  0
LINE
  8
0
 10
8.357910
 20
48.749691
 11
4.316459
 21
55.749691
  0
LINE
  8
0
 10
-7.807907
 20
48.749687
 11
-3.766455
 21
55.749687
  0
LINE
  8
0
 10
4.316449
 20
41.749687
 11
8.357899
 21
48.749687
  0
LINE
  8
0
 10
-3.766456
 20
55.749683
 11
4.316448
 21
55.749683
  0
LINE
  8
0
 10
-3.766457
 20
41.749683
 11
4.316447
 21
41.749683
  0
LINE
  8
0
 10
-9.725005
 20
46.249683
 11
-9.725005
 21
51.249683
  0
LINE
  8
0
 10
-17.725004
 20
46.734089
 11
-17.725004
 21
50.765285
  0
LINE
  8
0
 10
-15.725005
 20
46.249683
 11
-15.725005
 21
51.249683
  0
LINE
  8
0
 10
-13.725005
 20
46.249683
 11
-13.725005
 21
51.249683
  0
LINE
  8
0
 10
-11.725005
 20
46.249683
 11
-11.725005
 21
51.249683
  0
LINE
  8
0
 10
-13.725002
 20
51.249687
 11
-15.725002
 21
50.521744
  0
LINE
  8
0
 10
-11.725003
 20
51.249680
 11
-13.725002
 21
50.521740
  0
LINE
  8
0
 10
-13.725006
 20
46.249683
 11
-15.725003
 21
46.977623
  0
LINE
  8
0
 10
-11.725004
 20
46.249683
 11
-13.725005
 21
46.977623
  0
LINE
  8
0
 10
-9.725006
 20
46.249683
 11
-11.725003
 21
46.977623
  0
LINE
  8
0
 10
-9.725005
 20
51.249683
 11
-11.725004
 21
50.521744
  0
LINE
  8
0
 10
-9.725005
 20
46.249683
 11
-6.364532
 21
46.249683
  0
LINE
  8
0
 10
-9.725005
 20
51.249683
 11
-6.364532
 21
51.249683
  0
LINE
  8
0
 10
-15.725007
 20
51.249683
 11
-17.345940
 21
51.164734
  0
LINE
  8
0
 10
-15.725005
 20
46.249676
 11
-17.345938
 21
46.334625
  0
CIRCLE
  8
0
 10
0.274995
 20
48.749683
 40
5.500000
  0
CIRCLE
  8
0
 10
0.274995
 20
48.749683
 40
5.000000
  0
CIRCLE
  8
0
 10
0.274995
 20
48.749683
 40
7.000000
  0
ARC
  8
0
 10
-17.325005
 20
50.765285
 40
0.400000
 50
93.000092
 51
180.000000
  0
ARC
  8
0
 10
-17.325005
 20
46.734089
 40
0.400000
 50
180.000000
 51
266.999908
  0
ARC
  8
0
 10
0.274995
 20
48.749683
 40
7.785000
 50
4.048623
 51
55.951370
  0
ARC
  8
0
 10
0.274995
 20
48.749683
 40
7.784999
 50
198.731277
 51
235.951447
  0
ARC
  8
0
 10
0.274995
 20
48.749683
 40
7.785001
 50
244.048523
 51
295.951477
  0
ARC
  8
0
 10
0.274995
 20
48.749683
 40
7.784999
 50
304.048523
 51
355.951447
  0
ARC
  8
0
 10
0.274995
 20
48.749683
 40
7.785000
 50
64.048538
 51
115.951477
  0
ARC
  8
0
 10
0.274995
 20
48.749683
 40
7.785000
 50
124.048546
 51
161.268723
  0
POINT
  8
0
 10
160.084976
 20
-27.833326
  0
POINT
  8
0
 10
168.167877
 20
-27.833326
  0
LINE
  8
0
 10
165.584976
 20
-17.333326
 11
165.584976
 21
-24.833326
  0
LINE
  8
0
 10
154.584976
 20
-17.333326
 11
154.584976
 21
-24.833326
  0
LINE
  8
0
 10
154.584976
 20
-17.333326
 11
165.584976
 21
-17.333326
  0
LINE
  8
0
 10
165.084976
 20
-17.333326
 11
165.084976
 21
-24.833326
  0
LINE
  8
0
 10
155.084976
 20
-17.333326
 11
155.084976
 21
-24.833326
  0
LINE
  8
0
 10
154.584976
 20
-30.833326
 11
154.584976
 21
-47.333328
  0
LINE
  8
0
 10
155.084976
 20
-30.833326
 11
155.084976
 21
-47.333328
  0
LINE
  8
0
 10
160.084976
 20
-11.213366
 11
160.084976
 21
-78.249100
  0
LINE
  8
0
 10
165.084976
 20
-30.833326
 11
165.084976
 21
-47.333328
  0
LINE
  8
0
 10
165.584976
 20
-30.833326
 11
165.584976
 21
-47.333328
  0
LINE
  8
0
 10
153.084976
 20
-27.833326
 11
167.084976
 21
-27.833326
  0
LINE
  8
0
 10
153.084976
 20
-24.833326
 11
167.084976
 21
-24.833326
  0
LINE
  8
0
 10
152.002075
 20
-25.227472
 11
152.002075
 21
-27.439184
  0
LINE
  8
0
 10
168.167877
 20
-25.227472
 11
168.167877
 21
-27.439184
  0
LINE
  8
0
 10
153.084976
 20
-24.833330
 11
152.002075
 21
-25.227476
  0
LINE
  8
0
 10
167.084976
 20
-27.833324
 11
168.167877
 21
-27.439182
  0
LINE
  8
0
 10
153.084976
 20
-27.833324
 11
152.002075
 21
-27.439182
  0
LINE
  8
0
 10
167.084976
 20
-24.833330
 11
168.167877
 21
-25.227476
  0
LINE
  8
0
 10
156.043518
 20
-25.227472
 11
156.043518
 21
-27.439184
  0
LINE
  8
0
 10
164.126434
 20
-25.227476
 11
164.126434
 21
-27.439184
  0
LINE
  8
0
 10
167.084976
 20
-30.833323
 11
168.167877
 21
-30.439180
  0
LINE
  8
0
 10
153.084976
 20
-30.833323
 11
152.002075
 21
-30.439180
  0
LINE
  8
0
 10
164.126434
 20
-28.227476
 11
164.126434
 21
-30.439184
  0
LINE
  8
0
 10
167.084976
 20
-27.833326
 11
168.167877
 21
-28.227472
  0
LINE
  8
0
 10
156.043518
 20
-28.227472
 11
156.043518
 21
-30.439184
  0
LINE
  8
0
 10
153.084976
 20
-30.833326
 11
167.084976
 21
-30.833326
  0
LINE
  8
0
 10
152.002075
 20
-28.227472
 11
152.002075
 21
-30.439184
  0
LINE
  8
0
 10
168.167877
 20
-28.227472
 11
168.167877
 21
-30.439184
  0
LINE
  8
0
 10
153.084976
 20
-27.833326
 11
152.002075
 21
-28.227472
  0
LINE
  8
0
 10
154.584976
 20
-47.333328
 11
165.584976
 21
-47.333328
  0
LINE
  8
0
 10
165.084976
 20
-53.833328
 11
165.084976
 21
-62.833328
  0
LINE
  8
0
 10
155.084976
 20
-53.833328
 11
155.084976
 21
-62.833328
  0
LINE
  8
0
 10
155.584976
 20
-63.333328
 11
164.584976
 21
-63.333328
  0
LINE
  8
0
 10
164.334976
 20
-47.333328
 11
164.334976
 21
-53.333328
  0
LINE
  8
0
 10
155.834976
 20
-47.333328
 11
155.834976
 21
-53.333328
  0
LINE
  8
0
 10
155.584976
 20
-53.333328
 11
164.584976
 21
-53.333328
  0
LINE
  8
0
 10
164.334976
 20
-63.333328
 11
164.334976
 21
-66.333328
  0
LINE
  8
0
 10
155.834976
 20
-63.333328
 11
155.834976
 21
-66.333328
  0
LINE
  8
0
 10
155.084976
 20
-62.833328
 11
165.084976
 21
-62.833328
  0
LINE
  8
0
 10
155.084976
 20
-53.833328
 11
165.084976
 21
-53.833328
  0
LINE
  8
0
 10
155.084976
 20
-53.833324
 11
155.584976
 21
-53.333324
  0
LINE
  8
0
 10
164.584976
 20
-53.333328
 11
165.084976
 21
-53.833324
  0
LINE
  8
0
 10
164.584976
 20
-63.333328
 11
165.084976
 21
-62.833321
  0
LINE
  8
0
 10
155.084976
 20
-62.833321
 11
155.584976
 21
-63.333328
  0
LINE
  8
0
 10
141.048096
 20
-58.333328
 11
157.455185
 21
-58.333328
  0
LINE
  8
0
 10
160.084976
 20
-61.490982
 11
160.084976
 21
-55.175667
  0
LINE
  8
0
 10
150.084976
 20
-60.833328
 11
150.084976
 21
-55.833328
  0
LINE
  8
0
 10
142.084976
 20
-60.348923
 11
142.084976
 21
-56.317726
  0
LINE
  8
0
 10
144.084976
 20
-60.833328
 11
144.084976
 21
-55.833328
  0
LINE
  8
0
 10
146.084976
 20
-60.833328
 11
146.084976
 21
-55.833328
  0
LINE
  8
0
 10
148.084976
 20
-60.833328
 11
148.084976
 21
-55.833328
  0
LINE
  8
0
 10
146.084976
 20
-55.833324
 11
144.084976
 21
-56.561264
  0
LINE
  8
0
 10
148.084976
 20
-55.833328
 11
146.084976
 21
-56.561268
  0
LINE
  8
0
 10
146.084976
 20
-60.833336
 11
144.084976
 21
-60.105392
  0
LINE
  8
0
 10
148.084976
 20
-60.833328
 11
146.084976
 21
-60.105392
  0
LINE
  8
0
 10
150.084976
 20
-60.833328
 11
148.084976
 21
-60.105392
  0
LINE
  8
0
 10
150.084976
 20
-55.833324
 11
148.084976
 21
-56.561264
  0
LINE
  8
0
 10
150.084976
 20
-60.833328
 11
155.084976
 21
-60.833328
  0
LINE
  8
0
 10
150.084976
 20
-55.833328
 11
155.084976
 21
-55.833328
  0
LINE
  8
0
 10
144.084976
 20
-55.833328
 11
142.464050
 21
-55.918278
  0
LINE
  8
0
 10
144.084976
 20
-60.833321
 11
142.464050
 21
-60.748367
  0
LINE
  8
0
 10
153.084976
 20
-68.333328
 11
153.084976
 21
-72.333328
  0
LINE
  8
0
 10
167.084976
 20
-68.333328
 11
167.084976
 21
-72.333328
  0
LINE
  8
0
 10
154.834976
 20
-66.333328
 11
165.334976
 21
-66.333328
  0
LINE
  8
0
 10
153.084976
 20
-68.333328
 11
167.084976
 21
-68.333328
  0
LINE
  8
0
 10
150.334976
 20
-76.333328
 11
169.834976
 21
-76.333328
  0
LINE
  8
0
 10
153.297668
 20
-73.733330
 11
166.872284
 21
-73.733330
  0
LINE
  8
0
 10
154.834976
 20
-66.333328
 11
165.334976
 21
-66.333328
  0
LINE
  8
0
 10
153.084976
 20
-68.333328
 11
167.084976
 21
-68.333328
  0
LINE
  8
0
 10
154.834976
 20
-66.333328
 11
153.084976
 21
-68.333328
  0
LINE
  8
0
 10
167.084976
 20
-68.333328
 11
165.334976
 21
-66.333328
  0
LINE
  8
0
 10
153.084976
 20
-72.333328
 11
167.084976
 21
-72.333328
  0
LINE
  8
0
 10
150.334976
 20
-76.333328
 11
150.084976
 21
-75.900314
  0
LINE
  8
0
 10
169.834976
 20
-76.333328
 11
170.084976
 21
-75.900314
  0
LINE
  8
0
 10
166.872284
 20
-73.733337
 11
170.084976
 21
-75.900322
  0
LINE
  8
0
 10
150.084976
 20
-75.900322
 11
153.297668
 21
-73.733330
  0
LINE
  8
0
 10
153.084976
 20
-72.333328
 11
153.297668
 21
-73.733330
  0
LINE
  8
0
 10
167.084976
 20
-72.333321
 11
166.872284
 21
-73.733322
  0
LINE
  8
0
 10
170.084976
 20
-75.900314
 11
150.084976
 21
-75.900314
  0
ARC
  8
0
 10
160.084976
 20
-45.750305
 40
20.916979
 50
78.859573
 51
101.140427
  0
ARC
  8
0
 10
160.084976
 20
-6.916151
 40
20.917177
 50
258.859680
 51
281.140320
  0
ARC
  8
0
 10
153.091202
 20
-36.087379
 40
11.254055
 50
74.791428
 51
90.031776
  0
ARC
  8
0
 10
153.081345
 20
-16.505121
 40
11.328206
 50
270.018372
 51
285.158356
  0
ARC
  8
0
 10
167.092255
 20
-36.188850
 40
11.355524
 50
90.036728
 51
105.140091
  0
ARC
  8
0
 10
167.081558
 20
-16.558004
 40
11.275322
 50
254.805939
 51
270.017365
  0
ARC
  8
0
 10
160.084976
 20
-48.750305
 40
20.916979
 50
78.859573
 51
101.140427
  0
ARC
  8
0
 10
167.081558
 20
-19.558004
 40
11.275322
 50
254.805939
 51
270.017365
  0
ARC
  8
0
 10
167.092255
 20
-39.188850
 40
11.355524
 50
90.036728
 51
105.140091
  0
ARC
  8
0
 10
153.081345
 20
-19.505121
 40
11.328206
 50
270.018372
 51
285.158356
  0
ARC
  8
0
 10
153.091202
 20
-39.087379
 40
11.254055
 50
74.791428
 51
90.031776
  0
ARC
  8
0
 10
160.084976
 20
-9.916151
 40
20.917177
 50
258.859680
 51
281.140320
  0
ARC
  8
0
 10
160.084976
 20
-18.476183
 40
4.642857
 50
14.250026
 51
165.750000
  0
ARC
  8
0
 10
142.484970
 20
-60.348923
 40
0.399994
 50
180.000000
 51
266.999908
  0
ARC
  8
0
 10
142.484970
 20
-56.317726
 40
0.400000
 50
93.000092
 51
180.000000
  0
POLYLINE
  8
0
 66
     1
  0
VERTEX
  8
0
 10
155.084976
 20
-61.490982
  0
VERTEX
  8
0
 10
155.813446
 20
-62.146648
  0
VERTEX
  8
0
 10
156.667755
 20
-62.639137
  0
VERTEX
  8
0
 10
157.584976
 20
-62.833328
  0
VERTEX
  8
0
 10
158.502197
 20
-62.639137
  0
VERTEX
  8
0
 10
159.356506
 20
-62.146648
  0
VERTEX
  8
0
 10
160.084976
 20
-61.490982
  0
SEQEND
  0
POLYLINE
  8
0
 66
     1
  0
VERTEX
  8
0
 10
160.084976
 20
-61.490982
  0
VERTEX
  8
0
 10
160.813446
 20
-62.146648
  0
VERTEX
  8
0
 10
161.667755
 20
-62.639137
  0
VERTEX
  8
0
 10
162.584976
 20
-62.833328
  0
VERTEX
  8
0
 10
163.502197
 20
-62.639137
  0
VERTEX
  8
0
 10
164.356506
 20
-62.146648
  0
VERTEX
  8
0
 10
165.084976
 20
-61.490982
  0
SEQEND
  0
POLYLINE
  8
0
 66
     1
  0
VERTEX
  8
0
 10
155.084976
 20
-55.175667
  0
VERTEX
  8
0
 10
155.813446
 20
-54.520004
  0
VERTEX
  8
0
 10
156.667755
 20
-54.027519
  0
VERTEX
  8
0
 10
157.584976
 20
-53.833328
  0
VERTEX
  8
0
 10
158.502197
 20
-54.027519
  0
VERTEX
  8
0
 10
159.356506
 20
-54.520004
  0
VERTEX
  8
0
 10
160.084976
 20
-55.175667
  0
SEQEND
  0
POLYLINE
  8
0
 66
     1
  0
VERTEX
  8
0
 10
160.084976
 20
-55.175667
  0
VERTEX
  8
0
 10
160.813446
 20
-54.520004
  0
VERTEX
  8
0
 10
161.667755
 20
-54.027519
  0
VERTEX
  8
0
 10
162.584976
 20
-53.833328
  0
VERTEX
  8
0
 10
163.502197
 20
-54.027519
  0
VERTEX
  8
0
 10
164.356506
 20
-54.520004
  0
VERTEX
  8
0
 10
165.084976
 20
-55.175667
  0
SEQEND
  0
POINT
  8
0
 10
160.084991
 20
48.749676
  0
POINT
  8
0
 10
168.167908
 20
48.749676
  0
LINE
  8
0
 10
140.527222
 20
48.749676
 11
171.356247
 21
48.749676
  0
LINE
  8
0
 10
160.084991
 20
37.729633
 11
160.084991
 21
59.782421
  0
LINE
  8
0
 10
156.043549
 20
41.749676
 11
152.002090
 21
48.749680
  0
LINE
  8
0
 10
168.167908
 20
48.749683
 11
164.126450
 21
55.749683
  0
LINE
  8
0
 10
152.002090
 20
48.749680
 11
156.043549
 21
55.749680
  0
LINE
  8
0
 10
164.126450
 20
41.749680
 11
168.167892
 21
48.749680
  0
LINE
  8
0
 10
156.043533
 20
55.749676
 11
164.126450
 21
55.749676
  0
LINE
  8
0
 10
156.043533
 20
41.749676
 11
164.126450
 21
41.749676
  0
LINE
  8
0
 10
150.084991
 20
46.249676
 11
150.084991
 21
51.249676
  0
LINE
  8
0
 10
142.084991
 20
46.734081
 11
142.084991
 21
50.765278
  0
LINE
  8
0
 10
144.084991
 20
46.249676
 11
144.084991
 21
51.249676
  0
LINE
  8
0
 10
146.084991
 20
46.249676
 11
146.084991
 21
51.249676
  0
LINE
  8
0
 10
148.084991
 20
46.249676
 11
148.084991
 21
51.249676
  0
LINE
  8
0
 10
146.084991
 20
51.249680
 11
144.084991
 21
50.521736
  0
LINE
  8
0
 10
148.084991
 20
51.249672
 11
146.084991
 21
50.521732
  0
LINE
  8
0
 10
146.084991
 20
46.249676
 11
144.084991
 21
46.977615
  0
LINE
  8
0
 10
148.084991
 20
46.249676
 11
146.084991
 21
46.977615
  0
LINE
  8
0
 10
150.084991
 20
46.249676
 11
148.084991
 21
46.977615
  0
LINE
  8
0
 10
150.084991
 20
51.249676
 11
148.084991
 21
50.521736
  0
LINE
  8
0
 10
150.084991
 20
46.249676
 11
153.445465
 21
46.249676
  0
LINE
  8
0
 10
150.084991
 20
51.249676
 11
153.445465
 21
51.249676
  0
LINE
  8
0
 10
144.084991
 20
51.249676
 11
142.464050
 21
51.164726
  0
LINE
  8
0
 10
144.084991
 20
46.249668
 11
142.464050
 21
46.334618
  0
CIRCLE
  8
0
 10
160.084991
 20
48.749676
 40
5.500000
  0
CIRCLE
  8
0
 10
160.084991
 20
48.749676
 40
5.000000
  0
CIRCLE
  8
0
 10
160.084991
 20
48.749676
 40
7.000000
  0
ARC
  8
0
 10
142.484985
 20
50.765278
 40
0.400000
 50
93.000092
 51
180.000000
  0
ARC
  8
0
 10
142.484985
 20
46.734081
 40
0.399994
 50
180.000000
 51
266.999908
  0
ARC
  8
0
 10
160.084991
 20
48.749676
 40
10.000005
 50
194.477478
 51
165.522522
  0
POINT
  8
0
 10
319.895020
 20
-5.333324
  0
POINT
  8
0
 10
329.709961
 20
-5.333324
  0
LINE
  8
0
 10
319.895020
 20
-83.298950
 11
319.895020
 21
9.500011
  0
LINE
  8
0
 10
299.794739
 20
-57.333324
 11
314.627563
 21
-57.333324
  0
LINE
  8
0
 10
313.645020
 20
0.666676
 11
326.145020
 21
0.666676
  0
LINE
  8
0
 10
314.895020
 20
-49.333324
 11
324.895020
 21
-49.333324
  0
LINE
  8
0
 10
314.895020
 20
-42.333324
 11
314.895020
 21
-9.333324
  0
LINE
  8
0
 10
324.895020
 20
-42.333324
 11
324.895020
 21
-9.333324
  0
LINE
  8
0
 10
313.645020
 20
-42.333324
 11
326.145020
 21
-42.333324
  0
LINE
  8
0
 10
326.145020
 20
-42.333324
 11
326.145020
 21
-9.333324
  0
LINE
  8
0
 10
313.645020
 20
-42.333324
 11
313.645020
 21
-9.333324
  0
LINE
  8
0
 10
314.395020
 20
-64.333328
 11
325.395020
 21
-64.333328
  0
LINE
  8
0
 10
325.895020
 20
-63.833324
 11
325.895020
 21
-50.333324
  0
LINE
  8
0
 10
313.895020
 20
-63.833324
 11
313.895020
 21
-50.333324
  0
LINE
  8
0
 10
324.895020
 20
-49.333324
 11
324.895020
 21
-42.333324
  0
LINE
  8
0
 10
314.895020
 20
-49.333324
 11
314.895020
 21
-42.333324
  0
LINE
  8
0
 10
325.895020
 20
-50.333324
 11
324.895020
 21
-49.333321
  0
LINE
  8
0
 10
314.895020
 20
-49.333324
 11
313.895020
 21
-50.333321
  0
LINE
  8
0
 10
325.395020
 20
-67.333328
 11
325.395020
 21
-64.333328
  0
LINE
  8
0
 10
314.395020
 20
-67.333328
 11
314.395020
 21
-64.333328
  0
LINE
  8
0
 10
313.895020
 20
-63.833328
 11
314.395020
 21
-64.333328
  0
LINE
  8
0
 10
325.395020
 20
-64.333321
 11
325.895020
 21
-63.833324
  0
LINE
  8
0
 10
312.827545
 20
-5.333324
 11
326.962494
 21
-5.333324
  0
LINE
  8
0
 10
312.827545
 20
-9.333324
 11
326.962494
 21
-9.333324
  0
LINE
  8
0
 10
310.080078
 20
-6.333324
 11
310.080078
 21
-8.333324
  0
LINE
  8
0
 10
329.709961
 20
-6.333324
 11
329.709961
 21
-8.333324
  0
LINE
  8
0
 10
310.080078
 20
-6.333323
 11
312.827545
 21
-5.333323
  0
LINE
  8
0
 10
329.709961
 20
-8.333327
 11
326.962494
 21
-9.333326
  0
LINE
  8
0
 10
310.080078
 20
-8.333332
 11
312.827545
 21
-9.333332
  0
LINE
  8
0
 10
329.709961
 20
-6.333322
 11
326.962494
 21
-5.333323
  0
LINE
  8
0
 10
314.987549
 20
-8.333324
 11
314.987549
 21
-6.333324
  0
LINE
  8
0
 10
324.802490
 20
-6.333324
 11
324.802490
 21
-8.333324
  0
LINE
  8
0
 10
312.827545
 20
-1.333324
 11
326.962494
 21
-1.333324
  0
LINE
  8
0
 10
310.080078
 20
-2.333324
 11
310.080078
 21
-4.333324
  0
LINE
  8
0
 10
329.709961
 20
-2.333324
 11
329.709961
 21
-4.333324
  0
LINE
  8
0
 10
310.080078
 20
-2.333321
 11
312.827545
 21
-1.333321
  0
LINE
  8
0
 10
329.709961
 20
-4.333327
 11
326.962494
 21
-5.333326
  0
LINE
  8
0
 10
310.080078
 20
-4.333327
 11
312.827545
 21
-5.333327
  0
LINE
  8
0
 10
329.709991
 20
-2.333320
 11
326.962494
 21
-1.333320
  0
LINE
  8
0
 10
314.987549
 20
-4.333324
 11
314.987549
 21
-2.333324
  0
LINE
  8
0
 10
324.802490
 20
-2.333324
 11
324.802490
 21
-4.333324
  0
LINE
  8
0
 10
313.645020
 20
-1.333324
 11
313.645020
 21
0.666676
  0
LINE
  8
0
 10
314.895020
 20
-1.333324
 11
314.895020
 21
0.666676
  0
LINE
  8
0
 10
324.895020
 20
-1.333324
 11
324.895020
 21
0.666676
  0
LINE
  8
0
 10
326.145020
 20
-1.333324
 11
326.145020
 21
0.666676
  0
LINE
  8
0
 10
308.895020
 20
-59.833324
 11
308.895020
 21
-54.833324
  0
LINE
  8
0
 10
300.895020
 20
-59.348923
 11
300.895020
 21
-55.317722
  0
LINE
  8
0
 10
302.895020
 20
-59.833324
 11
302.895020
 21
-54.833324
  0
LINE
  8
0
 10
304.895020
 20
-59.833324
 11
304.895020
 21
-54.833324
  0
LINE
  8
0
 10
306.895020
 20
-59.833324
 11
306.895020
 21
-54.833324
  0
LINE
  8
0
 10
304.895020
 20
-54.833321
 11
302.895020
 21
-55.561260
  0
LINE
  8
0
 10
306.895020
 20
-54.833324
 11
304.895020
 21
-55.561264
  0
LINE
  8
0
 10
304.895020
 20
-59.833328
 11
302.895020
 21
-59.105389
  0
LINE
  8
0
 10
306.895020
 20
-59.833328
 11
304.895020
 21
-59.105389
  0
LINE
  8
0
 10
308.895020
 20
-59.833328
 11
306.895020
 21
-59.105389
  0
LINE
  8
0
 10
308.895020
 20
-54.833321
 11
306.895020
 21
-55.561264
  0
LINE
  8
0
 10
308.895020
 20
-59.833324
 11
313.895020
 21
-59.833324
  0
LINE
  8
0
 10
308.895020
 20
-54.833324
 11
313.895020
 21
-54.833324
  0
LINE
  8
0
 10
302.895020
 20
-54.833324
 11
301.274078
 21
-54.918274
  0
LINE
  8
0
 10
302.895020
 20
-59.833324
 11
301.274078
 21
-59.748371
  0
LINE
  8
0
 10
327.395020
 20
-68.833328
 11
327.395020
 21
-72.833328
  0
LINE
  8
0
 10
312.395020
 20
-68.833328
 11
312.395020
 21
-72.833328
  0
LINE
  8
0
 10
312.395020
 20
-72.833328
 11
327.395020
 21
-72.833328
  0
LINE
  8
0
 10
314.145020
 20
-67.333328
 11
325.645020
 21
-67.333328
  0
LINE
  8
0
 10
312.395020
 20
-68.833328
 11
327.395020
 21
-68.833328
  0
LINE
  8
0
 10
307.645020
 20
-80.333328
 11
332.145020
 21
-80.333328
  0
LINE
  8
0
 10
313.455627
 20
-75.333328
 11
326.334412
 21
-75.333328
  0
LINE
  8
0
 10
314.145020
 20
-67.333313
 11
312.395020
 21
-68.833313
  0
LINE
  8
0
 10
325.645020
 20
-67.333328
 11
327.395020
 21
-68.833328
  0
LINE
  8
0
 10
332.145020
 20
-80.333328
 11
332.395020
 21
-79.900314
  0
LINE
  8
0
 10
307.395020
 20
-79.900314
 11
307.645020
 21
-80.333328
  0
LINE
  8
0
 10
326.334412
 20
-75.333328
 11
332.395020
 21
-79.900314
  0
LINE
  8
0
 10
307.346344
 20
-79.936981
 11
313.455627
 21
-75.333328
  0
LINE
  8
0
 10
312.395020
 20
-72.833328
 11
313.455627
 21
-75.333328
  0
LINE
  8
0
 10
327.395020
 20
-72.833328
 11
326.334412
 21
-75.333328
  0
LINE
  8
0
 10
307.395020
 20
-79.900314
 11
332.395020
 21
-79.900314
  0
ARC
  8
0
 10
319.895020
 20
-0.458324
 40
5.125000
 50
12.680384
 51
167.319641
  0
ARC
  8
0
 10
319.895020
 20
-17.874996
 40
12.541668
 50
66.965004
 51
113.034996
  0
ARC
  8
0
 10
319.895020
 20
3.208347
 40
12.541667
 50
246.964996
 51
293.035004
  0
ARC
  8
0
 10
326.962494
 20
-8.166138
 40
2.832813
 50
90.000000
 51
139.684616
  0
ARC
  8
0
 10
312.827087
 20
-8.167080
 40
2.833770
 50
40.323910
 51
89.990746
  0
ARC
  8
0
 10
312.827545
 20
-6.500523
 40
2.832802
 50
270.000000
 51
319.684784
  0
ARC
  8
0
 10
326.963135
 20
-6.499176
 40
2.834164
 50
220.327576
 51
269.987030
  0
ARC
  8
0
 10
319.895020
 20
-13.874996
 40
12.541668
 50
66.965004
 51
113.034996
  0
ARC
  8
0
 10
319.895020
 20
7.208347
 40
12.541667
 50
246.964996
 51
293.035004
  0
ARC
  8
0
 10
326.962494
 20
-4.166138
 40
2.832813
 50
90.000000
 51
139.684631
  0
ARC
  8
0
 10
312.827087
 20
-4.167080
 40
2.833770
 50
40.323910
 51
89.990746
  0
ARC
  8
0
 10
312.827545
 20
-2.500523
 40
2.832802
 50
270.000000
 51
319.684784
  0
ARC
  8
0
 10
326.963135
 20
-2.499176
 40
2.834164
 50
220.327576
 51
269.987030
  0
ARC
  8
0
 10
301.295013
 20
-55.317722
 40
0.400000
 50
93.000092
 51
180.000000
  0
ARC
  8
0
 10
301.295013
 20
-59.348923
 40
0.399994
 50
180.000000
 51
266.999908
  0
POLYLINE
  8
0
 66
     1
  0
VERTEX
  8
0
 10
313.895020
 20
-50.261524
  0
VERTEX
  8
0
 10
314.590942
 20
-49.884117
  0
VERTEX
  8
0
 10
315.333221
 20
-49.590870
  0
VERTEX
  8
0
 10
316.106384
 20
-49.400898
  0
VERTEX
  8
0
 10
316.895020
 20
-49.333324
  0
VERTEX
  8
0
 10
317.683655
 20
-49.400898
  0
VERTEX
  8
0
 10
318.456818
 20
-49.590870
  0
VERTEX
  8
0
 10
319.199097
 20
-49.884117
  0
VERTEX
  8
0
 10
319.895020
 20
-50.261524
  0
SEQEND
  0
POLYLINE
  8
0
 66
     1
  0
VERTEX
  8
0
 10
319.895020
 20
-50.261524
  0
VERTEX
  8
0
 10
320.590942
 20
-49.884117
  0
VERTEX
  8
0
 10
321.333221
 20
-49.590870
  0
VERTEX
  8
0
 10
322.106384
 20
-49.400898
  0
VERTEX
  8
0
 10
322.895020
 20
-49.333324
  0
VERTEX
  8
0
 10
323.683655
 20
-49.400898
  0
VERTEX
  8
0
 10
324.456818
 20
-49.590870
  0
VERTEX
  8
0
 10
325.199097
 20
-49.884117
  0
VERTEX
  8
0
 10
325.895020
 20
-50.261524
  0
SEQEND
  0
POLYLINE
  8
0
 66
     1
  0
VERTEX
  8
0
 10
313.895020
 20
-63.405125
  0
VERTEX
  8
0
 10
314.590942
 20
-63.782532
  0
VERTEX
  8
0
 10
315.333221
 20
-64.075783
  0
VERTEX
  8
0
 10
316.106384
 20
-64.265755
  0
VERTEX
  8
0
 10
316.895020
 20
-64.333328
  0
VERTEX
  8
0
 10
317.683655
 20
-64.265755
  0
VERTEX
  8
0
 10
318.456818
 20
-64.075783
  0
VERTEX
  8
0
 10
319.199097
 20
-63.782532
  0
VERTEX
  8
0
 10
319.895020
 20
-63.405125
  0
SEQEND
  0
POLYLINE
  8
0
 66
     1
  0
VERTEX
  8
0
 10
319.895020
 20
-63.405125
  0
VERTEX
  8
0
 10
320.590942
 20
-63.782532
  0
VERTEX
  8
0
 10
321.333221
 20
-64.075783
  0
VERTEX
  8
0
 10
322.106384
 20
-64.265755
  0
VERTEX
  8
0
 10
322.895020
 20
-64.333328
  0
VERTEX
  8
0
 10
323.683655
 20
-64.265755
  0
VERTEX
  8
0
 10
324.456818
 20
-64.075783
  0
VERTEX
  8
0
 10
325.199097
 20
-63.782532
  0
VERTEX
  8
0
 10
325.895020
 20
-63.405125
  0
SEQEND
  0
POINT
  8
0
 10
319.894989
 20
58.749695
  0
POINT
  8
0
 10
329.709991
 20
58.749695
  0
LINE
  8
0
 10
308.894989
 20
56.249695
 11
308.894989
 21
61.249695
  0
LINE
  8
0
 10
300.894989
 20
56.734100
 11
300.894989
 21
60.765297
  0
LINE
  8
0
 10
302.894989
 20
56.249695
 11
302.894989
 21
61.249695
  0
LINE
  8
0
 10
304.894989
 20
56.249695
 11
304.894989
 21
61.249695
  0
LINE
  8
0
 10
306.894989
 20
56.249695
 11
306.894989
 21
61.249695
  0
LINE
  8
0
 10
304.894989
 20
61.249699
 11
302.894989
 21
60.521759
  0
LINE
  8
0
 10
306.894989
 20
61.249695
 11
304.894989
 21
60.521755
  0
LINE
  8
0
 10
304.894989
 20
56.249699
 11
302.894989
 21
56.977642
  0
LINE
  8
0
 10
306.894989
 20
56.249695
 11
304.894989
 21
56.977638
  0
LINE
  8
0
 10
308.894989
 20
56.249702
 11
306.894989
 21
56.977642
  0
LINE
  8
0
 10
308.894989
 20
61.249699
 11
306.894989
 21
60.521759
  0
LINE
  8
0
 10
308.894989
 20
56.249695
 11
311.523407
 21
56.249695
  0
LINE
  8
0
 10
308.894989
 20
61.249695
 11
311.523407
 21
61.249695
  0
LINE
  8
0
 10
302.894989
 20
61.249699
 11
301.274048
 21
61.164749
  0
LINE
  8
0
 10
302.894989
 20
56.249699
 11
301.274048
 21
56.334648
  0
LINE
  8
0
 10
298.974915
 20
58.749695
 11
334.606934
 21
58.749695
  0
LINE
  8
0
 10
329.709991
 20
58.749725
 11
324.802521
 21
67.249718
  0
LINE
  8
0
 10
314.987518
 20
50.249710
 11
310.080048
 21
58.749706
  0
LINE
  8
0
 10
310.080017
 20
58.749695
 11
314.987488
 21
67.249680
  0
LINE
  8
0
 10
324.802460
 20
50.249691
 11
329.709930
 21
58.749680
  0
LINE
  8
0
 10
314.987518
 20
50.249695
 11
324.802460
 21
50.249695
  0
LINE
  8
0
 10
314.987518
 20
67.249695
 11
324.802460
 21
67.249695
  0
LINE
  8
0
 10
319.894989
 20
44.233078
 11
319.894989
 21
72.892250
  0
ARC
  8
0
 10
301.294983
 20
60.765297
 40
0.400000
 50
93.000092
 51
180.000000
  0
ARC
  8
0
 10
301.294983
 20
56.734100
 40
0.399994
 50
180.000000
 51
266.999908
  0
CIRCLE
  8
0
 10
319.894989
 20
58.749695
 40
7.000000
  0
CIRCLE
  8
0
 10
319.894989
 20
58.749695
 40
6.250000
  0
CIRCLE
  8
0
 10
319.894989
 20
58.749695
 40
8.500000
  0
CIRCLE
  8
0
 10
319.894989
 20
58.749695
 40
5.000000
  0
ARC
  8
0
 10
319.894989
 20
58.749695
 40
12.499986
 50
189.269348
 51
170.730606
  0
POINT
  8
0
 10
-319.345001
 20
-182.666672
  0
POINT
  8
0
 10
-309.530060
 20
-182.666672
  0
LINE
  8
0
 10
-319.345001
 20
-257.738190
 11
-319.345001
 21
-167.833344
  0
LINE
  8
0
 10
-339.445312
 20
-234.666672
 11
-324.612457
 21
-234.666672
  0
LINE
  8
0
 10
-325.595001
 20
-176.666672
 11
-313.095001
 21
-176.666672
  0
LINE
  8
0
 10
-324.345001
 20
-226.666672
 11
-314.345001
 21
-226.666672
  0
LINE
  8
0
 10
-324.345001
 20
-219.666672
 11
-324.345001
 21
-186.666672
  0
LINE
  8
0
 10
-314.345001
 20
-219.666672
 11
-314.345001
 21
-186.666672
  0
LINE
  8
0
 10
-325.595001
 20
-219.666672
 11
-313.095001
 21
-219.666672
  0
LINE
  8
0
 10
-313.095001
 20
-219.666672
 11
-313.095001
 21
-186.666672
  0
LINE
  8
0
 10
-325.595001
 20
-219.666672
 11
-325.595001
 21
-186.666672
  0
LINE
  8
0
 10
-324.845001
 20
-241.666672
 11
-313.845001
 21
-241.666672
  0
LINE
  8
0
 10
-313.345001
 20
-241.166672
 11
-313.345001
 21
-227.666672
  0
LINE
  8
0
 10
-325.345001
 20
-241.166672
 11
-325.345001
 21
-227.666672
  0
LINE
  8
0
 10
-314.345001
 20
-226.666672
 11
-314.345001
 21
-219.666672
  0
LINE
  8
0
 10
-324.345001
 20
-226.666672
 11
-324.345001
 21
-219.666672
  0
LINE
  8
0
 10
-313.345001
 20
-227.666672
 11
-314.345001
 21
-226.666672
  0
LINE
  8
0
 10
-324.345001
 20
-226.666672
 11
-325.345001
 21
-227.666672
  0
LINE
  8
0
 10
-313.845001
 20
-244.666672
 11
-313.845001
 21
-241.666672
  0
LINE
  8
0
 10
-324.845001
 20
-244.666672
 11
-324.845001
 21
-241.666672
  0
LINE
  8
0
 10
-325.345001
 20
-241.166672
 11
-324.845001
 21
-241.666672
  0
LINE
  8
0
 10
-313.845001
 20
-241.666672
 11
-313.345001
 21
-241.166672
  0
LINE
  8
0
 10
-326.412476
 20
-182.666672
 11
-312.277527
 21
-182.666672
  0
LINE
  8
0
 10
-326.412476
 20
-186.666672
 11
-312.277527
 21
-186.666672
  0
LINE
  8
0
 10
-329.159943
 20
-183.666672
 11
-329.159943
 21
-185.666672
  0
LINE
  8
0
 10
-309.530060
 20
-183.666672
 11
-309.530060
 21
-185.666672
  0
LINE
  8
0
 10
-329.159973
 20
-183.666672
 11
-326.412476
 21
-182.666672
  0
LINE
  8
0
 10
-309.530060
 20
-185.666672
 11
-312.277527
 21
-186.666672
  0
LINE
  8
0
 10
-329.159943
 20
-185.666687
 11
-326.412476
 21
-186.666687
  0
LINE
  8
0
 10
-309.530029
 20
-183.666672
 11
-312.277527
 21
-182.666672
  0
LINE
  8
0
 10
-324.252472
 20
-185.666672
 11
-324.252472
 21
-183.666672
  0
LINE
  8
0
 10
-314.437531
 20
-183.666672
 11
-314.437531
 21
-185.666672
  0
LINE
  8
0
 10
-326.412476
 20
-178.666672
 11
-312.277527
 21
-178.666672
  0
LINE
  8
0
 10
-329.159943
 20
-179.666672
 11
-329.159943
 21
-181.666672
  0
LINE
  8
0
 10
-309.530060
 20
-179.666672
 11
-309.530060
 21
-181.666672
  0
LINE
  8
0
 10
-329.159973
 20
-179.666672
 11
-326.412476
 21
-178.666672
  0
LINE
  8
0
 10
-309.530060
 20
-181.666672
 11
-312.277527
 21
-182.666672
  0
LINE
  8
0
 10
-329.159943
 20
-181.666672
 11
-326.412476
 21
-182.666672
  0
LINE
  8
0
 10
-309.530029
 20
-179.666672
 11
-312.277527
 21
-178.666672
  0
LINE
  8
0
 10
-324.252472
 20
-181.666672
 11
-324.252472
 21
-179.666672
  0
LINE
  8
0
 10
-314.437531
 20
-179.666672
 11
-314.437531
 21
-181.666672
  0
LINE
  8
0
 10
-325.595001
 20
-178.666672
 11
-325.595001
 21
-176.666672
  0
LINE
  8
0
 10
-324.345001
 20
-178.666672
 11
-324.345001
 21
-176.666672
  0
LINE
  8
0
 10
-314.345001
 20
-178.666672
 11
-314.345001
 21
-176.666672
  0
LINE
  8
0
 10
-313.095001
 20
-178.666672
 11
-313.095001
 21
-176.666672
  0
LINE
  8
0
 10
-330.345001
 20
-237.166672
 11
-330.345001
 21
-232.166672
  0
LINE
  8
0
 10
-338.345001
 20
-236.682266
 11
-338.345001
 21
-232.651062
  0
LINE
  8
0
 10
-336.345001
 20
-237.166672
 11
-336.345001
 21
-232.166672
  0
LINE
  8
0
 10
-334.345001
 20
-237.166672
 11
-334.345001
 21
-232.166672
  0
LINE
  8
0
 10
-332.345001
 20
-237.166672
 11
-332.345001
 21
-232.166672
  0
LINE
  8
0
 10
-334.345001
 20
-232.166672
 11
-336.345001
 21
-232.894608
  0
LINE
  8
0
 10
-332.345001
 20
-232.166672
 11
-334.345001
 21
-232.894608
  0
LINE
  8
0
 10
-334.345001
 20
-237.166672
 11
-336.345001
 21
-236.438736
  0
LINE
  8
0
 10
-332.345001
 20
-237.166672
 11
-334.345001
 21
-236.438736
  0
LINE
  8
0
 10
-330.345001
 20
-237.166672
 11
-332.345001
 21
-236.438736
  0
LINE
  8
0
 10
-330.345001
 20
-232.166672
 11
-332.345001
 21
-232.894608
  0
LINE
  8
0
 10
-330.345001
 20
-237.166672
 11
-325.345001
 21
-237.166672
  0
LINE
  8
0
 10
-330.345001
 20
-232.166672
 11
-325.345001
 21
-232.166672
  0
LINE
  8
0
 10
-336.345001
 20
-232.166672
 11
-337.965942
 21
-232.251617
  0
LINE
  8
0
 10
-336.345001
 20
-237.166672
 11
-337.965942
 21
-237.081726
  0
LINE
  8
0
 10
-311.845001
 20
-246.666672
 11
-311.845001
 21
-249.666672
  0
LINE
  8
0
 10
-326.845001
 20
-246.666672
 11
-326.845001
 21
-249.666672
  0
LINE
  8
0
 10
-325.381775
 20
-250.666672
 11
-313.308228
 21
-250.666672
  0
LINE
  8
0
 10
-325.381775
 20
-250.666672
 11
-313.308228
 21
-250.666672
  0
LINE
  8
0
 10
-334.095001
 20
-255.666672
 11
-304.595001
 21
-255.666672
  0
LINE
  8
0
 10
-324.845001
 20
-244.666672
 11
-313.845001
 21
-244.666672
  0
LINE
  8
0
 10
-326.845001
 20
-246.666672
 11
-311.845001
 21
-246.666672
  0
LINE
  8
0
 10
-324.595001
 20
-244.666672
 11
-326.845001
 21
-246.666672
  0
LINE
  8
0
 10
-314.095001
 20
-244.666672
 11
-311.845001
 21
-246.666672
  0
LINE
  8
0
 10
-334.345001
 20
-255.233673
 11
-334.095001
 21
-255.666687
  0
LINE
  8
0
 10
-304.595001
 20
-255.666687
 11
-304.345001
 21
-255.233673
  0
LINE
  8
0
 10
-334.345001
 20
-255.233658
 11
-325.381775
 21
-250.666672
  0
LINE
  8
0
 10
-313.308228
 20
-250.666672
 11
-304.345001
 21
-255.233658
  0
LINE
  8
0
 10
-326.845001
 20
-249.666672
 11
-311.845001
 21
-249.666672
  0
LINE
  8
0
 10
-326.845001
 20
-249.666687
 11
-325.381775
 21
-250.666687
  0
LINE
  8
0
 10
-311.845001
 20
-249.666672
 11
-313.308228
 21
-250.666672
  0
LINE
  8
0
 10
-334.345001
 20
-255.233658
 11
-304.345001
 21
-255.233658
  0
ARC
  8
0
 10
-319.345001
 20
-177.791672
 40
5.125000
 50
12.680384
 51
167.319611
  0
ARC
  8
0
 10
-319.345001
 20
-195.208344
 40
12.541669
 50
66.965004
 51
113.034996
  0
ARC
  8
0
 10
-319.345001
 20
-174.125000
 40
12.541669
 50
246.965012
 51
293.035004
  0
ARC
  8
0
 10
-312.277527
 20
-185.499481
 40
2.832809
 50
90.000000
 51
139.684677
  0
ARC
  8
0
 10
-326.412933
 20
-185.500427
 40
2.833770
 50
40.323917
 51
89.990746
  0
ARC
  8
0
 10
-326.412476
 20
-183.833862
 40
2.832809
 50
270.000000
 51
319.684692
  0
ARC
  8
0
 10
-312.276917
 20
-183.832520
 40
2.834143
 50
220.328033
 51
269.987671
  0
ARC
  8
0
 10
-319.345001
 20
-191.208344
 40
12.541669
 50
66.965004
 51
113.034996
  0
ARC
  8
0
 10
-319.345001
 20
-170.125000
 40
12.541669
 50
246.965012
 51
293.035004
  0
ARC
  8
0
 10
-312.277527
 20
-181.499481
 40
2.832809
 50
90.000000
 51
139.684677
  0
ARC
  8
0
 10
-326.412933
 20
-181.500427
 40
2.833770
 50
40.323917
 51
89.990746
  0
ARC
  8
0
 10
-326.412476
 20
-179.833862
 40
2.832809
 50
270.000000
 51
319.684692
  0
ARC
  8
0
 10
-312.276917
 20
-179.832520
 40
2.834143
 50
220.328033
 51
269.987671
  0
ARC
  8
0
 10
-337.945007
 20
-232.651062
 40
0.399993
 50
93.000153
 51
180.000000
  0
ARC
  8
0
 10
-337.945007
 20
-236.682266
 40
0.399994
 50
180.000000
 51
266.999969
  0
POLYLINE
  8
0
 66
     1
  0
VERTEX
  8
0
 10
-325.345001
 20
-227.594879
  0
VERTEX
  8
0
 10
-324.649078
 20
-227.217468
  0
VERTEX
  8
0
 10
-323.906799
 20
-226.924225
  0
VERTEX
  8
0
 10
-323.133636
 20
-226.734253
  0
VERTEX
  8
0
 10
-322.345001
 20
-226.666672
  0
VERTEX
  8
0
 10
-321.556366
 20
-226.734253
  0
VERTEX
  8
0
 10
-320.783203
 20
-226.924225
  0
VERTEX
  8
0
 10
-320.040924
 20
-227.217468
  0
VERTEX
  8
0
 10
-319.345001
 20
-227.594879
  0
SEQEND
  0
POLYLINE
  8
0
 66
     1
  0
VERTEX
  8
0
 10
-319.345001
 20
-227.594879
  0
VERTEX
  8
0
 10
-318.649078
 20
-227.217468
  0
VERTEX
  8
0
 10
-317.906799
 20
-226.924225
  0
VERTEX
  8
0
 10
-317.133636
 20
-226.734253
  0
VERTEX
  8
0
 10
-316.345001
 20
-226.666672
  0
VERTEX
  8
0
 10
-315.556366
 20
-226.734253
  0
VERTEX
  8
0
 10
-314.783203
 20
-226.924225
  0
VERTEX
  8
0
 10
-314.040924
 20
-227.217468
  0
VERTEX
  8
0
 10
-313.345001
 20
-227.594879
  0
SEQEND
  0
POLYLINE
  8
0
 66
     1
  0
VERTEX
  8
0
 10
-325.345001
 20
-240.738464
  0
VERTEX
  8
0
 10
-324.649078
 20
-241.115875
  0
VERTEX
  8
0
 10
-323.906799
 20
-241.409119
  0
VERTEX
  8
0
 10
-323.133636
 20
-241.599091
  0
VERTEX
  8
0
 10
-322.345001
 20
-241.666672
  0
VERTEX
  8
0
 10
-321.556366
 20
-241.599091
  0
VERTEX
  8
0
 10
-320.783203
 20
-241.409119
  0
VERTEX
  8
0
 10
-320.040924
 20
-241.115875
  0
VERTEX
  8
0
 10
-319.345001
 20
-240.738464
  0
SEQEND
  0
POLYLINE
  8
0
 66
     1
  0
VERTEX
  8
0
 10
-319.345001
 20
-240.738464
  0
VERTEX
  8
0
 10
-318.649078
 20
-241.115875
  0
VERTEX
  8
0
 10
-317.906799
 20
-241.409119
  0
VERTEX
  8
0
 10
-317.133636
 20
-241.599091
  0
VERTEX
  8
0
 10
-316.345001
 20
-241.666672
  0
VERTEX
  8
0
 10
-315.556366
 20
-241.599091
  0
VERTEX
  8
0
 10
-314.783203
 20
-241.409119
  0
VERTEX
  8
0
 10
-314.040924
 20
-241.115875
  0
VERTEX
  8
0
 10
-313.345001
 20
-240.738464
  0
SEQEND
  0
POINT
  8
0
 10
-319.345001
 20
-129.583679
  0
POINT
  8
0
 10
-309.529999
 20
-129.583679
  0
LINE
  8
0
 10
-330.345001
 20
-132.083679
 11
-330.345001
 21
-127.083679
  0
LINE
  8
0
 10
-338.345001
 20
-131.599274
 11
-338.345001
 21
-127.568077
  0
LINE
  8
0
 10
-336.345001
 20
-132.083679
 11
-336.345001
 21
-127.083679
  0
LINE
  8
0
 10
-334.345001
 20
-132.083679
 11
-334.345001
 21
-127.083679
  0
LINE
  8
0
 10
-332.345001
 20
-132.083679
 11
-332.345001
 21
-127.083679
  0
LINE
  8
0
 10
-334.345001
 20
-127.083672
 11
-336.345001
 21
-127.811615
  0
LINE
  8
0
 10
-332.345001
 20
-127.083679
 11
-334.345001
 21
-127.811623
  0
LINE
  8
0
 10
-334.345001
 20
-132.083679
 11
-336.345001
 21
-131.355728
  0
LINE
  8
0
 10
-332.345001
 20
-132.083679
 11
-334.345001
 21
-131.355743
  0
LINE
  8
0
 10
-330.345001
 20
-132.083679
 11
-332.345001
 21
-131.355728
  0
LINE
  8
0
 10
-330.345001
 20
-127.083679
 11
-332.345001
 21
-127.811615
  0
LINE
  8
0
 10
-330.345001
 20
-132.083679
 11
-327.716583
 21
-132.083679
  0
LINE
  8
0
 10
-330.345001
 20
-127.083679
 11
-327.716583
 21
-127.083679
  0
LINE
  8
0
 10
-336.345001
 20
-127.083679
 11
-337.965942
 21
-127.168625
  0
LINE
  8
0
 10
-336.345001
 20
-132.083679
 11
-337.965942
 21
-131.998718
  0
LINE
  8
0
 10
-340.265076
 20
-129.583679
 11
-302.643158
 21
-129.583679
  0
LINE
  8
0
 10
-309.529999
 20
-129.583649
 11
-314.437469
 21
-121.083656
  0
LINE
  8
0
 10
-324.252472
 20
-138.083664
 11
-329.159943
 21
-129.583664
  0
LINE
  8
0
 10
-329.159973
 20
-129.583679
 11
-324.252502
 21
-121.083694
  0
LINE
  8
0
 10
-314.437531
 20
-138.083679
 11
-309.530060
 21
-129.583694
  0
LINE
  8
0
 10
-324.252472
 20
-138.083679
 11
-314.437531
 21
-138.083679
  0
LINE
  8
0
 10
-324.252472
 20
-121.083679
 11
-314.437531
 21
-121.083679
  0
LINE
  8
0
 10
-319.345001
 20
-146.561722
 11
-319.345001
 21
-112.777344
  0
ARC
  8
0
 10
-337.945007
 20
-127.568077
 40
0.400000
 50
93.000092
 51
180.000000
  0
ARC
  8
0
 10
-337.945007
 20
-131.599274
 40
0.399994
 50
180.000000
 51
266.999847
  0
CIRCLE
  8
0
 10
-319.345001
 20
-129.583679
 40
7.000000
  0
CIRCLE
  8
0
 10
-319.345001
 20
-129.583679
 40
6.250000
  0
CIRCLE
  8
0
 10
-319.345001
 20
-129.583679
 40
8.500000
  0
CIRCLE
  8
0
 10
-319.345001
 20
-129.583679
 40
5.000000
  0
ARC
  8
0
 10
-319.345001
 20
-129.583679
 40
14.999989
 50
186.938446
 51
173.061584
  0
POINT
  8
0
 10
-159.535004
 20
-182.666656
  0
POINT
  8
0
 10
-149.720047
 20
-182.666656
  0
POINT
  8
0
 10
-159.535004
 20
-172.666656
  0
LINE
  8
0
 10
-159.535004
 20
-260.240479
 11
-159.535004
 21
-167.833313
  0
LINE
  8
0
 10
-179.635300
 20
-234.666656
 11
-164.802460
 21
-234.666656
  0
LINE
  8
0
 10
-165.785004
 20
-176.666656
 11
-153.285004
 21
-176.666656
  0
LINE
  8
0
 10
-164.535004
 20
-226.666656
 11
-154.535004
 21
-226.666656
  0
LINE
  8
0
 10
-164.535004
 20
-219.666656
 11
-164.535004
 21
-186.666656
  0
LINE
  8
0
 10
-154.535004
 20
-219.666656
 11
-154.535004
 21
-186.666656
  0
LINE
  8
0
 10
-165.785004
 20
-219.666656
 11
-153.285004
 21
-219.666656
  0
LINE
  8
0
 10
-153.285004
 20
-219.666656
 11
-153.285004
 21
-186.666656
  0
LINE
  8
0
 10
-165.785004
 20
-219.666656
 11
-165.785004
 21
-186.666656
  0
LINE
  8
0
 10
-165.035004
 20
-241.666656
 11
-154.035004
 21
-241.666656
  0
LINE
  8
0
 10
-153.535004
 20
-241.166656
 11
-153.535004
 21
-227.666656
  0
LINE
  8
0
 10
-165.535004
 20
-241.166656
 11
-165.535004
 21
-227.666656
  0
LINE
  8
0
 10
-154.535004
 20
-226.666656
 11
-154.535004
 21
-219.666656
  0
LINE
  8
0
 10
-164.535004
 20
-226.666656
 11
-164.535004
 21
-219.666656
  0
LINE
  8
0
 10
-153.535004
 20
-227.666656
 11
-154.535004
 21
-226.666656
  0
LINE
  8
0
 10
-164.535004
 20
-226.666656
 11
-165.535004
 21
-227.666656
  0
LINE
  8
0
 10
-154.035004
 20
-244.666656
 11
-154.035004
 21
-241.666656
  0
LINE
  8
0
 10
-165.035004
 20
-244.666656
 11
-165.035004
 21
-241.666656
  0
LINE
  8
0
 10
-165.535004
 20
-241.166656
 11
-165.035004
 21
-241.666656
  0
LINE
  8
0
 10
-154.035004
 20
-241.666656
 11
-153.535004
 21
-241.166656
  0
LINE
  8
0
 10
-166.602478
 20
-182.666656
 11
-152.467529
 21
-182.666656
  0
LINE
  8
0
 10
-166.602478
 20
-186.666656
 11
-152.467529
 21
-186.666656
  0
LINE
  8
0
 10
-169.349960
 20
-183.666656
 11
-169.349960
 21
-185.666656
  0
LINE
  8
0
 10
-149.720047
 20
-183.666656
 11
-149.720047
 21
-185.666656
  0
LINE
  8
0
 10
-169.349960
 20
-183.666656
 11
-166.602493
 21
-182.666656
  0
LINE
  8
0
 10
-149.720047
 20
-185.666656
 11
-152.467529
 21
-186.666656
  0
LINE
  8
0
 10
-169.349960
 20
-185.666672
 11
-166.602478
 21
-186.666656
  0
LINE
  8
0
 10
-149.720047
 20
-183.666656
 11
-152.467514
 21
-182.666656
  0
LINE
  8
0
 10
-164.442490
 20
-185.666656
 11
-164.442490
 21
-183.666656
  0
LINE
  8
0
 10
-154.627533
 20
-183.666656
 11
-154.627533
 21
-185.666656
  0
LINE
  8
0
 10
-166.602478
 20
-178.666656
 11
-152.467529
 21
-178.666656
  0
LINE
  8
0
 10
-169.349960
 20
-179.666656
 11
-169.349960
 21
-181.666656
  0
LINE
  8
0
 10
-149.720047
 20
-179.666656
 11
-149.720047
 21
-181.666656
  0
LINE
  8
0
 10
-169.349960
 20
-179.666656
 11
-166.602493
 21
-178.666656
  0
LINE
  8
0
 10
-149.720062
 20
-181.666656
 11
-152.467529
 21
-182.666656
  0
LINE
  8
0
 10
-169.349960
 20
-181.666656
 11
-166.602478
 21
-182.666656
  0
LINE
  8
0
 10
-149.720047
 20
-179.666656
 11
-152.467514
 21
-178.666656
  0
LINE
  8
0
 10
-164.442490
 20
-181.666656
 11
-164.442490
 21
-179.666656
  0
LINE
  8
0
 10
-154.627533
 20
-179.666656
 11
-154.627533
 21
-181.666656
  0
LINE
  8
0
 10
-165.785004
 20
-178.666656
 11
-165.785004
 21
-176.666656
  0
LINE
  8
0
 10
-164.535004
 20
-178.666656
 11
-164.535004
 21
-176.666656
  0
LINE
  8
0
 10
-154.535004
 20
-178.666656
 11
-154.535004
 21
-176.666656
  0
LINE
  8
0
 10
-153.285004
 20
-178.666656
 11
-153.285004
 21
-176.666656
  0
LINE
  8
0
 10
-170.535004
 20
-237.166656
 11
-170.535004
 21
-232.166656
  0
LINE
  8
0
 10
-178.535004
 20
-236.682251
 11
-178.535004
 21
-232.651062
  0
LINE
  8
0
 10
-176.535004
 20
-237.166656
 11
-176.535004
 21
-232.166656
  0
LINE
  8
0
 10
-174.535004
 20
-237.166656
 11
-174.535004
 21
-232.166656
  0
LINE
  8
0
 10
-172.535004
 20
-237.166656
 11
-172.535004
 21
-232.166656
  0
LINE
  8
0
 10
-174.535004
 20
-232.166656
 11
-176.535004
 21
-232.894592
  0
LINE
  8
0
 10
-172.535004
 20
-232.166656
 11
-174.535004
 21
-232.894592
  0
LINE
  8
0
 10
-174.535004
 20
-237.166656
 11
-176.535004
 21
-236.438721
  0
LINE
  8
0
 10
-172.535004
 20
-237.166656
 11
-174.535004
 21
-236.438721
  0
LINE
  8
0
 10
-170.535004
 20
-237.166656
 11
-172.535004
 21
-236.438721
  0
LINE
  8
0
 10
-170.535004
 20
-232.166656
 11
-172.535004
 21
-232.894592
  0
LINE
  8
0
 10
-170.535004
 20
-237.166656
 11
-165.535004
 21
-237.166656
  0
LINE
  8
0
 10
-170.535004
 20
-232.166656
 11
-165.535004
 21
-232.166656
  0
LINE
  8
0
 10
-176.535004
 20
-232.166656
 11
-178.155945
 21
-232.251602
  0
LINE
  8
0
 10
-176.535004
 20
-237.166656
 11
-178.155945
 21
-237.081696
  0
LINE
  8
0
 10
-167.035004
 20
-246.666656
 11
-167.035004
 21
-250.666656
  0
LINE
  8
0
 10
-152.035004
 20
-246.666656
 11
-152.035004
 21
-250.666656
  0
LINE
  8
0
 10
-166.777374
 20
-252.666656
 11
-152.292633
 21
-252.666656
  0
LINE
  8
0
 10
-176.785004
 20
-257.666656
 11
-142.285004
 21
-257.666656
  0
LINE
  8
0
 10
-165.035004
 20
-244.666656
 11
-154.035004
 21
-244.666656
  0
LINE
  8
0
 10
-167.035004
 20
-246.666656
 11
-152.035004
 21
-246.666656
  0
LINE
  8
0
 10
-164.785004
 20
-244.666656
 11
-167.035004
 21
-246.666656
  0
LINE
  8
0
 10
-154.285004
 20
-244.666656
 11
-152.035004
 21
-246.666656
  0
LINE
  8
0
 10
-177.035004
 20
-257.233643
 11
-176.785004
 21
-257.666656
  0
LINE
  8
0
 10
-142.285004
 20
-257.666656
 11
-142.035004
 21
-257.233643
  0
LINE
  8
0
 10
-177.035004
 20
-257.233643
 11
-166.777374
 21
-252.666656
  0
LINE
  8
0
 10
-152.292633
 20
-252.666656
 11
-142.035004
 21
-257.233643
  0
LINE
  8
0
 10
-167.035004
 20
-250.666656
 11
-152.035004
 21
-250.666656
  0
LINE
  8
0
 10
-166.777374
 20
-252.666656
 11
-167.035004
 21
-250.666656
  0
LINE
  8
0
 10
-152.035004
 20
-250.666656
 11
-152.292633
 21
-252.666656
  0
LINE
  8
0
 10
-177.035004
 20
-257.233643
 11
-142.035004
 21
-257.233643
  0
ARC
  8
0
 10
-159.535004
 20
-177.791656
 40
5.125000
 50
12.680384
 51
167.319611
  0
ARC
  8
0
 10
-159.535004
 20
-195.208328
 40
12.541669
 50
66.965004
 51
113.035057
  0
ARC
  8
0
 10
-159.535004
 20
-174.124985
 40
12.541675
 50
246.964935
 51
293.035004
  0
ARC
  8
0
 10
-152.467529
 20
-185.499466
 40
2.832809
 50
90.000000
 51
139.684677
  0
ARC
  8
0
 10
-166.602921
 20
-185.500412
 40
2.833747
 50
40.324314
 51
89.991051
  0
ARC
  8
0
 10
-166.602478
 20
-183.833862
 40
2.832794
 50
270.000000
 51
319.684906
  0
ARC
  8
0
 10
-152.466904
 20
-183.832504
 40
2.834155
 50
220.327835
 51
269.987366
  0
ARC
  8
0
 10
-159.535004
 20
-191.208328
 40
12.541669
 50
66.965004
 51
113.035057
  0
ARC
  8
0
 10
-159.535004
 20
-170.124985
 40
12.541675
 50
246.964935
 51
293.035004
  0
ARC
  8
0
 10
-152.467529
 20
-181.499466
 40
2.832809
 50
90.000000
 51
139.684677
  0
ARC
  8
0
 10
-166.602921
 20
-181.500412
 40
2.833747
 50
40.324314
 51
89.991051
  0
ARC
  8
0
 10
-166.602478
 20
-179.833862
 40
2.832794
 50
270.000000
 51
319.684906
  0
ARC
  8
0
 10
-152.466904
 20
-179.832504
 40
2.834155
 50
220.327835
 51
269.987366
  0
ARC
  8
0
 10
-178.135010
 20
-232.651062
 40
0.400008
 50
93.000038
 51
180.000000
  0
ARC
  8
0
 10
-178.135010
 20
-236.682251
 40
0.399994
 50
180.000000
 51
266.999969
  0
POLYLINE
  8
0
 66
     1
  0
VERTEX
  8
0
 10
-165.535004
 20
-227.594849
  0
VERTEX
  8
0
 10
-164.839081
 20
-227.217438
  0
VERTEX
  8
0
 10
-164.096802
 20
-226.924194
  0
VERTEX
  8
0
 10
-163.323624
 20
-226.734222
  0
VERTEX
  8
0
 10
-162.535004
 20
-226.666656
  0
VERTEX
  8
0
 10
-161.746384
 20
-226.734222
  0
VERTEX
  8
0
 10
-160.973206
 20
-226.924194
  0
VERTEX
  8
0
 10
-160.230927
 20
-227.217438
  0
VERTEX
  8
0
 10
-159.535004
 20
-227.594849
  0
SEQEND
  0
POLYLINE
  8
0
 66
     1
  0
VERTEX
  8
0
 10
-159.535004
 20
-227.594849
  0
VERTEX
  8
0
 10
-158.839081
 20
-227.217438
  0
VERTEX
  8
0
 10
-158.096802
 20
-226.924194
  0
VERTEX
  8
0
 10
-157.323624
 20
-226.734222
  0
VERTEX
  8
0
 10
-156.535004
 20
-226.666656
  0
VERTEX
  8
0
 10
-155.746384
 20
-226.734222
  0
VERTEX
  8
0
 10
-154.973206
 20
-226.924194
  0
VERTEX
  8
0
 10
-154.230927
 20
-227.217438
  0
VERTEX
  8
0
 10
-153.535004
 20
-227.594849
  0
SEQEND
  0
POLYLINE
  8
0
 66
     1
  0
VERTEX
  8
0
 10
-165.535004
 20
-240.738464
  0
VERTEX
  8
0
 10
-164.839081
 20
-241.115875
  0
VERTEX
  8
0
 10
-164.096802
 20
-241.409119
  0
VERTEX
  8
0
 10
-163.323624
 20
-241.599091
  0
VERTEX
  8
0
 10
-162.535004
 20
-241.666656
  0
VERTEX
  8
0
 10
-161.746384
 20
-241.599091
  0
VERTEX
  8
0
 10
-160.973206
 20
-241.409119
  0
VERTEX
  8
0
 10
-160.230927
 20
-241.115875
  0
VERTEX
  8
0
 10
-159.535004
 20
-240.738464
  0
SEQEND
  0
POLYLINE
  8
0
 66
     1
  0
VERTEX
  8
0
 10
-159.535004
 20
-240.738464
  0
VERTEX
  8
0
 10
-158.839081
 20
-241.115875
  0
VERTEX
  8
0
 10
-158.096802
 20
-241.409119
  0
VERTEX
  8
0
 10
-157.323624
 20
-241.599091
  0
VERTEX
  8
0
 10
-156.535004
 20
-241.666656
  0
VERTEX
  8
0
 10
-155.746384
 20
-241.599091
  0
VERTEX
  8
0
 10
-154.973206
 20
-241.409119
  0
VERTEX
  8
0
 10
-154.230927
 20
-241.115875
  0
VERTEX
  8
0
 10
-153.535004
 20
-240.738464
  0
SEQEND
  0
POINT
  8
0
 10
-159.535004
 20
-135.583649
  0
POINT
  8
0
 10
-149.720001
 20
-135.583649
  0
LINE
  8
0
 10
-170.535004
 20
-138.083649
 11
-170.535004
 21
-133.083649
  0
LINE
  8
0
 10
-178.535004
 20
-137.599243
 11
-178.535004
 21
-133.568054
  0
LINE
  8
0
 10
-176.535004
 20
-138.083649
 11
-176.535004
 21
-133.083649
  0
LINE
  8
0
 10
-174.535004
 20
-138.083649
 11
-174.535004
 21
-133.083649
  0
LINE
  8
0
 10
-172.535004
 20
-138.083649
 11
-172.535004
 21
-133.083649
  0
LINE
  8
0
 10
-174.535004
 20
-133.083649
 11
-176.535004
 21
-133.811584
  0
LINE
  8
0
 10
-172.535004
 20
-133.083649
 11
-174.535004
 21
-133.811584
  0
LINE
  8
0
 10
-174.535004
 20
-138.083649
 11
-176.535004
 21
-137.355698
  0
LINE
  8
0
 10
-172.535004
 20
-138.083649
 11
-174.535004
 21
-137.355713
  0
LINE
  8
0
 10
-170.535004
 20
-138.083649
 11
-172.535004
 21
-137.355698
  0
LINE
  8
0
 10
-170.535004
 20
-133.083649
 11
-172.535004
 21
-133.811584
  0
LINE
  8
0
 10
-170.535004
 20
-138.083649
 11
-167.906570
 21
-138.083649
  0
LINE
  8
0
 10
-170.535004
 20
-133.083649
 11
-167.906586
 21
-133.083649
  0
LINE
  8
0
 10
-176.535004
 20
-133.083649
 11
-178.155945
 21
-133.168594
  0
LINE
  8
0
 10
-176.535004
 20
-138.083649
 11
-178.155945
 21
-137.998688
  0
LINE
  8
0
 10
-180.455093
 20
-135.583649
 11
-139.338364
 21
-135.583649
  0
LINE
  8
0
 10
-149.720016
 20
-135.583618
 11
-154.627487
 21
-127.083626
  0
LINE
  8
0
 10
-164.442474
 20
-144.083633
 11
-169.349945
 21
-135.583633
  0
LINE
  8
0
 10
-169.349976
 20
-135.583649
 11
-164.442505
 21
-127.083664
  0
LINE
  8
0
 10
-154.627533
 20
-144.083649
 11
-149.720062
 21
-135.583664
  0
LINE
  8
0
 10
-164.442474
 20
-144.083649
 11
-154.627533
 21
-144.083649
  0
LINE
  8
0
 10
-164.442474
 20
-127.083649
 11
-154.627533
 21
-127.083649
  0
LINE
  8
0
 10
-159.535004
 20
-155.105148
 11
-159.535004
 21
-116.425446
  0
ARC
  8
0
 10
-178.135010
 20
-133.568054
 40
0.400008
 50
93.000038
 51
179.997818
  0
ARC
  8
0
 10
-178.135010
 20
-137.599243
 40
0.399994
 50
180.000000
 51
266.999847
  0
CIRCLE
  8
0
 10
-159.535004
 20
-135.583649
 40
7.000000
  0
CIRCLE
  8
0
 10
-159.535004
 20
-135.583649
 40
6.250000
  0
CIRCLE
  8
0
 10
-159.535004
 20
-135.583649
 40
8.500000
  0
CIRCLE
  8
0
 10
-159.535004
 20
-135.583649
 40
5.000000
  0
ARC
  8
0
 10
-159.535004
 20
-135.583649
 40
17.499992
 50
188.157196
 51
171.842804
  0
POINT
  8
0
 10
0.274986
 20
-182.666702
  0
POINT
  8
0
 10
10.089940
 20
-182.666702
  0
LINE
  8
0
 10
0.274986
 20
-260.315674
 11
0.274986
 21
-166.833374
  0
LINE
  8
0
 10
-19.825310
 20
-234.666702
 11
-4.992468
 21
-234.666702
  0
LINE
  8
0
 10
-5.975014
 20
-176.666702
 11
6.524986
 21
-176.666702
  0
LINE
  8
0
 10
-4.725014
 20
-226.666702
 11
5.274987
 21
-226.666702
  0
LINE
  8
0
 10
-4.725014
 20
-219.666702
 11
-4.725014
 21
-186.666702
  0
LINE
  8
0
 10
5.274986
 20
-219.666702
 11
5.274986
 21
-186.666702
  0
LINE
  8
0
 10
-5.975014
 20
-219.666702
 11
6.524986
 21
-219.666702
  0
LINE
  8
0
 10
6.524986
 20
-219.666702
 11
6.524986
 21
-186.666702
  0
LINE
  8
0
 10
-5.975014
 20
-219.666702
 11
-5.975014
 21
-186.666702
  0
LINE
  8
0
 10
-5.225015
 20
-241.666702
 11
5.774986
 21
-241.666702
  0
LINE
  8
0
 10
6.274986
 20
-241.166702
 11
6.274986
 21
-227.666702
  0
LINE
  8
0
 10
-5.725014
 20
-241.166702
 11
-5.725014
 21
-227.666702
  0
LINE
  8
0
 10
5.274986
 20
-226.666702
 11
5.274986
 21
-219.666702
  0
LINE
  8
0
 10
-4.725014
 20
-226.666702
 11
-4.725014
 21
-219.666702
  0
LINE
  8
0
 10
6.274983
 20
-227.666702
 11
5.274982
 21
-226.666702
  0
LINE
  8
0
 10
-4.725014
 20
-226.666702
 11
-5.725012
 21
-227.666702
  0
LINE
  8
0
 10
5.774986
 20
-244.666702
 11
5.774986
 21
-241.666702
  0
LINE
  8
0
 10
-5.225014
 20
-244.666702
 11
-5.225014
 21
-241.666702
  0
LINE
  8
0
 10
-5.725016
 20
-241.166702
 11
-5.225016
 21
-241.666702
  0
LINE
  8
0
 10
5.774986
 20
-241.666702
 11
6.274984
 21
-241.166702
  0
LINE
  8
0
 10
-6.792492
 20
-182.666702
 11
7.342464
 21
-182.666702
  0
LINE
  8
0
 10
-6.792496
 20
-186.666702
 11
7.342468
 21
-186.666702
  0
LINE
  8
0
 10
-9.539969
 20
-183.666702
 11
-9.539969
 21
-185.666702
  0
LINE
  8
0
 10
10.089940
 20
-183.666702
 11
10.089940
 21
-185.666702
  0
LINE
  8
0
 10
-9.539971
 20
-183.666702
 11
-6.792498
 21
-182.666702
  0
LINE
  8
0
 10
10.089938
 20
-185.666702
 11
7.342464
 21
-186.666702
  0
LINE
  8
0
 10
-9.539966
 20
-185.666718
 11
-6.792490
 21
-186.666718
  0
LINE
  8
0
 10
10.089942
 20
-183.666702
 11
7.342470
 21
-182.666702
  0
LINE
  8
0
 10
-4.632493
 20
-185.666702
 11
-4.632493
 21
-183.666702
  0
LINE
  8
0
 10
5.182462
 20
-183.666702
 11
5.182462
 21
-185.666702
  0
LINE
  8
0
 10
-6.792492
 20
-178.666702
 11
7.342464
 21
-178.666702
  0
LINE
  8
0
 10
-9.539969
 20
-179.666702
 11
-9.539969
 21
-181.666702
  0
LINE
  8
0
 10
10.089940
 20
-179.666702
 11
10.089940
 21
-181.666702
  0
LINE
  8
0
 10
-9.539971
 20
-179.666702
 11
-6.792498
 21
-178.666702
  0
LINE
  8
0
 10
10.089934
 20
-181.666702
 11
7.342463
 21
-182.666702
  0
LINE
  8
0
 10
-9.539967
 20
-181.666702
 11
-6.792492
 21
-182.666702
  0
LINE
  8
0
 10
10.089943
 20
-179.666702
 11
7.342471
 21
-178.666702
  0
LINE
  8
0
 10
-4.632493
 20
-181.666702
 11
-4.632493
 21
-179.666702
  0
LINE
  8
0
 10
5.182462
 20
-179.666702
 11
5.182462
 21
-181.666702
  0
LINE
  8
0
 10
-5.975014
 20
-178.666702
 11
-5.975014
 21
-176.666702
  0
LINE
  8
0
 10
-4.725014
 20
-178.666702
 11
-4.725014
 21
-176.666702
  0
LINE
  8
0
 10
5.274986
 20
-178.666702
 11
5.274986
 21
-176.666702
  0
LINE
  8
0
 10
6.524986
 20
-178.666702
 11
6.524986
 21
-176.666702
  0
LINE
  8
0
 10
-10.725015
 20
-237.166702
 11
-10.725015
 21
-232.166702
  0
LINE
  8
0
 10
-18.725014
 20
-236.682297
 11
-18.725014
 21
-232.651093
  0
LINE
  8
0
 10
-16.725014
 20
-237.166702
 11
-16.725014
 21
-232.166702
  0
LINE
  8
0
 10
-14.725015
 20
-237.166702
 11
-14.725015
 21
-232.166702
  0
LINE
  8
0
 10
-12.725015
 20
-237.166702
 11
-12.725015
 21
-232.166702
  0
LINE
  8
0
 10
-14.725015
 20
-232.166702
 11
-16.725014
 21
-232.894638
  0
LINE
  8
0
 10
-12.725014
 20
-232.166702
 11
-14.725013
 21
-232.894638
  0
LINE
  8
0
 10
-14.725016
 20
-237.166702
 11
-16.725014
 21
-236.438766
  0
LINE
  8
0
 10
-12.725017
 20
-237.166702
 11
-14.725016
 21
-236.438766
  0
LINE
  8
0
 10
-10.725015
 20
-237.166702
 11
-12.725015
 21
-236.438766
  0
LINE
  8
0
 10
-10.725015
 20
-232.166702
 11
-12.725015
 21
-232.894638
  0
LINE
  8
0
 10
-10.725015
 20
-237.166702
 11
-5.725014
 21
-237.166702
  0
LINE
  8
0
 10
-10.725015
 20
-232.166702
 11
-5.725014
 21
-232.166702
  0
LINE
  8
0
 10
-16.725014
 20
-232.166702
 11
-18.345949
 21
-232.251648
  0
LINE
  8
0
 10
-16.725012
 20
-237.166702
 11
-18.345947
 21
-237.081757
  0
LINE
  8
0
 10
-7.725014
 20
-246.666702
 11
-7.725014
 21
-251.890945
  0
LINE
  8
0
 10
8.274985
 20
-246.666702
 11
8.274985
 21
-251.890945
  0
LINE
  8
0
 10
-19.475014
 20
-257.666687
 11
20.024986
 21
-257.666687
  0
LINE
  8
0
 10
-5.975015
 20
-244.666702
 11
6.524986
 21
-244.666702
  0
LINE
  8
0
 10
-7.725014
 20
-246.666702
 11
8.274985
 21
-246.666702
  0
LINE
  8
0
 10
-5.975015
 20
-244.666702
 11
-7.725014
 21
-246.666702
  0
LINE
  8
0
 10
6.524987
 20
-244.666702
 11
8.274985
 21
-246.666702
  0
LINE
  8
0
 10
-19.725019
 20
-257.233704
 11
-19.475019
 21
-257.666718
  0
LINE
  8
0
 10
20.024992
 20
-257.666718
 11
20.274992
 21
-257.233704
  0
LINE
  8
0
 10
-19.677267
 20
-257.212433
 11
-7.725010
 21
-251.890945
  0
LINE
  8
0
 10
8.274980
 20
-251.890961
 11
20.274981
 21
-257.233704
  0
LINE
  8
0
 10
-7.725014
 20
-251.890945
 11
8.274985
 21
-251.890945
  0
LINE
  8
0
 10
-19.725014
 20
-257.233704
 11
20.274986
 21
-257.233704
  0
ARC
  8
0
 10
0.274986
 20
-177.791702
 40
5.125000
 50
12.680384
 51
167.319611
  0
ARC
  8
0
 10
0.274985
 20
-195.208374
 40
12.541671
 50
66.964981
 51
113.035034
  0
ARC
  8
0
 10
0.274985
 20
-174.125031
 40
12.541673
 50
246.964966
 51
293.035034
  0
ARC
  8
0
 10
7.342468
 20
-185.499512
 40
2.832809
 50
90.000114
 51
139.684723
  0
ARC
  8
0
 10
-6.792936
 20
-185.500458
 40
2.833756
 50
40.324162
 51
89.991028
  0
ARC
  8
0
 10
-6.792493
 20
-183.833893
 40
2.832809
 50
269.999969
 51
319.684631
  0
ARC
  8
0
 10
7.343086
 20
-183.832550
 40
2.834151
 50
220.327896
 51
269.987457
  0
ARC
  8
0
 10
0.274985
 20
-191.208374
 40
12.541671
 50
66.964981
 51
113.035034
  0
ARC
  8
0
 10
0.274985
 20
-170.125031
 40
12.541673
 50
246.964966
 51
293.035034
  0
ARC
  8
0
 10
7.342468
 20
-181.499512
 40
2.832809
 50
90.000114
 51
139.684723
  0
ARC
  8
0
 10
-6.792936
 20
-181.500458
 40
2.833756
 50
40.324162
 51
89.991028
  0
ARC
  8
0
 10
-6.792493
 20
-179.833893
 40
2.832809
 50
269.999969
 51
319.684631
  0
ARC
  8
0
 10
7.343086
 20
-179.832550
 40
2.834151
 50
220.327896
 51
269.987457
  0
ARC
  8
0
 10
-18.325014
 20
-232.651093
 40
0.399993
 50
93.000153
 51
180.000000
  0
ARC
  8
0
 10
-18.325014
 20
-236.682297
 40
0.400000
 50
180.000000
 51
266.999969
  0
POLYLINE
  8
0
 66
     1
  0
VERTEX
  8
0
 10
-5.725014
 20
-227.594910
  0
VERTEX
  8
0
 10
-5.029090
 20
-227.217499
  0
VERTEX
  8
0
 10
-4.286816
 20
-226.924255
  0
VERTEX
  8
0
 10
-3.513640
 20
-226.734283
  0
VERTEX
  8
0
 10
-2.725014
 20
-226.666702
  0
VERTEX
  8
0
 10
-1.936388
 20
-226.734283
  0
VERTEX
  8
0
 10
-1.163213
 20
-226.924255
  0
VERTEX
  8
0
 10
-0.420938
 20
-227.217499
  0
VERTEX
  8
0
 10
0.274986
 20
-227.594910
  0
SEQEND
  0
POLYLINE
  8
0
 66
     1
  0
VERTEX
  8
0
 10
0.274986
 20
-227.594910
  0
VERTEX
  8
0
 10
0.970910
 20
-227.217499
  0
VERTEX
  8
0
 10
1.713184
 20
-226.924255
  0
VERTEX
  8
0
 10
2.486360
 20
-226.734283
  0
VERTEX
  8
0
 10
3.274986
 20
-226.666702
  0
VERTEX
  8
0
 10
4.063612
 20
-226.734283
  0
VERTEX
  8
0
 10
4.836787
 20
-226.924255
  0
VERTEX
  8
0
 10
5.579062
 20
-227.217499
  0
VERTEX
  8
0
 10
6.274986
 20
-227.594910
  0
SEQEND
  0
POLYLINE
  8
0
 66
     1
  0
VERTEX
  8
0
 10
-5.725014
 20
-240.738495
  0
VERTEX
  8
0
 10
-5.029090
 20
-241.115906
  0
VERTEX
  8
0
 10
-4.286816
 20
-241.409149
  0
VERTEX
  8
0
 10
-3.513640
 20
-241.599121
  0
VERTEX
  8
0
 10
-2.725014
 20
-241.666702
  0
VERTEX
  8
0
 10
-1.936388
 20
-241.599121
  0
VERTEX
  8
0
 10
-1.163213
 20
-241.409149
  0
VERTEX
  8
0
 10
-0.420938
 20
-241.115906
  0
VERTEX
  8
0
 10
0.274986
 20
-240.738495
  0
SEQEND
  0
POLYLINE
  8
0
 66
     1
  0
VERTEX
  8
0
 10
0.274986
 20
-240.738495
  0
VERTEX
  8
0
 10
0.970910
 20
-241.115906
  0
VERTEX
  8
0
 10
1.713184
 20
-241.409149
  0
VERTEX
  8
0
 10
2.486360
 20
-241.599121
  0
VERTEX
  8
0
 10
3.274986
 20
-241.666702
  0
VERTEX
  8
0
 10
4.063612
 20
-241.599121
  0
VERTEX
  8
0
 10
4.836787
 20
-241.409149
  0
VERTEX
  8
0
 10
5.579062
 20
-241.115906
  0
VERTEX
  8
0
 10
6.274986
 20
-240.738495
  0
SEQEND
  0
POINT
  8
0
 10
0.274990
 20
-135.583649
  0
POINT
  8
0
 10
10.089993
 20
-135.583649
  0
LINE
  8
0
 10
-10.725010
 20
-138.083649
 11
-10.725010
 21
-133.083649
  0
LINE
  8
0
 10
-18.725010
 20
-137.599243
 11
-18.725010
 21
-133.568054
  0
LINE
  8
0
 10
-16.725010
 20
-138.083649
 11
-16.725010
 21
-133.083649
  0
LINE
  8
0
 10
-14.725010
 20
-138.083649
 11
-14.725010
 21
-133.083649
  0
LINE
  8
0
 10
-12.725010
 20
-138.083649
 11
-12.725010
 21
-133.083649
  0
LINE
  8
0
 10
-14.725010
 20
-133.083649
 11
-16.725010
 21
-133.811584
  0
LINE
  8
0
 10
-12.725011
 20
-133.083649
 11
-14.725011
 21
-133.811584
  0
LINE
  8
0
 10
-14.725009
 20
-138.083649
 11
-16.725010
 21
-137.355698
  0
LINE
  8
0
 10
-12.725009
 20
-138.083649
 11
-14.725010
 21
-137.355713
  0
LINE
  8
0
 10
-10.725009
 20
-138.083649
 11
-12.725011
 21
-137.355698
  0
LINE
  8
0
 10
-10.725012
 20
-133.083649
 11
-12.725012
 21
-133.811584
  0
LINE
  8
0
 10
-10.725010
 20
-138.083649
 11
-8.096579
 21
-138.083649
  0
LINE
  8
0
 10
-10.725010
 20
-133.083649
 11
-8.096595
 21
-133.083649
  0
LINE
  8
0
 10
-16.725012
 20
-133.083649
 11
-18.345945
 21
-133.168594
  0
LINE
  8
0
 10
-16.725008
 20
-138.083649
 11
-18.345943
 21
-137.998688
  0
LINE
  8
0
 10
-20.645098
 20
-135.583649
 11
22.481489
 21
-135.583649
  0
LINE
  8
0
 10
10.089984
 20
-135.583618
 11
5.182511
 21
-127.083626
  0
LINE
  8
0
 10
-4.632476
 20
-144.083633
 11
-9.539950
 21
-135.583633
  0
LINE
  8
0
 10
-9.539978
 20
-135.583649
 11
-4.632506
 21
-127.083664
  0
LINE
  8
0
 10
5.182456
 20
-144.083649
 11
10.089928
 21
-135.583664
  0
LINE
  8
0
 10
-4.632487
 20
-144.083649
 11
5.182467
 21
-144.083649
  0
LINE
  8
0
 10
-4.632486
 20
-127.083649
 11
5.182469
 21
-127.083649
  0
LINE
  8
0
 10
0.274990
 20
-157.514984
 11
0.274990
 21
-113.673340
  0
ARC
  8
0
 10
-18.325010
 20
-133.568054
 40
0.400008
 50
93.000038
 51
179.997818
  0
ARC
  8
0
 10
-18.325010
 20
-137.599243
 40
0.400000
 50
180.000000
 51
266.999847
  0
CIRCLE
  8
0
 10
0.274990
 20
-135.583649
 40
7.000000
  0
CIRCLE
  8
0
 10
0.274990
 20
-135.583649
 40
6.250000
  0
CIRCLE
  8
0
 10
0.274990
 20
-135.583649
 40
8.500000
  0
CIRCLE
  8
0
 10
0.274990
 20
-135.583649
 40
5.000000
  0
CIRCLE
  8
0
 10
0.274990
 20
-135.583649
 40
20.000000
  0
POINT
  8
0
 10
160.084991
 20
-182.666656
  0
POINT
  8
0
 10
169.899948
 20
-182.666656
  0
POINT
  8
0
 10
160.084991
 20
-172.666656
  0
LINE
  8
0
 10
160.084991
 20
-262.996399
 11
160.084991
 21
-170.799988
  0
LINE
  8
0
 10
139.984695
 20
-234.666656
 11
154.817535
 21
-234.666656
  0
LINE
  8
0
 10
153.834991
 20
-176.666656
 11
166.334991
 21
-176.666656
  0
LINE
  8
0
 10
155.084991
 20
-226.666656
 11
165.084991
 21
-226.666656
  0
LINE
  8
0
 10
155.084991
 20
-219.666656
 11
155.084991
 21
-186.666656
  0
LINE
  8
0
 10
165.084991
 20
-219.666656
 11
165.084991
 21
-186.666656
  0
LINE
  8
0
 10
153.834991
 20
-219.666656
 11
166.334991
 21
-219.666656
  0
LINE
  8
0
 10
166.334991
 20
-219.666656
 11
166.334991
 21
-186.666656
  0
LINE
  8
0
 10
153.834991
 20
-219.666656
 11
153.834991
 21
-186.666656
  0
LINE
  8
0
 10
154.584991
 20
-241.666656
 11
165.584991
 21
-241.666656
  0
LINE
  8
0
 10
166.084991
 20
-241.166656
 11
166.084991
 21
-227.666656
  0
LINE
  8
0
 10
154.084991
 20
-241.166656
 11
154.084991
 21
-227.666656
  0
LINE
  8
0
 10
165.084991
 20
-226.666656
 11
165.084991
 21
-219.666656
  0
LINE
  8
0
 10
155.084991
 20
-226.666656
 11
155.084991
 21
-219.666656
  0
LINE
  8
0
 10
166.084991
 20
-227.666656
 11
165.084991
 21
-226.666656
  0
LINE
  8
0
 10
155.084991
 20
-226.666656
 11
154.084991
 21
-227.666656
  0
LINE
  8
0
 10
165.584991
 20
-244.666656
 11
165.584991
 21
-241.666656
  0
LINE
  8
0
 10
154.584991
 20
-244.666656
 11
154.584991
 21
-241.666656
  0
LINE
  8
0
 10
154.084991
 20
-241.166656
 11
154.584991
 21
-241.666656
  0
LINE
  8
0
 10
165.584991
 20
-241.666656
 11
166.084991
 21
-241.166656
  0
LINE
  8
0
 10
153.017517
 20
-182.666656
 11
167.152466
 21
-182.666656
  0
LINE
  8
0
 10
153.017517
 20
-186.666656
 11
167.152466
 21
-186.666656
  0
LINE
  8
0
 10
150.270035
 20
-183.666656
 11
150.270035
 21
-185.666656
  0
LINE
  8
0
 10
169.899948
 20
-183.666656
 11
169.899948
 21
-185.666656
  0
LINE
  8
0
 10
150.270035
 20
-183.666656
 11
153.017502
 21
-182.666656
  0
LINE
  8
0
 10
169.899948
 20
-185.666656
 11
167.152466
 21
-186.666656
  0
LINE
  8
0
 10
150.270035
 20
-185.666672
 11
153.017517
 21
-186.666656
  0
LINE
  8
0
 10
169.899948
 20
-183.666656
 11
167.152481
 21
-182.666656
  0
LINE
  8
0
 10
155.177505
 20
-185.666656
 11
155.177505
 21
-183.666656
  0
LINE
  8
0
 10
164.992462
 20
-183.666656
 11
164.992462
 21
-185.666656
  0
LINE
  8
0
 10
153.017517
 20
-178.666656
 11
167.152466
 21
-178.666656
  0
LINE
  8
0
 10
150.270035
 20
-179.666656
 11
150.270035
 21
-181.666656
  0
LINE
  8
0
 10
169.899948
 20
-179.666656
 11
169.899948
 21
-181.666656
  0
LINE
  8
0
 10
150.270035
 20
-179.666656
 11
153.017502
 21
-178.666656
  0
LINE
  8
0
 10
169.899933
 20
-181.666656
 11
167.152466
 21
-182.666656
  0
LINE
  8
0
 10
150.270035
 20
-181.666656
 11
153.017517
 21
-182.666656
  0
LINE
  8
0
 10
169.899948
 20
-179.666656
 11
167.152481
 21
-178.666656
  0
LINE
  8
0
 10
155.177505
 20
-181.666656
 11
155.177505
 21
-179.666656
  0
LINE
  8
0
 10
164.992462
 20
-179.666656
 11
164.992462
 21
-181.666656
  0
LINE
  8
0
 10
153.834991
 20
-178.666656
 11
153.834991
 21
-176.666656
  0
LINE
  8
0
 10
155.084991
 20
-178.666656
 11
155.084991
 21
-176.666656
  0
LINE
  8
0
 10
165.084991
 20
-178.666656
 11
165.084991
 21
-176.666656
  0
LINE
  8
0
 10
166.334991
 20
-178.666656
 11
166.334991
 21
-176.666656
  0
LINE
  8
0
 10
149.084991
 20
-237.166656
 11
149.084991
 21
-232.166656
  0
LINE
  8
0
 10
141.084991
 20
-236.682251
 11
141.084991
 21
-232.651062
  0
LINE
  8
0
 10
143.084991
 20
-237.166656
 11
143.084991
 21
-232.166656
  0
LINE
  8
0
 10
145.084991
 20
-237.166656
 11
145.084991
 21
-232.166656
  0
LINE
  8
0
 10
147.084991
 20
-237.166656
 11
147.084991
 21
-232.166656
  0
LINE
  8
0
 10
145.084991
 20
-232.166656
 11
143.084991
 21
-232.894592
  0
LINE
  8
0
 10
147.084991
 20
-232.166656
 11
145.084991
 21
-232.894592
  0
LINE
  8
0
 10
145.084991
 20
-237.166656
 11
143.084991
 21
-236.438721
  0
LINE
  8
0
 10
147.084991
 20
-237.166656
 11
145.084991
 21
-236.438721
  0
LINE
  8
0
 10
149.084991
 20
-237.166656
 11
147.084991
 21
-236.438721
  0
LINE
  8
0
 10
149.084991
 20
-232.166656
 11
147.084991
 21
-232.894592
  0
LINE
  8
0
 10
149.084991
 20
-237.166656
 11
154.084991
 21
-237.166656
  0
LINE
  8
0
 10
149.084991
 20
-232.166656
 11
154.084991
 21
-232.166656
  0
LINE
  8
0
 10
143.084991
 20
-232.166656
 11
141.464050
 21
-232.251602
  0
LINE
  8
0
 10
143.084991
 20
-237.166656
 11
141.464050
 21
-237.081696
  0
LINE
  8
0
 10
148.084991
 20
-246.666656
 11
148.084991
 21
-252.666656
  0
LINE
  8
0
 10
172.084991
 20
-246.666656
 11
172.084991
 21
-252.666656
  0
LINE
  8
0
 10
148.084991
 20
-252.666656
 11
172.084991
 21
-252.666656
  0
LINE
  8
0
 10
148.084991
 20
-252.666656
 11
172.084991
 21
-252.666656
  0
LINE
  8
0
 10
135.084991
 20
-259.666656
 11
185.084991
 21
-259.666656
  0
LINE
  8
0
 10
151.584991
 20
-244.666656
 11
168.584991
 21
-244.666656
  0
LINE
  8
0
 10
148.084991
 20
-246.666656
 11
172.084991
 21
-246.666656
  0
LINE
  8
0
 10
148.084991
 20
-246.666656
 11
151.584991
 21
-244.666656
  0
LINE
  8
0
 10
168.584991
 20
-244.666656
 11
172.084991
 21
-246.666656
  0
LINE
  8
0
 10
134.834991
 20
-259.233643
 11
135.084991
 21
-259.666656
  0
LINE
  8
0
 10
185.084991
 20
-259.666656
 11
185.334991
 21
-259.233643
  0
LINE
  8
0
 10
148.084991
 20
-252.666656
 11
134.834991
 21
-259.233643
  0
LINE
  8
0
 10
172.084991
 20
-252.666656
 11
185.334991
 21
-259.233643
  0
LINE
  8
0
 10
134.834991
 20
-259.233643
 11
185.334991
 21
-259.233643
  0
ARC
  8
0
 10
160.084991
 20
-177.791656
 40
5.125000
 50
12.680384
 51
167.319611
  0
ARC
  8
0
 10
160.084991
 20
-195.208328
 40
12.541669
 50
66.965004
 51
113.035057
  0
ARC
  8
0
 10
160.084991
 20
-174.124985
 40
12.541675
 50
246.964935
 51
293.035004
  0
ARC
  8
0
 10
167.152466
 20
-185.499466
 40
2.832809
 50
90.000000
 51
139.684677
  0
ARC
  8
0
 10
153.017075
 20
-185.500412
 40
2.833747
 50
40.324314
 51
89.991051
  0
ARC
  8
0
 10
153.017517
 20
-183.833862
 40
2.832794
 50
270.000000
 51
319.684906
  0
ARC
  8
0
 10
167.153091
 20
-183.832504
 40
2.834155
 50
220.327835
 51
269.987366
  0
ARC
  8
0
 10
160.084991
 20
-191.208328
 40
12.541669
 50
66.965004
 51
113.035057
  0
ARC
  8
0
 10
160.084991
 20
-170.124985
 40
12.541675
 50
246.964935
 51
293.035004
  0
ARC
  8
0
 10
167.152466
 20
-181.499466
 40
2.832809
 50
90.000000
 51
139.684677
  0
ARC
  8
0
 10
153.017075
 20
-181.500412
 40
2.833747
 50
40.324314
 51
89.991051
  0
ARC
  8
0
 10
153.017517
 20
-179.833862
 40
2.832794
 50
270.000000
 51
319.684906
  0
ARC
  8
0
 10
167.153091
 20
-179.832504
 40
2.834155
 50
220.327835
 51
269.987366
  0
ARC
  8
0
 10
141.484985
 20
-232.651062
 40
0.400008
 50
93.000038
 51
180.000000
  0
ARC
  8
0
 10
141.484985
 20
-236.682251
 40
0.399994
 50
180.000000
 51
266.999969
  0
POLYLINE
  8
0
 66
     1
  0
VERTEX
  8
0
 10
154.084991
 20
-227.594849
  0
VERTEX
  8
0
 10
154.780914
 20
-227.217438
  0
VERTEX
  8
0
 10
155.523193
 20
-226.924194
  0
VERTEX
  8
0
 10
156.296371
 20
-226.734222
  0
VERTEX
  8
0
 10
157.084991
 20
-226.666656
  0
VERTEX
  8
0
 10
157.873611
 20
-226.734222
  0
VERTEX
  8
0
 10
158.646790
 20
-226.924194
  0
VERTEX
  8
0
 10
159.389069
 20
-227.217438
  0
VERTEX
  8
0
 10
160.084991
 20
-227.594849
  0
SEQEND
  0
POLYLINE
  8
0
 66
     1
  0
VERTEX
  8
0
 10
160.084991
 20
-227.594849
  0
VERTEX
  8
0
 10
160.780914
 20
-227.217438
  0
VERTEX
  8
0
 10
161.523193
 20
-226.924194
  0
VERTEX
  8
0
 10
162.296371
 20
-226.734222
  0
VERTEX
  8
0
 10
163.084991
 20
-226.666656
  0
VERTEX
  8
0
 10
163.873611
 20
-226.734222
  0
VERTEX
  8
0
 10
164.646790
 20
-226.924194
  0
VERTEX
  8
0
 10
165.389069
 20
-227.217438
  0
VERTEX
  8
0
 10
166.084991
 20
-227.594849
  0
SEQEND
  0
POLYLINE
  8
0
 66
     1
  0
VERTEX
  8
0
 10
154.084991
 20
-240.738464
  0
VERTEX
  8
0
 10
154.780914
 20
-241.115875
  0
VERTEX
  8
0
 10
155.523193
 20
-241.409119
  0
VERTEX
  8
0
 10
156.296371
 20
-241.599091
  0
VERTEX
  8
0
 10
157.084991
 20
-241.666656
  0
VERTEX
  8
0
 10
157.873611
 20
-241.599091
  0
VERTEX
  8
0
 10
158.646790
 20
-241.409119
  0
VERTEX
  8
0
 10
159.389069
 20
-241.115875
  0
VERTEX
  8
0
 10
160.084991
 20
-240.738464
  0
SEQEND
  0
POLYLINE
  8
0
 66
     1
  0
VERTEX
  8
0
 10
160.084991
 20
-240.738464
  0
VERTEX
  8
0
 10
160.780914
 20
-241.115875
  0
VERTEX
  8
0
 10
161.523193
 20
-241.409119
  0
VERTEX
  8
0
 10
162.296371
 20
-241.599091
  0
VERTEX
  8
0
 10
163.084991
 20
-241.666656
  0
VERTEX
  8
0
 10
163.873611
 20
-241.599091
  0
VERTEX
  8
0
 10
164.646790
 20
-241.409119
  0
VERTEX
  8
0
 10
165.389069
 20
-241.115875
  0
VERTEX
  8
0
 10
166.084991
 20
-240.738464
  0
SEQEND
  0
POINT
  8
0
 10
160.085007
 20
-131.583679
  0
POINT
  8
0
 10
169.900009
 20
-131.583679
  0
LINE
  8
0
 10
149.085007
 20
-134.083679
 11
149.085007
 21
-129.083679
  0
LINE
  8
0
 10
141.085007
 20
-133.599274
 11
141.085007
 21
-129.568085
  0
LINE
  8
0
 10
143.085007
 20
-134.083679
 11
143.085007
 21
-129.083679
  0
LINE
  8
0
 10
145.085007
 20
-134.083679
 11
145.085007
 21
-129.083679
  0
LINE
  8
0
 10
147.085007
 20
-134.083679
 11
147.085007
 21
-129.083679
  0
LINE
  8
0
 10
145.085007
 20
-129.083679
 11
143.085007
 21
-129.811615
  0
LINE
  8
0
 10
147.085007
 20
-129.083679
 11
145.085007
 21
-129.811615
  0
LINE
  8
0
 10
145.085007
 20
-134.083679
 11
143.085007
 21
-133.355728
  0
LINE
  8
0
 10
147.085007
 20
-134.083679
 11
145.085007
 21
-133.355743
  0
LINE
  8
0
 10
149.085007
 20
-134.083679
 11
147.085007
 21
-133.355728
  0
LINE
  8
0
 10
149.085007
 20
-129.083679
 11
147.085007
 21
-129.811615
  0
LINE
  8
0
 10
149.085007
 20
-134.083679
 11
151.713440
 21
-134.083679
  0
LINE
  8
0
 10
149.085007
 20
-129.083679
 11
151.713425
 21
-129.083679
  0
LINE
  8
0
 10
143.085007
 20
-129.083679
 11
141.464066
 21
-129.168625
  0
LINE
  8
0
 10
143.085007
 20
-134.083679
 11
141.464081
 21
-133.998718
  0
LINE
  8
0
 10
133.291992
 20
-131.583679
 11
187.001663
 21
-131.583679
  0
LINE
  8
0
 10
169.899994
 20
-131.583649
 11
164.992523
 21
-123.083656
  0
LINE
  8
0
 10
155.177536
 20
-140.083664
 11
150.270065
 21
-131.583664
  0
LINE
  8
0
 10
150.270035
 20
-131.583679
 11
155.177505
 21
-123.083694
  0
LINE
  8
0
 10
164.992477
 20
-140.083679
 11
169.899948
 21
-131.583694
  0
LINE
  8
0
 10
155.177536
 20
-140.083679
 11
164.992477
 21
-140.083679
  0
LINE
  8
0
 10
155.177536
 20
-123.083679
 11
164.992493
 21
-123.083679
  0
LINE
  8
0
 10
160.085007
 20
-158.617004
 11
160.085007
 21
-104.417007
  0
ARC
  8
0
 10
141.485001
 20
-129.568085
 40
0.400008
 50
93.000038
 51
179.997818
  0
ARC
  8
0
 10
141.485001
 20
-133.599274
 40
0.399994
 50
180.000000
 51
266.999847
  0
CIRCLE
  8
0
 10
160.085007
 20
-131.583679
 40
7.000000
  0
CIRCLE
  8
0
 10
160.085007
 20
-131.583679
 40
6.250000
  0
CIRCLE
  8
0
 10
160.085007
 20
-131.583679
 40
8.500000
  0
CIRCLE
  8
0
 10
160.085007
 20
-131.583679
 40
5.000000
  0
ARC
  8
0
 10
160.085007
 20
-131.583679
 40
12.000008
 50
190.616364
 51
169.383560
  0
CIRCLE
  8
0
 10
160.085007
 20
-131.583679
 40
25.000000
  0
POINT
  8
0
 10
-19.725004
 20
214.083359
  0
POINT
  8
0
 10
-15.683548
 20
214.083359
  0
LINE
  8
0
 10
-30.725004
 20
215.183350
 11
-30.725004
 21
212.983368
  0
LINE
  8
0
 10
-30.225004
 20
215.583359
 11
-30.225004
 21
212.583359
  0
LINE
  8
0
 10
-28.725004
 20
215.583359
 11
-28.725004
 21
212.583359
  0
LINE
  8
0
 10
-27.225004
 20
215.583359
 11
-27.225004
 21
212.583359
  0
LINE
  8
0
 10
-25.725004
 20
215.583359
 11
-25.725004
 21
212.583359
  0
LINE
  8
0
 10
-25.725004
 20
215.583359
 11
-22.900431
 21
215.583359
  0
LINE
  8
0
 10
-25.725004
 20
212.583359
 11
-22.900429
 21
212.583359
  0
LINE
  8
0
 10
-28.725006
 20
215.583359
 11
-30.225006
 21
215.037399
  0
LINE
  8
0
 10
-27.225000
 20
215.583344
 11
-28.724998
 21
215.037399
  0
LINE
  8
0
 10
-25.725002
 20
215.583359
 11
-27.225000
 21
215.037399
  0
LINE
  8
0
 10
-28.725006
 20
212.583359
 11
-30.225006
 21
213.129318
  0
LINE
  8
0
 10
-27.225006
 20
212.583344
 11
-28.725004
 21
213.129303
  0
LINE
  8
0
 10
-25.725006
 20
212.583359
 11
-27.225004
 21
213.129318
  0
LINE
  8
0
 10
-31.618176
 20
214.083359
 11
-14.281788
 21
214.083359
  0
LINE
  8
0
 10
-19.725004
 20
218.919647
 11
-19.725004
 21
208.995850
  0
LINE
  8
0
 10
-21.745729
 20
210.583359
 11
-17.704279
 21
210.583359
  0
LINE
  8
0
 10
-21.745729
 20
217.583359
 11
-17.704279
 21
217.583359
  0
LINE
  8
0
 10
-17.704281
 20
210.583359
 11
-15.683556
 21
214.083359
  0
LINE
  8
0
 10
-23.766457
 20
214.083359
 11
-21.745731
 21
217.583359
  0
LINE
  8
0
 10
-17.704277
 20
217.583359
 11
-15.683551
 21
214.083359
  0
LINE
  8
0
 10
-23.766453
 20
214.083359
 11
-21.745728
 21
210.583359
  0
ARC
  8
0
 10
-30.325005
 20
215.183350
 40
0.400009
 50
90.000000
 51
179.997818
  0
ARC
  8
0
 10
-30.325005
 20
212.983368
 40
0.400000
 50
180.000000
 51
270.000000
  0
CIRCLE
  8
0
 10
-19.725004
 20
214.083359
 40
2.500000
  0
CIRCLE
  8
0
 10
-19.725004
 20
214.083359
 40
2.250000
  0
CIRCLE
  8
0
 10
-19.725004
 20
214.083359
 40
3.500000
  0
ENDSEC
  0
EOF
