  0
SECTION
  2
HEADER
  0
ENDSEC
  0
SECTION
  2
TABLES
  0
TABLE
  2
LTYPE
 70
     4
  0
LTYPE
  2
CONTINUOUS
 70
    64
  3
Solid line
 72
    65
 73
     0
 40
0.000000
  0
LTYPE
  2
DASHED
 70
    64
  3
__ __ __ __ __ __ __ __ __ __ __ __ __ __ __
 72
    65
 73
     2
 40
3.500000
 49
2.000000
 49
-1.500000
  0
LTYPE
  2
CENTER
 70
    64
  3
____ _ ____ _ ____ _ ____ _ ____ _ ____ _ ____
 72
    65
 73
     4
 40
17.500000
 49
13.000000
 49
-1.500000
 49
1.500000
 49
-1.500000
  0
LTYPE
  2
PHANTOM
 70
    64
  3
_____ _ _ _____ _ _ _____ _ _ _____ _ _ ____  
 72
    65
 73
     6
 40
15.500000
 49
8.000000
 49
-1.500000
 49
1.500000
 49
-1.500000
 49
1.500000
 49
-1.500000
  0
LTYPE
  2
DASHED1
 70
    64
  3
__ __ __ __ __ __ __ __ __ __ __ __ __ __ __
 72
    65
 73
     2
 40
1.500000
 49
1.000000
 49
-0.500000
  0
LTYPE
  2
DASHED2
 70
    64
  3
__ __ __ __ __ __ __ __ __ __ __ __ __ __ __
 72
    65
 73
     2
 40
3.500000
 49
2.500000
 49
-1.000000
  0
LTYPE
  2
DASHED3
 70
    64
  3
__ __ __ __ __ __ __ __ __ __ __ __ __ __ __
 72
    65
 73
     2
 40
6.000000
 49
4.000000
 49
-2.000000
  0
LTYPE
  2
DASHED4
 70
    64
  3
__ __ __ __ __ __ __ __ __ __ __ __ __ __ __
 72
    65
 73
     2
 40
12.000000
 49
10.000000
 49
-2.000000
  0
LTYPE
  2
DASHED5
 70
    64
  3
__ __ __ __ __ __ __ __ __ __ __ __ __ __ __
 72
    65
 73
     2
 40
17.000000
 49
15.000000
 49
-2.000000
  0
LTYPE
  2
DASHED6
 70
    64
  3
__ __ __ __ __ __ __ __ __ __ __ __ __ __ __
 72
    65
 73
     2
 40
29.000000
 49
27.000000
 49
-2.000000
  0
LTYPE
  2
PHANTOM1
 70
    64
  3
_____ _ _ _____ _ _ _____ _ _ _____ _ _ ____  
 72
    65
 73
     6
 40
31.000000
 49
25.000000
 49
-1.500000
 49
1.000000
 49
-1.000000
 49
1.000000
 49
-1.500000
  0
LTYPE
  2
PHANTOM2
 70
    64
  3
_____ _ _ _____ _ _ _____ _ _ _____ _ _ ____  
 72
    65
 73
     6
 40
36.000000
 49
27.000000
 49
-1.500000
 49
2.500000
 49
-1.000000
 49
2.500000
 49
-1.500000
  0
LTYPE
  2
PHANTOM3
 70
    64
  3
_____ _ _ _____ _ _ _____ _ _ _____ _ _ ____  
 72
    65
 73
     6
 40
78.000000
 49
64.000000
 49
-2.000000
 49
4.000000
 49
-2.000000
 49
4.000000
 49
-2.000000
  0
LTYPE
  2
CENTER1
 70
    64
  3
____ _ ____ _ ____ _ ____ _ ____ _ ____ _ ____
 72
    65
 73
     4
 40
19.000000
 49
14.000000
 49
-1.000000
 49
3.000000
 49
-1.000000
  0
LTYPE
  2
CENTER2
 70
    64
  3
____ _ ____ _ ____ _ ____ _ ____ _ ____ _ ____
 72
    65
 73
     4
 40
28.500000
 49
25.000000
 49
-1.000000
 49
1.500000
 49
-1.000000
  0
LTYPE
  2
CENTER3
 70
    64
  3
____ _ ____ _ ____ _ ____ _ ____ _ ____ _ ____
 72
    65
 73
     4
 40
31.500000
 49
27.000000
 49
-1.000000
 49
2.500000
 49
-1.000000
  0
LTYPE
  2
CENTER4
 70
    64
  3
____ _ ____ _ ____ _ ____ _ ____ _ ____ _ ____
 72
    65
 73
     4
 40
50.000000
 49
45.000000
 49
-1.000000
 49
3.000000
 49
-1.000000
  0
LTYPE
  2
CENTER5
 70
    64
  3
____ _ ____ _ ____ _ ____ _ ____ _ ____ _ ____
 72
    65
 73
     4
 40
100.000000
 49
92.000000
 49
-2.000000
 49
4.000000
 49
-2.000000
  0
LTYPE
  2
SBK1
 70
    64
  3
______ _ _ _ ______ _ _ _ ______ _ _ _ _____  
 72
    65
 73
     8
 40
60.500000
 49
45.000000
 49
-2.000000
 49
2.500000
 49
-2.000000
 49
2.500000
 49
-2.000000
 49
2.500000
 49
-2.000000
  0
LTYPE
  2
SBK2
 70
    64
  3
______ _ _ _ ______ _ _ _ ______ _ _ _ _____  
 72
    65
 73
     8
 40
84.000000
 49
64.000000
 49
-2.000000
 49
4.000000
 49
-2.000000
 49
4.000000
 49
-2.000000
 49
4.000000
 49
-2.000000
  0
LTYPE
  2
STCH
 70
    64
  3
__ __ __ __ __ __ __ __ __ __ __ __ __ __ __
 72
    65
 73
     2
 40
3.000000
 49
1.000000
 49
-2.000000
  0
LTYPE
  2
MTCH
 70
    64
  3
_____ _ _ _____ _ _ _____ _ _ _____ _ _ ____  
 72
    65
 73
     6
 40
80.000000
 49
66.000000
 49
-2.000000
 49
4.000000
 49
-2.000000
 49
4.000000
 49
-2.000000
  0
ENDTAB
  0
TABLE
  2
LAYER
 70
     1
  0
LAYER
  2
0
 70
     0
 62
     7
  6
CONTINUOUS
  0
ENDTAB
  0
TABLE
  2
STYLE
 70
     1
  0
STYLE
  2
STANDARD
 70
     0
 40
0.000000
 41
1.000000
 50
0.000000
 71
     0
 42
0.200000
  3
txt
  4
BIGFONT
  0
ENDTAB
  0
TABLE
  2
VIEW
 70
     0
  0
ENDTAB
  0
ENDSEC
  0
SECTION
  2
BLOCKS
  0
ENDSEC
  0
SECTION
  2
ENTITIES
  0
LINE
  8
0
 10
-181.250000
 20
195.500000
 11
-181.250000
 21
180.500000
  0
LINE
  8
0
 10
182.099976
 20
195.500000
 11
182.099976
 21
180.500000
  0
LINE
  8
0
 10
-281.250000
 20
180.500000
 11
-181.250000
 21
180.500000
  0
LINE
  8
0
 10
182.099976
 20
-175.000000
 11
182.099976
 21
-195.000000
  0
LINE
  8
0
 10
182.099976
 20
180.500000
 11
282.099976
 21
180.500000
  0
LINE
  8
0
 10
182.099976
 20
-175.000000
 11
282.099976
 21
-175.000000
  0
LINE
  8
0
 10
-297.000000
 20
210.000000
 11
297.000000
 21
210.000000
  0
LINE
  8
0
 10
-297.000000
 20
-210.000000
 11
297.000000
 21
-210.000000
  0
LINE
  8
0
 10
297.000000
 20
210.000000
 11
297.000000
 21
-210.000000
  0
LINE
  8
0
 10
-297.000000
 20
210.000000
 11
-297.000000
 21
-210.000000
  0
LINE
  8
0
 10
-281.250000
 20
195.500000
 11
282.099976
 21
195.500000
  0
LINE
  8
0
 10
-281.250000
 20
195.500000
 11
-281.250000
 21
-195.000000
  0
LINE
  8
0
 10
282.099976
 20
195.500000
 11
282.099976
 21
-195.000000
  0
LINE
  8
0
 10
-281.250000
 20
-195.000000
 11
282.099976
 21
-195.000000
  0
LINE
  8
0
 10
-281.250000
 20
5.500000
 11
282.099976
 21
5.500000
  0
LINE
  8
0
 10
-281.250000
 20
15.500000
 11
282.099976
 21
15.500000
  0
LINE
  8
0
 10
-281.250000
 20
-185.000000
 11
182.099976
 21
-185.000000
  0
LINE
  8
0
 10
-11.250000
 20
195.500000
 11
-11.250000
 21
5.500000
  0
LINE
  8
0
 10
133.750000
 20
195.500000
 11
133.750000
 21
5.500000
  0
LINE
  8
0
 10
-146.250000
 20
195.500000
 11
-146.250000
 21
5.500000
  0
LINE
  8
0
 10
-121.250000
 20
5.500000
 11
-121.250000
 21
-195.000000
  0
LINE
  8
0
 10
48.750000
 20
5.500000
 11
48.750000
 21
-195.000000
  0
TEXT
  8
0
 10
188.021667
 20
183.779999
 40
5.800000
  1
DATE: JUN ,1992
 50
0.000000
 41
1.052632
 51
0.000000
  7
STANDARD
  0
TEXT
  8
0
 10
162.643127
 20
6.100000
 40
6.000000
  1
MODEL : KPHS-100
 50
0.000000
 41
1.052632
 51
0.000000
  7
STANDARD
  0
TEXT
  8
0
 10
-259.356873
 20
6.100000
 40
6.000000
  1
MODEL : KPHS-60
 50
0.000000
 41
1.052632
 51
0.000000
  7
STANDARD
  0
TEXT
  8
0
 10
-124.356880
 20
6.100000
 40
6.000000
  1
MODEL : KPHS-80
 50
0.000000
 41
1.052632
 51
0.000000
  7
STANDARD
  0
TEXT
  8
0
 10
20.643124
 20
6.100000
 40
6.000000
  1
MODEL : KPHS-95
 50
0.000000
 41
1.052632
 51
0.000000
  7
STANDARD
  0
TEXT
  8
0
 10
65.143120
 20
-194.399994
 40
6.000000
  1
MODEL : KPHS-200
 50
0.000000
 41
1.052632
 51
0.000000
  7
STANDARD
  0
TEXT
  8
0
 10
-249.856873
 20
-194.399994
 40
6.000000
  1
MODEL : KPHS-120
 50
0.000000
 41
1.052632
 51
0.000000
  7
STANDARD
  0
TEXT
  8
0
 10
-84.856880
 20
-194.399994
 40
6.000000
  1
MODEL : KPHS-150
 50
0.000000
 41
1.052632
 51
0.000000
  7
STANDARD
  0
TEXT
  8
0
 10
185.850296
 20
-190.300003
 40
7.000000
  1
KOGANEI CORP.
 50
0.000000
 41
1.052632
 51
15.000000
  7
STANDARD
  0
TEXT
  8
0
 10
-261.856873
 20
183.600006
 40
6.000000
  1
VACUUM PAD
 50
0.000000
 41
1.052632
 51
0.000000
  7
STANDARD
  0
POINT
  8
0
 10
-213.750000
 20
123.333328
  0
POINT
  8
0
 10
-195.250000
 20
123.333328
  0
LINE
  8
0
 10
-183.750000
 20
55.833313
 11
-183.184311
 21
56.399002
  0
LINE
  8
0
 10
-186.477203
 20
59.691902
 11
-183.184311
 21
56.399010
  0
LINE
  8
0
 10
-183.750000
 20
64.833328
 11
-183.750000
 21
63.833328
  0
LINE
  8
0
 10
-186.477203
 20
61.106106
 11
-183.750000
 21
63.833313
  0
LINE
  8
0
  6
DASHED
 10
-213.750000
 20
63.833328
 11
-186.750000
 21
63.833328
  0
LINE
  8
0
 10
-183.750015
 20
55.833328
 11
-243.750000
 21
55.833328
  0
LINE
  8
0
 10
-243.750000
 20
55.833336
 11
-244.315689
 21
56.399017
  0
LINE
  8
0
 10
-241.022812
 20
59.691902
 11
-244.315704
 21
56.399010
  0
LINE
  8
0
 10
-243.750000
 20
64.833328
 11
-243.750000
 21
63.833328
  0
LINE
  8
0
 10
-241.022827
 20
61.106113
 11
-243.750031
 21
63.833317
  0
LINE
  8
0
  6
DASHED
 10
-213.750000
 20
63.833328
 11
-240.750000
 21
63.833328
  0
LINE
  8
0
 10
-239.510010
 20
60.399017
 11
-188.130005
 21
60.399017
  0
LINE
  8
0
 10
-183.750000
 20
63.833328
 11
-243.750000
 21
63.833328
  0
LINE
  8
0
 10
-244.315689
 20
56.399017
 11
-183.184326
 21
56.399017
  0
LINE
  8
0
 10
-244.250000
 20
72.833328
 11
-183.250000
 21
72.833328
  0
LINE
  8
0
 10
-245.750000
 20
64.833328
 11
-181.750000
 21
64.833328
  0
LINE
  8
0
 10
-181.750000
 20
64.833328
 11
-181.750000
 21
71.333328
  0
LINE
  8
0
 10
-245.750000
 20
64.833328
 11
-245.750000
 21
71.333328
  0
LINE
  8
0
 10
-236.950012
 20
75.833328
 11
-190.550003
 21
75.833328
  0
LINE
  8
0
 10
-189.550003
 20
72.833328
 11
-189.550003
 21
74.833328
  0
LINE
  8
0
 10
-237.950012
 20
72.833328
 11
-237.950012
 21
74.833328
  0
LINE
  8
0
 10
-189.549988
 20
74.833305
 11
-190.550003
 21
75.833313
  0
LINE
  8
0
 10
-236.950012
 20
75.833328
 11
-237.950012
 21
74.833328
  0
LINE
  8
0
 10
-224.750000
 20
95.833328
 11
-202.750000
 21
95.833328
  0
LINE
  8
0
 10
-228.150009
 20
85.833328
 11
-194.416687
 21
85.833328
  0
LINE
  8
0
 10
-213.750000
 20
49.533325
 11
-213.750000
 21
152.833328
  0
LINE
  8
0
 10
-224.750000
 20
75.833328
 11
-224.750000
 21
95.833328
  0
LINE
  8
0
 10
-202.750000
 20
75.833328
 11
-202.750000
 21
95.833328
  0
LINE
  8
0
  6
DASHED
 10
-208.944885
 20
140.953003
 11
-208.750015
 21
146.533310
  0
LINE
  8
0
  6
DASHED
 10
-209.695557
 20
140.946915
 11
-209.500488
 21
146.533325
  0
LINE
  8
0
  6
DASHED
 10
-218.563995
 20
141.206055
 11
-218.750015
 21
146.533325
  0
LINE
  8
0
  6
DASHED
 10
-217.807632
 20
141.037689
 11
-217.999542
 21
146.533325
  0
LINE
  8
0
 10
-213.750000
 20
75.833328
 11
-213.750000
 21
95.833328
  0
LINE
  8
0
 10
-224.500000
 20
95.833328
 11
-224.500000
 21
105.833328
  0
LINE
  8
0
 10
-203.000000
 20
95.833328
 11
-203.000000
 21
105.833328
  0
LINE
  8
0
 10
-203.000000
 20
105.833328
 11
-224.500000
 21
105.833328
  0
LINE
  8
0
 10
-200.950012
 20
105.833328
 11
-226.550018
 21
105.833328
  0
LINE
  8
0
 10
-200.250000
 20
106.533325
 11
-227.250000
 21
106.533325
  0
LINE
  8
0
 10
-200.250000
 20
106.533325
 11
-200.250000
 21
115.333328
  0
LINE
  8
0
 10
-227.250000
 20
106.533325
 11
-227.250000
 21
115.333328
  0
LINE
  8
0
 10
-200.950012
 20
105.833328
 11
-200.950012
 21
115.333328
  0
LINE
  8
0
 10
-226.550003
 20
105.833328
 11
-226.550003
 21
115.333328
  0
LINE
  8
0
 10
-227.250015
 20
106.533340
 11
-226.550018
 21
105.833344
  0
LINE
  8
0
 10
-200.950012
 20
105.833344
 11
-200.250015
 21
106.533340
  0
LINE
  8
0
 10
-200.250000
 20
140.133331
 11
-227.250000
 21
140.133331
  0
LINE
  8
0
 10
-200.949982
 20
140.833328
 11
-226.549988
 21
140.833328
  0
LINE
  8
0
 10
-227.250000
 20
140.133331
 11
-227.250000
 21
131.333328
  0
LINE
  8
0
 10
-226.550003
 20
140.833328
 11
-226.550003
 21
131.333328
  0
LINE
  8
0
 10
-200.250000
 20
140.133331
 11
-200.250000
 21
131.333328
  0
LINE
  8
0
 10
-200.950012
 20
140.833328
 11
-200.950012
 21
131.333328
  0
LINE
  8
0
 10
-226.550034
 20
140.833359
 11
-227.250046
 21
140.133362
  0
LINE
  8
0
 10
-200.250000
 20
140.133347
 11
-200.949982
 21
140.833344
  0
LINE
  8
0
 10
-197.750000
 20
123.333328
 11
-229.750000
 21
123.333328
  0
LINE
  8
0
 10
-195.250000
 20
124.776703
 11
-195.250000
 21
129.889938
  0
LINE
  8
0
 10
-232.250000
 20
124.776703
 11
-232.250000
 21
129.889954
  0
LINE
  8
0
 10
-222.987610
 20
124.776703
 11
-222.987610
 21
129.833328
  0
LINE
  8
0
 10
-204.512390
 20
124.776703
 11
-204.512390
 21
129.833328
  0
LINE
  8
0
 10
-229.750000
 20
123.333344
 11
-232.250000
 21
124.776718
  0
LINE
  8
0
 10
-197.750000
 20
123.333351
 11
-195.250000
 21
124.776726
  0
LINE
  8
0
 10
-197.750031
 20
131.333282
 11
-195.250015
 21
129.889908
  0
LINE
  8
0
 10
-229.750092
 20
131.333450
 11
-232.250092
 21
129.890060
  0
LINE
  8
0
 10
-197.750000
 20
131.333328
 11
-229.750000
 21
131.333328
  0
LINE
  8
0
 10
-197.750000
 20
115.333328
 11
-229.750000
 21
115.333328
  0
LINE
  8
0
 10
-195.250000
 20
116.776703
 11
-195.250000
 21
121.889946
  0
LINE
  8
0
 10
-232.250000
 20
116.776703
 11
-232.250000
 21
121.889946
  0
LINE
  8
0
 10
-222.987610
 20
116.776703
 11
-222.987610
 21
121.833328
  0
LINE
  8
0
 10
-204.512390
 20
116.776703
 11
-204.512390
 21
121.833328
  0
LINE
  8
0
 10
-229.750000
 20
115.333336
 11
-232.250000
 21
116.776711
  0
LINE
  8
0
 10
-197.750015
 20
115.333359
 11
-195.250015
 21
116.776733
  0
LINE
  8
0
 10
-197.750015
 20
123.333298
 11
-195.250015
 21
121.889923
  0
LINE
  8
0
 10
-229.750061
 20
123.333427
 11
-232.250061
 21
121.890053
  0
LINE
  8
0
 10
-197.750000
 20
123.333328
 11
-229.750000
 21
123.333328
  0
LINE
  8
0
 10
-205.250000
 20
146.533325
 11
-222.250000
 21
146.533325
  0
LINE
  8
0
 10
-201.250000
 20
142.533325
 11
-226.250000
 21
142.533325
  0
LINE
  8
0
 10
-203.750000
 20
143.533325
 11
-223.750000
 21
143.533325
  0
LINE
  8
0
 10
-226.250000
 20
140.833328
 11
-226.250000
 21
142.533325
  0
LINE
  8
0
 10
-201.250000
 20
140.833328
 11
-201.250000
 21
142.533325
  0
LINE
  8
0
 10
-223.750000
 20
142.533325
 11
-223.750000
 21
143.533325
  0
LINE
  8
0
 10
-203.750000
 20
142.533325
 11
-203.750000
 21
143.533325
  0
LINE
  8
0
 10
-205.250000
 20
143.533325
 11
-205.250000
 21
146.533325
  0
LINE
  8
0
 10
-222.250000
 20
143.533325
 11
-222.250000
 21
146.533325
  0
LINE
  8
0
 10
-217.883972
 20
147.833328
 11
-209.616028
 21
147.833328
  0
LINE
  8
0
 10
-218.750000
 20
147.333328
 11
-208.750000
 21
147.333328
  0
LINE
  8
0
 10
-208.750000
 20
147.333374
 11
-209.616028
 21
147.833374
  0
LINE
  8
0
 10
-218.750015
 20
147.333389
 11
-217.884003
 21
147.833374
  0
LINE
  8
0
 10
-218.722076
 20
146.533310
 11
-218.750000
 21
147.333313
  0
LINE
  8
0
 10
-208.777954
 20
146.533340
 11
-208.750015
 21
147.333344
  0
LINE
  8
0
  6
DASHED
 10
-210.888474
 20
89.798660
 11
-202.750000
 21
90.082870
  0
LINE
  8
0
  6
DASHED
 10
-210.914642
 20
90.548218
 11
-202.750000
 21
90.833336
  0
LINE
  8
0
  6
DASHED
 10
-210.888474
 20
81.867973
 11
-202.750000
 21
81.583771
  0
LINE
  8
0
  6
DASHED
 10
-210.914658
 20
81.118423
 11
-202.750000
 21
80.833313
  0
LINE
  8
0
 10
-189.550003
 20
74.833328
 11
-237.950012
 21
74.833328
  0
ARC
  8
0
 10
-185.770111
 20
60.399017
 40
1.000001
 50
135.000000
 51
225.000000
  0
ARC
  8
0
 10
-241.729904
 20
60.399017
 40
1.000001
 50
315.000000
 51
45.000000
  0
ARC
  8
0
 10
-244.250000
 20
71.333328
 40
1.500000
 50
90.000000
 51
180.000000
  0
ARC
  8
0
 10
-183.250000
 20
71.333328
 40
1.500000
 50
0.000000
 51
90.000000
  0
ARC
  8
0
 10
-219.250000
 20
80.233330
 40
15.599998
 50
90.000000
 51
110.644226
  0
ARC
  8
0
 10
-208.250000
 20
80.233330
 40
15.599998
 50
90.000000
 51
110.644226
  0
ARC
  8
0
 10
-208.250000
 20
91.433327
 40
15.600001
 50
249.355774
 51
290.644165
  0
ARC
  8
0
 10
-219.250000
 20
91.433327
 40
15.600001
 50
249.355774
 51
290.644165
  0
ARC
  8
0
 10
-208.250000
 20
80.233330
 40
15.600001
 50
69.355774
 51
90.000000
  0
ARC
  8
0
 10
-219.250000
 20
80.233330
 40
15.600001
 50
69.355774
 51
90.000000
  0
ARC
  8
0
 10
-227.618805
 20
131.484772
 40
8.151458
 50
235.379150
 51
304.620880
  0
ARC
  8
0
 10
-213.750000
 20
153.615372
 40
30.282036
 50
252.238739
 51
287.761292
  0
ARC
  8
0
 10
-199.881195
 20
131.484772
 40
8.151451
 50
235.379120
 51
304.620880
  0
ARC
  8
0
 10
-199.881195
 20
123.181885
 40
8.151443
 50
55.379211
 51
124.620964
  0
ARC
  8
0
 10
-227.618805
 20
123.181885
 40
8.151451
 50
55.379124
 51
124.620880
  0
ARC
  8
0
 10
-213.750000
 20
101.051292
 40
30.282024
 50
72.238762
 51
107.761322
  0
ARC
  8
0
 10
-213.750000
 20
93.051292
 40
30.282032
 50
72.238770
 51
107.761322
  0
ARC
  8
0
 10
-199.881195
 20
115.181885
 40
8.151449
 50
55.379242
 51
124.620964
  0
ARC
  8
0
 10
-227.618805
 20
123.484772
 40
8.151458
 50
235.379150
 51
304.620880
  0
ARC
  8
0
 10
-227.618805
 20
115.181885
 40
8.151458
 50
55.379154
 51
124.620880
  0
ARC
  8
0
 10
-213.750000
 20
145.615356
 40
30.282028
 50
252.238739
 51
287.761292
  0
ARC
  8
0
 10
-199.881195
 20
123.484772
 40
8.151451
 50
235.379120
 51
304.620880
  0
POINT
  8
0
 10
-78.750000
 20
123.333328
  0
POINT
  8
0
 10
-60.250000
 20
123.333328
  0
LINE
  8
0
 10
-47.044312
 20
59.617680
 11
-38.175591
 21
53.407730
  0
LINE
  8
0
 10
-48.750008
 20
64.833328
 11
-48.750008
 21
62.894287
  0
LINE
  8
0
 10
-38.749996
 20
52.833321
 11
-38.175587
 21
53.407730
  0
LINE
  8
0
 10
-38.749996
 20
52.833328
 11
-118.750008
 21
52.833328
  0
LINE
  8
0
 10
-110.455704
 20
59.617676
 11
-119.324417
 21
53.407730
  0
LINE
  8
0
 10
-108.750008
 20
64.833328
 11
-108.750008
 21
62.894287
  0
LINE
  8
0
 10
-118.749969
 20
52.833366
 11
-119.324387
 21
53.407776
  0
LINE
  8
0
 10
-50.236671
 20
60.812027
 11
-107.076675
 21
60.812027
  0
LINE
  8
0
 10
-119.324425
 20
53.407738
 11
-38.175594
 21
53.407738
  0
LINE
  8
0
 10
-109.250008
 20
72.833328
 11
-48.250008
 21
72.833328
  0
LINE
  8
0
 10
-110.750008
 20
64.833328
 11
-46.750008
 21
64.833328
  0
LINE
  8
0
 10
-46.750000
 20
64.833328
 11
-46.750000
 21
71.333328
  0
LINE
  8
0
 10
-110.750000
 20
64.833328
 11
-110.750000
 21
71.333328
  0
LINE
  8
0
 10
-101.950005
 20
75.833328
 11
-55.550007
 21
75.833328
  0
LINE
  8
0
 10
-54.550003
 20
72.833328
 11
-54.550003
 21
74.833328
  0
LINE
  8
0
 10
-102.950005
 20
72.833328
 11
-102.950005
 21
74.833328
  0
LINE
  8
0
 10
-54.549995
 20
74.833313
 11
-55.549995
 21
75.833313
  0
LINE
  8
0
 10
-101.950012
 20
75.833328
 11
-102.950012
 21
74.833328
  0
LINE
  8
0
 10
-89.750008
 20
95.833328
 11
-67.750008
 21
95.833328
  0
LINE
  8
0
 10
-93.150009
 20
85.833328
 11
-59.416679
 21
85.833328
  0
LINE
  8
0
 10
-78.750000
 20
47.833328
 11
-78.750000
 21
152.833328
  0
LINE
  8
0
 10
-89.750000
 20
75.833328
 11
-89.750000
 21
95.833328
  0
LINE
  8
0
 10
-67.750000
 20
75.833328
 11
-67.750000
 21
95.833328
  0
LINE
  8
0
  6
DASHED
 10
-73.944878
 20
142.253006
 11
-73.750015
 21
146.533310
  0
LINE
  8
0
  6
DASHED
 10
-74.695564
 20
142.246902
 11
-74.500481
 21
146.533340
  0
LINE
  8
0
  6
DASHED
 10
-83.563988
 20
142.506042
 11
-83.750023
 21
146.533325
  0
LINE
  8
0
  6
DASHED
 10
-82.807632
 20
142.337677
 11
-82.999550
 21
146.533325
  0
LINE
  8
0
 10
-78.750000
 20
75.833328
 11
-78.750000
 21
95.833328
  0
LINE
  8
0
 10
-89.500000
 20
95.833328
 11
-89.500000
 21
105.833328
  0
LINE
  8
0
 10
-68.000000
 20
95.833328
 11
-68.000000
 21
105.833328
  0
LINE
  8
0
 10
-68.000008
 20
105.833328
 11
-89.500008
 21
105.833328
  0
LINE
  8
0
 10
-65.950005
 20
105.833328
 11
-91.550011
 21
105.833328
  0
LINE
  8
0
 10
-65.250008
 20
106.533325
 11
-92.250008
 21
106.533325
  0
LINE
  8
0
 10
-65.250000
 20
106.533325
 11
-65.250000
 21
115.333328
  0
LINE
  8
0
 10
-92.250000
 20
106.533325
 11
-92.250000
 21
115.333328
  0
LINE
  8
0
 10
-65.950005
 20
105.833328
 11
-65.950005
 21
115.333328
  0
LINE
  8
0
 10
-91.550003
 20
105.833328
 11
-91.550003
 21
115.333328
  0
LINE
  8
0
 10
-92.250015
 20
106.533340
 11
-91.550018
 21
105.833344
  0
LINE
  8
0
 10
-65.950012
 20
105.833344
 11
-65.250015
 21
106.533340
  0
LINE
  8
0
 10
-65.250000
 20
140.133331
 11
-92.250000
 21
140.133331
  0
LINE
  8
0
 10
-65.949989
 20
140.833328
 11
-91.549995
 21
140.833328
  0
LINE
  8
0
 10
-92.250000
 20
140.133331
 11
-92.250000
 21
131.333328
  0
LINE
  8
0
 10
-91.550003
 20
140.833328
 11
-91.550003
 21
131.333328
  0
LINE
  8
0
 10
-65.250000
 20
140.133331
 11
-65.250000
 21
131.333328
  0
LINE
  8
0
 10
-65.950005
 20
140.833328
 11
-65.950005
 21
131.333328
  0
LINE
  8
0
 10
-91.550041
 20
140.833344
 11
-92.250038
 21
140.133362
  0
LINE
  8
0
 10
-65.249992
 20
140.133347
 11
-65.949982
 21
140.833344
  0
LINE
  8
0
 10
-62.750000
 20
123.333328
 11
-94.750000
 21
123.333328
  0
LINE
  8
0
 10
-60.250000
 20
124.776703
 11
-60.250000
 21
129.889938
  0
LINE
  8
0
 10
-97.250000
 20
124.776703
 11
-97.250000
 21
129.889954
  0
LINE
  8
0
 10
-87.987602
 20
124.776703
 11
-87.987602
 21
129.833328
  0
LINE
  8
0
 10
-69.512398
 20
124.776703
 11
-69.512398
 21
129.833328
  0
LINE
  8
0
 10
-94.750000
 20
123.333344
 11
-97.250000
 21
124.776718
  0
LINE
  8
0
 10
-62.750008
 20
123.333351
 11
-60.250008
 21
124.776726
  0
LINE
  8
0
 10
-62.750023
 20
131.333282
 11
-60.250015
 21
129.889908
  0
LINE
  8
0
 10
-94.750092
 20
131.333435
 11
-97.250092
 21
129.890060
  0
LINE
  8
0
 10
-62.750000
 20
131.333328
 11
-94.750000
 21
131.333328
  0
LINE
  8
0
 10
-62.750008
 20
115.333328
 11
-94.750008
 21
115.333328
  0
LINE
  8
0
 10
-60.250000
 20
116.776703
 11
-60.250000
 21
121.889946
  0
LINE
  8
0
 10
-97.250000
 20
116.776703
 11
-97.250000
 21
121.889946
  0
LINE
  8
0
 10
-87.987602
 20
116.776703
 11
-87.987602
 21
121.833328
  0
LINE
  8
0
 10
-69.512398
 20
116.776703
 11
-69.512398
 21
121.833328
  0
LINE
  8
0
 10
-94.750000
 20
115.333336
 11
-97.249992
 21
116.776711
  0
LINE
  8
0
 10
-62.750015
 20
115.333359
 11
-60.250011
 21
116.776733
  0
LINE
  8
0
 10
-62.750015
 20
123.333298
 11
-60.250015
 21
121.889923
  0
LINE
  8
0
 10
-94.750061
 20
123.333427
 11
-97.250061
 21
121.890053
  0
LINE
  8
0
 10
-62.750000
 20
123.333328
 11
-94.750000
 21
123.333328
  0
LINE
  8
0
 10
-70.250000
 20
146.533325
 11
-87.250000
 21
146.533325
  0
LINE
  8
0
 10
-66.250000
 20
142.533325
 11
-91.250000
 21
142.533325
  0
LINE
  8
0
 10
-68.750000
 20
143.533325
 11
-88.750000
 21
143.533325
  0
LINE
  8
0
 10
-91.250000
 20
140.833328
 11
-91.250000
 21
142.533325
  0
LINE
  8
0
 10
-66.250000
 20
140.833328
 11
-66.250000
 21
142.533325
  0
LINE
  8
0
 10
-88.750000
 20
142.533325
 11
-88.750000
 21
143.533325
  0
LINE
  8
0
 10
-68.750000
 20
142.533325
 11
-68.750000
 21
143.533325
  0
LINE
  8
0
 10
-70.250000
 20
143.533325
 11
-70.250000
 21
146.533325
  0
LINE
  8
0
 10
-87.250000
 20
143.533325
 11
-87.250000
 21
146.533325
  0
LINE
  8
0
 10
-82.883980
 20
147.833328
 11
-74.616028
 21
147.833328
  0
LINE
  8
0
 10
-83.750000
 20
147.333328
 11
-73.750000
 21
147.333328
  0
LINE
  8
0
 10
-73.750000
 20
147.333374
 11
-74.616028
 21
147.833374
  0
LINE
  8
0
 10
-83.750015
 20
147.333389
 11
-82.884003
 21
147.833374
  0
LINE
  8
0
 10
-83.722069
 20
146.533310
 11
-83.750008
 21
147.333313
  0
LINE
  8
0
 10
-73.777954
 20
146.533340
 11
-73.750015
 21
147.333344
  0
LINE
  8
0
  6
DASHED
 10
-75.888474
 20
89.798660
 11
-67.750000
 21
90.082870
  0
LINE
  8
0
  6
DASHED
 10
-75.914650
 20
90.548218
 11
-67.750000
 21
90.833336
  0
LINE
  8
0
  6
DASHED
 10
-75.888481
 20
81.867973
 11
-67.750008
 21
81.583771
  0
LINE
  8
0
  6
DASHED
 10
-75.914658
 20
81.118431
 11
-67.750000
 21
80.833313
  0
LINE
  8
0
 10
-54.550007
 20
74.833328
 11
-102.950005
 21
74.833328
  0
ARC
  8
0
 10
-44.750008
 20
62.894287
 40
4.000000
 50
180.000000
 51
234.999969
  0
ARC
  8
0
 10
-112.750008
 20
62.894287
 40
3.999998
 50
304.999969
 51
0.000000
  0
ARC
  8
0
 10
-109.250008
 20
71.333328
 40
1.500000
 50
90.000000
 51
180.000000
  0
ARC
  8
0
 10
-48.250008
 20
71.333328
 40
1.500000
 50
0.000000
 51
90.000000
  0
ARC
  8
0
 10
-84.250008
 20
80.233330
 40
15.599998
 50
90.000000
 51
110.644226
  0
ARC
  8
0
 10
-73.250008
 20
80.233330
 40
15.599998
 50
90.000000
 51
110.644226
  0
ARC
  8
0
 10
-73.250008
 20
91.433327
 40
15.599999
 50
249.355804
 51
290.644196
  0
ARC
  8
0
 10
-84.250008
 20
91.433327
 40
15.599999
 50
249.355804
 51
290.644196
  0
ARC
  8
0
 10
-73.250008
 20
80.233330
 40
15.600001
 50
69.355774
 51
90.000000
  0
ARC
  8
0
 10
-84.250008
 20
80.233330
 40
15.600001
 50
69.355774
 51
90.000000
  0
ARC
  8
0
 10
-92.618805
 20
131.484772
 40
8.151458
 50
235.379150
 51
304.620880
  0
ARC
  8
0
 10
-78.750000
 20
153.615372
 40
30.282036
 50
252.238739
 51
287.761292
  0
ARC
  8
0
 10
-64.881203
 20
131.484772
 40
8.151451
 50
235.379120
 51
304.620880
  0
ARC
  8
0
 10
-64.881203
 20
123.181885
 40
8.151449
 50
55.379147
 51
124.620880
  0
ARC
  8
0
 10
-92.618805
 20
123.181885
 40
8.151451
 50
55.379124
 51
124.620880
  0
ARC
  8
0
 10
-78.750008
 20
101.051292
 40
30.282028
 50
72.238739
 51
107.761307
  0
ARC
  8
0
 10
-78.750008
 20
93.051292
 40
30.282036
 50
72.238739
 51
107.761307
  0
ARC
  8
0
 10
-64.881203
 20
115.181885
 40
8.151455
 50
55.379177
 51
124.620880
  0
ARC
  8
0
 10
-92.618805
 20
123.484772
 40
8.151458
 50
235.379150
 51
304.620880
  0
ARC
  8
0
 10
-92.618805
 20
115.181885
 40
8.151458
 50
55.379154
 51
124.620880
  0
ARC
  8
0
 10
-78.750000
 20
145.615356
 40
30.282028
 50
252.238739
 51
287.761292
  0
ARC
  8
0
 10
-64.881203
 20
123.484772
 40
8.151451
 50
235.379120
 51
304.620880
  0
POINT
  8
0
 10
66.250000
 20
123.333328
  0
POINT
  8
0
 10
84.750000
 20
123.333328
  0
LINE
  8
0
 10
113.750000
 20
49.833313
 11
114.472900
 21
50.556221
  0
LINE
  8
0
 10
98.071434
 20
61.207458
 11
114.472900
 21
50.556221
  0
LINE
  8
0
 10
96.249992
 20
64.833328
 11
96.249992
 21
64.562149
  0
LINE
  8
0
 10
113.749992
 20
49.833328
 11
18.749992
 21
49.833328
  0
LINE
  8
0
 10
18.749977
 20
49.833313
 11
18.027073
 21
50.556221
  0
LINE
  8
0
 10
34.428555
 20
61.207451
 11
18.027088
 21
50.556221
  0
LINE
  8
0
 10
36.249992
 20
64.833328
 11
36.249992
 21
64.562149
  0
LINE
  8
0
 10
37.066658
 20
62.390320
 11
95.466660
 21
62.390320
  0
LINE
  8
0
 10
114.472900
 20
50.556229
 11
18.027088
 21
50.556229
  0
LINE
  8
0
 10
35.749992
 20
72.833328
 11
96.749992
 21
72.833328
  0
LINE
  8
0
 10
34.249992
 20
64.833328
 11
98.249992
 21
64.833328
  0
LINE
  8
0
 10
98.250000
 20
64.833328
 11
98.250000
 21
71.333328
  0
LINE
  8
0
 10
34.250000
 20
64.833328
 11
34.250000
 21
71.333328
  0
LINE
  8
0
 10
43.049995
 20
75.833328
 11
89.449997
 21
75.833328
  0
LINE
  8
0
 10
90.449997
 20
72.833328
 11
90.449997
 21
74.833328
  0
LINE
  8
0
 10
42.049995
 20
72.833328
 11
42.049995
 21
74.833328
  0
LINE
  8
0
 10
90.450005
 20
74.833313
 11
89.450005
 21
75.833313
  0
LINE
  8
0
 10
43.049988
 20
75.833328
 11
42.049984
 21
74.833328
  0
LINE
  8
0
 10
55.249992
 20
95.833328
 11
77.249992
 21
95.833328
  0
LINE
  8
0
 10
51.849991
 20
85.833328
 11
85.583321
 21
85.833328
  0
LINE
  8
0
 10
66.250000
 20
43.533325
 11
66.250000
 21
152.833328
  0
LINE
  8
0
 10
55.250000
 20
75.833328
 11
55.250000
 21
95.833328
  0
LINE
  8
0
 10
77.250000
 20
75.833328
 11
77.250000
 21
95.833328
  0
LINE
  8
0
  6
DASHED
 10
71.055122
 20
140.953003
 11
71.249992
 21
146.533310
  0
LINE
  8
0
  6
DASHED
 10
70.304436
 20
140.946915
 11
70.499519
 21
146.533325
  0
LINE
  8
0
  6
DASHED
 10
61.436012
 20
141.206055
 11
61.249977
 21
146.533325
  0
LINE
  8
0
  6
DASHED
 10
62.192364
 20
141.037689
 11
62.000450
 21
146.533325
  0
LINE
  8
0
 10
66.250000
 20
75.833328
 11
66.250000
 21
95.833328
  0
LINE
  8
0
 10
55.500000
 20
95.833328
 11
55.500000
 21
105.833328
  0
LINE
  8
0
 10
77.000000
 20
95.833328
 11
77.000000
 21
105.833328
  0
LINE
  8
0
 10
76.999992
 20
105.833328
 11
55.499992
 21
105.833328
  0
LINE
  8
0
 10
79.049995
 20
105.833328
 11
53.449989
 21
105.833328
  0
LINE
  8
0
 10
79.749992
 20
106.533325
 11
52.749992
 21
106.533325
  0
LINE
  8
0
 10
79.750000
 20
106.533325
 11
79.750000
 21
115.333328
  0
LINE
  8
0
 10
52.750000
 20
106.533325
 11
52.750000
 21
115.333328
  0
LINE
  8
0
 10
79.049995
 20
105.833328
 11
79.049995
 21
115.333328
  0
LINE
  8
0
 10
53.449997
 20
105.833328
 11
53.449997
 21
115.333328
  0
LINE
  8
0
 10
52.749989
 20
106.533340
 11
53.449986
 21
105.833344
  0
LINE
  8
0
 10
79.049988
 20
105.833344
 11
79.749985
 21
106.533340
  0
LINE
  8
0
 10
79.750000
 20
140.133331
 11
52.750000
 21
140.133331
  0
LINE
  8
0
 10
79.050011
 20
140.833328
 11
53.450005
 21
140.833328
  0
LINE
  8
0
 10
52.750000
 20
140.133331
 11
52.750000
 21
131.333328
  0
LINE
  8
0
 10
53.449997
 20
140.833328
 11
53.449997
 21
131.333328
  0
LINE
  8
0
 10
79.750000
 20
140.133331
 11
79.750000
 21
131.333328
  0
LINE
  8
0
 10
79.049995
 20
140.833328
 11
79.049995
 21
131.333328
  0
LINE
  8
0
 10
53.449963
 20
140.833344
 11
52.749962
 21
140.133362
  0
LINE
  8
0
 10
79.750008
 20
140.133347
 11
79.050018
 21
140.833344
  0
LINE
  8
0
 10
82.250000
 20
123.333328
 11
50.250000
 21
123.333328
  0
LINE
  8
0
 10
84.750000
 20
124.776703
 11
84.750000
 21
129.889938
  0
LINE
  8
0
 10
47.750000
 20
124.776703
 11
47.750000
 21
129.889954
  0
LINE
  8
0
 10
57.012398
 20
124.776703
 11
57.012398
 21
129.833328
  0
LINE
  8
0
 10
75.487602
 20
124.776703
 11
75.487602
 21
129.833328
  0
LINE
  8
0
 10
50.250000
 20
123.333344
 11
47.750000
 21
124.776718
  0
LINE
  8
0
 10
82.249992
 20
123.333351
 11
84.749992
 21
124.776726
  0
LINE
  8
0
 10
82.249977
 20
131.333282
 11
84.749985
 21
129.889908
  0
LINE
  8
0
 10
50.249908
 20
131.333435
 11
47.749905
 21
129.890060
  0
LINE
  8
0
 10
82.250000
 20
131.333328
 11
50.250000
 21
131.333328
  0
LINE
  8
0
 10
82.249992
 20
115.333328
 11
50.249992
 21
115.333328
  0
LINE
  8
0
 10
84.750000
 20
116.776703
 11
84.750000
 21
121.889946
  0
LINE
  8
0
 10
47.750000
 20
116.776703
 11
47.750000
 21
121.889946
  0
LINE
  8
0
 10
57.012398
 20
116.776703
 11
57.012398
 21
121.833328
  0
LINE
  8
0
 10
75.487602
 20
116.776703
 11
75.487602
 21
121.833328
  0
LINE
  8
0
 10
50.250004
 20
115.333336
 11
47.750008
 21
116.776711
  0
LINE
  8
0
 10
82.249985
 20
115.333359
 11
84.749985
 21
116.776733
  0
LINE
  8
0
 10
82.249985
 20
123.333298
 11
84.749985
 21
121.889923
  0
LINE
  8
0
 10
50.249939
 20
123.333427
 11
47.749939
 21
121.890053
  0
LINE
  8
0
 10
82.250000
 20
123.333328
 11
50.250000
 21
123.333328
  0
LINE
  8
0
 10
74.750000
 20
146.533325
 11
57.750000
 21
146.533325
  0
LINE
  8
0
 10
78.750000
 20
142.533325
 11
53.750000
 21
142.533325
  0
LINE
  8
0
 10
76.250000
 20
143.533325
 11
56.250000
 21
143.533325
  0
LINE
  8
0
 10
53.750000
 20
140.833328
 11
53.750000
 21
142.533325
  0
LINE
  8
0
 10
78.750000
 20
140.833328
 11
78.750000
 21
142.533325
  0
LINE
  8
0
 10
56.250000
 20
142.533325
 11
56.250000
 21
143.533325
  0
LINE
  8
0
 10
76.250000
 20
142.533325
 11
76.250000
 21
143.533325
  0
LINE
  8
0
 10
74.750000
 20
143.533325
 11
74.750000
 21
146.533325
  0
LINE
  8
0
 10
57.750000
 20
143.533325
 11
57.750000
 21
146.533325
  0
LINE
  8
0
 10
62.116020
 20
147.833328
 11
70.383972
 21
147.833328
  0
LINE
  8
0
 10
61.250000
 20
147.333328
 11
71.250000
 21
147.333328
  0
LINE
  8
0
 10
71.250000
 20
147.333374
 11
70.383972
 21
147.833374
  0
LINE
  8
0
 10
61.249985
 20
147.333389
 11
62.115997
 21
147.833374
  0
LINE
  8
0
 10
61.277931
 20
146.533310
 11
61.249992
 21
147.333313
  0
LINE
  8
0
 10
71.222046
 20
146.533340
 11
71.249985
 21
147.333344
  0
LINE
  8
0
  6
DASHED
 10
69.111526
 20
89.798660
 11
77.250000
 21
90.082870
  0
LINE
  8
0
  6
DASHED
 10
69.085350
 20
90.548218
 11
77.250000
 21
90.833336
  0
LINE
  8
0
  6
DASHED
 10
69.111519
 20
81.867973
 11
77.249992
 21
81.583771
  0
LINE
  8
0
  6
DASHED
 10
69.085342
 20
81.118431
 11
77.250000
 21
80.833313
  0
LINE
  8
0
 10
90.449997
 20
74.833328
 11
42.049995
 21
74.833328
  0
ARC
  8
0
 10
100.249992
 20
64.562149
 40
4.000000
 50
180.000000
 51
236.999985
  0
ARC
  8
0
 10
32.249992
 20
64.562149
 40
4.000002
 50
303.000031
 51
0.000000
  0
ARC
  8
0
 10
35.749992
 20
71.333328
 40
1.500000
 50
90.000000
 51
180.000000
  0
ARC
  8
0
 10
96.749992
 20
71.333328
 40
1.500000
 50
0.000000
 51
90.000000
  0
ARC
  8
0
 10
60.749992
 20
80.233330
 40
15.599998
 50
90.000000
 51
110.644226
  0
ARC
  8
0
 10
71.749992
 20
80.233330
 40
15.599998
 50
90.000000
 51
110.644226
  0
ARC
  8
0
 10
71.749992
 20
91.433327
 40
15.599999
 50
249.355804
 51
290.644196
  0
ARC
  8
0
 10
60.749992
 20
91.433327
 40
15.599999
 50
249.355804
 51
290.644196
  0
ARC
  8
0
 10
71.749992
 20
80.233330
 40
15.600001
 50
69.355774
 51
90.000000
  0
ARC
  8
0
 10
60.749992
 20
80.233330
 40
15.600001
 50
69.355774
 51
90.000000
  0
ARC
  8
0
 10
52.381195
 20
131.484772
 40
8.151458
 50
235.379150
 51
304.620911
  0
ARC
  8
0
 10
66.250000
 20
153.615372
 40
30.282036
 50
252.238739
 51
287.761292
  0
ARC
  8
0
 10
80.118797
 20
131.484772
 40
8.151451
 50
235.379120
 51
304.620880
  0
ARC
  8
0
 10
80.118797
 20
123.181885
 40
8.151446
 50
55.379166
 51
124.620880
  0
ARC
  8
0
 10
52.381195
 20
123.181885
 40
8.151451
 50
55.379124
 51
124.620895
  0
ARC
  8
0
 10
66.249992
 20
101.051292
 40
30.282028
 50
72.238739
 51
107.761307
  0
ARC
  8
0
 10
66.249992
 20
93.051292
 40
30.282036
 50
72.238739
 51
107.761307
  0
ARC
  8
0
 10
80.118797
 20
115.181885
 40
8.151453
 50
55.379196
 51
124.620880
  0
ARC
  8
0
 10
52.381195
 20
123.484772
 40
8.151458
 50
235.379150
 51
304.620911
  0
ARC
  8
0
 10
52.381195
 20
115.181885
 40
8.151458
 50
55.379154
 51
124.620895
  0
ARC
  8
0
 10
66.250000
 20
145.615356
 40
30.282028
 50
252.238739
 51
287.761292
  0
ARC
  8
0
 10
80.118797
 20
123.484772
 40
8.151451
 50
235.379120
 51
304.620880
  0
POINT
  8
0
 10
211.250000
 20
123.333328
  0
POINT
  8
0
 10
229.750000
 20
123.333328
  0
LINE
  8
0
 10
261.250000
 20
48.833321
 11
261.972900
 21
49.556229
  0
LINE
  8
0
 10
243.071442
 20
61.830982
 11
261.972900
 21
49.556221
  0
LINE
  8
0
 10
261.250000
 20
48.833328
 11
161.250000
 21
48.833328
  0
LINE
  8
0
 10
161.249969
 20
48.833328
 11
160.527069
 21
49.556229
  0
LINE
  8
0
 10
179.428543
 20
61.830975
 11
160.527100
 21
49.556229
  0
LINE
  8
0
 10
182.287643
 20
62.833328
 11
240.214386
 21
62.833328
  0
LINE
  8
0
 10
261.972900
 20
49.556236
 11
160.527084
 21
49.556236
  0
LINE
  8
0
 10
180.750000
 20
72.833328
 11
241.750000
 21
72.833328
  0
LINE
  8
0
 10
179.250000
 20
64.833328
 11
243.250000
 21
64.833328
  0
LINE
  8
0
 10
243.250000
 20
64.833328
 11
243.250000
 21
71.333328
  0
LINE
  8
0
 10
179.250000
 20
64.833328
 11
179.250000
 21
71.333328
  0
LINE
  8
0
 10
188.050003
 20
75.833328
 11
234.449997
 21
75.833328
  0
LINE
  8
0
 10
235.449997
 20
72.833328
 11
235.449997
 21
74.833328
  0
LINE
  8
0
 10
187.050003
 20
72.833328
 11
187.050003
 21
74.833328
  0
LINE
  8
0
 10
235.450012
 20
74.833313
 11
234.450012
 21
75.833313
  0
LINE
  8
0
 10
188.049988
 20
75.833328
 11
187.049988
 21
74.833321
  0
LINE
  8
0
 10
200.250000
 20
95.833328
 11
222.250000
 21
95.833328
  0
LINE
  8
0
 10
196.849991
 20
85.833328
 11
230.583328
 21
85.833328
  0
LINE
  8
0
 10
200.250000
 20
75.833328
 11
200.250000
 21
95.833328
  0
LINE
  8
0
 10
222.250000
 20
75.833328
 11
222.250000
 21
95.833328
  0
LINE
  8
0
  6
DASHED
 10
216.055115
 20
142.253006
 11
216.249985
 21
146.533325
  0
LINE
  8
0
  6
DASHED
 10
215.304443
 20
142.246902
 11
215.499527
 21
146.533340
  0
LINE
  8
0
  6
DASHED
 10
206.436005
 20
142.506042
 11
206.249985
 21
146.533325
  0
LINE
  8
0
  6
DASHED
 10
207.192368
 20
142.337677
 11
207.000458
 21
146.533325
  0
LINE
  8
0
 10
211.250000
 20
75.833328
 11
211.250000
 21
95.833328
  0
LINE
  8
0
 10
200.500000
 20
95.833328
 11
200.500000
 21
105.833328
  0
LINE
  8
0
 10
222.000000
 20
95.833328
 11
222.000000
 21
105.833328
  0
LINE
  8
0
 10
222.000000
 20
105.833328
 11
200.500000
 21
105.833328
  0
LINE
  8
0
 10
224.050003
 20
105.833328
 11
198.449997
 21
105.833328
  0
LINE
  8
0
 10
224.750000
 20
106.533325
 11
197.750000
 21
106.533325
  0
LINE
  8
0
 10
224.750000
 20
106.533325
 11
224.750000
 21
115.333328
  0
LINE
  8
0
 10
197.750000
 20
106.533325
 11
197.750000
 21
115.333328
  0
LINE
  8
0
 10
224.050003
 20
105.833328
 11
224.050003
 21
115.333328
  0
LINE
  8
0
 10
198.449997
 20
105.833328
 11
198.449997
 21
115.333328
  0
LINE
  8
0
 10
197.749985
 20
106.533340
 11
198.449982
 21
105.833344
  0
LINE
  8
0
 10
224.049988
 20
105.833344
 11
224.749985
 21
106.533340
  0
LINE
  8
0
 10
224.750000
 20
140.133331
 11
197.750000
 21
140.133331
  0
LINE
  8
0
 10
224.050018
 20
140.833328
 11
198.450012
 21
140.833328
  0
LINE
  8
0
 10
197.750000
 20
140.133331
 11
197.750000
 21
131.333328
  0
LINE
  8
0
 10
198.449997
 20
140.833328
 11
198.449997
 21
131.333328
  0
LINE
  8
0
 10
224.750000
 20
140.133331
 11
224.750000
 21
131.333328
  0
LINE
  8
0
 10
224.050003
 20
140.833328
 11
224.050003
 21
131.333328
  0
LINE
  8
0
 10
198.449966
 20
140.833359
 11
197.749969
 21
140.133362
  0
LINE
  8
0
 10
224.750000
 20
140.133347
 11
224.050018
 21
140.833344
  0
LINE
  8
0
 10
227.250000
 20
123.333328
 11
195.250000
 21
123.333328
  0
LINE
  8
0
 10
229.750000
 20
124.776703
 11
229.750000
 21
129.889938
  0
LINE
  8
0
 10
192.750000
 20
124.776703
 11
192.750000
 21
129.889954
  0
LINE
  8
0
 10
202.012405
 20
124.776703
 11
202.012405
 21
129.833328
  0
LINE
  8
0
 10
220.487610
 20
124.776703
 11
220.487610
 21
129.833328
  0
LINE
  8
0
 10
195.250000
 20
123.333344
 11
192.750000
 21
124.776718
  0
LINE
  8
0
 10
227.250000
 20
123.333351
 11
229.750000
 21
124.776726
  0
LINE
  8
0
 10
227.249985
 20
131.333282
 11
229.749985
 21
129.889908
  0
LINE
  8
0
 10
195.249908
 20
131.333435
 11
192.749908
 21
129.890060
  0
LINE
  8
0
 10
227.250000
 20
131.333328
 11
195.250000
 21
131.333328
  0
LINE
  8
0
 10
227.250000
 20
115.333328
 11
195.250000
 21
115.333328
  0
LINE
  8
0
 10
229.750000
 20
116.776703
 11
229.750000
 21
121.889946
  0
LINE
  8
0
 10
192.750000
 20
116.776703
 11
192.750000
 21
121.889946
  0
LINE
  8
0
 10
202.012405
 20
116.776703
 11
202.012405
 21
121.833328
  0
LINE
  8
0
 10
220.487610
 20
116.776703
 11
220.487610
 21
121.833328
  0
LINE
  8
0
 10
195.250000
 20
115.333336
 11
192.750000
 21
116.776711
  0
LINE
  8
0
 10
227.249985
 20
115.333359
 11
229.750000
 21
116.776733
  0
LINE
  8
0
 10
227.249985
 20
123.333298
 11
229.749985
 21
121.889923
  0
LINE
  8
0
 10
195.249939
 20
123.333427
 11
192.749939
 21
121.890053
  0
LINE
  8
0
 10
227.250000
 20
123.333328
 11
195.250000
 21
123.333328
  0
LINE
  8
0
 10
219.750000
 20
146.533325
 11
202.750000
 21
146.533325
  0
LINE
  8
0
 10
223.750000
 20
142.533325
 11
198.750000
 21
142.533325
  0
LINE
  8
0
 10
221.250000
 20
143.533325
 11
201.250000
 21
143.533325
  0
LINE
  8
0
 10
198.750000
 20
140.833328
 11
198.750000
 21
142.533325
  0
LINE
  8
0
 10
223.750000
 20
140.833328
 11
223.750000
 21
142.533325
  0
LINE
  8
0
 10
201.250000
 20
142.533325
 11
201.250000
 21
143.533325
  0
LINE
  8
0
 10
221.250000
 20
142.533325
 11
221.250000
 21
143.533325
  0
LINE
  8
0
 10
219.750000
 20
143.533325
 11
219.750000
 21
146.533325
  0
LINE
  8
0
 10
202.750000
 20
143.533325
 11
202.750000
 21
146.533325
  0
LINE
  8
0
 10
207.116028
 20
147.833328
 11
215.383972
 21
147.833328
  0
LINE
  8
0
 10
206.250000
 20
147.333328
 11
216.250000
 21
147.333328
  0
LINE
  8
0
 10
216.250000
 20
147.333374
 11
215.383972
 21
147.833374
  0
LINE
  8
0
 10
206.249985
 20
147.333389
 11
207.115997
 21
147.833374
  0
LINE
  8
0
 10
206.277924
 20
146.533310
 11
206.250000
 21
147.333313
  0
LINE
  8
0
 10
216.222046
 20
146.533340
 11
216.249985
 21
147.333344
  0
LINE
  8
0
  6
DASHED
 10
214.111526
 20
89.798660
 11
222.250000
 21
90.082870
  0
LINE
  8
0
  6
DASHED
 10
214.085358
 20
90.548218
 11
222.250000
 21
90.833336
  0
LINE
  8
0
  6
DASHED
 10
214.111526
 20
81.867973
 11
222.250000
 21
81.583771
  0
LINE
  8
0
  6
DASHED
 10
214.085342
 20
81.118431
 11
222.250000
 21
80.833313
  0
LINE
  8
0
 10
235.449997
 20
74.833328
 11
187.050003
 21
74.833328
  0
LINE
  8
0
 10
211.250000
 20
42.533325
 11
211.250000
 21
152.833328
  0
ARC
  8
0
 10
245.250000
 20
65.185669
 40
4.000000
 50
185.053452
 51
236.999985
  0
ARC
  8
0
 10
177.250000
 20
65.185669
 40
4.000002
 50
303.000031
 51
354.946533
  0
ARC
  8
0
 10
180.750000
 20
71.333328
 40
1.500000
 50
90.000000
 51
180.000000
  0
ARC
  8
0
 10
241.750000
 20
71.333328
 40
1.500000
 50
0.000000
 51
90.000000
  0
ARC
  8
0
 10
205.750000
 20
80.233330
 40
15.599998
 50
90.000000
 51
110.644226
  0
ARC
  8
0
 10
216.750000
 20
80.233330
 40
15.599998
 50
90.000000
 51
110.644226
  0
ARC
  8
0
 10
216.750000
 20
91.433327
 40
15.600001
 50
249.355774
 51
290.644165
  0
ARC
  8
0
 10
205.750000
 20
91.433327
 40
15.600001
 50
249.355774
 51
290.644165
  0
ARC
  8
0
 10
216.750000
 20
80.233330
 40
15.600001
 50
69.355774
 51
90.000000
  0
ARC
  8
0
 10
205.750000
 20
80.233330
 40
15.600001
 50
69.355774
 51
90.000000
  0
ARC
  8
0
 10
197.381195
 20
131.484772
 40
8.151458
 50
235.379150
 51
304.620880
  0
ARC
  8
0
 10
211.250000
 20
153.615372
 40
30.282036
 50
252.238739
 51
287.761292
  0
ARC
  8
0
 10
225.118805
 20
131.484772
 40
8.151451
 50
235.379120
 51
304.620880
  0
ARC
  8
0
 10
225.118805
 20
123.181885
 40
8.151443
 50
55.379211
 51
124.620880
  0
ARC
  8
0
 10
197.381195
 20
123.181885
 40
8.151451
 50
55.379124
 51
124.620880
  0
ARC
  8
0
 10
211.250000
 20
101.051292
 40
30.282024
 50
72.238762
 51
107.761322
  0
ARC
  8
0
 10
211.250000
 20
93.051292
 40
30.282032
 50
72.238770
 51
107.761322
  0
ARC
  8
0
 10
225.118805
 20
115.181885
 40
8.151449
 50
55.379242
 51
124.620880
  0
ARC
  8
0
 10
197.381195
 20
123.484772
 40
8.151458
 50
235.379150
 51
304.620880
  0
ARC
  8
0
 10
197.381195
 20
115.181885
 40
8.151458
 50
55.379154
 51
124.620880
  0
ARC
  8
0
 10
211.250000
 20
145.615356
 40
30.282028
 50
252.238739
 51
287.761292
  0
ARC
  8
0
 10
225.118805
 20
123.484772
 40
8.151451
 50
235.379120
 51
304.620880
  0
POINT
  8
0
 10
-201.250000
 20
-51.666672
  0
POINT
  8
0
 10
-182.750000
 20
-51.666672
  0
LINE
  8
0
 10
-141.249985
 20
-140.666687
 11
-140.181366
 21
-139.598068
  0
LINE
  8
0
 10
-149.712646
 20
-132.151398
 11
-140.181366
 21
-139.598053
  0
LINE
  8
0
 10
-151.250000
 20
-121.666679
 11
-151.250000
 21
-128.999359
  0
LINE
  8
0
 10
-155.250000
 20
-117.666679
 11
-247.250000
 21
-117.666679
  0
LINE
  8
0
 10
-141.249985
 20
-140.666687
 11
-261.250000
 21
-140.666687
  0
LINE
  8
0
 10
-261.250000
 20
-140.666687
 11
-262.318634
 21
-139.598053
  0
LINE
  8
0
 10
-252.787354
 20
-132.151428
 11
-262.318634
 21
-139.598053
  0
LINE
  8
0
 10
-251.250000
 20
-121.666679
 11
-251.250000
 21
-128.999359
  0
LINE
  8
0
 10
-250.081772
 20
-130.950287
 11
-152.410217
 21
-130.950287
  0
LINE
  8
0
 10
-140.181366
 20
-139.598053
 11
-262.318634
 21
-139.598053
  0
LINE
  8
0
 10
-226.250031
 20
-116.666679
 11
-176.250015
 21
-116.666679
  0
LINE
  8
0
 10
-212.250031
 20
-96.666672
 11
-190.250015
 21
-96.666672
  0
LINE
  8
0
 10
-209.750000
 20
-19.666672
 11
-192.750000
 21
-19.666672
  0
LINE
  8
0
 10
-215.650024
 20
-106.666672
 11
-182.383347
 21
-106.666672
  0
LINE
  8
0
 10
-205.384003
 20
-18.366684
 11
-197.116028
 21
-18.366684
  0
LINE
  8
0
 10
-206.250000
 20
-18.866684
 11
-196.250000
 21
-18.866684
  0
LINE
  8
0
 10
-196.250015
 20
-18.866676
 11
-197.116043
 21
-18.366676
  0
LINE
  8
0
 10
-206.250046
 20
-18.866589
 11
-205.384033
 21
-18.366596
  0
LINE
  8
0
 10
-206.222076
 20
-19.666693
 11
-206.250015
 21
-18.866676
  0
LINE
  8
0
 10
-196.277954
 20
-19.666672
 11
-196.250015
 21
-18.866680
  0
LINE
  8
0
 10
-201.250000
 20
-145.666687
 11
-201.250000
 21
-13.366684
  0
LINE
  8
0
 10
-212.250000
 20
-116.666672
 11
-212.250000
 21
-96.666672
  0
LINE
  8
0
 10
-190.250000
 20
-116.666672
 11
-190.250000
 21
-96.666672
  0
LINE
  8
0
  6
DASHED
 10
-196.453217
 20
-25.485472
 11
-196.250015
 21
-19.666660
  0
LINE
  8
0
  6
DASHED
 10
-197.211914
 20
-25.721355
 11
-197.000488
 21
-19.666697
  0
LINE
  8
0
  6
DASHED
 10
-206.050507
 20
-25.379900
 11
-206.250015
 21
-19.666677
  0
LINE
  8
0
  6
DASHED
 10
-205.296051
 20
-25.494963
 11
-205.499588
 21
-19.666668
  0
LINE
  8
0
 10
-201.250000
 20
-116.666672
 11
-201.250000
 21
-96.666672
  0
LINE
  8
0
 10
-176.250000
 20
-117.666672
 11
-176.250000
 21
-116.666672
  0
LINE
  8
0
 10
-226.250000
 20
-117.666672
 11
-226.250000
 21
-116.666672
  0
LINE
  8
0
 10
-214.050018
 20
-76.666672
 11
-188.450012
 21
-76.666672
  0
LINE
  8
0
 10
-212.000000
 20
-96.666672
 11
-212.000000
 21
-76.666672
  0
LINE
  8
0
 10
-190.500000
 20
-96.666672
 11
-190.500000
 21
-76.666672
  0
LINE
  8
0
 10
-214.750000
 20
-75.966690
 11
-187.750000
 21
-75.966690
  0
LINE
  8
0
 10
-214.750000
 20
-27.366684
 11
-187.750000
 21
-27.366684
  0
LINE
  8
0
 10
-214.050018
 20
-26.666672
 11
-188.450012
 21
-26.666672
  0
LINE
  8
0
 10
-214.750000
 20
-75.966675
 11
-214.750000
 21
-59.666672
  0
LINE
  8
0
 10
-187.750000
 20
-75.966675
 11
-187.750000
 21
-59.666672
  0
LINE
  8
0
 10
-188.449997
 20
-76.666672
 11
-188.449997
 21
-59.666672
  0
LINE
  8
0
 10
-214.049988
 20
-76.666672
 11
-214.049988
 21
-59.666672
  0
LINE
  8
0
 10
-187.750031
 20
-75.966629
 11
-188.450027
 21
-76.666626
  0
LINE
  8
0
 10
-214.750000
 20
-75.966682
 11
-214.050003
 21
-76.666679
  0
LINE
  8
0
 10
-187.750015
 20
-27.366690
 11
-188.450012
 21
-26.666693
  0
LINE
  8
0
 10
-214.750046
 20
-27.366632
 11
-214.050049
 21
-26.666636
  0
LINE
  8
0
 10
-213.750000
 20
-23.666672
 11
-188.750000
 21
-23.666672
  0
LINE
  8
0
 10
-213.750000
 20
-26.666672
 11
-213.750000
 21
-23.666672
  0
LINE
  8
0
 10
-188.750000
 20
-26.666672
 11
-188.750000
 21
-23.666672
  0
LINE
  8
0
 10
-211.250000
 20
-23.666672
 11
-211.250000
 21
-22.666672
  0
LINE
  8
0
 10
-191.250000
 20
-23.666672
 11
-191.250000
 21
-22.666672
  0
LINE
  8
0
 10
-211.250000
 20
-22.666672
 11
-191.250000
 21
-22.666672
  0
LINE
  8
0
 10
-209.750000
 20
-22.666672
 11
-209.750000
 21
-19.666672
  0
LINE
  8
0
 10
-192.750000
 20
-22.666672
 11
-192.750000
 21
-19.666672
  0
LINE
  8
0
 10
-217.250000
 20
-43.666672
 11
-185.250015
 21
-43.666672
  0
LINE
  8
0
 10
-182.750000
 20
-50.223282
 11
-182.750000
 21
-45.110062
  0
LINE
  8
0
 10
-219.750000
 20
-50.223297
 11
-219.750000
 21
-45.110046
  0
LINE
  8
0
 10
-217.250000
 20
-51.666672
 11
-185.250015
 21
-51.666672
  0
LINE
  8
0
 10
-217.250000
 20
-51.666679
 11
-219.749985
 21
-50.223312
  0
LINE
  8
0
 10
-185.250031
 20
-51.666645
 11
-182.750031
 21
-50.223267
  0
LINE
  8
0
 10
-185.250046
 20
-43.666737
 11
-182.750031
 21
-45.110119
  0
LINE
  8
0
 10
-217.250000
 20
-43.666672
 11
-185.250015
 21
-43.666672
  0
LINE
  8
0
 10
-217.250031
 20
-43.666649
 11
-219.750031
 21
-45.110020
  0
LINE
  8
0
 10
-192.012360
 20
-50.223282
 11
-192.012360
 21
-45.110031
  0
LINE
  8
0
 10
-210.488220
 20
-45.110031
 11
-210.488220
 21
-50.223282
  0
LINE
  8
0
 10
-217.250000
 20
-51.666672
 11
-185.250015
 21
-51.666672
  0
LINE
  8
0
 10
-182.750000
 20
-58.223282
 11
-182.750000
 21
-53.110062
  0
LINE
  8
0
 10
-219.750000
 20
-58.223297
 11
-219.750000
 21
-53.110046
  0
LINE
  8
0
 10
-217.250000
 20
-59.666672
 11
-185.250015
 21
-59.666672
  0
LINE
  8
0
 10
-217.250015
 20
-59.666676
 11
-219.750015
 21
-58.223301
  0
LINE
  8
0
 10
-185.250031
 20
-59.666641
 11
-182.750031
 21
-58.223259
  0
LINE
  8
0
 10
-185.250031
 20
-51.666706
 11
-182.750015
 21
-53.110088
  0
LINE
  8
0
 10
-217.250000
 20
-51.666672
 11
-185.250015
 21
-51.666672
  0
LINE
  8
0
 10
-217.250031
 20
-51.666645
 11
-219.750031
 21
-53.110016
  0
LINE
  8
0
 10
-192.012360
 20
-58.223282
 11
-192.012360
 21
-53.110031
  0
LINE
  8
0
 10
-210.488174
 20
-53.110031
 11
-210.488174
 21
-58.223282
  0
LINE
  8
0
 10
-188.449997
 20
-43.666672
 11
-188.449997
 21
-26.666672
  0
LINE
  8
0
 10
-187.750000
 20
-43.666672
 11
-187.750000
 21
-27.366669
  0
LINE
  8
0
 10
-214.049988
 20
-43.666672
 11
-214.049988
 21
-26.666672
  0
LINE
  8
0
 10
-214.750000
 20
-43.666672
 11
-214.750000
 21
-27.366669
  0
LINE
  8
0
  6
DASHED
 10
-198.388474
 20
-102.701355
 11
-190.250000
 21
-102.417152
  0
LINE
  8
0
  6
DASHED
 10
-198.414658
 20
-101.951775
 11
-190.250015
 21
-101.666656
  0
LINE
  8
0
  6
DASHED
 10
-198.388458
 20
-110.632004
 11
-190.250000
 21
-110.916214
  0
LINE
  8
0
  6
DASHED
 10
-198.414658
 20
-111.381577
 11
-190.250015
 21
-111.666695
  0
ARC
  8
0
 10
-147.250000
 20
-128.999359
 40
4.000000
 50
180.000000
 51
231.999954
  0
ARC
  8
0
 10
-255.250000
 20
-128.999359
 40
3.999997
 50
308.000031
 51
0.000000
  0
ARC
  8
0
 10
-247.250000
 20
-121.666679
 40
4.000000
 50
90.000000
 51
180.000000
  0
ARC
  8
0
 10
-155.250000
 20
-121.666679
 40
4.000000
 50
0.000000
 51
90.000000
  0
ARC
  8
0
 10
-206.750015
 20
-112.266678
 40
15.599998
 50
90.000000
 51
110.644226
  0
ARC
  8
0
 10
-195.750015
 20
-112.266678
 40
15.599998
 50
90.000000
 51
110.644226
  0
ARC
  8
0
 10
-195.750015
 20
-101.066666
 40
15.600001
 50
249.355774
 51
290.644165
  0
ARC
  8
0
 10
-206.750015
 20
-101.066666
 40
15.600001
 50
249.355774
 51
290.644165
  0
ARC
  8
0
 10
-195.750015
 20
-112.266678
 40
15.600001
 50
69.355774
 51
90.000000
  0
ARC
  8
0
 10
-206.750015
 20
-112.266678
 40
15.600001
 50
69.355774
 51
90.000000
  0
ARC
  8
0
 10
-215.118805
 20
-43.515213
 40
8.151458
 50
235.379150
 51
304.620758
  0
ARC
  8
0
 10
-187.381210
 20
-43.515244
 40
8.151439
 50
235.379059
 51
304.620972
  0
ARC
  8
0
 10
-201.250000
 20
-21.384644
 40
30.282032
 50
252.238739
 51
287.761292
  0
ARC
  8
0
 10
-187.381210
 20
-51.818100
 40
8.151429
 50
55.379017
 51
124.620834
  0
ARC
  8
0
 10
-201.250000
 20
-73.948700
 40
30.282030
 50
72.238708
 51
107.761261
  0
ARC
  8
0
 10
-215.118805
 20
-51.818130
 40
8.151458
 50
55.379154
 51
124.620834
  0
ARC
  8
0
 10
-187.381210
 20
-59.818100
 40
8.151429
 50
55.379017
 51
124.620834
  0
ARC
  8
0
 10
-187.381210
 20
-51.515244
 40
8.151439
 50
235.379059
 51
304.620972
  0
ARC
  8
0
 10
-215.118805
 20
-59.818130
 40
8.151458
 50
55.379154
 51
124.620834
  0
ARC
  8
0
 10
-201.250000
 20
-81.948700
 40
30.282030
 50
72.238708
 51
107.761261
  0
ARC
  8
0
 10
-201.250000
 20
-29.384644
 40
30.282032
 50
252.238739
 51
287.761292
  0
ARC
  8
0
 10
-215.118805
 20
-51.515213
 40
8.151458
 50
235.379150
 51
304.620758
  0
POINT
  8
0
 10
-36.250000
 20
-51.666672
  0
POINT
  8
0
 10
-17.750000
 20
-51.666672
  0
LINE
  8
0
 10
13.750000
 20
-121.666679
 11
13.750000
 21
-125.705360
  0
LINE
  8
0
 10
9.750000
 20
-117.666679
 11
-82.250000
 21
-117.666679
  0
LINE
  8
0
 10
38.750000
 20
-143.666687
 11
-111.250000
 21
-143.666687
  0
LINE
  8
0
 10
-86.250000
 20
-121.666679
 11
-86.250000
 21
-125.705360
  0
LINE
  8
0
 10
38.750015
 20
-143.666687
 11
40.228844
 21
-142.187866
  0
LINE
  8
0
 10
15.872108
 20
-129.237152
 11
40.228836
 21
-142.187851
  0
LINE
  8
0
 10
-111.249992
 20
-143.666656
 11
-112.728821
 21
-142.187820
  0
LINE
  8
0
 10
-88.372101
 20
-129.237152
 11
-112.728821
 21
-142.187836
  0
LINE
  8
0
 10
-112.728836
 20
-142.187836
 11
40.228836
 21
-142.187836
  0
LINE
  8
0
 10
-85.127502
 20
-128.108795
 11
12.090839
 21
-128.108795
  0
LINE
  8
0
 10
-61.250023
 20
-116.666679
 11
-11.250015
 21
-116.666679
  0
LINE
  8
0
 10
-47.250023
 20
-96.666672
 11
-25.250015
 21
-96.666672
  0
LINE
  8
0
 10
-44.750008
 20
-19.666672
 11
-27.750008
 21
-19.666672
  0
LINE
  8
0
 10
-50.650017
 20
-106.666672
 11
-17.383347
 21
-106.666672
  0
LINE
  8
0
 10
-40.383995
 20
-18.366684
 11
-32.116035
 21
-18.366684
  0
LINE
  8
0
 10
-41.250008
 20
-18.866684
 11
-31.250008
 21
-18.866684
  0
LINE
  8
0
 10
-31.250017
 20
-18.866676
 11
-32.116043
 21
-18.366676
  0
LINE
  8
0
 10
-41.250046
 20
-18.866589
 11
-40.384033
 21
-18.366596
  0
LINE
  8
0
 10
-41.222073
 20
-19.666693
 11
-41.250011
 21
-18.866676
  0
LINE
  8
0
 10
-31.277950
 20
-19.666672
 11
-31.250015
 21
-18.866680
  0
LINE
  8
0
 10
-36.250000
 20
-149.366669
 11
-36.250000
 21
-13.746872
  0
LINE
  8
0
 10
-47.250000
 20
-116.666672
 11
-47.250000
 21
-96.666672
  0
LINE
  8
0
 10
-25.250000
 20
-116.666672
 11
-25.250000
 21
-96.666672
  0
LINE
  8
0
  6
DASHED
 10
-31.453213
 20
-25.485472
 11
-31.250015
 21
-19.666660
  0
LINE
  8
0
  6
DASHED
 10
-32.211922
 20
-25.721355
 11
-32.000488
 21
-19.666697
  0
LINE
  8
0
  6
DASHED
 10
-41.050507
 20
-25.379900
 11
-41.250015
 21
-19.666677
  0
LINE
  8
0
  6
DASHED
 10
-40.296051
 20
-25.494963
 11
-40.499580
 21
-19.666668
  0
LINE
  8
0
 10
-36.250000
 20
-116.666672
 11
-36.250000
 21
-96.666672
  0
LINE
  8
0
 10
-11.250000
 20
-117.666672
 11
-11.250000
 21
-116.666672
  0
LINE
  8
0
 10
-61.249992
 20
-117.666672
 11
-61.249992
 21
-116.666672
  0
LINE
  8
0
 10
-49.050011
 20
-76.666672
 11
-23.450005
 21
-76.666672
  0
LINE
  8
0
 10
-47.000000
 20
-96.666672
 11
-47.000000
 21
-76.666672
  0
LINE
  8
0
 10
-25.500000
 20
-96.666672
 11
-25.500000
 21
-76.666672
  0
LINE
  8
0
 10
-49.750008
 20
-75.966690
 11
-22.750008
 21
-75.966690
  0
LINE
  8
0
 10
-49.750008
 20
-27.366684
 11
-22.750008
 21
-27.366684
  0
LINE
  8
0
 10
-49.050011
 20
-26.666672
 11
-23.450005
 21
-26.666672
  0
LINE
  8
0
 10
-49.750000
 20
-75.966675
 11
-49.750000
 21
-59.666672
  0
LINE
  8
0
 10
-22.750000
 20
-75.966675
 11
-22.750000
 21
-59.666672
  0
LINE
  8
0
 10
-23.449997
 20
-76.666672
 11
-23.449997
 21
-59.666672
  0
LINE
  8
0
 10
-49.049995
 20
-76.666672
 11
-49.049995
 21
-59.666672
  0
LINE
  8
0
 10
-22.750027
 20
-75.966629
 11
-23.450024
 21
-76.666626
  0
LINE
  8
0
 10
-49.750004
 20
-75.966682
 11
-49.050007
 21
-76.666679
  0
LINE
  8
0
 10
-22.750011
 20
-27.366690
 11
-23.450008
 21
-26.666693
  0
LINE
  8
0
 10
-49.750042
 20
-27.366632
 11
-49.050049
 21
-26.666636
  0
LINE
  8
0
 10
-48.750008
 20
-23.666672
 11
-23.750008
 21
-23.666672
  0
LINE
  8
0
 10
-48.750000
 20
-26.666672
 11
-48.750000
 21
-23.666672
  0
LINE
  8
0
 10
-23.750000
 20
-26.666672
 11
-23.750000
 21
-23.666672
  0
LINE
  8
0
 10
-46.250000
 20
-23.666672
 11
-46.250000
 21
-22.666672
  0
LINE
  8
0
 10
-26.250000
 20
-23.666672
 11
-26.250000
 21
-22.666672
  0
LINE
  8
0
 10
-46.250008
 20
-22.666672
 11
-26.250008
 21
-22.666672
  0
LINE
  8
0
 10
-44.750000
 20
-22.666672
 11
-44.750000
 21
-19.666672
  0
LINE
  8
0
 10
-27.750000
 20
-22.666672
 11
-27.750000
 21
-19.666672
  0
LINE
  8
0
 10
-52.250008
 20
-43.666672
 11
-20.250015
 21
-43.666672
  0
LINE
  8
0
 10
-17.750000
 20
-50.223282
 11
-17.750000
 21
-45.110062
  0
LINE
  8
0
 10
-54.749992
 20
-50.223297
 11
-54.749992
 21
-45.110046
  0
LINE
  8
0
 10
-52.250008
 20
-51.666672
 11
-20.250015
 21
-51.666672
  0
LINE
  8
0
 10
-52.250004
 20
-51.666679
 11
-54.749989
 21
-50.223312
  0
LINE
  8
0
 10
-20.250029
 20
-51.666645
 11
-17.750023
 21
-50.223267
  0
LINE
  8
0
 10
-20.250038
 20
-43.666737
 11
-17.750029
 21
-45.110119
  0
LINE
  8
0
 10
-52.250008
 20
-43.666672
 11
-20.250015
 21
-43.666672
  0
LINE
  8
0
 10
-52.250027
 20
-43.666649
 11
-54.750027
 21
-45.110020
  0
LINE
  8
0
 10
-27.012352
 20
-50.223282
 11
-27.012352
 21
-45.110031
  0
LINE
  8
0
 10
-45.488220
 20
-45.110031
 11
-45.488220
 21
-50.223282
  0
LINE
  8
0
 10
-52.250008
 20
-51.666672
 11
-20.250015
 21
-51.666672
  0
LINE
  8
0
 10
-17.750000
 20
-58.223282
 11
-17.750000
 21
-53.110062
  0
LINE
  8
0
 10
-54.749992
 20
-58.223297
 11
-54.749992
 21
-53.110046
  0
LINE
  8
0
 10
-52.250008
 20
-59.666672
 11
-20.250015
 21
-59.666672
  0
LINE
  8
0
 10
-52.250019
 20
-59.666676
 11
-54.750015
 21
-58.223301
  0
LINE
  8
0
 10
-20.250038
 20
-59.666641
 11
-17.750027
 21
-58.223259
  0
LINE
  8
0
 10
-20.250023
 20
-51.666706
 11
-17.750013
 21
-53.110088
  0
LINE
  8
0
 10
-52.250008
 20
-51.666672
 11
-20.250015
 21
-51.666672
  0
LINE
  8
0
 10
-52.250027
 20
-51.666645
 11
-54.750027
 21
-53.110016
  0
LINE
  8
0
 10
-27.012360
 20
-58.223282
 11
-27.012360
 21
-53.110031
  0
LINE
  8
0
 10
-45.488174
 20
-53.110031
 11
-45.488174
 21
-58.223282
  0
LINE
  8
0
 10
-23.449997
 20
-43.666672
 11
-23.449997
 21
-26.666672
  0
LINE
  8
0
 10
-22.750000
 20
-43.666672
 11
-22.750000
 21
-27.366669
  0
LINE
  8
0
 10
-49.049995
 20
-43.666672
 11
-49.049995
 21
-26.666672
  0
LINE
  8
0
 10
-49.750000
 20
-43.666672
 11
-49.750000
 21
-27.366669
  0
LINE
  8
0
  6
DASHED
 10
-33.388477
 20
-102.701355
 11
-25.250008
 21
-102.417152
  0
LINE
  8
0
  6
DASHED
 10
-33.414658
 20
-101.951775
 11
-25.250010
 21
-101.666656
  0
LINE
  8
0
  6
DASHED
 10
-33.388466
 20
-110.632004
 11
-25.249994
 21
-110.916214
  0
LINE
  8
0
  6
DASHED
 10
-33.414665
 20
-111.381577
 11
-25.250017
 21
-111.666695
  0
ARC
  8
0
 10
-82.250000
 20
-121.666679
 40
4.000000
 50
90.000000
 51
180.000000
  0
ARC
  8
0
 10
9.750000
 20
-121.666679
 40
4.000000
 50
0.000000
 51
90.000000
  0
ARC
  8
0
 10
17.750000
 20
-125.705360
 40
4.000000
 50
180.000000
 51
241.999985
  0
ARC
  8
0
 10
-90.250000
 20
-125.705360
 40
4.000000
 50
297.999969
 51
0.000000
  0
ARC
  8
0
 10
-41.750015
 20
-112.266678
 40
15.599998
 50
90.000000
 51
110.644211
  0
ARC
  8
0
 10
-30.750015
 20
-112.266678
 40
15.599998
 50
90.000000
 51
110.644211
  0
ARC
  8
0
 10
-30.750015
 20
-101.066666
 40
15.599999
 50
249.355804
 51
290.644165
  0
ARC
  8
0
 10
-41.750015
 20
-101.066666
 40
15.599999
 50
249.355804
 51
290.644165
  0
ARC
  8
0
 10
-30.750015
 20
-112.266678
 40
15.600001
 50
69.355774
 51
90.000000
  0
ARC
  8
0
 10
-41.750015
 20
-112.266678
 40
15.600001
 50
69.355774
 51
90.000000
  0
ARC
  8
0
 10
-50.118813
 20
-43.515213
 40
8.151458
 50
235.379150
 51
304.620819
  0
ARC
  8
0
 10
-22.381210
 20
-43.515244
 40
8.151434
 50
235.379105
 51
304.621002
  0
ARC
  8
0
 10
-36.250008
 20
-21.384644
 40
30.282032
 50
252.238739
 51
287.761292
  0
ARC
  8
0
 10
-22.381210
 20
-51.818100
 40
8.151432
 50
55.378983
 51
124.620857
  0
ARC
  8
0
 10
-36.250008
 20
-73.948700
 40
30.282032
 50
72.238686
 51
107.761246
  0
ARC
  8
0
 10
-50.118813
 20
-51.818130
 40
8.151460
 50
55.379131
 51
124.620811
  0
ARC
  8
0
 10
-22.381210
 20
-59.818100
 40
8.151432
 50
55.378983
 51
124.620857
  0
ARC
  8
0
 10
-22.381210
 20
-51.515244
 40
8.151434
 50
235.379105
 51
304.621002
  0
ARC
  8
0
 10
-50.118813
 20
-59.818130
 40
8.151460
 50
55.379131
 51
124.620811
  0
ARC
  8
0
 10
-36.250008
 20
-81.948700
 40
30.282032
 50
72.238686
 51
107.761246
  0
ARC
  8
0
 10
-36.250008
 20
-29.384644
 40
30.282032
 50
252.238739
 51
287.761292
  0
ARC
  8
0
 10
-50.118813
 20
-51.515213
 40
8.151458
 50
235.379150
 51
304.620850
  0
POINT
  8
0
 10
163.750000
 20
-51.666672
  0
POINT
  8
0
 10
182.250000
 20
-51.666672
  0
LINE
  8
0
 10
94.750000
 20
-117.666679
 11
232.750000
 21
-117.666679
  0
LINE
  8
0
 10
90.750000
 20
-121.666679
 11
90.750000
 21
-127.304718
  0
LINE
  8
0
 10
236.750000
 20
-121.666679
 11
236.750000
 21
-127.304718
  0
LINE
  8
0
 10
263.750000
 20
-148.666687
 11
63.750000
 21
-148.666687
  0
LINE
  8
0
 10
61.553825
 20
-146.470551
 11
63.749985
 21
-148.666702
  0
LINE
  8
0
 10
61.553833
 20
-146.470520
 11
88.749992
 21
-130.768829
  0
LINE
  8
0
 10
265.946167
 20
-146.470520
 11
238.750000
 21
-130.768829
  0
LINE
  8
0
 10
265.946167
 20
-146.470551
 11
263.750031
 21
-148.666687
  0
LINE
  8
0
 10
234.426514
 20
-129.614120
 11
92.886520
 21
-129.614120
  0
LINE
  8
0
 10
265.946167
 20
-146.470520
 11
61.553848
 21
-146.470520
  0
LINE
  8
0
 10
138.749969
 20
-116.666679
 11
188.749985
 21
-116.666679
  0
LINE
  8
0
 10
152.749969
 20
-96.666672
 11
174.749985
 21
-96.666672
  0
LINE
  8
0
 10
155.250000
 20
-19.666672
 11
172.250000
 21
-19.666672
  0
LINE
  8
0
 10
149.349976
 20
-106.666672
 11
182.616653
 21
-106.666672
  0
LINE
  8
0
 10
159.615997
 20
-18.366684
 11
167.883972
 21
-18.366684
  0
LINE
  8
0
 10
158.750000
 20
-18.866684
 11
168.750000
 21
-18.866684
  0
LINE
  8
0
 10
168.749985
 20
-18.866676
 11
167.883957
 21
-18.366676
  0
LINE
  8
0
 10
158.749954
 20
-18.866589
 11
159.615967
 21
-18.366596
  0
LINE
  8
0
 10
158.777924
 20
-19.666693
 11
158.749985
 21
-18.866676
  0
LINE
  8
0
 10
168.722046
 20
-19.666672
 11
168.749985
 21
-18.866680
  0
LINE
  8
0
 10
163.750000
 20
-153.666687
 11
163.750000
 21
-13.366684
  0
LINE
  8
0
 10
152.750000
 20
-116.666672
 11
152.750000
 21
-96.666672
  0
LINE
  8
0
 10
174.750000
 20
-116.666672
 11
174.750000
 21
-96.666672
  0
LINE
  8
0
  6
DASHED
 10
168.546783
 20
-25.485472
 11
168.749985
 21
-19.666660
  0
LINE
  8
0
  6
DASHED
 10
167.788086
 20
-25.721355
 11
167.999512
 21
-19.666697
  0
LINE
  8
0
  6
DASHED
 10
158.949493
 20
-25.379900
 11
158.749985
 21
-19.666677
  0
LINE
  8
0
  6
DASHED
 10
159.703949
 20
-25.494963
 11
159.500412
 21
-19.666668
  0
LINE
  8
0
 10
163.750000
 20
-116.666672
 11
163.750000
 21
-96.666672
  0
LINE
  8
0
 10
188.750000
 20
-117.666672
 11
188.750000
 21
-116.666672
  0
LINE
  8
0
 10
138.750000
 20
-117.666672
 11
138.750000
 21
-116.666672
  0
LINE
  8
0
 10
150.949982
 20
-76.666672
 11
176.549988
 21
-76.666672
  0
LINE
  8
0
 10
153.000000
 20
-96.666672
 11
153.000000
 21
-76.666672
  0
LINE
  8
0
 10
174.500000
 20
-96.666672
 11
174.500000
 21
-76.666672
  0
LINE
  8
0
 10
150.250000
 20
-75.966690
 11
177.250000
 21
-75.966690
  0
LINE
  8
0
 10
150.250000
 20
-27.366684
 11
177.250000
 21
-27.366684
  0
LINE
  8
0
 10
150.949982
 20
-26.666672
 11
176.549988
 21
-26.666672
  0
LINE
  8
0
 10
150.250000
 20
-75.966675
 11
150.250000
 21
-59.666672
  0
LINE
  8
0
 10
177.250000
 20
-75.966675
 11
177.250000
 21
-59.666672
  0
LINE
  8
0
 10
176.550003
 20
-76.666672
 11
176.550003
 21
-59.666672
  0
LINE
  8
0
 10
150.950012
 20
-76.666672
 11
150.950012
 21
-59.666672
  0
LINE
  8
0
 10
177.249969
 20
-75.966629
 11
176.549973
 21
-76.666626
  0
LINE
  8
0
 10
150.250000
 20
-75.966682
 11
150.949997
 21
-76.666679
  0
LINE
  8
0
 10
177.249985
 20
-27.366690
 11
176.549988
 21
-26.666693
  0
LINE
  8
0
 10
150.249954
 20
-27.366632
 11
150.949951
 21
-26.666636
  0
LINE
  8
0
 10
151.250000
 20
-23.666672
 11
176.250000
 21
-23.666672
  0
LINE
  8
0
 10
151.250000
 20
-26.666672
 11
151.250000
 21
-23.666672
  0
LINE
  8
0
 10
176.250000
 20
-26.666672
 11
176.250000
 21
-23.666672
  0
LINE
  8
0
 10
153.750000
 20
-23.666672
 11
153.750000
 21
-22.666672
  0
LINE
  8
0
 10
173.750000
 20
-23.666672
 11
173.750000
 21
-22.666672
  0
LINE
  8
0
 10
153.750000
 20
-22.666672
 11
173.750000
 21
-22.666672
  0
LINE
  8
0
 10
155.250000
 20
-22.666672
 11
155.250000
 21
-19.666672
  0
LINE
  8
0
 10
172.250000
 20
-22.666672
 11
172.250000
 21
-19.666672
  0
LINE
  8
0
 10
147.750000
 20
-43.666672
 11
179.749985
 21
-43.666672
  0
LINE
  8
0
 10
182.250000
 20
-50.223282
 11
182.250000
 21
-45.110062
  0
LINE
  8
0
 10
145.250000
 20
-50.223297
 11
145.250000
 21
-45.110046
  0
LINE
  8
0
 10
147.750000
 20
-51.666672
 11
179.749985
 21
-51.666672
  0
LINE
  8
0
 10
147.750000
 20
-51.666679
 11
145.250015
 21
-50.223312
  0
LINE
  8
0
 10
179.749969
 20
-51.666645
 11
182.249969
 21
-50.223267
  0
LINE
  8
0
 10
179.749954
 20
-43.666737
 11
182.249969
 21
-45.110119
  0
LINE
  8
0
 10
147.750000
 20
-43.666672
 11
179.749985
 21
-43.666672
  0
LINE
  8
0
 10
147.749969
 20
-43.666649
 11
145.249969
 21
-45.110020
  0
LINE
  8
0
 10
172.987640
 20
-50.223282
 11
172.987640
 21
-45.110031
  0
LINE
  8
0
 10
154.511780
 20
-45.110031
 11
154.511780
 21
-50.223282
  0
LINE
  8
0
 10
147.750000
 20
-51.666672
 11
179.749985
 21
-51.666672
  0
LINE
  8
0
 10
182.250000
 20
-58.223282
 11
182.250000
 21
-53.110062
  0
LINE
  8
0
 10
145.250000
 20
-58.223297
 11
145.250000
 21
-53.110046
  0
LINE
  8
0
 10
147.750000
 20
-59.666672
 11
179.749985
 21
-59.666672
  0
LINE
  8
0
 10
147.749985
 20
-59.666676
 11
145.249985
 21
-58.223301
  0
LINE
  8
0
 10
179.749969
 20
-59.666641
 11
182.249969
 21
-58.223259
  0
LINE
  8
0
 10
179.749969
 20
-51.666706
 11
182.249985
 21
-53.110088
  0
LINE
  8
0
 10
147.750000
 20
-51.666672
 11
179.749985
 21
-51.666672
  0
LINE
  8
0
 10
147.749969
 20
-51.666645
 11
145.249969
 21
-53.110016
  0
LINE
  8
0
 10
172.987640
 20
-58.223282
 11
172.987640
 21
-53.110031
  0
LINE
  8
0
 10
154.511826
 20
-53.110031
 11
154.511826
 21
-58.223282
  0
LINE
  8
0
 10
176.550003
 20
-43.666672
 11
176.550003
 21
-26.666672
  0
LINE
  8
0
 10
177.250000
 20
-43.666672
 11
177.250000
 21
-27.366669
  0
LINE
  8
0
 10
150.950012
 20
-43.666672
 11
150.950012
 21
-26.666672
  0
LINE
  8
0
 10
150.250000
 20
-43.666672
 11
150.250000
 21
-27.366669
  0
LINE
  8
0
  6
DASHED
 10
166.611526
 20
-102.701355
 11
174.750000
 21
-102.417152
  0
LINE
  8
0
  6
DASHED
 10
166.585342
 20
-101.951775
 11
174.749985
 21
-101.666656
  0
LINE
  8
0
  6
DASHED
 10
166.611542
 20
-110.632004
 11
174.750000
 21
-110.916214
  0
LINE
  8
0
  6
DASHED
 10
166.585342
 20
-111.381577
 11
174.749985
 21
-111.666695
  0
ARC
  8
0
 10
94.750000
 20
-121.666679
 40
4.000000
 50
90.000000
 51
180.000000
  0
ARC
  8
0
 10
232.750000
 20
-121.666679
 40
4.000000
 50
0.000000
 51
90.000000
  0
ARC
  8
0
 10
86.750000
 20
-127.304718
 40
4.000009
 50
299.999939
 51
0.000000
  0
ARC
  8
0
 10
240.750000
 20
-127.304718
 40
4.000000
 50
180.000000
 51
240.000076
  0
ARC
  8
0
 10
158.249985
 20
-112.266678
 40
15.599998
 50
90.000000
 51
110.644226
  0
ARC
  8
0
 10
169.249985
 20
-112.266678
 40
15.599998
 50
90.000000
 51
110.644226
  0
ARC
  8
0
 10
169.249985
 20
-101.066666
 40
15.600001
 50
249.355774
 51
290.644165
  0
ARC
  8
0
 10
158.249985
 20
-101.066666
 40
15.600001
 50
249.355774
 51
290.644165
  0
ARC
  8
0
 10
169.249985
 20
-112.266678
 40
15.600001
 50
69.355774
 51
90.000000
  0
ARC
  8
0
 10
158.249985
 20
-112.266678
 40
15.600001
 50
69.355774
 51
90.000000
  0
ARC
  8
0
 10
149.881195
 20
-43.515213
 40
8.151458
 50
235.379150
 51
304.620758
  0
ARC
  8
0
 10
177.618790
 20
-43.515244
 40
8.151439
 50
235.379059
 51
304.620972
  0
ARC
  8
0
 10
163.750000
 20
-21.384644
 40
30.282032
 50
252.238739
 51
287.761292
  0
ARC
  8
0
 10
177.618790
 20
-51.818100
 40
8.151429
 50
55.379017
 51
124.620834
  0
ARC
  8
0
 10
163.750000
 20
-73.948700
 40
30.282030
 50
72.238708
 51
107.761261
  0
ARC
  8
0
 10
149.881195
 20
-51.818130
 40
8.151458
 50
55.379154
 51
124.620834
  0
ARC
  8
0
 10
177.618790
 20
-59.818100
 40
8.151429
 50
55.379017
 51
124.620834
  0
ARC
  8
0
 10
177.618790
 20
-51.515244
 40
8.151439
 50
235.379059
 51
304.620972
  0
ARC
  8
0
 10
149.881195
 20
-59.818130
 40
8.151458
 50
55.379154
 51
124.620834
  0
ARC
  8
0
 10
163.750000
 20
-81.948700
 40
30.282030
 50
72.238708
 51
107.761261
  0
ARC
  8
0
 10
163.750000
 20
-29.384644
 40
30.282032
 50
252.238739
 51
287.761292
  0
ARC
  8
0
 10
149.881195
 20
-51.515213
 40
8.151458
 50
235.379150
 51
304.620758
  0
ENDSEC
  0
EOF
