  0
SECTION
  2
HEADER
  0
ENDSEC
  0
SECTION
  2
TABLES
  0
TABLE
  2
LTYPE
 70
     4
  0
LTYPE
  2
CONTINUOUS
 70
    64
  3
Solid line
 72
    65
 73
     0
 40
0.000000
  0
LTYPE
  2
DASHED
 70
    64
  3
__ __ __ __ __ __ __ __ __ __ __ __ __ __ __
 72
    65
 73
     2
 40
3.500000
 49
2.000000
 49
-1.500000
  0
LTYPE
  2
CENTER
 70
    64
  3
____ _ ____ _ ____ _ ____ _ ____ _ ____ _ ____
 72
    65
 73
     4
 40
17.500000
 49
13.000000
 49
-1.500000
 49
1.500000
 49
-1.500000
  0
LTYPE
  2
PHANTOM
 70
    64
  3
_____ _ _ _____ _ _ _____ _ _ _____ _ _ ____  
 72
    65
 73
     6
 40
15.500000
 49
8.000000
 49
-1.500000
 49
1.500000
 49
-1.500000
 49
1.500000
 49
-1.500000
  0
LTYPE
  2
DASHED1
 70
    64
  3
__ __ __ __ __ __ __ __ __ __ __ __ __ __ __
 72
    65
 73
     2
 40
1.500000
 49
1.000000
 49
-0.500000
  0
LTYPE
  2
DASHED2
 70
    64
  3
__ __ __ __ __ __ __ __ __ __ __ __ __ __ __
 72
    65
 73
     2
 40
3.500000
 49
2.500000
 49
-1.000000
  0
LTYPE
  2
DASHED3
 70
    64
  3
__ __ __ __ __ __ __ __ __ __ __ __ __ __ __
 72
    65
 73
     2
 40
6.000000
 49
4.000000
 49
-2.000000
  0
LTYPE
  2
DASHED4
 70
    64
  3
__ __ __ __ __ __ __ __ __ __ __ __ __ __ __
 72
    65
 73
     2
 40
12.000000
 49
10.000000
 49
-2.000000
  0
LTYPE
  2
DASHED5
 70
    64
  3
__ __ __ __ __ __ __ __ __ __ __ __ __ __ __
 72
    65
 73
     2
 40
17.000000
 49
15.000000
 49
-2.000000
  0
LTYPE
  2
DASHED6
 70
    64
  3
__ __ __ __ __ __ __ __ __ __ __ __ __ __ __
 72
    65
 73
     2
 40
29.000000
 49
27.000000
 49
-2.000000
  0
LTYPE
  2
PHANTOM1
 70
    64
  3
_____ _ _ _____ _ _ _____ _ _ _____ _ _ ____  
 72
    65
 73
     6
 40
31.000000
 49
25.000000
 49
-1.500000
 49
1.000000
 49
-1.000000
 49
1.000000
 49
-1.500000
  0
LTYPE
  2
PHANTOM2
 70
    64
  3
_____ _ _ _____ _ _ _____ _ _ _____ _ _ ____  
 72
    65
 73
     6
 40
36.000000
 49
27.000000
 49
-1.500000
 49
2.500000
 49
-1.000000
 49
2.500000
 49
-1.500000
  0
LTYPE
  2
PHANTOM3
 70
    64
  3
_____ _ _ _____ _ _ _____ _ _ _____ _ _ ____  
 72
    65
 73
     6
 40
78.000000
 49
64.000000
 49
-2.000000
 49
4.000000
 49
-2.000000
 49
4.000000
 49
-2.000000
  0
LTYPE
  2
CENTER1
 70
    64
  3
____ _ ____ _ ____ _ ____ _ ____ _ ____ _ ____
 72
    65
 73
     4
 40
19.000000
 49
14.000000
 49
-1.000000
 49
3.000000
 49
-1.000000
  0
LTYPE
  2
CENTER2
 70
    64
  3
____ _ ____ _ ____ _ ____ _ ____ _ ____ _ ____
 72
    65
 73
     4
 40
28.500000
 49
25.000000
 49
-1.000000
 49
1.500000
 49
-1.000000
  0
LTYPE
  2
CENTER3
 70
    64
  3
____ _ ____ _ ____ _ ____ _ ____ _ ____ _ ____
 72
    65
 73
     4
 40
31.500000
 49
27.000000
 49
-1.000000
 49
2.500000
 49
-1.000000
  0
LTYPE
  2
CENTER4
 70
    64
  3
____ _ ____ _ ____ _ ____ _ ____ _ ____ _ ____
 72
    65
 73
     4
 40
50.000000
 49
45.000000
 49
-1.000000
 49
3.000000
 49
-1.000000
  0
LTYPE
  2
CENTER5
 70
    64
  3
____ _ ____ _ ____ _ ____ _ ____ _ ____ _ ____
 72
    65
 73
     4
 40
100.000000
 49
92.000000
 49
-2.000000
 49
4.000000
 49
-2.000000
  0
LTYPE
  2
SBK1
 70
    64
  3
______ _ _ _ ______ _ _ _ ______ _ _ _ _____  
 72
    65
 73
     8
 40
60.500000
 49
45.000000
 49
-2.000000
 49
2.500000
 49
-2.000000
 49
2.500000
 49
-2.000000
 49
2.500000
 49
-2.000000
  0
LTYPE
  2
SBK2
 70
    64
  3
______ _ _ _ ______ _ _ _ ______ _ _ _ _____  
 72
    65
 73
     8
 40
84.000000
 49
64.000000
 49
-2.000000
 49
4.000000
 49
-2.000000
 49
4.000000
 49
-2.000000
 49
4.000000
 49
-2.000000
  0
LTYPE
  2
STCH
 70
    64
  3
__ __ __ __ __ __ __ __ __ __ __ __ __ __ __
 72
    65
 73
     2
 40
3.000000
 49
1.000000
 49
-2.000000
  0
LTYPE
  2
MTCH
 70
    64
  3
_____ _ _ _____ _ _ _____ _ _ _____ _ _ ____  
 72
    65
 73
     6
 40
80.000000
 49
66.000000
 49
-2.000000
 49
4.000000
 49
-2.000000
 49
4.000000
 49
-2.000000
  0
ENDTAB
  0
TABLE
  2
LAYER
 70
     1
  0
LAYER
  2
0
 70
     0
 62
     7
  6
CONTINUOUS
  0
ENDTAB
  0
TABLE
  2
STYLE
 70
     1
  0
STYLE
  2
STANDARD
 70
     0
 40
0.000000
 41
1.000000
 50
0.000000
 71
     0
 42
0.200000
  3
txt
  4
BIGFONT
  0
ENDTAB
  0
TABLE
  2
VIEW
 70
     0
  0
ENDTAB
  0
ENDSEC
  0
SECTION
  2
BLOCKS
  0
ENDSEC
  0
SECTION
  2
ENTITIES
  0
LINE
  8
0
 10
118.527802
 20
118.298965
 11
194.800003
 21
118.298965
  0
LINE
  8
0
 10
118.527802
 20
132.600006
 11
118.527802
 21
118.298965
  0
LINE
  8
0
 10
-117.977806
 20
118.298965
 11
-117.977806
 21
132.600006
  0
LINE
  8
0
 10
-194.250000
 20
118.298965
 11
-117.977806
 21
118.298965
  0
LINE
  8
0
 10
-194.250000
 20
132.600006
 11
194.800003
 21
132.600006
  0
LINE
  8
0
 10
194.800003
 20
132.600006
 11
194.800003
 21
-133.500000
  0
LINE
  8
0
 10
-194.250000
 20
132.600006
 11
-194.250000
 21
-133.500000
  0
LINE
  8
0
 10
-194.250000
 20
-133.500000
 11
194.800003
 21
-133.500000
  0
LINE
  8
0
 10
97.537506
 20
-119.198959
 11
194.800003
 21
-119.198959
  0
LINE
  8
0
 10
210.000000
 20
148.500000
 11
210.000000
 21
-148.500000
  0
LINE
  8
0
 10
-210.000000
 20
148.500000
 11
-210.000000
 21
-148.500000
  0
LINE
  8
0
 10
-210.000000
 20
148.500000
 11
210.000000
 21
148.500000
  0
LINE
  8
0
 10
-210.000000
 20
-148.500000
 11
210.000000
 21
-148.500000
  0
LINE
  8
0
 10
-194.250000
 20
-0.449997
 11
194.800003
 21
-0.449997
  0
LINE
  8
0
 10
-96.987503
 20
132.600006
 11
-96.987503
 21
-133.500000
  0
LINE
  8
0
 10
0.275002
 20
132.600006
 11
0.275002
 21
-133.500000
  0
LINE
  8
0
 10
97.537506
 20
132.600006
 11
97.537506
 21
-133.500000
  0
LINE
  8
0
 10
-145.618744
 20
118.298965
 11
-145.618744
 21
-133.500000
  0
LINE
  8
0
 10
-48.356251
 20
132.600006
 11
-48.356251
 21
-133.500000
  0
LINE
  8
0
 10
48.906254
 20
132.600006
 11
48.906254
 21
-133.500000
  0
LINE
  8
0
 10
146.168762
 20
118.298965
 11
146.168762
 21
-119.198959
  0
LINE
  8
0
 10
-194.250000
 20
9.550003
 11
194.800003
 21
9.550003
  0
LINE
  8
0
 10
-194.250000
 20
-123.500000
 11
97.537506
 21
-123.500000
  0
LINE
  8
0
 10
97.537506
 20
-109.198959
 11
194.800003
 21
-109.198959
  0
TEXT
  8
0
 10
122.724205
 20
122.631119
 40
4.242641
  1
DATE : JUN ,1992
 50
0.000000
 41
1.052631
 51
0.000000
  7
STANDARD
  0
TEXT
  8
0
 10
-181.578186
 20
121.949493
 40
5.000000
  1
VACUUM PAD
 50
0.000000
 41
1.052632
 51
0.000000
  7
STANDARD
  0
TEXT
  8
0
 10
118.699844
 20
-129.849472
 40
5.000000
  1
KOGANEI CORP.
 50
0.000000
 41
1.052632
 51
15.000000
  7
STANDARD
  0
TEXT
  8
0
 10
-190.941376
 20
2.670003
 40
3.200000
  1
MODEL : KPL-6
 50
0.000000
 41
1.052632
 51
0.000000
  7
STANDARD
  0
TEXT
  8
0
 10
-142.310120
 20
2.670003
 40
3.200000
  1
MODEL : KPL-8
 50
0.000000
 41
1.052632
 51
0.000000
  7
STANDARD
  0
TEXT
  8
0
 10
-95.278877
 20
2.670003
 40
3.200000
  1
MODEL : KPL-10
 50
0.000000
 41
1.052632
 51
0.000000
  7
STANDARD
  0
TEXT
  8
0
 10
-45.047619
 20
2.670003
 40
3.200000
  1
MODEL:KPL-2X4
 50
0.000000
 41
1.052632
 51
0.000000
  7
STANDARD
  0
TEXT
  8
0
 10
0.383622
 20
2.670003
 40
3.200000
  1
MODEL:KPL-3.5X7
 50
0.000000
 41
1.052632
 51
0.000000
  7
STANDARD
  0
TEXT
  8
0
 10
50.614861
 20
2.670003
 40
3.200000
  1
MODEL:KPL-4X10
 50
0.000000
 41
1.052632
 51
0.000000
  7
STANDARD
  0
TEXT
  8
0
 10
99.246147
 20
2.670003
 40
3.200000
  1
MODEL:KPL-5X10
 50
0.000000
 41
1.052632
 51
0.000000
  7
STANDARD
  0
TEXT
  8
0
 10
147.877380
 20
2.670003
 40
3.200000
  1
MODEL:KPL-6X10
 50
0.000000
 41
1.052632
 51
0.000000
  7
STANDARD
  0
TEXT
  8
0
 10
-192.541367
 20
-130.380005
 40
3.200000
  1
MODEL:KPL-4X20
 50
0.000000
 41
1.052632
 51
0.000000
  7
STANDARD
  0
TEXT
  8
0
 10
-143.910110
 20
-130.380005
 40
3.200000
  1
MODEL:KPL-5X20
 50
0.000000
 41
1.052632
 51
0.000000
  7
STANDARD
  0
TEXT
  8
0
 10
-95.278877
 20
-130.380005
 40
3.200000
  1
MODEL:KPL-6X20
 50
0.000000
 41
1.052632
 51
0.000000
  7
STANDARD
  0
TEXT
  8
0
 10
-46.647625
 20
-130.380005
 40
3.200000
  1
MODEL:KPL-8X20
 50
0.000000
 41
1.052632
 51
0.000000
  7
STANDARD
  0
TEXT
  8
0
 10
1.983627
 20
-130.380005
 40
3.200000
  1
MODEL:KPL-4X30
 50
0.000000
 41
1.052632
 51
0.000000
  7
STANDARD
  0
TEXT
  8
0
 10
50.614876
 20
-130.380005
 40
3.200000
  1
MODEL:KPL-5X30
 50
0.000000
 41
1.052632
 51
0.000000
  7
STANDARD
  0
TEXT
  8
0
 10
99.246132
 20
-116.078957
 40
3.200000
  1
MODEL:KPL-6X30
 50
0.000000
 41
1.052632
 51
0.000000
  7
STANDARD
  0
TEXT
  8
0
 10
147.877380
 20
-116.078957
 40
3.200000
  1
MODEL:KPL-8X30
 50
0.000000
 41
1.052632
 51
0.000000
  7
STANDARD
  0
POINT
  8
0
 10
170.484375
 20
-85.927299
  0
POINT
  8
0
 10
185.767212
 20
-85.927299
  0
LINE
  8
0
 10
154.594376
 20
-85.927299
 11
186.607712
 21
-85.927299
  0
LINE
  8
0
 10
170.484375
 20
-90.793968
 11
170.484375
 21
-81.180634
  0
LINE
  8
0
  6
DASHED
 10
158.984375
 20
-82.427299
 11
181.984375
 21
-82.427299
  0
LINE
  8
0
  6
DASHED
 10
158.984375
 20
-89.427299
 11
181.984375
 21
-89.427299
  0
LINE
  8
0
  6
DASHED
 10
163.413300
 20
-88.427299
 11
177.555450
 21
-88.427299
  0
LINE
  8
0
  6
DASHED
 10
163.413300
 20
-83.427299
 11
177.555450
 21
-83.427299
  0
LINE
  8
0
 10
156.984375
 20
-85.927299
 11
156.984375
 21
-85.927299
  0
LINE
  8
0
 10
155.484375
 20
-85.827301
 11
155.484375
 21
-85.937294
  0
LINE
  8
0
 10
155.484375
 20
-85.837296
 11
155.484375
 21
-85.927299
  0
LINE
  8
0
 10
160.484375
 20
-85.927299
 11
160.484375
 21
-85.927299
  0
LINE
  8
0
 10
180.484375
 20
-85.927299
 11
180.484375
 21
-85.927299
  0
LINE
  8
0
 10
185.484375
 20
-85.837296
 11
185.484375
 21
-85.927299
  0
LINE
  8
0
 10
185.767227
 20
-85.837296
 11
185.767227
 21
-85.927299
  0
LINE
  8
0
 10
156.984375
 20
-85.927299
 11
156.984375
 21
-85.927299
  0
LINE
  8
0
 10
183.984375
 20
-85.927299
 11
183.984375
 21
-85.927299
  0
LINE
  8
0
 10
155.484375
 20
-85.927299
 11
155.484375
 21
-85.927299
  0
LINE
  8
0
 10
185.484375
 20
-85.927299
 11
185.484375
 21
-85.927299
  0
LINE
  8
0
 10
155.201538
 20
-85.927299
 11
155.201538
 21
-85.927299
  0
LINE
  8
0
 10
185.767212
 20
-85.927299
 11
185.767212
 21
-85.927299
  0
LINE
  8
0
 10
159.484375
 20
-89.927299
 11
181.484375
 21
-89.927299
  0
LINE
  8
0
 10
159.484375
 20
-81.927299
 11
181.484375
 21
-81.927299
  0
LINE
  8
0
 10
159.484375
 20
-81.644455
 11
181.484375
 21
-81.644455
  0
LINE
  8
0
 10
159.484375
 20
-90.210136
 11
181.484375
 21
-90.210136
  0
LINE
  8
0
 10
159.884369
 20
-88.827301
 11
181.084381
 21
-88.827301
  0
LINE
  8
0
 10
159.884369
 20
-83.027298
 11
181.084381
 21
-83.027298
  0
LINE
  8
0
 10
183.984375
 20
-85.927299
 11
183.984375
 21
-85.927299
  0
LINE
  8
0
 10
156.984375
 20
-85.927299
 11
156.984375
 21
-85.927299
  0
CIRCLE
  8
0
 10
170.484375
 20
-85.927299
 40
1.000000
  0
ARC
  8
0
  6
DASHED
 10
170.484375
 20
-85.927299
 40
4.999997
 50
149.999985
 51
210.000015
  0
ARC
  8
0
  6
DASHED
 10
170.484375
 20
-85.927299
 40
7.500007
 50
160.528793
 51
199.471207
  0
ARC
  8
0
  6
DASHED
 10
176.984375
 20
-85.927299
 40
3.500000
 50
270.000000
 51
90.000000
  0
ARC
  8
0
  6
DASHED
 10
163.984375
 20
-85.927299
 40
3.500008
 50
90.000000
 51
270.000000
  0
ARC
  8
0
  6
DASHED
 10
170.484375
 20
-85.927299
 40
4.999997
 50
329.999969
 51
30.000017
  0
ARC
  8
0
  6
DASHED
 10
170.484375
 20
-85.927299
 40
7.500010
 50
340.528748
 51
19.471201
  0
ARC
  8
0
  6
DASHED
 10
181.984375
 20
-85.927299
 40
3.500000
 50
270.000000
 51
90.000000
  0
ARC
  8
0
  6
DASHED
 10
158.984375
 20
-85.927299
 40
3.500008
 50
90.000000
 51
270.000000
  0
ARC
  8
0
 10
159.884369
 20
-85.927299
 40
2.900002
 50
90.000000
 51
270.000000
  0
ARC
  8
0
 10
181.084381
 20
-85.927299
 40
2.900002
 50
270.000000
 51
90.000000
  0
ARC
  8
0
 10
181.484375
 20
-85.927299
 40
4.000000
 50
270.000000
 51
90.000000
  0
ARC
  8
0
 10
159.484375
 20
-85.927299
 40
4.000000
 50
90.000000
 51
270.000000
  0
ARC
  8
0
 10
159.484375
 20
-85.927299
 40
4.282837
 50
90.000000
 51
270.000000
  0
ARC
  8
0
 10
181.484375
 20
-85.927299
 40
4.282837
 50
270.000000
 51
90.000000
  0
POINT
  8
0
 10
170.484375
 20
-35.927299
  0
POINT
  8
0
 10
180.484375
 20
-35.927299
  0
LINE
  8
0
 10
155.484390
 20
-43.427303
 11
185.484375
 21
-43.427303
  0
LINE
  8
0
 10
185.484375
 20
-43.427296
 11
185.767227
 21
-43.144455
  0
LINE
  8
0
  6
DASHED
 10
185.484375
 20
-43.427296
 11
184.618347
 21
-42.927296
  0
LINE
  8
0
 10
185.767227
 20
-43.144459
 11
184.729355
 21
-42.106590
  0
LINE
  8
0
 10
160.484375
 20
-35.927299
 11
180.484375
 21
-35.927299
  0
LINE
  8
0
  6
DASHED
 10
162.984375
 20
-37.927303
 11
177.984375
 21
-37.927303
  0
LINE
  8
0
  6
DASHED
 10
162.984375
 20
-39.427303
 11
177.984375
 21
-39.427303
  0
LINE
  8
0
  6
DASHED
 10
168.734375
 20
-41.427307
 11
172.234375
 21
-41.427307
  0
LINE
  8
0
  6
DASHED
 10
156.350418
 20
-42.927303
 11
184.618347
 21
-42.927303
  0
LINE
  8
0
  6
DASHED
 10
156.984375
 20
-42.427303
 11
183.984375
 21
-42.427303
  0
LINE
  8
0
 10
170.484375
 20
-44.227306
 11
170.484375
 21
-35.467304
  0
LINE
  8
0
  6
DASHED
 10
175.484375
 20
-37.927303
 11
175.484375
 21
-35.927303
  0
LINE
  8
0
  6
DASHED
 10
171.484375
 20
-42.427307
 11
171.484375
 21
-41.427307
  0
LINE
  8
0
  6
DASHED
 10
172.234375
 20
-41.427307
 11
172.234375
 21
-39.427303
  0
LINE
  8
0
  6
DASHED
 10
177.984375
 20
-39.427303
 11
177.984375
 21
-37.927303
  0
LINE
  8
0
 10
185.484375
 20
-40.927303
 11
185.484375
 21
-37.927299
  0
LINE
  8
0
  6
DASHED
 10
183.984375
 20
-42.927307
 11
183.984375
 21
-42.427307
  0
LINE
  8
0
 10
184.729355
 20
-41.682323
 11
185.484390
 21
-40.927296
  0
LINE
  8
0
  6
DASHED
 10
155.484390
 20
-43.427315
 11
156.350433
 21
-42.927303
  0
LINE
  8
0
  6
DASHED
 10
165.484375
 20
-37.927303
 11
165.484375
 21
-35.927303
  0
LINE
  8
0
  6
DASHED
 10
156.984375
 20
-42.927307
 11
156.984375
 21
-42.427307
  0
LINE
  8
0
  6
DASHED
 10
169.484375
 20
-42.427307
 11
169.484375
 21
-41.427307
  0
LINE
  8
0
  6
DASHED
 10
168.734375
 20
-41.427307
 11
168.734375
 21
-39.427303
  0
LINE
  8
0
  6
DASHED
 10
162.984375
 20
-39.427303
 11
162.984375
 21
-37.927303
  0
LINE
  8
0
 10
155.201523
 20
-43.144451
 11
156.239395
 21
-42.106583
  0
LINE
  8
0
 10
156.239395
 20
-41.682323
 11
155.484375
 21
-40.927296
  0
LINE
  8
0
 10
155.484375
 20
-43.427299
 11
155.201523
 21
-43.144455
  0
LINE
  8
0
 10
155.484375
 20
-40.927303
 11
155.484375
 21
-37.927299
  0
LINE
  8
0
 10
185.484375
 20
-40.927315
 11
155.484375
 21
-40.927315
  0
LINE
  8
0
 10
155.201508
 20
-43.144463
 11
185.767227
 21
-43.144463
  0
LINE
  8
0
 10
184.084381
 20
-41.894470
 11
156.774384
 21
-41.894470
  0
LINE
  8
0
 10
155.484375
 20
-37.927299
 11
162.294373
 21
-37.927299
  0
LINE
  8
0
 10
180.484375
 20
-37.927299
 11
180.484375
 21
-35.927299
  0
LINE
  8
0
 10
160.484375
 20
-37.927299
 11
160.484375
 21
-35.927299
  0
LINE
  8
0
 10
178.534378
 20
-37.927299
 11
185.484375
 21
-37.927299
  0
ARC
  8
0
 10
184.941483
 20
-41.894463
 40
0.299997
 50
134.999481
 51
225.000519
  0
ARC
  8
0
 10
156.027267
 20
-41.894463
 40
0.299997
 50
314.999481
 51
45.000515
  0
POINT
  8
0
 10
121.853134
 20
-85.927299
  0
POINT
  8
0
 10
137.135986
 20
-85.927299
  0
LINE
  8
0
 10
105.143135
 20
-85.927299
 11
138.443146
 21
-85.927299
  0
LINE
  8
0
 10
121.853134
 20
-90.207298
 11
121.853134
 21
-81.447296
  0
LINE
  8
0
 10
110.353134
 20
-82.427299
 11
133.353134
 21
-82.427299
  0
LINE
  8
0
 10
110.353134
 20
-89.427299
 11
133.353134
 21
-89.427299
  0
LINE
  8
0
  6
DASHED
 10
114.782059
 20
-88.427299
 11
128.924210
 21
-88.427299
  0
LINE
  8
0
  6
DASHED
 10
114.782066
 20
-83.427299
 11
128.924210
 21
-83.427299
  0
LINE
  8
0
 10
110.253136
 20
-84.027298
 11
133.453140
 21
-84.027298
  0
LINE
  8
0
 10
110.253136
 20
-87.827301
 11
133.453140
 21
-87.827301
  0
LINE
  8
0
 10
109.853134
 20
-82.927299
 11
133.853134
 21
-82.927299
  0
LINE
  8
0
 10
109.853134
 20
-88.837296
 11
133.853134
 21
-88.837296
  0
LINE
  8
0
 10
109.853134
 20
-89.120132
 11
133.853134
 21
-89.120132
  0
LINE
  8
0
 10
109.853134
 20
-82.644455
 11
133.853134
 21
-82.644455
  0
LINE
  8
0
 10
108.353134
 20
-85.927299
 11
108.353134
 21
-85.927299
  0
LINE
  8
0
 10
106.853134
 20
-85.827301
 11
106.853134
 21
-85.937294
  0
LINE
  8
0
 10
111.853134
 20
-85.927299
 11
111.853134
 21
-85.927299
  0
LINE
  8
0
 10
131.853134
 20
-85.927299
 11
131.853134
 21
-85.927299
  0
LINE
  8
0
 10
108.353134
 20
-85.927299
 11
108.353134
 21
-85.927299
  0
LINE
  8
0
 10
135.353134
 20
-85.927299
 11
135.353134
 21
-85.927299
  0
CIRCLE
  8
0
 10
121.853134
 20
-85.927299
 40
1.000000
  0
ARC
  8
0
  6
DASHED
 10
121.853134
 20
-85.927299
 40
4.999997
 50
149.999985
 51
209.999969
  0
ARC
  8
0
  6
DASHED
 10
121.853134
 20
-85.927299
 40
7.500000
 50
160.528778
 51
199.471222
  0
ARC
  8
0
  6
DASHED
 10
128.353134
 20
-85.927299
 40
3.500000
 50
270.000000
 51
90.000000
  0
ARC
  8
0
  6
DASHED
 10
115.353134
 20
-85.927299
 40
3.500008
 50
90.000000
 51
270.000000
  0
ARC
  8
0
  6
DASHED
 10
121.853134
 20
-85.927299
 40
4.999997
 50
329.999969
 51
29.999973
  0
ARC
  8
0
  6
DASHED
 10
121.853134
 20
-85.927299
 40
7.500010
 50
340.528748
 51
19.471201
  0
ARC
  8
0
  6
DASHED
 10
110.353134
 20
-85.927299
 40
3.500004
 50
119.490593
 51
230.667068
  0
ARC
  8
0
  6
DASHED
 10
133.353134
 20
-85.927299
 40
3.500006
 50
309.332397
 51
60.509796
  0
ARC
  8
0
 10
133.353134
 20
-85.927299
 40
3.500000
 50
270.000000
 51
309.332397
  0
ARC
  8
0
 10
133.353134
 20
-85.927299
 40
3.500000
 50
60.509796
 51
90.000000
  0
ARC
  8
0
 10
110.353134
 20
-85.927299
 40
3.500008
 50
90.000000
 51
119.490593
  0
ARC
  8
0
 10
110.353134
 20
-85.927299
 40
3.500003
 50
230.667068
 51
270.000000
  0
ARC
  8
0
 10
109.853134
 20
-85.927299
 40
3.000000
 50
90.000000
 51
180.000000
  0
ARC
  8
0
 10
133.853134
 20
-85.927299
 40
3.000000
 50
0.000000
 51
90.000000
  0
ARC
  8
0
 10
133.853134
 20
-85.837296
 40
3.000000
 50
270.000000
 51
358.280792
  0
ARC
  8
0
 10
109.853134
 20
-85.837296
 40
3.000000
 50
181.719208
 51
270.000000
  0
ARC
  8
0
 10
109.853134
 20
-85.837296
 40
3.282835
 50
181.571045
 51
270.000122
  0
ARC
  8
0
 10
133.853134
 20
-85.837296
 40
3.282837
 50
270.000275
 51
358.428955
  0
ARC
  8
0
 10
133.853134
 20
-85.927299
 40
3.282852
 50
0.000000
 51
89.999733
  0
ARC
  8
0
 10
109.853134
 20
-85.927299
 40
3.282845
 50
89.999870
 51
179.999863
  0
ARC
  8
0
 10
110.253136
 20
-85.927299
 40
1.900002
 50
90.000000
 51
270.000000
  0
ARC
  8
0
 10
133.453140
 20
-85.927299
 40
1.899994
 50
270.000000
 51
90.000000
  0
POINT
  8
0
 10
121.853134
 20
-35.927299
  0
POINT
  8
0
 10
131.853134
 20
-35.927299
  0
LINE
  8
0
 10
106.853157
 20
-43.427303
 11
136.853134
 21
-43.427303
  0
LINE
  8
0
 10
136.853134
 20
-43.427296
 11
137.135986
 21
-43.144455
  0
LINE
  8
0
  6
DASHED
 10
136.853134
 20
-43.427296
 11
135.987106
 21
-42.927296
  0
LINE
  8
0
 10
137.135986
 20
-43.144459
 11
136.098114
 21
-42.106590
  0
LINE
  8
0
 10
111.853134
 20
-35.927299
 11
131.853134
 21
-35.927299
  0
LINE
  8
0
  6
DASHED
 10
114.353134
 20
-37.927303
 11
129.353134
 21
-37.927303
  0
LINE
  8
0
  6
DASHED
 10
114.353134
 20
-39.427303
 11
129.353134
 21
-39.427303
  0
LINE
  8
0
  6
DASHED
 10
120.103134
 20
-41.427307
 11
123.603134
 21
-41.427307
  0
LINE
  8
0
  6
DASHED
 10
107.719185
 20
-42.927303
 11
135.987106
 21
-42.927303
  0
LINE
  8
0
  6
DASHED
 10
108.353142
 20
-42.427303
 11
135.353134
 21
-42.427303
  0
LINE
  8
0
 10
121.853134
 20
-44.227306
 11
121.853134
 21
-35.467304
  0
LINE
  8
0
  6
DASHED
 10
126.853134
 20
-37.927303
 11
126.853134
 21
-35.927303
  0
LINE
  8
0
  6
DASHED
 10
122.853134
 20
-42.427307
 11
122.853134
 21
-41.427307
  0
LINE
  8
0
  6
DASHED
 10
123.603134
 20
-41.427307
 11
123.603134
 21
-39.427303
  0
LINE
  8
0
  6
DASHED
 10
129.353134
 20
-39.427303
 11
129.353134
 21
-37.927303
  0
LINE
  8
0
 10
136.853134
 20
-40.927303
 11
136.853134
 21
-37.927299
  0
LINE
  8
0
  6
DASHED
 10
135.353134
 20
-42.927307
 11
135.353134
 21
-42.427307
  0
LINE
  8
0
 10
136.098114
 20
-41.682323
 11
136.853149
 21
-40.927296
  0
LINE
  8
0
  6
DASHED
 10
106.853142
 20
-43.427315
 11
107.719185
 21
-42.927303
  0
LINE
  8
0
  6
DASHED
 10
116.853134
 20
-37.927303
 11
116.853134
 21
-35.927303
  0
LINE
  8
0
  6
DASHED
 10
108.353142
 20
-42.927307
 11
108.353142
 21
-42.427307
  0
LINE
  8
0
  6
DASHED
 10
120.853134
 20
-42.427307
 11
120.853134
 21
-41.427307
  0
LINE
  8
0
  6
DASHED
 10
120.103134
 20
-41.427307
 11
120.103134
 21
-39.427303
  0
LINE
  8
0
  6
DASHED
 10
114.353134
 20
-39.427303
 11
114.353134
 21
-37.927303
  0
LINE
  8
0
 10
106.570282
 20
-43.144451
 11
107.608154
 21
-42.106583
  0
LINE
  8
0
 10
107.608154
 20
-41.682323
 11
106.853127
 21
-40.927296
  0
LINE
  8
0
 10
106.853127
 20
-43.427299
 11
106.570282
 21
-43.144455
  0
LINE
  8
0
 10
106.853142
 20
-40.927303
 11
106.853142
 21
-37.927299
  0
LINE
  8
0
 10
136.853134
 20
-40.927315
 11
106.853142
 21
-40.927315
  0
LINE
  8
0
 10
106.570274
 20
-43.144463
 11
137.135986
 21
-43.144463
  0
LINE
  8
0
 10
135.453125
 20
-41.894470
 11
108.143135
 21
-41.894470
  0
LINE
  8
0
 10
106.853142
 20
-37.927299
 11
111.853134
 21
-37.927299
  0
LINE
  8
0
 10
131.853134
 20
-37.927299
 11
131.853134
 21
-35.927299
  0
LINE
  8
0
 10
111.853134
 20
-37.927299
 11
111.853134
 21
-35.927299
  0
LINE
  8
0
 10
131.853134
 20
-37.927299
 11
136.853134
 21
-37.927299
  0
ARC
  8
0
 10
136.310242
 20
-41.894463
 40
0.299997
 50
134.999481
 51
225.000519
  0
ARC
  8
0
 10
107.396027
 20
-41.894463
 40
0.300002
 50
315.000519
 51
44.999485
  0
POINT
  8
0
 10
73.221878
 20
-85.927299
  0
POINT
  8
0
 10
88.502922
 20
-85.927299
  0
LINE
  8
0
 10
56.511879
 20
-85.927299
 11
89.811882
 21
-85.927299
  0
LINE
  8
0
 10
73.221878
 20
-90.207298
 11
73.221878
 21
-81.447296
  0
LINE
  8
0
 10
61.721878
 20
-82.427299
 11
84.721878
 21
-82.427299
  0
LINE
  8
0
 10
61.721878
 20
-89.427299
 11
84.721878
 21
-89.427299
  0
LINE
  8
0
  6
DASHED
 10
66.150803
 20
-88.427299
 11
80.292953
 21
-88.427299
  0
LINE
  8
0
  6
DASHED
 10
66.150810
 20
-83.427299
 11
80.292946
 21
-83.427299
  0
LINE
  8
0
 10
61.121880
 20
-84.527298
 11
85.321877
 21
-84.527298
  0
LINE
  8
0
 10
61.121880
 20
-87.327301
 11
85.321877
 21
-87.327301
  0
LINE
  8
0
 10
60.721878
 20
-83.327301
 11
85.667717
 21
-83.327301
  0
LINE
  8
0
 10
60.721878
 20
-88.437294
 11
85.721878
 21
-88.437294
  0
LINE
  8
0
 10
60.721878
 20
-88.720139
 11
85.721878
 21
-88.720139
  0
LINE
  8
0
 10
60.721878
 20
-83.044456
 11
85.739624
 21
-83.044456
  0
LINE
  8
0
 10
59.721878
 20
-85.927299
 11
59.721878
 21
-85.927299
  0
LINE
  8
0
 10
57.939041
 20
-85.827301
 11
57.939041
 21
-85.937294
  0
LINE
  8
0
 10
58.221878
 20
-85.827301
 11
58.221878
 21
-85.937294
  0
LINE
  8
0
 10
88.504715
 20
-85.827301
 11
88.504715
 21
-85.937294
  0
LINE
  8
0
 10
88.221878
 20
-85.827301
 11
88.221878
 21
-85.937294
  0
CIRCLE
  8
0
 10
73.221878
 20
-85.927299
 40
1.000000
  0
ARC
  8
0
  6
DASHED
 10
73.221878
 20
-85.927299
 40
4.999997
 50
149.999985
 51
209.999969
  0
ARC
  8
0
  6
DASHED
 10
73.221878
 20
-85.927299
 40
7.500000
 50
160.528778
 51
199.471222
  0
ARC
  8
0
  6
DASHED
 10
79.721878
 20
-85.927299
 40
3.500000
 50
270.000000
 51
90.000000
  0
ARC
  8
0
  6
DASHED
 10
66.721878
 20
-85.927299
 40
3.500008
 50
90.000000
 51
270.000000
  0
ARC
  8
0
  6
DASHED
 10
73.221878
 20
-85.927299
 40
4.999997
 50
329.999969
 51
29.999973
  0
ARC
  8
0
  6
DASHED
 10
73.221878
 20
-85.927299
 40
7.500002
 50
340.528717
 51
19.471220
  0
ARC
  8
0
  6
DASHED
 10
61.721878
 20
-85.927299
 40
3.500003
 50
135.923584
 51
218.711334
  0
ARC
  8
0
  6
DASHED
 10
84.721878
 20
-85.927299
 40
3.500004
 50
321.288727
 51
44.076374
  0
ARC
  8
0
 10
84.721878
 20
-85.927299
 40
3.500000
 50
270.000000
 51
321.288727
  0
ARC
  8
0
 10
84.721878
 20
-85.927299
 40
3.500005
 50
44.076374
 51
90.000000
  0
ARC
  8
0
 10
61.721878
 20
-85.927299
 40
3.500008
 50
90.000000
 51
135.923584
  0
ARC
  8
0
 10
61.721878
 20
-85.927299
 40
3.499998
 50
218.711334
 51
269.999939
  0
ARC
  8
0
 10
61.121880
 20
-85.927299
 40
1.400002
 50
90.000000
 51
270.000000
  0
ARC
  8
0
 10
60.721878
 20
-85.827301
 40
2.500000
 50
89.999916
 51
179.999832
  0
ARC
  8
0
 10
60.721878
 20
-85.937294
 40
2.500000
 50
180.000000
 51
270.000092
  0
ARC
  8
0
 10
60.721878
 20
-85.937294
 40
2.782837
 50
180.000000
 51
270.000092
  0
ARC
  8
0
 10
60.721878
 20
-85.827301
 40
2.782845
 50
89.999924
 51
179.999847
  0
ARC
  8
0
 10
85.721878
 20
-85.937294
 40
2.500000
 50
270.000000
 51
0.000000
  0
ARC
  8
0
 10
85.721878
 20
-85.827301
 40
2.500000
 50
0.000175
 51
90.000000
  0
ARC
  8
0
 10
85.721878
 20
-85.827301
 40
2.782837
 50
0.000157
 51
90.000000
  0
ARC
  8
0
 10
85.721878
 20
-85.937294
 40
2.782845
 50
270.000000
 51
0.000000
  0
ARC
  8
0
 10
85.321877
 20
-85.927299
 40
1.400002
 50
270.000000
 51
90.000000
  0
POINT
  8
0
 10
73.221878
 20
-35.927299
  0
POINT
  8
0
 10
83.221878
 20
-35.927299
  0
LINE
  8
0
 10
58.221901
 20
-43.427303
 11
88.221878
 21
-43.427303
  0
LINE
  8
0
 10
88.221878
 20
-43.427296
 11
88.504723
 21
-43.144455
  0
LINE
  8
0
  6
DASHED
 10
88.221878
 20
-43.427296
 11
87.355858
 21
-42.927296
  0
LINE
  8
0
 10
88.504723
 20
-43.144459
 11
87.466858
 21
-42.106590
  0
LINE
  8
0
 10
63.221878
 20
-35.927299
 11
83.221878
 21
-35.927299
  0
LINE
  8
0
  6
DASHED
 10
65.721878
 20
-37.927303
 11
80.721878
 21
-37.927303
  0
LINE
  8
0
  6
DASHED
 10
65.721878
 20
-39.427303
 11
80.721878
 21
-39.427303
  0
LINE
  8
0
  6
DASHED
 10
71.471878
 20
-41.427307
 11
74.971878
 21
-41.427307
  0
LINE
  8
0
  6
DASHED
 10
59.087925
 20
-42.927303
 11
87.355858
 21
-42.927303
  0
LINE
  8
0
  6
DASHED
 10
59.721882
 20
-42.427303
 11
86.721878
 21
-42.427303
  0
LINE
  8
0
 10
73.221878
 20
-44.227306
 11
73.221878
 21
-35.467304
  0
LINE
  8
0
  6
DASHED
 10
78.221878
 20
-37.927303
 11
78.221878
 21
-35.927303
  0
LINE
  8
0
  6
DASHED
 10
74.221878
 20
-42.427307
 11
74.221878
 21
-41.427307
  0
LINE
  8
0
  6
DASHED
 10
74.971878
 20
-41.427307
 11
74.971878
 21
-39.427303
  0
LINE
  8
0
  6
DASHED
 10
80.721878
 20
-39.427303
 11
80.721878
 21
-37.927303
  0
LINE
  8
0
 10
88.221886
 20
-40.927303
 11
88.221886
 21
-37.927299
  0
LINE
  8
0
  6
DASHED
 10
86.721886
 20
-42.927307
 11
86.721886
 21
-42.427307
  0
LINE
  8
0
 10
87.466858
 20
-41.682323
 11
88.221886
 21
-40.927296
  0
LINE
  8
0
  6
DASHED
 10
58.221886
 20
-43.427315
 11
59.087929
 21
-42.927303
  0
LINE
  8
0
  6
DASHED
 10
68.221878
 20
-37.927303
 11
68.221878
 21
-35.927303
  0
LINE
  8
0
  6
DASHED
 10
59.721886
 20
-42.927307
 11
59.721886
 21
-42.427307
  0
LINE
  8
0
  6
DASHED
 10
72.221878
 20
-42.427307
 11
72.221878
 21
-41.427307
  0
LINE
  8
0
  6
DASHED
 10
71.471878
 20
-41.427307
 11
71.471878
 21
-39.427303
  0
LINE
  8
0
  6
DASHED
 10
65.721878
 20
-39.427303
 11
65.721878
 21
-37.927303
  0
LINE
  8
0
 10
57.939030
 20
-43.144451
 11
58.976898
 21
-42.106583
  0
LINE
  8
0
 10
58.976898
 20
-41.682323
 11
58.221870
 21
-40.927296
  0
LINE
  8
0
 10
58.221870
 20
-43.427299
 11
57.939026
 21
-43.144455
  0
LINE
  8
0
 10
58.221886
 20
-40.927303
 11
58.221886
 21
-37.927299
  0
LINE
  8
0
 10
88.221870
 20
-40.927315
 11
58.221886
 21
-40.927315
  0
LINE
  8
0
 10
57.939018
 20
-43.144463
 11
88.504723
 21
-43.144463
  0
LINE
  8
0
 10
86.821877
 20
-41.894470
 11
59.511879
 21
-41.894470
  0
LINE
  8
0
 10
58.221886
 20
-37.927299
 11
65.031876
 21
-37.927299
  0
LINE
  8
0
 10
83.221878
 20
-37.927299
 11
83.221878
 21
-35.927299
  0
LINE
  8
0
 10
63.221878
 20
-37.927299
 11
63.221878
 21
-35.927299
  0
LINE
  8
0
 10
81.178543
 20
-37.927299
 11
88.221886
 21
-37.927299
  0
ARC
  8
0
 10
87.678986
 20
-41.894463
 40
0.299997
 50
134.999481
 51
225.000519
  0
ARC
  8
0
 10
58.764771
 20
-41.894463
 40
0.299999
 50
315.000000
 51
44.999485
  0
POINT
  8
0
 10
24.590628
 20
-85.927299
  0
POINT
  8
0
 10
39.873474
 20
-85.927299
  0
LINE
  8
0
 10
7.880629
 20
-85.927299
 11
41.180634
 21
-85.927299
  0
LINE
  8
0
 10
24.590628
 20
-90.207298
 11
24.590628
 21
-81.447296
  0
LINE
  8
0
 10
13.090627
 20
-82.427299
 11
36.090630
 21
-82.427299
  0
LINE
  8
0
 10
13.090627
 20
-89.427299
 11
36.090630
 21
-89.427299
  0
LINE
  8
0
  6
DASHED
 10
17.519556
 20
-88.427299
 11
31.661699
 21
-88.427299
  0
LINE
  8
0
  6
DASHED
 10
17.519556
 20
-83.427299
 11
31.661699
 21
-83.427299
  0
LINE
  8
0
 10
12.090627
 20
-84.927299
 11
37.090630
 21
-84.927299
  0
LINE
  8
0
 10
12.090627
 20
-86.927299
 11
37.090630
 21
-86.927299
  0
LINE
  8
0
 10
11.590628
 20
-83.927299
 11
37.590630
 21
-83.927299
  0
LINE
  8
0
 10
11.590628
 20
-87.927299
 11
37.590630
 21
-87.927299
  0
LINE
  8
0
 10
11.590626
 20
-88.210136
 11
37.590633
 21
-88.210136
  0
LINE
  8
0
 10
11.590626
 20
-83.644455
 11
37.590630
 21
-83.644455
  0
CIRCLE
  8
0
 10
24.590628
 20
-85.927299
 40
1.000000
  0
ARC
  8
0
  6
DASHED
 10
24.590628
 20
-85.927299
 40
5.000000
 50
150.000000
 51
210.000000
  0
ARC
  8
0
  6
DASHED
 10
24.590628
 20
-85.927299
 40
7.500002
 50
160.528778
 51
199.471222
  0
ARC
  8
0
  6
DASHED
 10
31.090630
 20
-85.927299
 40
3.500000
 50
269.999939
 51
90.000000
  0
ARC
  8
0
  6
DASHED
 10
18.090628
 20
-85.927299
 40
3.500008
 50
89.999969
 51
269.999939
  0
ARC
  8
0
  6
DASHED
 10
24.590628
 20
-85.927299
 40
5.000000
 50
330.000000
 51
29.999985
  0
ARC
  8
0
  6
DASHED
 10
24.590628
 20
-85.927299
 40
7.500004
 50
340.528717
 51
19.471216
  0
ARC
  8
0
 10
37.590633
 20
-85.927299
 40
2.000000
 50
269.999878
 51
90.000000
  0
ARC
  8
0
 10
11.590628
 20
-85.927299
 40
2.000000
 50
89.999969
 51
269.999939
  0
ARC
  8
0
 10
12.090627
 20
-85.927299
 40
1.000000
 50
180.000000
 51
269.999939
  0
ARC
  8
0
 10
12.090627
 20
-85.927299
 40
1.000000
 50
90.000000
 51
180.000000
  0
ARC
  8
0
 10
37.090630
 20
-85.927299
 40
1.000000
 50
270.000000
 51
90.000000
  0
ARC
  8
0
 10
37.590633
 20
-85.927299
 40
2.282837
 50
269.999908
 51
90.000000
  0
ARC
  8
0
 10
11.590626
 20
-85.927299
 40
2.282845
 50
89.999977
 51
269.999939
  0
ARC
  8
0
  6
DASHED
 10
13.090627
 20
-85.927299
 40
3.500003
 50
152.206207
 51
207.793671
  0
ARC
  8
0
  6
DASHED
 10
36.090630
 20
-85.927299
 40
3.500001
 50
332.206329
 51
27.793779
  0
ARC
  8
0
 10
36.090630
 20
-85.927299
 40
3.500000
 50
270.000000
 51
332.206329
  0
ARC
  8
0
 10
36.090630
 20
-85.927299
 40
3.500004
 50
27.793779
 51
90.000000
  0
ARC
  8
0
 10
13.090627
 20
-85.927299
 40
3.500008
 50
89.999985
 51
152.206207
  0
ARC
  8
0
 10
13.090627
 20
-85.927299
 40
3.500000
 50
207.793671
 51
269.999969
  0
POINT
  8
0
 10
24.590628
 20
-35.927299
  0
POINT
  8
0
 10
34.590630
 20
-35.927299
  0
LINE
  8
0
 10
9.590649
 20
-43.427303
 11
39.590630
 21
-43.427303
  0
LINE
  8
0
 10
39.590630
 20
-43.427296
 11
39.873474
 21
-43.144455
  0
LINE
  8
0
  6
DASHED
 10
39.590630
 20
-43.427296
 11
38.724606
 21
-42.927296
  0
LINE
  8
0
 10
39.873474
 20
-43.144459
 11
38.835606
 21
-42.106590
  0
LINE
  8
0
 10
14.590628
 20
-35.927299
 11
34.590630
 21
-35.927299
  0
LINE
  8
0
  6
DASHED
 10
17.090628
 20
-37.927303
 11
32.090630
 21
-37.927303
  0
LINE
  8
0
  6
DASHED
 10
17.090628
 20
-39.427303
 11
32.090630
 21
-39.427303
  0
LINE
  8
0
  6
DASHED
 10
22.840630
 20
-41.427307
 11
26.340630
 21
-41.427307
  0
LINE
  8
0
  6
DASHED
 10
10.456676
 20
-42.927303
 11
38.724606
 21
-42.927303
  0
LINE
  8
0
  6
DASHED
 10
11.090632
 20
-42.427303
 11
38.090630
 21
-42.427303
  0
LINE
  8
0
 10
24.590628
 20
-44.227306
 11
24.590628
 21
-35.467304
  0
LINE
  8
0
  6
DASHED
 10
29.590630
 20
-37.927303
 11
29.590630
 21
-35.927303
  0
LINE
  8
0
  6
DASHED
 10
25.590628
 20
-42.427307
 11
25.590628
 21
-41.427307
  0
LINE
  8
0
  6
DASHED
 10
26.340628
 20
-41.427307
 11
26.340628
 21
-39.427303
  0
LINE
  8
0
  6
DASHED
 10
32.090630
 20
-39.427303
 11
32.090630
 21
-37.927303
  0
LINE
  8
0
 10
39.590633
 20
-40.927303
 11
39.590633
 21
-37.927299
  0
LINE
  8
0
  6
DASHED
 10
38.090633
 20
-42.927307
 11
38.090633
 21
-42.427307
  0
LINE
  8
0
 10
38.835609
 20
-41.682323
 11
39.590637
 21
-40.927296
  0
LINE
  8
0
  6
DASHED
 10
9.590637
 20
-43.427315
 11
10.456678
 21
-42.927303
  0
LINE
  8
0
  6
DASHED
 10
19.590626
 20
-37.927303
 11
19.590626
 21
-35.927303
  0
LINE
  8
0
  6
DASHED
 10
11.090633
 20
-42.927307
 11
11.090633
 21
-42.427307
  0
LINE
  8
0
  6
DASHED
 10
23.590630
 20
-42.427307
 11
23.590630
 21
-41.427307
  0
LINE
  8
0
  6
DASHED
 10
22.840628
 20
-41.427307
 11
22.840628
 21
-39.427303
  0
LINE
  8
0
  6
DASHED
 10
17.090630
 20
-39.427303
 11
17.090630
 21
-37.927303
  0
LINE
  8
0
 10
9.307778
 20
-43.144451
 11
10.345648
 21
-42.106583
  0
LINE
  8
0
 10
10.345648
 20
-41.682323
 11
9.590620
 21
-40.927296
  0
LINE
  8
0
 10
9.590620
 20
-43.427299
 11
9.307776
 21
-43.144455
  0
LINE
  8
0
 10
9.590635
 20
-40.927303
 11
9.590635
 21
-37.927299
  0
LINE
  8
0
 10
39.590622
 20
-40.927315
 11
9.590633
 21
-40.927315
  0
LINE
  8
0
 10
9.307768
 20
-43.144463
 11
39.873474
 21
-43.144463
  0
LINE
  8
0
 10
38.190628
 20
-41.894470
 11
10.880629
 21
-41.894470
  0
LINE
  8
0
 10
9.590632
 20
-37.927299
 11
16.618385
 21
-37.927299
  0
LINE
  8
0
 10
34.590630
 20
-37.927299
 11
34.590630
 21
-35.927299
  0
LINE
  8
0
 10
14.590628
 20
-37.927299
 11
14.590628
 21
-35.927299
  0
LINE
  8
0
 10
32.376480
 20
-37.927299
 11
39.590633
 21
-37.927299
  0
ARC
  8
0
 10
39.047737
 20
-41.894463
 40
0.299999
 50
135.000000
 51
225.000000
  0
ARC
  8
0
 10
10.133521
 20
-41.894463
 40
0.299999
 50
315.000000
 51
44.999870
  0
POINT
  8
0
 10
-24.040625
 20
-85.927299
  0
POINT
  8
0
 10
-13.757784
 20
-85.927299
  0
LINE
  8
0
 10
-34.694118
 20
-85.927299
 11
-13.369925
 21
-85.927299
  0
LINE
  8
0
 10
-24.040625
 20
-90.757301
 11
-24.040625
 21
-81.317299
  0
LINE
  8
0
  6
DASHED
 10
-30.540625
 20
-82.427299
 11
-17.540625
 21
-82.427299
  0
LINE
  8
0
  6
DASHED
 10
-30.540625
 20
-89.427299
 11
-17.540625
 21
-89.427299
  0
LINE
  8
0
 10
-14.040625
 20
-85.927299
 11
-14.040625
 21
-85.927299
  0
LINE
  8
0
 10
-34.040627
 20
-85.927299
 11
-34.040627
 21
-85.927299
  0
LINE
  8
0
  6
DASHED
 10
-31.111694
 20
-88.427299
 11
-16.969555
 21
-88.427299
  0
LINE
  8
0
  6
DASHED
 10
-31.111694
 20
-83.427299
 11
-16.969555
 21
-83.427299
  0
LINE
  8
0
 10
-32.540627
 20
-85.927299
 11
-32.540627
 21
-85.927299
  0
LINE
  8
0
 10
-15.540625
 20
-85.927299
 11
-15.540625
 21
-85.927299
  0
LINE
  8
0
 10
-34.040627
 20
-85.927299
 11
-34.040627
 21
-85.927299
  0
LINE
  8
0
 10
-14.040625
 20
-85.927299
 11
-14.040625
 21
-85.927299
  0
LINE
  8
0
 10
-34.323467
 20
-85.927299
 11
-34.323467
 21
-85.927299
  0
LINE
  8
0
 10
-13.757784
 20
-85.927299
 11
-13.757784
 21
-85.927299
  0
LINE
  8
0
 10
-32.540627
 20
-85.927299
 11
-32.540627
 21
-85.927299
  0
LINE
  8
0
 10
-15.540625
 20
-85.927299
 11
-15.540625
 21
-85.927299
  0
LINE
  8
0
 10
-14.040625
 20
-85.927299
 11
-14.040625
 21
-85.927299
  0
LINE
  8
0
 10
-34.040627
 20
-85.927299
 11
-34.040627
 21
-85.927299
  0
LINE
  8
0
 10
-14.040625
 20
-85.927299
 11
-14.040625
 21
-85.927299
  0
LINE
  8
0
 10
-34.040627
 20
-85.927299
 11
-34.040627
 21
-85.927299
  0
LINE
  8
0
 10
-34.323467
 20
-85.927299
 11
-34.323467
 21
-85.927299
  0
LINE
  8
0
 10
-13.757785
 20
-85.927299
 11
-13.757785
 21
-85.927299
  0
LINE
  8
0
 10
-34.040627
 20
-85.927299
 11
-34.040627
 21
-85.927299
  0
LINE
  8
0
 10
-14.040625
 20
-85.927299
 11
-14.040625
 21
-85.927299
  0
LINE
  8
0
 10
-15.540625
 20
-85.927299
 11
-15.540625
 21
-85.927299
  0
LINE
  8
0
 10
-32.540627
 20
-85.927299
 11
-32.540627
 21
-85.927299
  0
LINE
  8
0
 10
-13.757784
 20
-85.927299
 11
-13.757784
 21
-85.927299
  0
LINE
  8
0
 10
-34.323467
 20
-85.927299
 11
-34.323467
 21
-85.927299
  0
LINE
  8
0
 10
-34.040627
 20
-85.927299
 11
-34.040627
 21
-85.927299
  0
LINE
  8
0
 10
-14.040625
 20
-85.927299
 11
-14.040625
 21
-85.927299
  0
LINE
  8
0
 10
-13.757784
 20
-85.927299
 11
-13.757784
 21
-85.927299
  0
LINE
  8
0
 10
-34.323467
 20
-85.927299
 11
-34.323467
 21
-85.927299
  0
LINE
  8
0
 10
-29.640625
 20
-88.827301
 11
-18.440624
 21
-88.827301
  0
LINE
  8
0
 10
-29.640625
 20
-83.027298
 11
-18.440624
 21
-83.027298
  0
LINE
  8
0
 10
-30.040627
 20
-81.644463
 11
-18.040623
 21
-81.644463
  0
LINE
  8
0
 10
-30.040627
 20
-90.210136
 11
-18.040625
 21
-90.210136
  0
LINE
  8
0
 10
-30.040625
 20
-81.927299
 11
-18.040625
 21
-81.927299
  0
LINE
  8
0
 10
-30.040625
 20
-89.927299
 11
-18.040625
 21
-89.927299
  0
LINE
  8
0
 10
-15.540625
 20
-85.927299
 11
-15.540625
 21
-85.927299
  0
LINE
  8
0
 10
-32.540627
 20
-85.927299
 11
-32.540627
 21
-85.927299
  0
CIRCLE
  8
0
 10
-24.040625
 20
-85.927299
 40
1.000000
  0
ARC
  8
0
  6
DASHED
 10
-24.040625
 20
-85.927299
 40
4.999999
 50
150.000000
 51
210.000000
  0
ARC
  8
0
  6
DASHED
 10
-24.040625
 20
-85.927299
 40
7.500000
 50
160.528778
 51
199.471222
  0
ARC
  8
0
  6
DASHED
 10
-24.040625
 20
-85.927299
 40
5.000000
 50
330.000000
 51
30.000008
  0
ARC
  8
0
  6
DASHED
 10
-24.040625
 20
-85.927299
 40
7.500002
 50
340.528778
 51
19.471220
  0
ARC
  8
0
  6
DASHED
 10
-30.540625
 20
-85.927299
 40
3.500000
 50
90.000000
 51
269.999939
  0
ARC
  8
0
  6
DASHED
 10
-17.540625
 20
-85.927299
 40
3.500000
 50
269.999969
 51
90.000000
  0
ARC
  8
0
 10
-29.640625
 20
-85.927299
 40
2.900002
 50
90.000000
 51
269.999969
  0
ARC
  8
0
 10
-18.440624
 20
-85.927299
 40
2.900002
 50
269.999969
 51
90.000000
  0
ARC
  8
0
 10
-30.040625
 20
-85.927299
 40
4.000000
 50
90.000000
 51
269.999939
  0
ARC
  8
0
 10
-18.040625
 20
-85.927299
 40
4.000000
 50
269.999969
 51
90.000000
  0
ARC
  8
0
 10
-18.040625
 20
-85.927299
 40
4.282845
 50
269.999969
 51
89.999977
  0
ARC
  8
0
 10
-30.040627
 20
-85.927299
 40
4.282845
 50
90.000000
 51
269.999939
  0
POINT
  8
0
 10
-24.040625
 20
-35.927299
  0
POINT
  8
0
 10
-14.040625
 20
-35.927299
  0
LINE
  8
0
 10
-34.040627
 20
-43.427299
 11
-14.040625
 21
-43.427299
  0
LINE
  8
0
 10
-14.040627
 20
-43.427299
 11
-13.757784
 21
-43.144455
  0
LINE
  8
0
  6
DASHED
 10
-14.040624
 20
-43.427299
 11
-14.906650
 21
-42.927299
  0
LINE
  8
0
 10
-13.757782
 20
-43.144459
 11
-14.795650
 21
-42.106590
  0
LINE
  8
0
 10
-34.040627
 20
-35.927299
 11
-14.040625
 21
-35.927299
  0
LINE
  8
0
  6
DASHED
 10
-31.540627
 20
-37.927299
 11
-16.540625
 21
-37.927299
  0
LINE
  8
0
  6
DASHED
 10
-31.540627
 20
-39.427299
 11
-16.540623
 21
-39.427299
  0
LINE
  8
0
  6
DASHED
 10
-25.790625
 20
-41.427299
 11
-22.290625
 21
-41.427299
  0
LINE
  8
0
  6
DASHED
 10
-33.174603
 20
-42.927299
 11
-14.906650
 21
-42.927299
  0
LINE
  8
0
  6
DASHED
 10
-32.540627
 20
-42.427299
 11
-15.540625
 21
-42.427299
  0
LINE
  8
0
 10
-24.040625
 20
-44.277302
 11
-24.040625
 21
-34.927299
  0
LINE
  8
0
  6
DASHED
 10
-19.040625
 20
-37.927299
 11
-19.040625
 21
-35.927299
  0
LINE
  8
0
  6
DASHED
 10
-23.040625
 20
-42.427299
 11
-23.040625
 21
-41.427299
  0
LINE
  8
0
  6
DASHED
 10
-22.290625
 20
-41.427299
 11
-22.290625
 21
-39.427299
  0
LINE
  8
0
  6
DASHED
 10
-16.540623
 20
-39.427299
 11
-16.540623
 21
-37.927299
  0
LINE
  8
0
 10
-14.040625
 20
-40.927299
 11
-14.040625
 21
-35.927299
  0
LINE
  8
0
  6
DASHED
 10
-15.540625
 20
-42.927299
 11
-15.540625
 21
-42.427299
  0
LINE
  8
0
 10
-14.795651
 20
-41.682323
 11
-14.040626
 21
-40.927299
  0
LINE
  8
0
  6
DASHED
 10
-34.040623
 20
-43.427299
 11
-33.174599
 21
-42.927299
  0
LINE
  8
0
  6
DASHED
 10
-29.040625
 20
-37.927299
 11
-29.040625
 21
-35.927299
  0
LINE
  8
0
  6
DASHED
 10
-32.540623
 20
-42.927299
 11
-32.540623
 21
-42.427299
  0
LINE
  8
0
  6
DASHED
 10
-25.040625
 20
-42.427299
 11
-25.040625
 21
-41.427299
  0
LINE
  8
0
  6
DASHED
 10
-25.790625
 20
-41.427299
 11
-25.790625
 21
-39.427299
  0
LINE
  8
0
  6
DASHED
 10
-31.540625
 20
-39.427299
 11
-31.540625
 21
-37.927299
  0
LINE
  8
0
 10
-34.323471
 20
-43.144455
 11
-33.285599
 21
-42.106586
  0
LINE
  8
0
 10
-33.285599
 20
-41.682323
 11
-34.040627
 21
-40.927296
  0
LINE
  8
0
 10
-34.040627
 20
-43.427299
 11
-34.323471
 21
-43.144455
  0
LINE
  8
0
 10
-34.040623
 20
-40.927299
 11
-34.040623
 21
-35.927299
  0
LINE
  8
0
 10
-14.040627
 20
-40.927303
 11
-34.040630
 21
-40.927303
  0
LINE
  8
0
 10
-34.323471
 20
-43.144459
 11
-13.757782
 21
-43.144459
  0
LINE
  8
0
 10
-15.440625
 20
-41.894459
 11
-32.780624
 21
-41.894459
  0
ARC
  8
0
 10
-14.583519
 20
-41.894459
 40
0.300000
 50
135.000122
 51
224.999878
  0
ARC
  8
0
 10
-33.497734
 20
-41.894455
 40
0.300005
 50
315.000000
 51
44.999485
  0
POINT
  8
0
 10
-72.671875
 20
-85.927299
  0
POINT
  8
0
 10
-62.389034
 20
-85.927299
  0
LINE
  8
0
 10
-83.325371
 20
-85.927299
 11
-62.001175
 21
-85.927299
  0
LINE
  8
0
 10
-72.671875
 20
-90.757301
 11
-72.671875
 21
-81.317299
  0
LINE
  8
0
 10
-79.171875
 20
-82.427299
 11
-66.171875
 21
-82.427299
  0
LINE
  8
0
 10
-79.171875
 20
-89.427299
 11
-66.171875
 21
-89.427299
  0
LINE
  8
0
 10
-62.671875
 20
-85.927299
 11
-62.671875
 21
-85.927299
  0
LINE
  8
0
 10
-82.671875
 20
-85.927299
 11
-82.671875
 21
-85.927299
  0
LINE
  8
0
  6
DASHED
 10
-79.742943
 20
-88.427299
 11
-65.600807
 21
-88.427299
  0
LINE
  8
0
  6
DASHED
 10
-79.742943
 20
-83.427299
 11
-65.600807
 21
-83.427299
  0
LINE
  8
0
 10
-81.171875
 20
-85.927299
 11
-81.171875
 21
-85.927299
  0
LINE
  8
0
 10
-64.171875
 20
-85.927299
 11
-64.171875
 21
-85.927299
  0
LINE
  8
0
 10
-82.671875
 20
-85.927299
 11
-82.671875
 21
-85.927299
  0
LINE
  8
0
 10
-62.671875
 20
-85.927299
 11
-62.671875
 21
-85.927299
  0
LINE
  8
0
 10
-82.954720
 20
-85.927299
 11
-82.954720
 21
-85.927299
  0
LINE
  8
0
 10
-62.389034
 20
-85.927299
 11
-62.389034
 21
-85.927299
  0
LINE
  8
0
 10
-81.171875
 20
-85.927299
 11
-81.171875
 21
-85.927299
  0
LINE
  8
0
 10
-64.171875
 20
-85.927299
 11
-64.171875
 21
-85.927299
  0
LINE
  8
0
 10
-62.671875
 20
-85.927299
 11
-62.671875
 21
-85.927299
  0
LINE
  8
0
 10
-82.671875
 20
-85.927299
 11
-82.671875
 21
-85.927299
  0
LINE
  8
0
 10
-62.671875
 20
-85.927299
 11
-62.671875
 21
-85.927299
  0
LINE
  8
0
 10
-82.671875
 20
-85.927299
 11
-82.671875
 21
-85.927299
  0
LINE
  8
0
 10
-82.954720
 20
-85.927299
 11
-82.954720
 21
-85.927299
  0
LINE
  8
0
 10
-62.389034
 20
-85.927299
 11
-62.389034
 21
-85.927299
  0
LINE
  8
0
 10
-82.671875
 20
-85.927299
 11
-82.671875
 21
-85.927299
  0
LINE
  8
0
 10
-62.671875
 20
-85.927299
 11
-62.671875
 21
-85.927299
  0
LINE
  8
0
 10
-79.671875
 20
-88.927299
 11
-65.671875
 21
-88.927299
  0
LINE
  8
0
 10
-79.671875
 20
-82.927299
 11
-65.671875
 21
-82.927299
  0
LINE
  8
0
 10
-79.671875
 20
-89.210136
 11
-65.671875
 21
-89.210136
  0
LINE
  8
0
 10
-79.671875
 20
-82.644463
 11
-65.671875
 21
-82.644463
  0
LINE
  8
0
 10
-79.271873
 20
-87.827301
 11
-66.071877
 21
-87.827301
  0
LINE
  8
0
 10
-79.271873
 20
-84.027298
 11
-66.071877
 21
-84.027298
  0
LINE
  8
0
 10
-64.171875
 20
-85.927299
 11
-64.171875
 21
-85.927299
  0
LINE
  8
0
 10
-81.171875
 20
-85.927299
 11
-81.171875
 21
-85.927299
  0
LINE
  8
0
 10
-62.389034
 20
-85.927299
 11
-62.389034
 21
-85.927299
  0
LINE
  8
0
 10
-82.954720
 20
-85.927299
 11
-82.954720
 21
-85.927299
  0
CIRCLE
  8
0
 10
-72.671875
 20
-85.927299
 40
1.000000
  0
ARC
  8
0
  6
DASHED
 10
-72.671875
 20
-85.927299
 40
4.999997
 50
149.999985
 51
210.000015
  0
ARC
  8
0
  6
DASHED
 10
-72.671875
 20
-85.927299
 40
7.500000
 50
160.528778
 51
199.471222
  0
ARC
  8
0
 10
-66.171875
 20
-85.927299
 40
3.500000
 50
270.000000
 51
299.490021
  0
ARC
  8
0
 10
-79.171875
 20
-85.927299
 40
3.500000
 50
90.000000
 51
119.490204
  0
ARC
  8
0
  6
DASHED
 10
-72.671875
 20
-85.927299
 40
4.999997
 50
329.999969
 51
30.000017
  0
ARC
  8
0
  6
DASHED
 10
-72.671875
 20
-85.927299
 40
7.500000
 50
340.528778
 51
19.471220
  0
ARC
  8
0
 10
-79.171875
 20
-85.927299
 40
3.500003
 50
240.509964
 51
270.000000
  0
ARC
  8
0
  6
DASHED
 10
-79.171875
 20
-85.927299
 40
3.500000
 50
119.490204
 51
240.509964
  0
ARC
  8
0
  6
DASHED
 10
-66.171875
 20
-85.927299
 40
3.500003
 50
299.490021
 51
60.509796
  0
ARC
  8
0
 10
-66.171875
 20
-85.927299
 40
3.500000
 50
60.509796
 51
90.470360
  0
ARC
  8
0
 10
-79.271873
 20
-85.927299
 40
1.900002
 50
90.000000
 51
270.000000
  0
ARC
  8
0
 10
-66.071877
 20
-85.927299
 40
1.900002
 50
270.000000
 51
90.000000
  0
ARC
  8
0
 10
-65.671875
 20
-85.927299
 40
3.000000
 50
270.000000
 51
90.000000
  0
ARC
  8
0
 10
-79.671875
 20
-85.927299
 40
3.000000
 50
90.000000
 51
270.000000
  0
ARC
  8
0
 10
-79.671875
 20
-85.927299
 40
3.282845
 50
90.000000
 51
269.999878
  0
ARC
  8
0
 10
-65.671875
 20
-85.927299
 40
3.282845
 50
270.000000
 51
90.000000
  0
POINT
  8
0
 10
-72.671875
 20
-35.927299
  0
POINT
  8
0
 10
-62.671875
 20
-35.927299
  0
LINE
  8
0
 10
-82.671875
 20
-43.427299
 11
-62.671875
 21
-43.427299
  0
LINE
  8
0
 10
-62.671879
 20
-43.427299
 11
-62.389034
 21
-43.144455
  0
LINE
  8
0
  6
DASHED
 10
-62.671875
 20
-43.427299
 11
-63.537899
 21
-42.927299
  0
LINE
  8
0
 10
-62.389030
 20
-43.144459
 11
-63.426903
 21
-42.106590
  0
LINE
  8
0
 10
-82.671875
 20
-35.927299
 11
-62.671875
 21
-35.927299
  0
LINE
  8
0
  6
DASHED
 10
-80.171875
 20
-37.927299
 11
-65.171875
 21
-37.927299
  0
LINE
  8
0
  6
DASHED
 10
-80.171875
 20
-39.427299
 11
-65.171875
 21
-39.427299
  0
LINE
  8
0
  6
DASHED
 10
-74.421875
 20
-41.427299
 11
-70.921875
 21
-41.427299
  0
LINE
  8
0
  6
DASHED
 10
-81.805855
 20
-42.927299
 11
-63.537903
 21
-42.927299
  0
LINE
  8
0
  6
DASHED
 10
-81.171875
 20
-42.427299
 11
-64.171875
 21
-42.427299
  0
LINE
  8
0
 10
-72.671875
 20
-44.927299
 11
-72.671875
 21
-34.927299
  0
LINE
  8
0
  6
DASHED
 10
-67.671875
 20
-37.927299
 11
-67.671875
 21
-35.927299
  0
LINE
  8
0
  6
DASHED
 10
-71.671875
 20
-42.427299
 11
-71.671875
 21
-41.427299
  0
LINE
  8
0
  6
DASHED
 10
-70.921875
 20
-41.427299
 11
-70.921875
 21
-39.427299
  0
LINE
  8
0
  6
DASHED
 10
-65.171875
 20
-39.427299
 11
-65.171875
 21
-37.927299
  0
LINE
  8
0
 10
-62.671875
 20
-40.927299
 11
-62.671875
 21
-35.927299
  0
LINE
  8
0
  6
DASHED
 10
-64.171875
 20
-42.927299
 11
-64.171875
 21
-42.427299
  0
LINE
  8
0
 10
-63.426903
 20
-41.682323
 11
-62.671875
 21
-40.927299
  0
LINE
  8
0
  6
DASHED
 10
-82.671875
 20
-43.427299
 11
-81.805847
 21
-42.927299
  0
LINE
  8
0
  6
DASHED
 10
-77.671875
 20
-37.927299
 11
-77.671875
 21
-35.927299
  0
LINE
  8
0
  6
DASHED
 10
-81.171875
 20
-42.927299
 11
-81.171875
 21
-42.427299
  0
LINE
  8
0
  6
DASHED
 10
-73.671875
 20
-42.427299
 11
-73.671875
 21
-41.427299
  0
LINE
  8
0
  6
DASHED
 10
-74.421875
 20
-41.427299
 11
-74.421875
 21
-39.427299
  0
LINE
  8
0
  6
DASHED
 10
-80.171875
 20
-39.427299
 11
-80.171875
 21
-37.927299
  0
LINE
  8
0
 10
-82.954720
 20
-43.144455
 11
-81.916847
 21
-42.106586
  0
LINE
  8
0
 10
-81.916847
 20
-41.682323
 11
-82.671875
 21
-40.927296
  0
LINE
  8
0
 10
-82.671875
 20
-43.427296
 11
-82.954720
 21
-43.144455
  0
LINE
  8
0
 10
-82.671875
 20
-40.927299
 11
-82.671875
 21
-35.927299
  0
LINE
  8
0
 10
-62.671875
 20
-40.927303
 11
-82.671883
 21
-40.927303
  0
LINE
  8
0
 10
-82.954720
 20
-43.144459
 11
-62.389034
 21
-43.144459
  0
LINE
  8
0
 10
-64.071877
 20
-41.894459
 11
-81.411873
 21
-41.894459
  0
ARC
  8
0
 10
-63.214767
 20
-41.894459
 40
0.300002
 50
135.000519
 51
224.999481
  0
ARC
  8
0
 10
-82.128983
 20
-41.894455
 40
0.300005
 50
315.000000
 51
44.999485
  0
POINT
  8
0
 10
-121.303123
 20
-85.927299
  0
POINT
  8
0
 10
-111.020279
 20
-85.927299
  0
LINE
  8
0
 10
-131.956619
 20
-85.927299
 11
-110.632423
 21
-85.927299
  0
LINE
  8
0
 10
-121.303123
 20
-90.163963
 11
-121.303123
 21
-81.717300
  0
LINE
  8
0
 10
-127.803123
 20
-82.427299
 11
-114.803123
 21
-82.427299
  0
LINE
  8
0
 10
-127.803123
 20
-89.427299
 11
-114.803123
 21
-89.427299
  0
LINE
  8
0
 10
-111.303123
 20
-85.927299
 11
-111.303123
 21
-85.927299
  0
LINE
  8
0
 10
-131.303131
 20
-85.927299
 11
-131.303131
 21
-85.927299
  0
LINE
  8
0
  6
DASHED
 10
-128.374191
 20
-88.327301
 11
-114.232056
 21
-88.327301
  0
LINE
  8
0
  6
DASHED
 10
-128.374191
 20
-83.527298
 11
-114.232056
 21
-83.527298
  0
LINE
  8
0
 10
-129.803131
 20
-85.927299
 11
-129.803131
 21
-85.927299
  0
LINE
  8
0
 10
-112.803123
 20
-85.927299
 11
-112.803123
 21
-85.927299
  0
LINE
  8
0
 10
-131.303131
 20
-85.927299
 11
-131.303131
 21
-85.927299
  0
LINE
  8
0
 10
-111.303123
 20
-85.927299
 11
-111.303123
 21
-85.927299
  0
LINE
  8
0
 10
-131.585968
 20
-85.927299
 11
-131.585968
 21
-85.927299
  0
LINE
  8
0
 10
-111.020279
 20
-85.927299
 11
-111.020279
 21
-85.927299
  0
LINE
  8
0
 10
-129.803131
 20
-85.927299
 11
-129.803131
 21
-85.927299
  0
LINE
  8
0
 10
-112.803123
 20
-85.927299
 11
-112.803123
 21
-85.927299
  0
LINE
  8
0
 10
-111.303123
 20
-85.927299
 11
-111.303123
 21
-85.927299
  0
LINE
  8
0
 10
-131.303131
 20
-85.927299
 11
-131.303131
 21
-85.927299
  0
LINE
  8
0
 10
-128.403122
 20
-87.327301
 11
-114.203125
 21
-87.327301
  0
LINE
  8
0
 10
-128.403122
 20
-84.527298
 11
-114.203125
 21
-84.527298
  0
LINE
  8
0
 10
-128.803131
 20
-88.427299
 11
-113.803123
 21
-88.427299
  0
LINE
  8
0
 10
-128.803131
 20
-83.427299
 11
-113.803123
 21
-83.427299
  0
LINE
  8
0
 10
-111.303123
 20
-85.927299
 11
-111.303123
 21
-85.927299
  0
LINE
  8
0
 10
-131.303131
 20
-85.927299
 11
-131.303131
 21
-85.927299
  0
LINE
  8
0
 10
-131.585968
 20
-85.927299
 11
-131.585968
 21
-85.927299
  0
LINE
  8
0
 10
-111.020287
 20
-85.927299
 11
-111.020287
 21
-85.927299
  0
LINE
  8
0
 10
-128.803131
 20
-88.710136
 11
-113.803123
 21
-88.710136
  0
LINE
  8
0
 10
-128.803131
 20
-83.144463
 11
-113.803123
 21
-83.144463
  0
CIRCLE
  8
0
 10
-121.303123
 20
-85.927299
 40
1.000000
  0
ARC
  8
0
  6
DASHED
 10
-121.303123
 20
-85.927299
 40
5.000003
 50
151.314590
 51
208.685410
  0
ARC
  8
0
  6
DASHED
 10
-121.303123
 20
-85.927299
 40
7.499998
 50
161.337051
 51
198.662949
  0
ARC
  8
0
 10
-114.803123
 20
-85.927299
 40
3.500000
 50
270.000000
 51
321.863556
  0
ARC
  8
0
 10
-127.803123
 20
-85.927299
 40
3.500000
 50
90.000000
 51
141.863495
  0
ARC
  8
0
  6
DASHED
 10
-121.303123
 20
-85.927299
 40
5.000003
 50
331.314606
 51
28.685404
  0
ARC
  8
0
  6
DASHED
 10
-121.303123
 20
-85.927299
 40
7.499998
 50
341.337067
 51
18.662943
  0
ARC
  8
0
 10
-127.803123
 20
-85.927299
 40
3.499999
 50
218.136612
 51
270.000000
  0
ARC
  8
0
  6
DASHED
 10
-127.803123
 20
-85.927299
 40
3.499995
 50
141.863495
 51
218.136612
  0
ARC
  8
0
  6
DASHED
 10
-114.803123
 20
-85.927299
 40
3.500001
 50
321.863556
 51
38.136261
  0
ARC
  8
0
 10
-114.803123
 20
-85.927299
 40
3.500002
 50
38.136261
 51
90.000000
  0
ARC
  8
0
 10
-114.203125
 20
-85.927299
 40
1.400002
 50
270.000000
 51
90.000000
  0
ARC
  8
0
 10
-128.403122
 20
-85.927299
 40
1.400002
 50
90.000000
 51
270.000000
  0
ARC
  8
0
 10
-113.803123
 20
-85.927299
 40
2.782845
 50
270.000000
 51
90.000000
  0
ARC
  8
0
 10
-113.803123
 20
-85.927299
 40
2.500000
 50
270.000000
 51
90.000000
  0
ARC
  8
0
 10
-128.803131
 20
-85.927299
 40
2.500000
 50
90.000000
 51
270.000000
  0
ARC
  8
0
 10
-128.803131
 20
-85.927299
 40
2.782845
 50
90.000000
 51
270.000000
  0
POINT
  8
0
 10
-121.303123
 20
-35.927299
  0
POINT
  8
0
 10
-111.303123
 20
-35.927299
  0
LINE
  8
0
 10
-131.303131
 20
-43.427299
 11
-111.303123
 21
-43.427299
  0
LINE
  8
0
 10
-111.303123
 20
-43.427299
 11
-111.020287
 21
-43.144455
  0
LINE
  8
0
  6
DASHED
 10
-111.303123
 20
-43.427299
 11
-112.169151
 21
-42.927299
  0
LINE
  8
0
 10
-111.020279
 20
-43.144459
 11
-112.058151
 21
-42.106590
  0
LINE
  8
0
 10
-131.303131
 20
-35.927299
 11
-111.303123
 21
-35.927299
  0
LINE
  8
0
  6
DASHED
 10
-128.803131
 20
-37.927299
 11
-113.803123
 21
-37.927299
  0
LINE
  8
0
  6
DASHED
 10
-128.803131
 20
-39.427299
 11
-113.803123
 21
-39.427299
  0
LINE
  8
0
  6
DASHED
 10
-123.053123
 20
-41.427299
 11
-119.553123
 21
-41.427299
  0
LINE
  8
0
  6
DASHED
 10
-130.437103
 20
-42.927299
 11
-112.169151
 21
-42.927299
  0
LINE
  8
0
  6
DASHED
 10
-129.803131
 20
-42.427299
 11
-112.803123
 21
-42.427299
  0
LINE
  8
0
 10
-121.303123
 20
-44.603970
 11
-121.303123
 21
-34.927299
  0
LINE
  8
0
  6
DASHED
 10
-116.303123
 20
-37.927299
 11
-116.303123
 21
-35.927299
  0
LINE
  8
0
  6
DASHED
 10
-120.303123
 20
-42.427299
 11
-120.303123
 21
-41.427299
  0
LINE
  8
0
  6
DASHED
 10
-119.553123
 20
-41.427299
 11
-119.553123
 21
-39.427299
  0
LINE
  8
0
  6
DASHED
 10
-113.803123
 20
-39.427299
 11
-113.803123
 21
-37.927299
  0
LINE
  8
0
 10
-111.303123
 20
-40.927299
 11
-111.303123
 21
-35.927299
  0
LINE
  8
0
  6
DASHED
 10
-112.803123
 20
-42.927299
 11
-112.803123
 21
-42.427299
  0
LINE
  8
0
 10
-112.058151
 20
-41.682323
 11
-111.303123
 21
-40.927296
  0
LINE
  8
0
  6
DASHED
 10
-131.303131
 20
-43.427299
 11
-130.437103
 21
-42.927299
  0
LINE
  8
0
  6
DASHED
 10
-126.303123
 20
-37.927299
 11
-126.303123
 21
-35.927299
  0
LINE
  8
0
  6
DASHED
 10
-129.803131
 20
-42.927299
 11
-129.803131
 21
-42.427299
  0
LINE
  8
0
  6
DASHED
 10
-122.303123
 20
-42.427299
 11
-122.303123
 21
-41.427299
  0
LINE
  8
0
  6
DASHED
 10
-123.053123
 20
-41.427299
 11
-123.053123
 21
-39.427299
  0
LINE
  8
0
  6
DASHED
 10
-128.803131
 20
-39.427299
 11
-128.803131
 21
-37.927299
  0
LINE
  8
0
 10
-131.585968
 20
-43.144455
 11
-130.548096
 21
-42.106586
  0
LINE
  8
0
 10
-130.548096
 20
-41.682323
 11
-131.303116
 21
-40.927296
  0
LINE
  8
0
 10
-131.303131
 20
-43.427296
 11
-131.585968
 21
-43.144455
  0
LINE
  8
0
 10
-131.303131
 20
-40.927299
 11
-131.303131
 21
-35.927299
  0
LINE
  8
0
 10
-111.303123
 20
-40.927303
 11
-131.303131
 21
-40.927303
  0
LINE
  8
0
 10
-131.585968
 20
-43.144459
 11
-111.020279
 21
-43.144459
  0
LINE
  8
0
 10
-112.703125
 20
-41.894459
 11
-130.043121
 21
-41.894459
  0
ARC
  8
0
 10
-111.846016
 20
-41.894459
 40
0.300002
 50
135.000519
 51
224.999481
  0
ARC
  8
0
 10
-130.760223
 20
-41.894455
 40
0.299999
 50
314.998962
 51
45.000000
  0
POINT
  8
0
 10
-169.934372
 20
-85.927299
  0
POINT
  8
0
 10
-159.651535
 20
-85.927299
  0
LINE
  8
0
 10
-180.601044
 20
-85.927299
 11
-159.267700
 21
-85.927299
  0
LINE
  8
0
 10
-169.934372
 20
-90.293968
 11
-169.934372
 21
-81.560631
  0
LINE
  8
0
 10
-176.434372
 20
-82.427299
 11
-163.434372
 21
-82.427299
  0
LINE
  8
0
 10
-176.434372
 20
-89.427299
 11
-163.434372
 21
-89.427299
  0
LINE
  8
0
 10
-159.934372
 20
-85.927299
 11
-159.934372
 21
-85.927299
  0
LINE
  8
0
 10
-179.934372
 20
-85.927299
 11
-179.934372
 21
-85.927299
  0
LINE
  8
0
  6
DASHED
 10
-177.005447
 20
-88.427299
 11
-162.863297
 21
-88.427299
  0
LINE
  8
0
  6
DASHED
 10
-177.005447
 20
-83.427299
 11
-162.863297
 21
-83.427299
  0
LINE
  8
0
 10
-178.434372
 20
-85.927299
 11
-178.434372
 21
-85.927299
  0
LINE
  8
0
 10
-161.434372
 20
-85.927299
 11
-161.434372
 21
-85.927299
  0
LINE
  8
0
 10
-179.934372
 20
-85.927299
 11
-179.934372
 21
-85.927299
  0
LINE
  8
0
 10
-159.934372
 20
-85.927299
 11
-159.934372
 21
-85.927299
  0
LINE
  8
0
 10
-177.434372
 20
-84.927299
 11
-162.434372
 21
-84.927299
  0
LINE
  8
0
 10
-177.434372
 20
-86.927299
 11
-162.434372
 21
-86.927299
  0
LINE
  8
0
 10
-177.934372
 20
-83.927299
 11
-161.934372
 21
-83.927299
  0
LINE
  8
0
 10
-177.934372
 20
-87.927299
 11
-161.934372
 21
-87.927299
  0
LINE
  8
0
 10
-180.217209
 20
-85.927299
 11
-180.217209
 21
-85.927299
  0
LINE
  8
0
 10
-159.651535
 20
-85.927299
 11
-159.651535
 21
-85.927299
  0
LINE
  8
0
 10
-177.934372
 20
-88.210136
 11
-161.934372
 21
-88.210136
  0
LINE
  8
0
 10
-177.934372
 20
-83.644463
 11
-161.934372
 21
-83.644463
  0
CIRCLE
  8
0
 10
-169.934372
 20
-85.927299
 40
1.000000
  0
ARC
  8
0
  6
DASHED
 10
-169.934372
 20
-85.927299
 40
4.999997
 50
149.999985
 51
210.000015
  0
ARC
  8
0
  6
DASHED
 10
-169.934372
 20
-85.927299
 40
7.500007
 50
160.528793
 51
199.471207
  0
ARC
  8
0
 10
-163.434372
 20
-85.927299
 40
3.500000
 50
270.000000
 51
332.206268
  0
ARC
  8
0
 10
-176.434372
 20
-85.927299
 40
3.500000
 50
90.000000
 51
152.206268
  0
ARC
  8
0
  6
DASHED
 10
-169.934372
 20
-85.927299
 40
4.999997
 50
329.999969
 51
30.000017
  0
ARC
  8
0
  6
DASHED
 10
-169.934372
 20
-85.927299
 40
7.499993
 50
340.528748
 51
19.471201
  0
ARC
  8
0
 10
-161.934372
 20
-85.927299
 40
2.000000
 50
270.000000
 51
90.000000
  0
ARC
  8
0
 10
-177.934372
 20
-85.927299
 40
2.000000
 50
90.000000
 51
270.000000
  0
ARC
  8
0
 10
-177.434372
 20
-85.927299
 40
1.000000
 50
90.000000
 51
270.000000
  0
ARC
  8
0
 10
-162.434372
 20
-85.927299
 40
1.000000
 50
270.000000
 51
90.000000
  0
ARC
  8
0
 10
-161.934372
 20
-85.927299
 40
2.282845
 50
270.000000
 51
90.000000
  0
ARC
  8
0
 10
-177.934372
 20
-85.927299
 40
2.282845
 50
90.000000
 51
270.000000
  0
ARC
  8
0
  6
DASHED
 10
-176.434372
 20
-85.927299
 40
3.499994
 50
152.206268
 51
207.793732
  0
ARC
  8
0
  6
DASHED
 10
-163.434372
 20
-85.927299
 40
3.499994
 50
332.206268
 51
27.793728
  0
ARC
  8
0
 10
-176.434372
 20
-85.927299
 40
3.499997
 50
207.793839
 51
270.000000
  0
ARC
  8
0
 10
-163.434372
 20
-85.927299
 40
3.499994
 50
27.793728
 51
90.000000
  0
POINT
  8
0
 10
-169.934372
 20
-35.927299
  0
POINT
  8
0
 10
-159.934372
 20
-35.927299
  0
LINE
  8
0
 10
-179.934372
 20
-43.427299
 11
-159.934372
 21
-43.427299
  0
LINE
  8
0
 10
-159.934372
 20
-43.427299
 11
-159.651535
 21
-43.144455
  0
LINE
  8
0
  6
DASHED
 10
-159.934372
 20
-43.427299
 11
-160.800400
 21
-42.927299
  0
LINE
  8
0
 10
-159.651535
 20
-43.144459
 11
-160.689392
 21
-42.106590
  0
LINE
  8
0
 10
-179.934372
 20
-35.927299
 11
-159.934372
 21
-35.927299
  0
LINE
  8
0
  6
DASHED
 10
-177.434372
 20
-37.927299
 11
-162.434372
 21
-37.927299
  0
LINE
  8
0
  6
DASHED
 10
-177.434372
 20
-39.427299
 11
-162.434372
 21
-39.427299
  0
LINE
  8
0
  6
DASHED
 10
-171.684372
 20
-41.427299
 11
-168.184372
 21
-41.427299
  0
LINE
  8
0
  6
DASHED
 10
-179.068344
 20
-42.927299
 11
-160.800400
 21
-42.927299
  0
LINE
  8
0
  6
DASHED
 10
-178.434372
 20
-42.427299
 11
-161.434372
 21
-42.427299
  0
LINE
  8
0
 10
-169.934372
 20
-44.127300
 11
-169.934372
 21
-34.927299
  0
LINE
  8
0
  6
DASHED
 10
-164.934372
 20
-37.927299
 11
-164.934372
 21
-35.927299
  0
LINE
  8
0
  6
DASHED
 10
-168.934372
 20
-42.427299
 11
-168.934372
 21
-41.427299
  0
LINE
  8
0
  6
DASHED
 10
-168.184372
 20
-41.427299
 11
-168.184372
 21
-39.427299
  0
LINE
  8
0
  6
DASHED
 10
-162.434372
 20
-39.427299
 11
-162.434372
 21
-37.927299
  0
LINE
  8
0
 10
-159.934372
 20
-40.927299
 11
-159.934372
 21
-35.927299
  0
LINE
  8
0
  6
DASHED
 10
-161.434372
 20
-42.927299
 11
-161.434372
 21
-42.427299
  0
LINE
  8
0
 10
-160.689392
 20
-41.682323
 11
-159.934372
 21
-40.927299
  0
LINE
  8
0
  6
DASHED
 10
-179.934372
 20
-43.427299
 11
-179.068344
 21
-42.927299
  0
LINE
  8
0
  6
DASHED
 10
-174.934372
 20
-37.927299
 11
-174.934372
 21
-35.927299
  0
LINE
  8
0
  6
DASHED
 10
-178.434372
 20
-42.927299
 11
-178.434372
 21
-42.427299
  0
LINE
  8
0
  6
DASHED
 10
-170.934372
 20
-42.427299
 11
-170.934372
 21
-41.427299
  0
LINE
  8
0
  6
DASHED
 10
-171.684372
 20
-41.427299
 11
-171.684372
 21
-39.427299
  0
LINE
  8
0
  6
DASHED
 10
-177.434372
 20
-39.427299
 11
-177.434372
 21
-37.927299
  0
LINE
  8
0
 10
-180.217224
 20
-43.144455
 11
-179.179352
 21
-42.106586
  0
LINE
  8
0
 10
-179.179352
 20
-41.682323
 11
-179.934372
 21
-40.927296
  0
LINE
  8
0
 10
-179.934372
 20
-43.427296
 11
-180.217224
 21
-43.144455
  0
LINE
  8
0
 10
-179.934372
 20
-40.927299
 11
-179.934372
 21
-35.927299
  0
LINE
  8
0
 10
-159.934372
 20
-40.927303
 11
-179.934372
 21
-40.927303
  0
LINE
  8
0
 10
-180.217224
 20
-43.144459
 11
-159.651535
 21
-43.144459
  0
LINE
  8
0
 10
-161.334366
 20
-41.894459
 11
-178.674377
 21
-41.894459
  0
ARC
  8
0
 10
-160.477264
 20
-41.894459
 40
0.299997
 50
134.999481
 51
225.000519
  0
ARC
  8
0
 10
-179.391479
 20
-41.894455
 40
0.299999
 50
314.998962
 51
45.000515
  0
POINT
  8
0
 10
167.984375
 20
37.122704
  0
POINT
  8
0
 10
173.267212
 20
37.122704
  0
LINE
  8
0
 10
162.484375
 20
37.122704
 11
173.484375
 21
37.122704
  0
LINE
  8
0
 10
167.984375
 20
33.122704
 11
167.984375
 21
41.122704
  0
LINE
  8
0
 10
172.984375
 20
37.122704
 11
172.984375
 21
37.122704
  0
LINE
  8
0
 10
162.984375
 20
37.122704
 11
162.984375
 21
37.122704
  0
LINE
  8
0
 10
166.484375
 20
33.622704
 11
169.484375
 21
33.622704
  0
LINE
  8
0
 10
166.484375
 20
40.622704
 11
169.484375
 21
40.622704
  0
LINE
  8
0
  6
DASHED
 10
165.112091
 20
39.122704
 11
170.856659
 21
39.122704
  0
LINE
  8
0
  6
DASHED
 10
165.112091
 20
35.122704
 11
170.856659
 21
35.122704
  0
LINE
  8
0
 10
171.484375
 20
37.122704
 11
171.484375
 21
37.122704
  0
LINE
  8
0
 10
164.484375
 20
37.122704
 11
164.484375
 21
37.122704
  0
LINE
  8
0
 10
162.984375
 20
37.122704
 11
162.984375
 21
37.122704
  0
LINE
  8
0
 10
172.984375
 20
37.122704
 11
172.984375
 21
37.122704
  0
LINE
  8
0
 10
172.984375
 20
37.122704
 11
172.984375
 21
37.122704
  0
LINE
  8
0
 10
173.267212
 20
37.122704
 11
173.267212
 21
37.122704
  0
LINE
  8
0
 10
162.984375
 20
37.122704
 11
162.984375
 21
37.122704
  0
LINE
  8
0
 10
162.701538
 20
37.122704
 11
162.701538
 21
37.122704
  0
LINE
  8
0
 10
166.384369
 20
39.022705
 11
169.584381
 21
39.022705
  0
LINE
  8
0
 10
166.384369
 20
35.222702
 11
169.584381
 21
35.222702
  0
LINE
  8
0
 10
165.984375
 20
40.122704
 11
169.984375
 21
40.122704
  0
LINE
  8
0
 10
165.984375
 20
34.122704
 11
169.984375
 21
34.122704
  0
LINE
  8
0
 10
171.484375
 20
37.122704
 11
171.484375
 21
37.122704
  0
LINE
  8
0
 10
164.484375
 20
37.122704
 11
164.484375
 21
37.122704
  0
LINE
  8
0
 10
165.984375
 20
40.405544
 11
169.984375
 21
40.405544
  0
LINE
  8
0
 10
165.984375
 20
33.839863
 11
169.984375
 21
33.839863
  0
LINE
  8
0
 10
171.484375
 20
37.122704
 11
171.484375
 21
37.122704
  0
LINE
  8
0
 10
172.984375
 20
37.122704
 11
172.984375
 21
37.122704
  0
LINE
  8
0
 10
173.267212
 20
37.122704
 11
173.267212
 21
37.122704
  0
LINE
  8
0
 10
162.984375
 20
37.122704
 11
162.984375
 21
37.122704
  0
LINE
  8
0
 10
162.701538
 20
37.122704
 11
162.701538
 21
37.122704
  0
LINE
  8
0
 10
164.484375
 20
37.122704
 11
164.484375
 21
37.122704
  0
ARC
  8
0
 10
169.484375
 20
37.122704
 40
3.500000
 50
270.000000
 51
299.490204
  0
ARC
  8
0
 10
166.484375
 20
37.122704
 40
3.500000
 50
90.000000
 51
119.490204
  0
ARC
  8
0
  6
DASHED
 10
166.484375
 20
37.122704
 40
3.499997
 50
115.463249
 51
240.509796
  0
ARC
  8
0
  6
DASHED
 10
167.984375
 20
37.122704
 40
3.500002
 50
145.150116
 51
214.849884
  0
ARC
  8
0
  6
DASHED
 10
167.984375
 20
37.122704
 40
3.500002
 50
325.150116
 51
34.849880
  0
CIRCLE
  8
0
 10
167.984375
 20
37.122704
 40
1.000000
  0
ARC
  8
0
 10
169.584381
 20
37.122704
 40
1.900002
 50
270.000000
 51
90.000000
  0
ARC
  8
0
 10
166.384369
 20
37.122704
 40
1.900002
 50
90.000000
 51
270.000000
  0
ARC
  8
0
 10
165.984375
 20
37.122704
 40
3.282841
 50
90.000000
 51
270.000000
  0
ARC
  8
0
 10
165.984375
 20
37.122704
 40
3.000000
 50
90.000000
 51
270.000000
  0
ARC
  8
0
 10
169.984375
 20
37.122704
 40
3.282841
 50
270.000000
 51
90.000000
  0
ARC
  8
0
 10
169.984375
 20
37.122704
 40
3.000000
 50
270.000000
 51
90.000000
  0
ARC
  8
0
  6
DASHED
 10
169.484375
 20
37.122704
 40
3.500000
 50
299.490204
 51
60.509796
  0
ARC
  8
0
 10
169.484375
 20
37.122704
 40
3.500000
 50
60.509796
 51
90.000000
  0
ARC
  8
0
 10
166.484375
 20
37.122704
 40
3.500000
 50
240.509796
 51
270.000000
  0
POINT
  8
0
 10
167.984375
 20
87.122704
  0
POINT
  8
0
 10
172.984375
 20
87.122704
  0
LINE
  8
0
 10
167.984375
 20
78.842209
 11
167.984375
 21
87.904541
  0
LINE
  8
0
 10
162.984375
 20
82.122704
 11
162.984375
 21
87.122704
  0
LINE
  8
0
 10
163.872086
 20
81.610184
 11
162.984375
 21
82.122704
  0
LINE
  8
0
 10
162.984375
 20
79.622704
 11
162.701523
 21
79.905548
  0
LINE
  8
0
  6
DASHED
 10
162.984375
 20
79.622704
 11
163.850403
 21
80.122704
  0
LINE
  8
0
 10
162.701538
 20
79.905548
 11
163.934219
 21
81.138237
  0
LINE
  8
0
  6
DASHED
 10
168.984375
 20
80.622704
 11
168.984375
 21
81.622704
  0
LINE
  8
0
  6
DASHED
 10
166.234375
 20
81.622704
 11
166.234375
 21
83.622704
  0
LINE
  8
0
  6
DASHED
 10
166.034378
 20
85.122704
 11
166.034378
 21
87.122704
  0
LINE
  8
0
  6
DASHED
 10
164.484375
 20
83.622704
 11
164.484375
 21
85.122704
  0
LINE
  8
0
 10
172.984375
 20
79.622704
 11
162.984375
 21
79.622704
  0
LINE
  8
0
 10
172.984375
 20
87.122704
 11
162.984375
 21
87.122704
  0
LINE
  8
0
 10
172.984375
 20
82.122704
 11
172.984375
 21
87.122704
  0
LINE
  8
0
 10
172.096649
 20
81.610176
 11
172.984375
 21
82.122704
  0
LINE
  8
0
 10
172.984375
 20
79.622704
 11
173.267212
 21
79.905548
  0
LINE
  8
0
  6
DASHED
 10
172.984375
 20
79.622704
 11
172.118347
 21
80.122704
  0
LINE
  8
0
 10
173.267212
 20
79.905548
 11
172.034531
 21
81.138237
  0
LINE
  8
0
  6
DASHED
 10
171.484375
 20
85.122704
 11
164.484375
 21
85.122704
  0
LINE
  8
0
  6
DASHED
 10
171.484375
 20
83.622704
 11
164.484375
 21
83.622704
  0
LINE
  8
0
  6
DASHED
 10
169.734375
 20
81.622704
 11
166.234375
 21
81.622704
  0
LINE
  8
0
  6
DASHED
 10
169.734375
 20
81.622704
 11
169.734375
 21
83.622704
  0
LINE
  8
0
  6
DASHED
 10
169.934372
 20
85.122704
 11
169.934372
 21
87.122704
  0
LINE
  8
0
  6
DASHED
 10
171.484375
 20
83.622704
 11
171.484375
 21
85.122704
  0
LINE
  8
0
 10
173.267212
 20
79.905548
 11
162.701538
 21
79.905548
  0
LINE
  8
0
 10
172.984375
 20
82.122704
 11
162.984375
 21
82.122704
  0
LINE
  8
0
  6
DASHED
 10
172.118347
 20
80.122704
 11
163.850403
 21
80.122704
  0
LINE
  8
0
  6
DASHED
 10
171.484375
 20
80.622704
 11
164.484375
 21
80.622704
  0
LINE
  8
0
 10
171.758072
 20
81.414696
 11
164.210678
 21
81.414696
  0
LINE
  8
0
  6
DASHED
 10
171.484375
 20
80.122704
 11
171.484375
 21
80.622704
  0
LINE
  8
0
  6
DASHED
 10
164.484375
 20
80.122704
 11
164.484375
 21
80.622704
  0
LINE
  8
0
  6
DASHED
 10
166.984375
 20
80.622704
 11
166.984375
 21
81.622704
  0
ARC
  8
0
 10
172.246658
 20
81.350372
 40
0.299994
 50
119.999359
 51
225.001038
  0
ARC
  8
0
 10
163.722092
 20
81.350372
 40
0.299999
 50
314.998962
 51
60.001369
  0
POINT
  8
0
 10
119.353149
 20
37.122704
  0
POINT
  8
0
 10
124.635986
 20
37.122704
  0
LINE
  8
0
 10
113.853149
 20
37.122704
 11
124.853149
 21
37.122704
  0
LINE
  8
0
 10
119.353149
 20
33.122704
 11
119.353149
 21
41.122704
  0
LINE
  8
0
 10
124.353149
 20
37.122704
 11
124.353149
 21
37.122704
  0
LINE
  8
0
 10
114.353149
 20
37.122704
 11
114.353149
 21
37.122704
  0
LINE
  8
0
 10
117.853149
 20
33.622704
 11
120.853149
 21
33.622704
  0
LINE
  8
0
 10
117.853149
 20
40.622704
 11
120.853149
 21
40.622704
  0
LINE
  8
0
  6
DASHED
 10
116.480865
 20
39.122704
 11
122.225433
 21
39.122704
  0
LINE
  8
0
  6
DASHED
 10
116.480865
 20
35.122704
 11
122.225433
 21
35.122704
  0
LINE
  8
0
 10
122.853149
 20
37.122704
 11
122.853149
 21
37.122704
  0
LINE
  8
0
 10
115.853149
 20
37.122704
 11
115.853149
 21
37.122704
  0
LINE
  8
0
 10
114.353149
 20
37.122704
 11
114.353149
 21
37.122704
  0
LINE
  8
0
 10
124.353149
 20
37.122704
 11
124.353149
 21
37.122704
  0
LINE
  8
0
 10
124.353149
 20
37.122704
 11
124.353149
 21
37.122704
  0
LINE
  8
0
 10
124.635986
 20
37.122704
 11
124.635986
 21
37.122704
  0
LINE
  8
0
 10
114.353149
 20
37.122704
 11
114.353149
 21
37.122704
  0
LINE
  8
0
 10
114.070312
 20
37.122704
 11
114.070312
 21
37.122704
  0
LINE
  8
0
 10
117.253151
 20
38.522705
 11
121.453148
 21
38.522705
  0
LINE
  8
0
 10
117.253151
 20
35.722702
 11
121.453148
 21
35.722702
  0
LINE
  8
0
 10
116.853149
 20
39.622704
 11
121.853149
 21
39.622704
  0
LINE
  8
0
 10
116.853149
 20
34.622704
 11
121.853149
 21
34.622704
  0
LINE
  8
0
 10
122.853149
 20
37.122704
 11
122.853149
 21
37.122704
  0
LINE
  8
0
 10
115.853149
 20
37.122704
 11
115.853149
 21
37.122704
  0
LINE
  8
0
 10
116.853149
 20
39.905544
 11
121.853149
 21
39.905544
  0
LINE
  8
0
 10
116.853149
 20
34.339863
 11
121.853149
 21
34.339863
  0
ARC
  8
0
 10
120.853149
 20
37.122704
 40
3.500000
 50
270.000000
 51
321.863556
  0
ARC
  8
0
 10
117.853149
 20
37.122704
 40
3.500000
 50
90.000000
 51
141.863617
  0
ARC
  8
0
  6
DASHED
 10
117.853149
 20
37.122704
 40
3.500002
 50
140.332321
 51
218.136383
  0
ARC
  8
0
  6
DASHED
 10
119.353149
 20
37.122704
 40
3.500002
 50
145.150116
 51
214.849884
  0
ARC
  8
0
  6
DASHED
 10
119.353149
 20
37.122704
 40
3.500002
 50
325.150116
 51
34.849880
  0
CIRCLE
  8
0
 10
119.353149
 20
37.122704
 40
1.000000
  0
ARC
  8
0
 10
116.853149
 20
37.122704
 40
2.500000
 50
90.000000
 51
270.000000
  0
ARC
  8
0
 10
121.853149
 20
37.122704
 40
2.500000
 50
270.000000
 51
90.000000
  0
ARC
  8
0
 10
121.853149
 20
37.122704
 40
2.782841
 50
270.000000
 51
90.000000
  0
ARC
  8
0
 10
116.853149
 20
37.122704
 40
2.782841
 50
90.000000
 51
270.000000
  0
ARC
  8
0
 10
117.253151
 20
37.122704
 40
1.400002
 50
90.000000
 51
270.000000
  0
ARC
  8
0
 10
121.453148
 20
37.122704
 40
1.400002
 50
270.000000
 51
90.000000
  0
ARC
  8
0
  6
DASHED
 10
120.853149
 20
37.122704
 40
3.500001
 50
321.863556
 51
38.136387
  0
ARC
  8
0
 10
117.853149
 20
37.122704
 40
3.500001
 50
218.136429
 51
270.000000
  0
ARC
  8
0
 10
120.853149
 20
37.122704
 40
3.499998
 50
38.136387
 51
90.000000
  0
POINT
  8
0
 10
119.353149
 20
87.122704
  0
POINT
  8
0
 10
124.353149
 20
87.122704
  0
LINE
  8
0
 10
119.353149
 20
78.842209
 11
119.353149
 21
87.904541
  0
LINE
  8
0
 10
114.353149
 20
87.122704
 11
124.353149
 21
87.122704
  0
LINE
  8
0
 10
114.353149
 20
82.122704
 11
114.353149
 21
87.122704
  0
LINE
  8
0
 10
115.240868
 20
81.610184
 11
114.353149
 21
82.122704
  0
LINE
  8
0
 10
114.353149
 20
79.622704
 11
114.070305
 21
79.905548
  0
LINE
  8
0
  6
DASHED
 10
114.353149
 20
79.622704
 11
115.219177
 21
80.122704
  0
LINE
  8
0
 10
114.070305
 20
79.905548
 11
115.303001
 21
81.138237
  0
LINE
  8
0
  6
DASHED
 10
120.353149
 20
80.622704
 11
120.353149
 21
81.622704
  0
LINE
  8
0
  6
DASHED
 10
117.603149
 20
81.622704
 11
117.603149
 21
83.622704
  0
LINE
  8
0
  6
DASHED
 10
117.403152
 20
85.122704
 11
117.403152
 21
87.122704
  0
LINE
  8
0
  6
DASHED
 10
115.853149
 20
83.622704
 11
115.853149
 21
85.122704
  0
LINE
  8
0
 10
124.353149
 20
79.622704
 11
114.353149
 21
79.622704
  0
LINE
  8
0
 10
124.353149
 20
82.122704
 11
124.353149
 21
87.122704
  0
LINE
  8
0
 10
123.465431
 20
81.610176
 11
124.353149
 21
82.122704
  0
LINE
  8
0
 10
124.353149
 20
79.622704
 11
124.635994
 21
79.905548
  0
LINE
  8
0
  6
DASHED
 10
124.353149
 20
79.622704
 11
123.487122
 21
80.122704
  0
LINE
  8
0
 10
124.635994
 20
79.905548
 11
123.403297
 21
81.138237
  0
LINE
  8
0
  6
DASHED
 10
122.853149
 20
85.122704
 11
115.853149
 21
85.122704
  0
LINE
  8
0
  6
DASHED
 10
122.853149
 20
83.622704
 11
115.853149
 21
83.622704
  0
LINE
  8
0
  6
DASHED
 10
121.103149
 20
81.622704
 11
117.603149
 21
81.622704
  0
LINE
  8
0
  6
DASHED
 10
121.103149
 20
81.622704
 11
121.103149
 21
83.622704
  0
LINE
  8
0
  6
DASHED
 10
121.303146
 20
85.122704
 11
121.303146
 21
87.122704
  0
LINE
  8
0
  6
DASHED
 10
122.853149
 20
83.622704
 11
122.853149
 21
85.122704
  0
LINE
  8
0
 10
124.635994
 20
79.905548
 11
114.070305
 21
79.905548
  0
LINE
  8
0
 10
124.353149
 20
82.122704
 11
114.353149
 21
82.122704
  0
LINE
  8
0
  6
DASHED
 10
123.487122
 20
80.122704
 11
115.219177
 21
80.122704
  0
LINE
  8
0
  6
DASHED
 10
122.853149
 20
80.622704
 11
115.853149
 21
80.622704
  0
LINE
  8
0
 10
123.126846
 20
81.414696
 11
115.579453
 21
81.414696
  0
LINE
  8
0
  6
DASHED
 10
122.853149
 20
80.122704
 11
122.853149
 21
80.622704
  0
LINE
  8
0
  6
DASHED
 10
115.853149
 20
80.122704
 11
115.853149
 21
80.622704
  0
LINE
  8
0
  6
DASHED
 10
118.353149
 20
80.622704
 11
118.353149
 21
81.622704
  0
ARC
  8
0
 10
123.615433
 20
81.350372
 40
0.299997
 50
120.000618
 51
225.000000
  0
ARC
  8
0
 10
115.090866
 20
81.350372
 40
0.300005
 50
315.000000
 51
60.000107
  0
POINT
  8
0
 10
70.721863
 20
37.122704
  0
POINT
  8
0
 10
76.004700
 20
37.122704
  0
LINE
  8
0
 10
65.221863
 20
37.122704
 11
76.221863
 21
37.122704
  0
LINE
  8
0
 10
70.721863
 20
33.122704
 11
70.721863
 21
41.122704
  0
LINE
  8
0
  6
DASHED
 10
67.782478
 20
39.022705
 11
73.661247
 21
39.022705
  0
LINE
  8
0
  6
DASHED
 10
67.782478
 20
35.222702
 11
73.661247
 21
35.222702
  0
LINE
  8
0
 10
75.721863
 20
37.122704
 11
75.721863
 21
37.122704
  0
LINE
  8
0
 10
65.721863
 20
37.122704
 11
65.721863
 21
37.122704
  0
LINE
  8
0
 10
69.221863
 20
33.622704
 11
72.221863
 21
33.622704
  0
LINE
  8
0
 10
69.221863
 20
40.622704
 11
72.221863
 21
40.622704
  0
LINE
  8
0
 10
67.721863
 20
39.122704
 11
73.721863
 21
39.122704
  0
LINE
  8
0
 10
67.721863
 20
35.122704
 11
73.721863
 21
35.122704
  0
LINE
  8
0
 10
68.221863
 20
36.122704
 11
73.221863
 21
36.122704
  0
LINE
  8
0
 10
68.221863
 20
38.122704
 11
73.221863
 21
38.122704
  0
LINE
  8
0
 10
74.221863
 20
37.122704
 11
74.221863
 21
37.122704
  0
LINE
  8
0
 10
67.221863
 20
37.122704
 11
67.221863
 21
37.122704
  0
LINE
  8
0
 10
65.721863
 20
37.122704
 11
65.721863
 21
37.122704
  0
LINE
  8
0
 10
75.721863
 20
37.122704
 11
75.721863
 21
37.122704
  0
LINE
  8
0
 10
67.721863
 20
39.405544
 11
73.721863
 21
39.405544
  0
LINE
  8
0
 10
67.721863
 20
34.839863
 11
73.721863
 21
34.839863
  0
ARC
  8
0
 10
72.221863
 20
37.122704
 40
3.500000
 50
270.000000
 51
332.206329
  0
ARC
  8
0
 10
69.221863
 20
37.122704
 40
3.500000
 50
90.000000
 51
152.206329
  0
ARC
  8
0
  6
DASHED
 10
69.221863
 20
37.122704
 40
3.500001
 50
150.726883
 51
207.793671
  0
ARC
  8
0
  6
DASHED
 10
70.721863
 20
37.122704
 40
3.499998
 50
147.121597
 51
212.878403
  0
ARC
  8
0
  6
DASHED
 10
70.721863
 20
37.122704
 40
3.499998
 50
327.121613
 51
32.878399
  0
ARC
  8
0
 10
67.721863
 20
37.122704
 40
2.000000
 50
90.000000
 51
270.000000
  0
ARC
  8
0
 10
73.721863
 20
37.122704
 40
2.000000
 50
270.000000
 51
90.000000
  0
ARC
  8
0
 10
73.221863
 20
37.122704
 40
1.000000
 50
270.000000
 51
90.000000
  0
ARC
  8
0
 10
68.221863
 20
37.122704
 40
1.000000
 50
90.000000
 51
270.000000
  0
CIRCLE
  8
0
 10
70.721863
 20
37.122704
 40
1.000000
  0
ARC
  8
0
 10
67.721863
 20
37.122704
 40
2.282841
 50
90.000000
 51
270.000000
  0
ARC
  8
0
 10
73.721863
 20
37.122704
 40
2.282841
 50
270.000000
 51
90.000000
  0
ARC
  8
0
  6
DASHED
 10
72.221863
 20
37.122704
 40
3.500001
 50
332.206329
 51
27.793669
  0
ARC
  8
0
 10
69.221863
 20
37.122704
 40
3.500001
 50
207.793671
 51
270.000000
  0
ARC
  8
0
 10
72.221863
 20
37.122704
 40
3.500001
 50
27.793669
 51
90.000000
  0
POINT
  8
0
 10
70.721863
 20
87.122704
  0
POINT
  8
0
 10
75.721863
 20
87.122704
  0
LINE
  8
0
 10
70.721863
 20
78.842209
 11
70.721863
 21
87.904541
  0
LINE
  8
0
 10
65.721863
 20
82.122704
 11
65.721863
 21
87.122704
  0
LINE
  8
0
 10
66.609581
 20
81.610184
 11
65.721863
 21
82.122704
  0
LINE
  8
0
 10
65.721863
 20
79.622704
 11
65.439018
 21
79.905548
  0
LINE
  8
0
  6
DASHED
 10
65.721863
 20
79.622704
 11
66.587891
 21
80.122704
  0
LINE
  8
0
 10
65.439018
 20
79.905548
 11
66.671715
 21
81.138237
  0
LINE
  8
0
  6
DASHED
 10
71.721863
 20
80.622704
 11
71.721863
 21
81.622704
  0
LINE
  8
0
  6
DASHED
 10
68.971863
 20
81.622704
 11
68.971863
 21
83.622704
  0
LINE
  8
0
  6
DASHED
 10
68.771866
 20
85.122704
 11
68.771866
 21
87.122704
  0
LINE
  8
0
  6
DASHED
 10
67.221863
 20
83.622704
 11
67.221863
 21
85.122704
  0
LINE
  8
0
 10
75.721863
 20
79.622704
 11
65.721863
 21
79.622704
  0
LINE
  8
0
 10
75.721863
 20
87.122704
 11
65.721863
 21
87.122704
  0
LINE
  8
0
 10
75.721863
 20
82.122704
 11
75.721863
 21
87.122704
  0
LINE
  8
0
 10
74.834145
 20
81.610176
 11
75.721863
 21
82.122704
  0
LINE
  8
0
 10
75.721863
 20
79.622704
 11
76.004707
 21
79.905548
  0
LINE
  8
0
  6
DASHED
 10
75.721863
 20
79.622704
 11
74.855835
 21
80.122704
  0
LINE
  8
0
 10
76.004707
 20
79.905548
 11
74.772011
 21
81.138237
  0
LINE
  8
0
  6
DASHED
 10
74.221863
 20
85.122704
 11
67.221863
 21
85.122704
  0
LINE
  8
0
  6
DASHED
 10
74.221863
 20
83.622704
 11
67.221863
 21
83.622704
  0
LINE
  8
0
  6
DASHED
 10
72.471863
 20
81.622704
 11
68.971863
 21
81.622704
  0
LINE
  8
0
  6
DASHED
 10
72.471863
 20
81.622704
 11
72.471863
 21
83.622704
  0
LINE
  8
0
  6
DASHED
 10
72.671860
 20
85.122704
 11
72.671860
 21
87.122704
  0
LINE
  8
0
  6
DASHED
 10
74.221863
 20
83.622704
 11
74.221863
 21
85.122704
  0
LINE
  8
0
 10
76.004707
 20
79.905548
 11
65.439018
 21
79.905548
  0
LINE
  8
0
 10
75.721863
 20
82.122704
 11
65.721863
 21
82.122704
  0
LINE
  8
0
  6
DASHED
 10
74.855835
 20
80.122704
 11
66.587891
 21
80.122704
  0
LINE
  8
0
  6
DASHED
 10
74.221863
 20
80.622704
 11
67.221863
 21
80.622704
  0
LINE
  8
0
 10
74.495560
 20
81.414696
 11
66.948166
 21
81.414696
  0
LINE
  8
0
  6
DASHED
 10
74.221863
 20
80.122704
 11
74.221863
 21
80.622704
  0
LINE
  8
0
  6
DASHED
 10
67.221863
 20
80.122704
 11
67.221863
 21
80.622704
  0
LINE
  8
0
  6
DASHED
 10
69.721863
 20
80.622704
 11
69.721863
 21
81.622704
  0
ARC
  8
0
 10
74.984146
 20
81.350372
 40
0.299997
 50
120.000618
 51
225.000000
  0
ARC
  8
0
 10
66.459579
 20
81.350372
 40
0.300005
 50
315.000000
 51
60.000107
  0
POINT
  8
0
 10
22.090622
 20
37.122704
  0
POINT
  8
0
 10
27.090622
 20
37.122704
  0
LINE
  8
0
 10
16.590622
 20
37.122704
 11
27.590622
 21
37.122704
  0
LINE
  8
0
 10
22.090622
 20
33.122704
 11
22.090622
 21
41.122704
  0
LINE
  8
0
  6
DASHED
 10
19.218342
 20
39.122704
 11
24.962904
 21
39.122704
  0
LINE
  8
0
  6
DASHED
 10
19.218342
 20
35.122704
 11
24.962902
 21
35.122704
  0
LINE
  8
0
 10
27.090622
 20
37.122704
 11
27.090622
 21
37.122704
  0
LINE
  8
0
 10
17.090622
 20
37.122704
 11
17.090622
 21
37.122704
  0
LINE
  8
0
 10
20.590622
 20
33.622704
 11
23.590622
 21
33.622704
  0
LINE
  8
0
 10
20.590622
 20
40.622704
 11
23.590622
 21
40.622704
  0
LINE
  8
0
 10
24.090622
 20
37.122704
 11
24.090622
 21
37.122704
  0
LINE
  8
0
 10
20.090622
 20
37.122704
 11
20.090622
 21
37.122704
  0
LINE
  8
0
 10
20.840622
 20
36.372704
 11
23.340622
 21
36.372704
  0
LINE
  8
0
 10
20.840622
 20
37.872704
 11
23.340622
 21
37.872704
  0
LINE
  8
0
 10
24.090622
 20
37.122704
 11
24.090622
 21
37.122704
  0
LINE
  8
0
 10
20.090622
 20
37.122704
 11
20.090622
 21
37.122704
  0
LINE
  8
0
 10
18.590622
 20
37.122704
 11
18.590622
 21
37.122704
  0
LINE
  8
0
 10
25.590622
 20
37.122704
 11
25.590622
 21
37.122704
  0
LINE
  8
0
 10
25.590622
 20
37.122704
 11
25.590622
 21
37.122704
  0
LINE
  8
0
 10
18.590622
 20
37.122704
 11
18.590622
 21
37.122704
  0
LINE
  8
0
 10
20.340622
 20
38.872704
 11
23.840622
 21
38.872704
  0
LINE
  8
0
 10
20.340622
 20
35.372704
 11
23.840622
 21
35.372704
  0
LINE
  8
0
 10
20.340622
 20
35.089863
 11
23.840622
 21
35.089863
  0
LINE
  8
0
 10
20.340622
 20
39.155544
 11
23.840622
 21
39.155544
  0
CIRCLE
  8
0
 10
22.090622
 20
37.122704
 40
0.750000
  0
ARC
  8
0
 10
23.590622
 20
37.122704
 40
3.500000
 50
269.999969
 51
90.000000
  0
ARC
  8
0
 10
20.590622
 20
37.122704
 40
3.500000
 50
90.000000
 51
269.999939
  0
ARC
  8
0
  6
DASHED
 10
22.090622
 20
37.122704
 40
3.499999
 50
145.150085
 51
214.849915
  0
ARC
  8
0
  6
DASHED
 10
22.090622
 20
37.122704
 40
3.499999
 50
325.150085
 51
34.849899
  0
ARC
  8
0
 10
23.340622
 20
37.122704
 40
0.750000
 50
270.000000
 51
90.000000
  0
ARC
  8
0
 10
20.840622
 20
37.122704
 40
0.750000
 50
90.000000
 51
270.000000
  0
ARC
  8
0
 10
20.340622
 20
37.122704
 40
1.750000
 50
90.000000
 51
269.999939
  0
ARC
  8
0
 10
23.840622
 20
37.122704
 40
1.750000
 50
270.000000
 51
90.000000
  0
ARC
  8
0
 10
20.340618
 20
37.122704
 40
2.032841
 50
90.000000
 51
269.999939
  0
ARC
  8
0
 10
23.840626
 20
37.122704
 40
2.032841
 50
269.999939
 51
89.999947
  0
POINT
  8
0
 10
22.090622
 20
87.122704
  0
POINT
  8
0
 10
27.090622
 20
87.122704
  0
LINE
  8
0
 10
22.090622
 20
78.842209
 11
22.090622
 21
87.904541
  0
LINE
  8
0
 10
17.090622
 20
82.122704
 11
17.090622
 21
87.122704
  0
LINE
  8
0
 10
18.703577
 20
81.191467
 11
17.090622
 21
82.122704
  0
LINE
  8
0
 10
18.590620
 20
79.622704
 11
18.307777
 21
79.905548
  0
LINE
  8
0
  6
DASHED
 10
18.590622
 20
79.622704
 11
19.456646
 21
80.122704
  0
LINE
  8
0
 10
18.307777
 20
79.905548
 11
18.807129
 21
80.404900
  0
LINE
  8
0
  6
DASHED
 10
20.340622
 20
81.622704
 11
22.090622
 21
81.622704
  0
LINE
  8
0
  6
DASHED
 10
21.340622
 20
80.622704
 11
21.340622
 21
81.622704
  0
LINE
  8
0
  6
DASHED
 10
20.340622
 20
81.622704
 11
20.340622
 21
83.622704
  0
LINE
  8
0
  6
DASHED
 10
20.140621
 20
85.122704
 11
20.140621
 21
87.122704
  0
LINE
  8
0
  6
DASHED
 10
18.590622
 20
83.622704
 11
18.590622
 21
85.122704
  0
LINE
  8
0
 10
25.590622
 20
79.622704
 11
18.590622
 21
79.622704
  0
LINE
  8
0
 10
27.090622
 20
87.122704
 11
17.090622
 21
87.122704
  0
LINE
  8
0
 10
27.090622
 20
82.122704
 11
27.090622
 21
87.122704
  0
LINE
  8
0
 10
25.477667
 20
81.191467
 11
27.090622
 21
82.122704
  0
LINE
  8
0
 10
25.590622
 20
79.622704
 11
25.873466
 21
79.905548
  0
LINE
  8
0
  6
DASHED
 10
25.590622
 20
79.622704
 11
24.724596
 21
80.122704
  0
LINE
  8
0
 10
25.873465
 20
79.905548
 11
25.374113
 21
80.404900
  0
LINE
  8
0
  6
DASHED
 10
25.590622
 20
85.122704
 11
18.590622
 21
85.122704
  0
LINE
  8
0
  6
DASHED
 10
25.590622
 20
83.622704
 11
18.590622
 21
83.622704
  0
LINE
  8
0
  6
DASHED
 10
23.840622
 20
81.622704
 11
22.090622
 21
81.622704
  0
LINE
  8
0
  6
DASHED
 10
22.840622
 20
80.622704
 11
22.840622
 21
81.622704
  0
LINE
  8
0
  6
DASHED
 10
23.840622
 20
81.622704
 11
23.840622
 21
83.622704
  0
LINE
  8
0
  6
DASHED
 10
24.040623
 20
85.122704
 11
24.040623
 21
87.122704
  0
LINE
  8
0
  6
DASHED
 10
25.590622
 20
83.622704
 11
25.590622
 21
85.122704
  0
LINE
  8
0
 10
25.873465
 20
79.905548
 11
18.307777
 21
79.905548
  0
LINE
  8
0
 10
27.090622
 20
82.122704
 11
17.090622
 21
82.122704
  0
LINE
  8
0
 10
24.913353
 20
80.865654
 11
19.267891
 21
80.865654
  0
LINE
  8
0
  6
DASHED
 10
24.724596
 20
80.122704
 11
19.456646
 21
80.122704
  0
LINE
  8
0
  6
DASHED
 10
24.090622
 20
80.622704
 11
20.090622
 21
80.622704
  0
LINE
  8
0
  6
DASHED
 10
20.090622
 20
80.122704
 11
20.090622
 21
80.622704
  0
LINE
  8
0
  6
DASHED
 10
24.090622
 20
80.122704
 11
24.090622
 21
80.622704
  0
ARC
  8
0
 10
25.727667
 20
80.758453
 40
0.499994
 50
120.000366
 51
225.000000
  0
ARC
  8
0
 10
18.453575
 20
80.758453
 40
0.500001
 50
315.000000
 51
59.999882
  0
POINT
  8
0
 10
-26.540619
 20
37.122704
  0
POINT
  8
0
 10
-21.540619
 20
37.122704
  0
LINE
  8
0
 10
-32.040619
 20
37.122704
 11
-21.040619
 21
37.122704
  0
LINE
  8
0
 10
-26.540619
 20
33.122704
 11
-26.540619
 21
41.122704
  0
LINE
  8
0
  6
DASHED
 10
-29.412899
 20
39.122704
 11
-23.668337
 21
39.122704
  0
LINE
  8
0
  6
DASHED
 10
-29.412899
 20
35.122704
 11
-23.668339
 21
35.122704
  0
LINE
  8
0
 10
-21.540619
 20
37.122704
 11
-21.540619
 21
37.122704
  0
LINE
  8
0
 10
-31.540619
 20
37.122704
 11
-31.540619
 21
37.122704
  0
LINE
  8
0
 10
-28.040619
 20
33.622704
 11
-25.040619
 21
33.622704
  0
LINE
  8
0
 10
-28.040619
 20
40.622704
 11
-25.040619
 21
40.622704
  0
LINE
  8
0
 10
-24.540619
 20
37.122704
 11
-24.540619
 21
37.122704
  0
LINE
  8
0
 10
-28.540619
 20
37.122704
 11
-28.540619
 21
37.122704
  0
LINE
  8
0
 10
-27.540619
 20
36.122704
 11
-25.540619
 21
36.122704
  0
LINE
  8
0
 10
-27.540619
 20
38.122704
 11
-25.540619
 21
38.122704
  0
LINE
  8
0
 10
-27.540619
 20
35.839863
 11
-25.540619
 21
35.839863
  0
LINE
  8
0
 10
-27.540619
 20
38.405544
 11
-25.540619
 21
38.405544
  0
CIRCLE
  8
0
 10
-26.540619
 20
37.122704
 40
0.750000
  0
ARC
  8
0
 10
-25.040619
 20
37.122704
 40
3.500000
 50
269.999969
 51
90.000000
  0
ARC
  8
0
 10
-28.040619
 20
37.122704
 40
3.500000
 50
90.000000
 51
269.999939
  0
ARC
  8
0
  6
DASHED
 10
-26.540619
 20
37.122704
 40
3.499999
 50
145.150085
 51
214.849915
  0
ARC
  8
0
  6
DASHED
 10
-26.540619
 20
37.122704
 40
3.499999
 50
325.150085
 51
34.849899
  0
ARC
  8
0
 10
-25.540619
 20
37.122704
 40
1.000000
 50
270.000000
 51
90.000000
  0
ARC
  8
0
 10
-27.540619
 20
37.122704
 40
1.000000
 50
90.000000
 51
270.000000
  0
ARC
  8
0
 10
-25.540619
 20
37.122704
 40
1.282841
 50
270.000000
 51
90.000000
  0
ARC
  8
0
 10
-27.540619
 20
37.122704
 40
1.282845
 50
90.000000
 51
269.999908
  0
POINT
  8
0
 10
-26.540619
 20
87.122704
  0
POINT
  8
0
 10
-21.540619
 20
87.122704
  0
LINE
  8
0
 10
-26.540619
 20
78.842209
 11
-26.540619
 21
87.904541
  0
LINE
  8
0
 10
-31.540619
 20
82.122704
 11
-31.540619
 21
87.122704
  0
LINE
  8
0
 10
-28.638115
 20
80.446945
 11
-31.540619
 21
82.122704
  0
LINE
  8
0
 10
-28.540619
 20
79.622704
 11
-28.823462
 21
79.905548
  0
LINE
  8
0
  6
DASHED
 10
-28.540619
 20
79.622704
 11
-27.290619
 21
80.344391
  0
LINE
  8
0
 10
-28.823462
 20
79.905548
 11
-28.596693
 21
80.132317
  0
LINE
  8
0
  6
DASHED
 10
-27.290619
 20
80.344391
 11
-27.290619
 21
81.622704
  0
LINE
  8
0
  6
DASHED
 10
-28.290619
 20
81.622704
 11
-28.290619
 21
83.622704
  0
LINE
  8
0
  6
DASHED
 10
-28.490620
 20
85.122704
 11
-28.490620
 21
87.122704
  0
LINE
  8
0
  6
DASHED
 10
-30.040619
 20
83.622704
 11
-30.040619
 21
85.122704
  0
LINE
  8
0
 10
-24.540619
 20
79.622704
 11
-28.540619
 21
79.622704
  0
LINE
  8
0
 10
-21.540619
 20
87.122704
 11
-31.540619
 21
87.122704
  0
LINE
  8
0
 10
-21.540619
 20
82.122704
 11
-21.540619
 21
87.122704
  0
LINE
  8
0
 10
-24.443125
 20
80.446945
 11
-21.540619
 21
82.122704
  0
LINE
  8
0
 10
-24.540619
 20
79.622704
 11
-24.257776
 21
79.905548
  0
LINE
  8
0
  6
DASHED
 10
-24.540619
 20
79.622704
 11
-25.790619
 21
80.344391
  0
LINE
  8
0
 10
-24.257776
 20
79.905548
 11
-24.484545
 21
80.132317
  0
LINE
  8
0
  6
DASHED
 10
-23.040619
 20
85.122704
 11
-30.040619
 21
85.122704
  0
LINE
  8
0
  6
DASHED
 10
-23.040619
 20
83.622704
 11
-30.040619
 21
83.622704
  0
LINE
  8
0
  6
DASHED
 10
-24.790619
 20
81.622704
 11
-28.290619
 21
81.622704
  0
LINE
  8
0
  6
DASHED
 10
-25.790619
 20
80.344391
 11
-25.790619
 21
81.622704
  0
LINE
  8
0
  6
DASHED
 10
-24.790619
 20
81.622704
 11
-24.790619
 21
83.622704
  0
LINE
  8
0
  6
DASHED
 10
-24.590618
 20
85.122704
 11
-24.590618
 21
87.122704
  0
LINE
  8
0
  6
DASHED
 10
-23.040619
 20
83.622704
 11
-23.040619
 21
85.122704
  0
LINE
  8
0
  6
DASHED
 10
-25.790619
 20
80.344391
 11
-27.290619
 21
80.344391
  0
LINE
  8
0
 10
-24.257776
 20
79.905548
 11
-28.823463
 21
79.905548
  0
LINE
  8
0
 10
-28.412390
 20
80.316620
 11
-24.668850
 21
80.316620
  0
LINE
  8
0
 10
-21.540619
 20
82.122704
 11
-31.540619
 21
82.122704
  0
ARC
  8
0
 10
-28.738115
 20
80.273735
 40
0.199999
 50
315.000763
 51
60.000629
  0
ARC
  8
0
 10
-24.343124
 20
80.273735
 40
0.200005
 50
119.999367
 51
224.999222
  0
POINT
  8
0
 10
-74.671875
 20
37.122704
  0
POINT
  8
0
 10
-69.370880
 20
37.122704
  0
LINE
  8
0
 10
-68.291878
 20
37.122704
 11
-81.101875
 21
37.122704
  0
LINE
  8
0
 10
-74.671875
 20
30.872372
 11
-74.671875
 21
42.976181
  0
LINE
  8
0
  6
DASHED
 10
-71.799591
 20
35.122704
 11
-77.544159
 21
35.122704
  0
LINE
  8
0
  6
DASHED
 10
-71.799591
 20
39.122704
 11
-77.544159
 21
39.122704
  0
LINE
  8
0
  6
DASHED
 10
-73.671875
 20
33.622704
 11
-75.671875
 21
33.622704
  0
LINE
  8
0
  6
DASHED
 10
-73.671875
 20
40.622704
 11
-75.671875
 21
40.622704
  0
LINE
  8
0
 10
-79.171875
 20
37.122704
 11
-79.171875
 21
37.122704
  0
LINE
  8
0
 10
-70.171875
 20
37.122704
 11
-70.171875
 21
37.122704
  0
CIRCLE
  8
0
 10
-74.671875
 20
37.122704
 40
5.300995
  0
CIRCLE
  8
0
 10
-74.671875
 20
37.122704
 40
5.000000
  0
CIRCLE
  8
0
 10
-74.671875
 20
37.122704
 40
1.000000
  0
ARC
  8
0
  6
DASHED
 10
-74.671875
 20
37.122704
 40
3.500002
 50
145.150116
 51
214.849884
  0
ARC
  8
0
  6
DASHED
 10
-74.671875
 20
37.122704
 40
3.500002
 50
325.150116
 51
34.849880
  0
ARC
  8
0
  6
DASHED
 10
-73.671875
 20
37.122704
 40
3.500000
 50
270.000000
 51
90.000000
  0
ARC
  8
0
  6
DASHED
 10
-75.671875
 20
37.122704
 40
3.500000
 50
90.000000
 51
270.000000
  0
POINT
  8
0
  6
DASHED
 10
-74.671875
 20
87.122704
  0
POINT
  8
0
  6
DASHED
 10
-70.171875
 20
87.122704
  0
LINE
  8
0
 10
-74.671875
 20
78.450706
 11
-74.671875
 21
88.045372
  0
LINE
  8
0
 10
-79.171875
 20
83.122704
 11
-79.171875
 21
87.122704
  0
LINE
  8
0
  6
DASHED
 10
-75.671875
 20
80.694504
 11
-75.671875
 21
81.622704
  0
LINE
  8
0
  6
DASHED
 10
-76.621872
 20
85.122704
 11
-76.621872
 21
87.122704
  0
LINE
  8
0
  6
DASHED
 10
-78.171875
 20
83.622704
 11
-78.171875
 21
85.122704
  0
LINE
  8
0
  6
DASHED
 10
-78.171875
 20
83.622704
 11
-71.171875
 21
83.622704
  0
LINE
  8
0
  6
DASHED
 10
-76.421875
 20
81.622704
 11
-72.921875
 21
81.622704
  0
LINE
  8
0
  6
DASHED
 10
-79.671875
 20
79.622704
 11
-75.671875
 21
80.694504
  0
LINE
  8
0
 10
-79.972870
 20
79.923698
 11
-77.892097
 21
80.893974
  0
LINE
  8
0
 10
-77.749855
 20
81.700684
 11
-79.171875
 21
83.122704
  0
LINE
  8
0
 10
-79.671875
 20
79.622704
 11
-79.972870
 21
79.923698
  0
LINE
  8
0
 10
-69.671875
 20
79.622704
 11
-79.671875
 21
79.622704
  0
LINE
  8
0
 10
-70.171875
 20
87.122704
 11
-79.171875
 21
87.122704
  0
LINE
  8
0
 10
-70.171875
 20
83.122704
 11
-70.171875
 21
87.122704
  0
LINE
  8
0
  6
DASHED
 10
-73.671875
 20
80.694504
 11
-73.671875
 21
81.622704
  0
LINE
  8
0
  6
DASHED
 10
-72.921875
 20
81.622704
 11
-72.921875
 21
83.622704
  0
LINE
  8
0
  6
DASHED
 10
-72.721878
 20
85.122704
 11
-72.721878
 21
87.122704
  0
LINE
  8
0
  6
DASHED
 10
-71.171875
 20
83.622704
 11
-71.171875
 21
85.122704
  0
LINE
  8
0
  6
DASHED
 10
-71.171875
 20
85.122704
 11
-78.171875
 21
85.122704
  0
LINE
  8
0
  6
DASHED
 10
-69.671875
 20
79.622704
 11
-73.671875
 21
80.694496
  0
LINE
  8
0
 10
-69.370880
 20
79.923698
 11
-71.451653
 21
80.893982
  0
LINE
  8
0
 10
-71.593895
 20
81.700684
 11
-70.171875
 21
83.122704
  0
LINE
  8
0
 10
-69.671875
 20
79.622704
 11
-69.370880
 21
79.923698
  0
LINE
  8
0
  6
DASHED
 10
-73.671875
 20
80.694504
 11
-75.671875
 21
80.694504
  0
LINE
  8
0
 10
-79.972870
 20
79.923698
 11
-69.370880
 21
79.923698
  0
LINE
  8
0
 10
-71.931465
 20
81.195755
 11
-77.403442
 21
81.195755
  0
LINE
  8
0
 10
-70.171875
 20
83.122704
 11
-79.171875
 21
83.122704
  0
LINE
  8
0
  6
DASHED
 10
-76.421875
 20
81.622704
 11
-76.421875
 21
83.622704
  0
ARC
  8
0
 10
-78.103409
 20
81.347130
 40
0.500002
 50
295.000153
 51
45.000000
  0
ARC
  8
0
 10
-71.240341
 20
81.347130
 40
0.500001
 50
135.000000
 51
244.999847
  0
POINT
  8
0
 10
-123.303123
 20
37.122704
  0
POINT
  8
0
 10
-118.803123
 20
37.122704
  0
LINE
  8
0
 10
-117.763123
 20
37.122704
 11
-129.009796
 21
37.122704
  0
LINE
  8
0
 10
-123.303123
 20
31.320705
 11
-123.303123
 21
42.707371
  0
LINE
  8
0
  6
DASHED
 10
-120.430840
 20
35.122704
 11
-126.175407
 21
35.122704
  0
LINE
  8
0
  6
DASHED
 10
-120.430840
 20
39.122704
 11
-126.175407
 21
39.122704
  0
LINE
  8
0
 10
-118.803123
 20
37.122704
 11
-118.803123
 21
37.122704
  0
LINE
  8
0
 10
-127.803123
 20
37.122704
 11
-127.803123
 21
37.122704
  0
LINE
  8
0
  6
DASHED
 10
-122.303123
 20
33.622704
 11
-124.303123
 21
33.622704
  0
LINE
  8
0
  6
DASHED
 10
-122.303123
 20
40.622704
 11
-124.303123
 21
40.622704
  0
CIRCLE
  8
0
 10
-123.303123
 20
37.122704
 40
4.000000
  0
CIRCLE
  8
0
 10
-123.303123
 20
37.122704
 40
4.292821
  0
CIRCLE
  8
0
 10
-123.303123
 20
37.122704
 40
1.000000
  0
ARC
  8
0
  6
DASHED
 10
-123.303123
 20
37.122704
 40
3.500002
 50
145.150116
 51
214.849884
  0
ARC
  8
0
  6
DASHED
 10
-123.303123
 20
37.122704
 40
3.500002
 50
325.150116
 51
34.849880
  0
ARC
  8
0
  6
DASHED
 10
-122.303123
 20
37.122704
 40
3.500000
 50
269.831757
 51
317.710754
  0
ARC
  8
0
  6
DASHED
 10
-124.303123
 20
37.122704
 40
3.500000
 50
90.000000
 51
137.710754
  0
ARC
  8
0
  6
DASHED
 10
-124.303123
 20
37.122704
 40
3.500004
 50
222.289169
 51
270.000000
  0
ARC
  8
0
 10
-122.303123
 20
37.122704
 40
3.500004
 50
317.710846
 51
42.289249
  0
ARC
  8
0
  6
DASHED
 10
-122.303123
 20
37.122704
 40
3.499998
 50
42.289249
 51
90.000000
  0
ARC
  8
0
 10
-124.303123
 20
37.122704
 40
3.499998
 50
137.710754
 51
222.289124
  0
POINT
  8
0
 10
-123.303123
 20
87.122704
  0
POINT
  8
0
 10
-118.803123
 20
87.122704
  0
LINE
  8
0
 10
-127.303123
 20
79.622704
 11
-119.303123
 21
79.622704
  0
LINE
  8
0
 10
-127.803123
 20
87.122704
 11
-118.803123
 21
87.122704
  0
LINE
  8
0
 10
-127.803123
 20
83.122704
 11
-127.803123
 21
87.122704
  0
LINE
  8
0
 10
-127.303123
 20
79.622704
 11
-127.595947
 21
79.915527
  0
LINE
  8
0
 10
-126.154778
 20
81.474358
 11
-127.803123
 21
83.122704
  0
LINE
  8
0
 10
-127.595947
 20
79.915520
 11
-126.258331
 21
80.687790
  0
LINE
  8
0
  6
DASHED
 10
-127.303123
 20
79.622704
 11
-124.303123
 21
80.714615
  0
LINE
  8
0
  6
DASHED
 10
-126.803123
 20
85.122704
 11
-119.803123
 21
85.122704
  0
LINE
  8
0
  6
DASHED
 10
-126.803123
 20
83.622704
 11
-119.803123
 21
83.622704
  0
LINE
  8
0
  6
DASHED
 10
-124.903122
 20
81.622704
 11
-121.703125
 21
81.622704
  0
LINE
  8
0
  6
DASHED
 10
-124.303123
 20
80.714615
 11
-124.303123
 21
81.622704
  0
LINE
  8
0
  6
DASHED
 10
-125.053123
 20
81.622704
 11
-125.053123
 21
83.622704
  0
LINE
  8
0
  6
DASHED
 10
-125.253120
 20
85.122704
 11
-125.253120
 21
87.122704
  0
LINE
  8
0
  6
DASHED
 10
-126.803123
 20
83.622704
 11
-126.803123
 21
85.122704
  0
LINE
  8
0
  6
DASHED
 10
-124.303123
 20
80.714615
 11
-122.303123
 21
80.714615
  0
LINE
  8
0
 10
-118.803123
 20
83.122704
 11
-118.803123
 21
87.122704
  0
LINE
  8
0
 10
-119.303123
 20
79.622704
 11
-119.010300
 21
79.915527
  0
LINE
  8
0
 10
-120.451469
 20
81.474358
 11
-118.803123
 21
83.122704
  0
LINE
  8
0
 10
-119.010300
 20
79.915520
 11
-120.347916
 21
80.687790
  0
LINE
  8
0
  6
DASHED
 10
-119.303123
 20
79.622704
 11
-122.303123
 21
80.714615
  0
LINE
  8
0
  6
DASHED
 10
-122.303123
 20
80.714615
 11
-122.303123
 21
81.622704
  0
LINE
  8
0
  6
DASHED
 10
-121.553123
 20
81.622704
 11
-121.553123
 21
83.622704
  0
LINE
  8
0
  6
DASHED
 10
-121.353127
 20
85.122704
 11
-121.353127
 21
87.122704
  0
LINE
  8
0
  6
DASHED
 10
-119.803123
 20
83.622704
 11
-119.803123
 21
85.122704
  0
LINE
  8
0
 10
-119.010300
 20
79.915527
 11
-127.595947
 21
79.915527
  0
LINE
  8
0
 10
-125.851120
 20
81.013603
 11
-120.755127
 21
81.013603
  0
LINE
  8
0
 10
-118.803123
 20
83.122704
 11
-127.803123
 21
83.122704
  0
LINE
  8
0
 10
-123.303123
 20
78.450706
 11
-123.303123
 21
88.045372
  0
ARC
  8
0
 10
-126.508331
 20
81.120804
 40
0.500001
 50
299.999939
 51
45.000000
  0
ARC
  8
0
 10
-120.097916
 20
81.120804
 40
0.500001
 50
135.000000
 51
240.000076
  0
POINT
  8
0
 10
-171.934372
 20
37.122704
  0
POINT
  8
0
 10
-167.434372
 20
37.122704
  0
LINE
  8
0
 10
-171.934372
 20
32.756035
 11
-171.934372
 21
41.489372
  0
LINE
  8
0
 10
-177.547531
 20
37.122704
 11
-166.381546
 21
37.122704
  0
LINE
  8
0
  6
DASHED
 10
-174.806656
 20
35.122704
 11
-169.062088
 21
35.122704
  0
LINE
  8
0
  6
DASHED
 10
-174.806656
 20
39.122704
 11
-169.062088
 21
39.122704
  0
LINE
  8
0
 10
-172.934372
 20
33.622704
 11
-170.934372
 21
33.622704
  0
LINE
  8
0
 10
-172.934372
 20
40.622704
 11
-170.934372
 21
40.622704
  0
LINE
  8
0
 10
-167.434372
 20
37.122704
 11
-167.434372
 21
37.122704
  0
LINE
  8
0
 10
-176.434372
 20
37.122704
 11
-176.434372
 21
37.122704
  0
CIRCLE
  8
0
 10
-171.934372
 20
37.122704
 40
3.000000
  0
CIRCLE
  8
0
 10
-171.934372
 20
37.122704
 40
3.282843
  0
ARC
  8
0
  6
DASHED
 10
-171.934372
 20
37.122704
 40
3.500002
 50
145.150116
 51
214.849884
  0
ARC
  8
0
  6
DASHED
 10
-171.934372
 20
37.122704
 40
3.500002
 50
325.150116
 51
34.849880
  0
ARC
  8
0
 10
-170.934372
 20
37.122704
 40
3.500000
 50
270.000000
 51
90.000000
  0
ARC
  8
0
 10
-172.934372
 20
37.122704
 40
3.500000
 50
90.000000
 51
270.000000
  0
CIRCLE
  8
0
 10
-171.934372
 20
37.122704
 40
1.000000
  0
POINT
  8
0
 10
-171.934372
 20
87.122704
  0
POINT
  8
0
 10
-167.434372
 20
87.122704
  0
LINE
  8
0
 10
-167.434372
 20
83.122704
 11
-167.434372
 21
87.122704
  0
LINE
  8
0
 10
-169.439392
 20
81.117676
 11
-167.434372
 21
83.122704
  0
LINE
  8
0
 10
-168.934372
 20
79.622704
 11
-168.651535
 21
79.905548
  0
LINE
  8
0
  6
DASHED
 10
-168.934372
 20
79.622704
 11
-170.934372
 21
80.777405
  0
LINE
  8
0
 10
-168.651535
 20
79.905548
 11
-169.439392
 21
80.693413
  0
LINE
  8
0
  6
DASHED
 10
-170.934372
 20
80.777405
 11
-170.934372
 21
81.622704
  0
LINE
  8
0
  6
DASHED
 10
-170.184372
 20
81.622704
 11
-170.184372
 21
83.622704
  0
LINE
  8
0
  6
DASHED
 10
-168.434372
 20
83.622704
 11
-168.434372
 21
85.122704
  0
LINE
  8
0
  6
DASHED
 10
-169.984375
 20
85.122704
 11
-169.984375
 21
87.122704
  0
LINE
  8
0
 10
-168.934372
 20
79.622704
 11
-174.934372
 21
79.622704
  0
LINE
  8
0
 10
-167.434372
 20
87.122704
 11
-176.434372
 21
87.122704
  0
LINE
  8
0
 10
-176.434372
 20
83.122704
 11
-176.434372
 21
87.122704
  0
LINE
  8
0
 10
-174.429352
 20
81.117676
 11
-176.434372
 21
83.122704
  0
LINE
  8
0
 10
-174.934372
 20
79.622704
 11
-175.217209
 21
79.905540
  0
LINE
  8
0
  6
DASHED
 10
-174.934372
 20
79.622704
 11
-172.934372
 21
80.777405
  0
LINE
  8
0
 10
-175.217209
 20
79.905548
 11
-174.429352
 21
80.693413
  0
LINE
  8
0
  6
DASHED
 10
-168.434372
 20
85.122704
 11
-175.434372
 21
85.122704
  0
LINE
  8
0
  6
DASHED
 10
-168.434372
 20
83.622704
 11
-175.434372
 21
83.622704
  0
LINE
  8
0
  6
DASHED
 10
-170.184372
 20
81.622704
 11
-173.684372
 21
81.622704
  0
LINE
  8
0
  6
DASHED
 10
-172.934372
 20
80.777405
 11
-172.934372
 21
81.622704
  0
LINE
  8
0
  6
DASHED
 10
-173.684372
 20
81.622704
 11
-173.684372
 21
83.622704
  0
LINE
  8
0
  6
DASHED
 10
-175.434372
 20
83.622704
 11
-175.434372
 21
85.122704
  0
LINE
  8
0
  6
DASHED
 10
-173.884369
 20
85.122704
 11
-173.884369
 21
87.122704
  0
LINE
  8
0
  6
DASHED
 10
-170.934372
 20
80.777405
 11
-172.934372
 21
80.777405
  0
LINE
  8
0
 10
-168.651535
 20
79.905548
 11
-175.217209
 21
79.905548
  0
LINE
  8
0
 10
-174.020370
 20
80.905548
 11
-169.801712
 21
80.905548
  0
LINE
  8
0
 10
-176.434372
 20
83.122704
 11
-167.434372
 21
83.122704
  0
LINE
  8
0
 10
-171.934372
 20
78.627480
 11
-171.934372
 21
87.924706
  0
ARC
  8
0
 10
-169.227264
 20
80.905548
 40
0.299994
 50
135.000000
 51
225.001038
  0
ARC
  8
0
 10
-174.641479
 20
80.905548
 40
0.299999
 50
314.998962
 51
45.000000
  0
ENDSEC
  0
EOF
