  0
SECTION
  2
HEADER
  0
ENDSEC
  0
SECTION
  2
TABLES
  0
TABLE
  2
LTYPE
 70
     4
  0
LTYPE
  2
CONTINUOUS
 70
    64
  3
Solid line
 72
    65
 73
     0
 40
0.000000
  0
LTYPE
  2
DASHED
 70
    64
  3
__ __ __ __ __ __ __ __ __ __ __ __ __ __ __
 72
    65
 73
     2
 40
3.500000
 49
2.000000
 49
-1.500000
  0
LTYPE
  2
CENTER
 70
    64
  3
____ _ ____ _ ____ _ ____ _ ____ _ ____ _ ____
 72
    65
 73
     4
 40
17.500000
 49
13.000000
 49
-1.500000
 49
1.500000
 49
-1.500000
  0
LTYPE
  2
PHANTOM
 70
    64
  3
_____ _ _ _____ _ _ _____ _ _ _____ _ _ ____  
 72
    65
 73
     6
 40
15.500000
 49
8.000000
 49
-1.500000
 49
1.500000
 49
-1.500000
 49
1.500000
 49
-1.500000
  0
LTYPE
  2
DASHED1
 70
    64
  3
__ __ __ __ __ __ __ __ __ __ __ __ __ __ __
 72
    65
 73
     2
 40
1.500000
 49
1.000000
 49
-0.500000
  0
LTYPE
  2
DASHED2
 70
    64
  3
__ __ __ __ __ __ __ __ __ __ __ __ __ __ __
 72
    65
 73
     2
 40
3.500000
 49
2.500000
 49
-1.000000
  0
LTYPE
  2
DASHED3
 70
    64
  3
__ __ __ __ __ __ __ __ __ __ __ __ __ __ __
 72
    65
 73
     2
 40
6.000000
 49
4.000000
 49
-2.000000
  0
LTYPE
  2
DASHED4
 70
    64
  3
__ __ __ __ __ __ __ __ __ __ __ __ __ __ __
 72
    65
 73
     2
 40
12.000000
 49
10.000000
 49
-2.000000
  0
LTYPE
  2
DASHED5
 70
    64
  3
__ __ __ __ __ __ __ __ __ __ __ __ __ __ __
 72
    65
 73
     2
 40
17.000000
 49
15.000000
 49
-2.000000
  0
LTYPE
  2
DASHED6
 70
    64
  3
__ __ __ __ __ __ __ __ __ __ __ __ __ __ __
 72
    65
 73
     2
 40
29.000000
 49
27.000000
 49
-2.000000
  0
LTYPE
  2
PHANTOM1
 70
    64
  3
_____ _ _ _____ _ _ _____ _ _ _____ _ _ ____  
 72
    65
 73
     6
 40
31.000000
 49
25.000000
 49
-1.500000
 49
1.000000
 49
-1.000000
 49
1.000000
 49
-1.500000
  0
LTYPE
  2
PHANTOM2
 70
    64
  3
_____ _ _ _____ _ _ _____ _ _ _____ _ _ ____  
 72
    65
 73
     6
 40
36.000000
 49
27.000000
 49
-1.500000
 49
2.500000
 49
-1.000000
 49
2.500000
 49
-1.500000
  0
LTYPE
  2
PHANTOM3
 70
    64
  3
_____ _ _ _____ _ _ _____ _ _ _____ _ _ ____  
 72
    65
 73
     6
 40
78.000000
 49
64.000000
 49
-2.000000
 49
4.000000
 49
-2.000000
 49
4.000000
 49
-2.000000
  0
LTYPE
  2
CENTER1
 70
    64
  3
____ _ ____ _ ____ _ ____ _ ____ _ ____ _ ____
 72
    65
 73
     4
 40
19.000000
 49
14.000000
 49
-1.000000
 49
3.000000
 49
-1.000000
  0
LTYPE
  2
CENTER2
 70
    64
  3
____ _ ____ _ ____ _ ____ _ ____ _ ____ _ ____
 72
    65
 73
     4
 40
28.500000
 49
25.000000
 49
-1.000000
 49
1.500000
 49
-1.000000
  0
LTYPE
  2
CENTER3
 70
    64
  3
____ _ ____ _ ____ _ ____ _ ____ _ ____ _ ____
 72
    65
 73
     4
 40
31.500000
 49
27.000000
 49
-1.000000
 49
2.500000
 49
-1.000000
  0
LTYPE
  2
CENTER4
 70
    64
  3
____ _ ____ _ ____ _ ____ _ ____ _ ____ _ ____
 72
    65
 73
     4
 40
50.000000
 49
45.000000
 49
-1.000000
 49
3.000000
 49
-1.000000
  0
LTYPE
  2
CENTER5
 70
    64
  3
____ _ ____ _ ____ _ ____ _ ____ _ ____ _ ____
 72
    65
 73
     4
 40
100.000000
 49
92.000000
 49
-2.000000
 49
4.000000
 49
-2.000000
  0
LTYPE
  2
SBK1
 70
    64
  3
______ _ _ _ ______ _ _ _ ______ _ _ _ _____  
 72
    65
 73
     8
 40
60.500000
 49
45.000000
 49
-2.000000
 49
2.500000
 49
-2.000000
 49
2.500000
 49
-2.000000
 49
2.500000
 49
-2.000000
  0
LTYPE
  2
SBK2
 70
    64
  3
______ _ _ _ ______ _ _ _ ______ _ _ _ _____  
 72
    65
 73
     8
 40
84.000000
 49
64.000000
 49
-2.000000
 49
4.000000
 49
-2.000000
 49
4.000000
 49
-2.000000
 49
4.000000
 49
-2.000000
  0
LTYPE
  2
STCH
 70
    64
  3
__ __ __ __ __ __ __ __ __ __ __ __ __ __ __
 72
    65
 73
     2
 40
3.000000
 49
1.000000
 49
-2.000000
  0
LTYPE
  2
MTCH
 70
    64
  3
_____ _ _ _____ _ _ _____ _ _ _____ _ _ ____  
 72
    65
 73
     6
 40
80.000000
 49
66.000000
 49
-2.000000
 49
4.000000
 49
-2.000000
 49
4.000000
 49
-2.000000
  0
ENDTAB
  0
TABLE
  2
LAYER
 70
     1
  0
LAYER
  2
0
 70
     0
 62
     7
  6
CONTINUOUS
  0
ENDTAB
  0
TABLE
  2
STYLE
 70
     1
  0
STYLE
  2
STANDARD
 70
     0
 40
0.000000
 41
1.000000
 50
0.000000
 71
     0
 42
0.200000
  3
txt
  4
BIGFONT
  0
ENDTAB
  0
TABLE
  2
VIEW
 70
     0
  0
ENDTAB
  0
ENDSEC
  0
SECTION
  2
BLOCKS
  0
ENDSEC
  0
SECTION
  2
ENTITIES
  0
LINE
  8
0
 10
-181.250000
 20
195.500000
 11
-181.250000
 21
180.500000
  0
LINE
  8
0
 10
182.099976
 20
195.500000
 11
182.099976
 21
180.500000
  0
LINE
  8
0
 10
-281.250000
 20
180.500000
 11
-181.250000
 21
180.500000
  0
LINE
  8
0
 10
182.099976
 20
180.500000
 11
282.099976
 21
180.500000
  0
LINE
  8
0
 10
141.262482
 20
-175.000000
 11
282.099976
 21
-175.000000
  0
LINE
  8
0
 10
-297.000000
 20
210.000000
 11
297.000000
 21
210.000000
  0
LINE
  8
0
 10
-297.000000
 20
-210.000000
 11
297.000000
 21
-210.000000
  0
LINE
  8
0
 10
297.000000
 20
210.000000
 11
297.000000
 21
-210.000000
  0
LINE
  8
0
 10
-297.000000
 20
210.000000
 11
-297.000000
 21
-210.000000
  0
LINE
  8
0
 10
-281.250000
 20
195.500000
 11
282.099976
 21
195.500000
  0
LINE
  8
0
 10
-281.250000
 20
195.500000
 11
-281.250000
 21
-195.000000
  0
LINE
  8
0
 10
282.099976
 20
195.500000
 11
282.099976
 21
-195.000000
  0
LINE
  8
0
 10
-281.250000
 20
-195.000000
 11
282.099976
 21
-195.000000
  0
LINE
  8
0
 10
0.424988
 20
195.500000
 11
0.424988
 21
-195.000000
  0
LINE
  8
0
 10
-140.412506
 20
195.500000
 11
-140.412506
 21
-195.000000
  0
LINE
  8
0
 10
141.262482
 20
195.500000
 11
141.262482
 21
-195.000000
  0
LINE
  8
0
 10
211.681229
 20
180.500000
 11
211.681229
 21
-175.000000
  0
LINE
  8
0
 10
70.843735
 20
195.500000
 11
70.843735
 21
-195.000000
  0
LINE
  8
0
 10
-69.993759
 20
195.500000
 11
-69.993759
 21
-195.000000
  0
LINE
  8
0
 10
-210.831253
 20
180.500000
 11
-210.831253
 21
-195.000000
  0
LINE
  8
0
 10
-281.250000
 20
2.750000
 11
282.099976
 21
2.750000
  0
LINE
  8
0
 10
-281.250000
 20
12.750000
 11
282.099976
 21
12.750000
  0
LINE
  8
0
 10
-281.250000
 20
-185.000000
 11
141.262482
 21
-185.000000
  0
LINE
  8
0
 10
141.262482
 20
-165.000000
 11
282.099976
 21
-165.000000
  0
TEXT
  8
0
 10
-260.828308
 20
183.779999
 40
5.800000
  1
VACUUM PAD
 50
0.000000
 41
1.052632
 51
0.000000
  7
STANDARD
  0
TEXT
  8
0
 10
188.021667
 20
183.779999
 40
5.800000
  1
DATE: JUN ,1992
 50
0.000000
 41
1.052632
 51
0.000000
  7
STANDARD
  0
TEXT
  8
0
 10
163.000870
 20
-190.300003
 40
7.000000
  1
ＫＯＧＡＮＥＩ，ＣＯＲＰ．
 50
0.000000
 41
0.902367
 51
15.000000
  7
STANDARD
  0
TEXT
  8
0
 10
-276.504669
 20
4.250000
 40
5.000000
  1
MODEL:KPLS-6
 50
0.000000
 41
1.052632
 51
0.000000
  7
STANDARD
  0
TEXT
  8
0
 10
-206.085953
 20
4.250000
 40
5.000000
  1
MODEL:KPLS-8
 50
0.000000
 41
1.052632
 51
0.000000
  7
STANDARD
  0
TEXT
  8
0
 10
-138.167191
 20
4.250000
 40
5.000000
  1
MODEL:KPLS-10
 50
0.000000
 41
1.052632
 51
0.000000
  7
STANDARD
  0
TEXT
  8
0
 10
-68.388123
 20
4.250000
 40
5.000000
  1
MODEL:KPLS-2X4
 50
0.000000
 41
0.997801
 51
0.000000
  7
STANDARD
  0
TEXT
  8
0
 10
2.202918
 20
4.250000
 40
5.000000
  1
MODEL:KPLS-3.5X7
 50
0.000000
 41
0.870808
 51
0.000000
  7
STANDARD
  0
TEXT
  8
0
 10
72.541374
 20
4.250000
 40
5.000000
  1
MODEL:KPLS-4X10
 50
0.000000
 41
0.929989
 51
0.000000
  7
STANDARD
  0
TEXT
  8
0
 10
142.960114
 20
4.250000
 40
5.000000
  1
MODEL:KPLS-5X10
 50
0.000000
 41
0.929989
 51
0.000000
  7
STANDARD
  0
TEXT
  8
0
 10
213.378860
 20
4.250000
 40
5.000000
  1
MODEL:KPLS-6X10
 50
0.000000
 41
0.929989
 51
0.000000
  7
STANDARD
  0
TEXT
  8
0
 10
-279.552368
 20
-193.500000
 40
5.000000
  1
MODEL:KPLS-4X20
 50
0.000000
 41
0.929989
 51
0.000000
  7
STANDARD
  0
TEXT
  8
0
 10
-209.133621
 20
-193.500000
 40
5.000000
  1
MODEL:KPLS-5X20
 50
0.000000
 41
0.929989
 51
0.000000
  7
STANDARD
  0
TEXT
  8
0
 10
-138.714874
 20
-193.500000
 40
5.000000
  1
MODEL:KPLS-6X20
 50
0.000000
 41
0.929989
 51
0.000000
  7
STANDARD
  0
TEXT
  8
0
 10
2.122626
 20
-193.500000
 40
5.000000
  1
MODEL:KPLS-4X30
 50
0.000000
 41
0.929989
 51
0.000000
  7
STANDARD
  0
TEXT
  8
0
 10
-68.296120
 20
-193.500000
 40
5.000000
  1
MODEL:KPLS-8X20
 50
0.000000
 41
0.929989
 51
0.000000
  7
STANDARD
  0
TEXT
  8
0
 10
72.541374
 20
-193.500000
 40
5.000000
  1
MODEL:KPLS-5X30
 50
0.000000
 41
0.929989
 51
0.000000
  7
STANDARD
  0
TEXT
  8
0
 10
142.960129
 20
-173.500000
 40
5.000000
  1
MODEL:KPLS-6X30
 50
0.000000
 41
0.929989
 51
0.000000
  7
STANDARD
  0
TEXT
  8
0
 10
213.378860
 20
-173.500000
 40
5.000000
  1
MODEL:KPLS-8X30
 50
0.000000
 41
0.929989
 51
0.000000
  7
STANDARD
  0
TEXT
  8
0
 10
-219.955383
 20
107.954887
 40
3.500000
  1
S=5
 50
90.000000
 41
1.052632
 51
0.000000
  7
STANDARD
  0
TEXT
  8
0
 10
-267.771851
 20
83.871635
 40
3.500000
  1
S=5,10,20,30
 50
0.000000
 41
1.052632
 51
0.000000
  7
STANDARD
  0
TEXT
  8
0
 10
-149.536621
 20
107.954903
 40
3.500000
  1
S=5
 50
90.000000
 41
1.052632
 51
0.000000
  7
STANDARD
  0
TEXT
  8
0
 10
-197.353088
 20
83.871651
 40
3.500000
  1
S=5,10,20,30
 50
0.000000
 41
1.052632
 51
0.000000
  7
STANDARD
  0
TEXT
  8
0
 10
-79.117859
 20
107.954903
 40
3.500000
  1
S=5
 50
90.000000
 41
1.052632
 51
0.000000
  7
STANDARD
  0
TEXT
  8
0
 10
-126.934334
 20
83.871651
 40
3.500000
  1
S=5,10,20,30
 50
0.000000
 41
1.052632
 51
0.000000
  7
STANDARD
  0
TEXT
  8
0
 10
-8.699114
 20
107.954903
 40
3.500000
  1
S=5
 50
90.000000
 41
1.052632
 51
0.000000
  7
STANDARD
  0
TEXT
  8
0
 10
-56.515583
 20
83.871651
 40
3.500000
  1
S=5,10,20,30
 50
0.000000
 41
1.052632
 51
0.000000
  7
STANDARD
  0
TEXT
  8
0
 10
61.719631
 20
107.954903
 40
3.500000
  1
S=5
 50
90.000000
 41
1.052632
 51
0.000000
  7
STANDARD
  0
TEXT
  8
0
 10
13.903163
 20
83.871651
 40
3.500000
  1
S=5,10,20,30
 50
0.000000
 41
1.052632
 51
0.000000
  7
STANDARD
  0
TEXT
  8
0
 10
132.138367
 20
107.954903
 40
3.500000
  1
S=5
 50
90.000000
 41
1.052632
 51
0.000000
  7
STANDARD
  0
TEXT
  8
0
 10
84.321907
 20
83.871651
 40
3.500000
  1
S=5,10,20,30
 50
0.000000
 41
1.052632
 51
0.000000
  7
STANDARD
  0
TEXT
  8
0
 10
202.557129
 20
107.954903
 40
3.500000
  1
S=5
 50
90.000000
 41
1.052632
 51
0.000000
  7
STANDARD
  0
TEXT
  8
0
 10
154.740662
 20
83.871651
 40
3.500000
  1
S=5,10,20,30
 50
0.000000
 41
1.052632
 51
0.000000
  7
STANDARD
  0
TEXT
  8
0
 10
272.975861
 20
107.954903
 40
3.500000
  1
S=5
 50
90.000000
 41
1.052632
 51
0.000000
  7
STANDARD
  0
TEXT
  8
0
 10
225.159393
 20
83.871651
 40
3.500000
  1
S=5,10,20,30
 50
0.000000
 41
1.052632
 51
0.000000
  7
STANDARD
  0
TEXT
  8
0
 10
-219.955353
 20
-69.795097
 40
3.500000
  1
S=5
 50
90.000000
 41
1.052632
 51
0.000000
  7
STANDARD
  0
TEXT
  8
0
 10
-267.771820
 20
-93.878349
 40
3.500000
  1
S=5,10,20,30
 50
0.000000
 41
1.052632
 51
0.000000
  7
STANDARD
  0
TEXT
  8
0
 10
-149.536621
 20
-69.795097
 40
3.500000
  1
S=5
 50
90.000000
 41
1.052632
 51
0.000000
  7
STANDARD
  0
TEXT
  8
0
 10
-197.353088
 20
-93.878349
 40
3.500000
  1
S=5,10,20,30
 50
0.000000
 41
1.052632
 51
0.000000
  7
STANDARD
  0
TEXT
  8
0
 10
-79.117859
 20
-69.795105
 40
3.500000
  1
S=5
 50
90.000000
 41
1.052632
 51
0.000000
  7
STANDARD
  0
TEXT
  8
0
 10
-126.934334
 20
-93.878349
 40
3.500000
  1
S=5,10,20,30
 50
0.000000
 41
1.052632
 51
0.000000
  7
STANDARD
  0
TEXT
  8
0
 10
-8.699114
 20
-69.795105
 40
3.500000
  1
S=5
 50
90.000000
 41
1.052632
 51
0.000000
  7
STANDARD
  0
TEXT
  8
0
 10
-56.515583
 20
-93.878349
 40
3.500000
  1
S=5,10,20,30
 50
0.000000
 41
1.052632
 51
0.000000
  7
STANDARD
  0
TEXT
  8
0
 10
61.719631
 20
-69.795105
 40
3.500000
  1
S=5
 50
90.000000
 41
1.052632
 51
0.000000
  7
STANDARD
  0
TEXT
  8
0
 10
13.903163
 20
-93.878357
 40
3.500000
  1
S=5,10,20,30
 50
0.000000
 41
1.052632
 51
0.000000
  7
STANDARD
  0
TEXT
  8
0
 10
132.138367
 20
-69.795105
 40
3.500000
  1
S=5
 50
90.000000
 41
1.052632
 51
0.000000
  7
STANDARD
  0
TEXT
  8
0
 10
84.321907
 20
-93.878357
 40
3.500000
  1
S=5,10,20,30
 50
0.000000
 41
1.052632
 51
0.000000
  7
STANDARD
  0
TEXT
  8
0
 10
202.557129
 20
-69.795105
 40
3.500000
  1
S=5
 50
90.000000
 41
1.052632
 51
0.000000
  7
STANDARD
  0
TEXT
  8
0
 10
154.740662
 20
-93.878357
 40
3.500000
  1
S=5,10,20,30
 50
0.000000
 41
1.052632
 51
0.000000
  7
STANDARD
  0
TEXT
  8
0
 10
272.975861
 20
-69.795105
 40
3.500000
  1
S=5
 50
90.000000
 41
1.052632
 51
0.000000
  7
STANDARD
  0
TEXT
  8
0
 10
225.159393
 20
-93.878357
 40
3.500000
  1
S=5,10,20,30
 50
0.000000
 41
1.052632
 51
0.000000
  7
STANDARD
  0
POINT
  8
0
 10
-246.040619
 20
138.562500
  0
POINT
  8
0
 10
-236.240616
 20
138.562500
  0
LINE
  8
0
 10
-242.540619
 20
103.462502
 11
-242.540619
 21
118.562500
  0
LINE
  8
0
 10
-249.540619
 20
103.462502
 11
-249.540619
 21
118.562500
  0
LINE
  8
0
 10
-252.290604
 20
148.562500
 11
-239.790619
 21
148.562500
  0
LINE
  8
0
 10
-259.426758
 20
113.462502
 11
-247.373947
 21
113.462502
  0
LINE
  8
0
 10
-250.140625
 20
115.962502
 11
-250.371567
 21
116.362495
  0
LINE
  8
0
 10
-250.140610
 20
110.962502
 11
-250.371552
 21
110.562508
  0
LINE
  8
0
 10
-243.540619
 20
152.062500
 11
-243.140625
 21
152.293442
  0
LINE
  8
0
 10
-244.597244
 20
152.293427
 11
-244.597244
 21
154.731567
  0
LINE
  8
0
 10
-248.212296
 20
154.962494
 11
-246.540604
 21
154.962494
  0
LINE
  8
0
 10
-248.540619
 20
152.062500
 11
-248.940613
 21
152.293442
  0
LINE
  8
0
 10
-248.940613
 20
152.293427
 11
-248.940613
 21
154.731567
  0
LINE
  8
0
 10
-243.140625
 20
152.293427
 11
-243.140625
 21
154.731567
  0
LINE
  8
0
 10
-247.484177
 20
154.731567
 11
-247.484177
 21
152.293442
  0
LINE
  8
0
 10
-243.240616
 20
151.462494
 11
-243.240616
 21
152.062500
  0
LINE
  8
0
 10
-248.840622
 20
152.062500
 11
-243.240616
 21
152.062500
  0
LINE
  8
0
 10
-248.840622
 20
151.462494
 11
-248.840622
 21
152.062500
  0
LINE
  8
0
 10
-246.040619
 20
91.967659
 11
-246.040619
 21
158.366135
  0
LINE
  8
0
 10
-258.040619
 20
112.387604
 11
-258.040619
 21
114.537399
  0
LINE
  8
0
 10
-256.540619
 20
112.012505
 11
-256.540619
 21
114.912506
  0
LINE
  8
0
 10
-255.040619
 20
112.012505
 11
-255.040619
 21
114.912506
  0
LINE
  8
0
 10
-256.540619
 20
112.212494
 11
-255.040619
 21
112.012489
  0
LINE
  8
0
 10
-256.540619
 20
114.712509
 11
-255.040619
 21
114.912514
  0
LINE
  8
0
 10
-257.867065
 20
112.189354
 11
-256.540619
 21
112.012497
  0
LINE
  8
0
 10
-257.867065
 20
114.735641
 11
-256.540619
 21
114.912506
  0
LINE
  8
0
 10
-254.940613
 20
112.212502
 11
-253.140625
 21
112.212502
  0
LINE
  8
0
 10
-254.940613
 20
114.712502
 11
-253.140625
 21
114.712502
  0
LINE
  8
0
 10
-253.040619
 20
111.290817
 11
-253.040619
 21
115.634193
  0
LINE
  8
0
 10
-250.371552
 20
110.562500
 11
-252.809677
 21
110.562500
  0
LINE
  8
0
 10
-250.371552
 20
116.362503
 11
-252.809677
 21
116.362503
  0
LINE
  8
0
 10
-250.371552
 20
114.905876
 11
-252.809677
 21
114.905876
  0
LINE
  8
0
 10
-252.809677
 20
112.019066
 11
-250.371552
 21
112.019066
  0
LINE
  8
0
 10
-250.140625
 20
110.662506
 11
-250.140625
 21
116.262497
  0
LINE
  8
0
 10
-249.540619
 20
110.662506
 11
-250.140610
 21
110.662506
  0
LINE
  8
0
 10
-249.540619
 20
116.262497
 11
-250.140610
 21
116.262497
  0
LINE
  8
0
 10
-246.540619
 20
154.962494
 11
-246.540619
 21
153.962494
  0
LINE
  8
0
 10
-246.540619
 20
153.962494
 11
-245.540619
 21
153.962494
  0
LINE
  8
0
 10
-245.540619
 20
153.962494
 11
-245.540619
 21
154.962494
  0
LINE
  8
0
 10
-245.540604
 20
154.962494
 11
-243.868927
 21
154.962494
  0
LINE
  8
0
 10
-239.040604
 20
148.129486
 11
-239.790604
 21
148.562500
  0
LINE
  8
0
 10
-253.040619
 20
148.129517
 11
-252.290619
 21
148.562531
  0
LINE
  8
0
  6
PHANTOM
 10
-239.040619
 20
123.995514
 11
-239.040619
 21
128.562500
  0
LINE
  8
0
  6
PHANTOM
 10
-253.040619
 20
123.995514
 11
-253.040619
 21
128.562500
  0
LINE
  8
0
  6
PHANTOM
 10
-239.790619
 20
123.562500
 11
-239.790619
 21
128.562500
  0
LINE
  8
0
  6
PHANTOM
 10
-252.290619
 20
123.562500
 11
-252.290619
 21
128.562500
  0
LINE
  8
0
  6
PHANTOM
 10
-239.790619
 20
123.562515
 11
-239.040619
 21
123.995529
  0
LINE
  8
0
  6
PHANTOM
 10
-252.290604
 20
123.562508
 11
-253.040604
 21
123.995522
  0
LINE
  8
0
  6
PHANTOM
 10
-252.290619
 20
123.562500
 11
-239.790619
 21
123.562500
  0
LINE
  8
0
 10
-242.540619
 20
151.462494
 11
-242.540619
 21
149.162506
  0
LINE
  8
0
 10
-241.390610
 20
149.162506
 11
-250.690613
 21
149.162506
  0
LINE
  8
0
 10
-249.540619
 20
149.162506
 11
-249.540619
 21
151.462494
  0
LINE
  8
0
 10
-249.540619
 20
151.462494
 11
-242.540619
 21
151.462494
  0
LINE
  8
0
 10
-241.390625
 20
149.162506
 11
-241.390625
 21
148.562500
  0
LINE
  8
0
 10
-250.690613
 20
149.162506
 11
-250.690613
 21
148.562500
  0
LINE
  8
0
 10
-252.040619
 20
118.562500
 11
-240.040619
 21
118.562500
  0
LINE
  8
0
 10
-252.040619
 20
119.362503
 11
-240.040619
 21
119.362503
  0
LINE
  8
0
 10
-252.040619
 20
118.562500
 11
-252.040619
 21
119.362503
  0
LINE
  8
0
 10
-240.040619
 20
118.562500
 11
-240.040619
 21
119.362503
  0
LINE
  8
0
 10
-251.540619
 20
116.912498
 11
-251.540619
 21
129.712494
  0
LINE
  8
0
 10
-240.540619
 20
117.045837
 11
-240.540619
 21
129.845825
  0
LINE
  8
0
  6
PHANTOM
 10
-240.202835
 20
120.412720
 11
-240.202835
 21
127.167290
  0
LINE
  8
0
  6
PHANTOM
 10
-240.902832
 20
120.361816
 11
-240.902832
 21
127.042168
  0
LINE
  8
0
  6
PHANTOM
 10
-251.196136
 20
120.737183
 11
-251.196136
 21
127.402298
  0
LINE
  8
0
  6
PHANTOM
 10
-251.896133
 20
120.796616
 11
-251.896133
 21
127.480095
  0
LINE
  8
0
 10
-249.540619
 20
120.062500
 11
-249.540619
 21
120.376366
  0
LINE
  8
0
 10
-254.540619
 20
133.562485
 11
-255.840622
 21
134.313034
  0
LINE
  8
0
 10
-254.540588
 20
138.562469
 11
-255.840591
 21
137.811905
  0
LINE
  8
0
 10
-255.840622
 20
134.313065
 11
-255.840622
 21
137.811935
  0
LINE
  8
0
 10
-254.540604
 20
133.562500
 11
-237.540604
 21
133.562500
  0
LINE
  8
0
 10
-254.540604
 20
138.562500
 11
-237.540588
 21
138.562500
  0
LINE
  8
0
 10
-237.540604
 20
133.562469
 11
-236.240601
 21
134.313034
  0
LINE
  8
0
 10
-236.240616
 20
134.313065
 11
-236.240616
 21
137.811935
  0
LINE
  8
0
 10
-237.540619
 20
138.562500
 11
-236.240631
 21
137.811951
  0
LINE
  8
0
 10
-254.540604
 20
138.562485
 11
-255.840591
 21
137.811935
  0
LINE
  8
0
 10
-241.133148
 20
134.313065
 11
-241.133148
 21
137.811935
  0
LINE
  8
0
 10
-250.948090
 20
134.313065
 11
-250.948090
 21
137.811935
  0
LINE
  8
0
 10
-254.540619
 20
138.562485
 11
-255.840622
 21
139.313049
  0
LINE
  8
0
 10
-254.540588
 20
143.562469
 11
-255.840591
 21
142.811905
  0
LINE
  8
0
 10
-255.840622
 20
139.313065
 11
-255.840622
 21
142.811935
  0
LINE
  8
0
 10
-254.540604
 20
138.562500
 11
-237.540604
 21
138.562500
  0
LINE
  8
0
 10
-254.540604
 20
143.562500
 11
-237.540588
 21
143.562500
  0
LINE
  8
0
 10
-237.540604
 20
138.562485
 11
-236.240616
 21
139.313034
  0
LINE
  8
0
 10
-236.240616
 20
139.313065
 11
-236.240616
 21
142.811935
  0
LINE
  8
0
 10
-237.540619
 20
143.562515
 11
-236.240631
 21
142.811966
  0
LINE
  8
0
 10
-254.540604
 20
143.562500
 11
-255.840607
 21
142.811935
  0
LINE
  8
0
 10
-241.133148
 20
139.313065
 11
-241.133148
 21
142.811935
  0
LINE
  8
0
 10
-250.948090
 20
139.313065
 11
-250.948090
 21
142.811935
  0
LINE
  8
0
 10
-239.790619
 20
143.562500
 11
-239.790619
 21
148.562500
  0
LINE
  8
0
 10
-239.040619
 20
143.562500
 11
-239.040619
 21
148.129486
  0
LINE
  8
0
 10
-252.290619
 20
143.562500
 11
-252.290619
 21
148.562500
  0
LINE
  8
0
 10
-253.040619
 20
143.562500
 11
-253.040619
 21
148.129486
  0
LINE
  8
0
  6
PHANTOM
 10
-253.040619
 20
123.995514
 11
-239.040619
 21
123.995514
  0
LINE
  8
0
 10
-253.040619
 20
148.129486
 11
-239.040619
 21
148.129486
  0
LINE
  8
0
 10
-249.540619
 20
105.462502
 11
-242.540619
 21
105.462502
  0
LINE
  8
0
 10
-251.540619
 20
120.062500
 11
-240.540619
 21
120.062500
  0
LINE
  8
0
 10
-251.540619
 20
127.862503
 11
-240.540619
 21
127.862503
  0
LINE
  8
0
 10
-240.540619
 20
127.478813
 11
-251.540619
 21
127.862946
  0
LINE
  8
0
 10
-240.540619
 20
126.778389
 11
-251.540619
 21
127.162514
  0
LINE
  8
0
 10
-240.540619
 20
120.762512
 11
-251.540619
 21
121.146637
  0
LINE
  8
0
 10
-240.540619
 20
120.062080
 11
-251.540619
 21
120.446213
  0
LINE
  8
0
 10
-242.540619
 20
120.832344
 11
-242.540619
 21
126.848221
  0
LINE
  8
0
 10
-249.540619
 20
121.076790
 11
-249.540619
 21
127.092667
  0
LINE
  8
0
 10
-242.540619
 20
127.548645
 11
-242.540619
 21
127.862503
  0
LINE
  8
0
 10
-239.790619
 20
128.562515
 11
-239.040619
 21
128.995529
  0
LINE
  8
0
 10
-239.790619
 20
128.562500
 11
-239.790619
 21
133.562500
  0
LINE
  8
0
 10
-239.040619
 20
128.995514
 11
-239.040619
 21
133.562500
  0
LINE
  8
0
 10
-252.290604
 20
128.562500
 11
-239.790619
 21
128.562500
  0
LINE
  8
0
 10
-253.040619
 20
128.995514
 11
-239.040619
 21
128.995514
  0
LINE
  8
0
 10
-252.290619
 20
128.562500
 11
-252.290619
 21
133.562500
  0
LINE
  8
0
 10
-253.040619
 20
128.995514
 11
-253.040619
 21
133.562500
  0
LINE
  8
0
 10
-252.290604
 20
128.562500
 11
-253.040604
 21
128.995514
  0
LINE
  8
0
 10
-241.540619
 20
99.462502
 11
-241.540619
 21
103.462502
  0
LINE
  8
0
 10
-243.545639
 20
97.457474
 11
-241.540619
 21
99.462494
  0
LINE
  8
0
 10
-243.040619
 20
95.962494
 11
-242.757767
 21
96.245338
  0
LINE
  8
0
 10
-242.757782
 20
96.245346
 11
-243.545654
 21
97.033211
  0
LINE
  8
0
 10
-243.040619
 20
95.962502
 11
-249.040619
 21
95.962502
  0
LINE
  8
0
 10
-241.540619
 20
103.462502
 11
-250.540619
 21
103.462502
  0
LINE
  8
0
 10
-250.540619
 20
99.462502
 11
-250.540619
 21
103.462502
  0
LINE
  8
0
 10
-248.535599
 20
97.457489
 11
-250.540619
 21
99.462509
  0
LINE
  8
0
 10
-249.040619
 20
95.962494
 11
-249.323471
 21
96.245338
  0
LINE
  8
0
 10
-249.323456
 20
96.245346
 11
-248.535599
 21
97.033218
  0
LINE
  8
0
 10
-242.757782
 20
96.245346
 11
-249.323456
 21
96.245346
  0
LINE
  8
0
 10
-248.126617
 20
97.245346
 11
-243.907959
 21
97.245346
  0
LINE
  8
0
 10
-250.540619
 20
99.462502
 11
-241.540619
 21
99.462502
  0
ARC
  8
0
 10
-251.404526
 20
111.290817
 40
1.263911
 50
324.813843
 51
35.186165
  0
ARC
  8
0
 10
-251.404526
 20
115.634186
 40
1.263911
 50
324.813843
 51
35.186165
  0
ARC
  8
0
 10
-254.766678
 20
113.462502
 40
4.626064
 50
341.819641
 51
18.180359
  0
ARC
  8
0
 10
-243.868927
 20
153.326416
 40
1.263919
 50
234.814514
 51
305.186035
  0
ARC
  8
0
 10
-246.040604
 20
156.688568
 40
4.626083
 50
251.819519
 51
288.180115
  0
ARC
  8
0
 10
-248.212296
 20
153.698578
 40
1.263919
 50
54.814518
 51
125.186050
  0
ARC
  8
0
 10
-248.212296
 20
153.326416
 40
1.263928
 50
234.813950
 51
305.185486
  0
ARC
  8
0
 10
-243.868927
 20
153.698578
 40
1.263928
 50
54.813953
 51
125.185478
  0
ARC
  8
0
 10
-246.040619
 20
150.336426
 40
4.626083
 50
71.819519
 51
83.795174
  0
ARC
  8
0
 10
-257.840607
 20
114.537399
 40
0.200000
 50
97.602158
 51
180.000000
  0
ARC
  8
0
 10
-254.940613
 20
112.112503
 40
0.099998
 50
90.000000
 51
180.000000
  0
ARC
  8
0
 10
-254.940613
 20
114.812508
 40
0.100006
 50
180.000000
 51
270.000000
  0
ARC
  8
0
 10
-257.840607
 20
112.387604
 40
0.200012
 50
180.000000
 51
262.397858
  0
ARC
  8
0
 10
-253.140625
 20
114.812508
 40
0.099998
 50
270.000000
 51
0.000000
  0
ARC
  8
0
 10
-253.140625
 20
112.112503
 40
0.100006
 50
0.000000
 51
90.000000
  0
ARC
  8
0
 10
-251.776703
 20
115.634186
 40
1.263911
 50
144.813843
 51
215.186157
  0
ARC
  8
0
 10
-251.776703
 20
111.290817
 40
1.263911
 50
144.813843
 51
215.186157
  0
ARC
  8
0
 10
-248.414551
 20
113.462502
 40
4.626066
 50
161.819550
 51
198.180267
  0
ARC
  8
0
 10
-246.040619
 20
150.336426
 40
4.626067
 50
96.204643
 51
108.180122
  0
CIRCLE
  8
0
 10
-251.540619
 20
128.212494
 40
0.350000
  0
CIRCLE
  8
0
 10
-240.540619
 20
128.212494
 40
0.350000
  0
CIRCLE
  8
0
 10
-240.540619
 20
119.712502
 40
0.350000
  0
CIRCLE
  8
0
 10
-251.540619
 20
119.712502
 40
0.350000
  0
CIRCLE
  8
0
 10
-251.546127
 20
120.796616
 40
0.350000
  0
CIRCLE
  8
0
 10
-240.552826
 20
120.412720
 40
0.350000
  0
CIRCLE
  8
0
 10
-240.535095
 20
127.128395
 40
0.350000
  0
CIRCLE
  8
0
 10
-251.528397
 20
127.512291
 40
0.350000
  0
ARC
  8
0
 10
-253.394348
 20
137.924240
 40
4.361739
 50
235.885757
 51
304.114227
  0
ARC
  8
0
 10
-238.686874
 20
137.924240
 40
4.361739
 50
235.885757
 51
304.114227
  0
ARC
  8
0
 10
-246.040619
 20
149.981262
 40
16.418756
 50
252.608856
 51
287.391205
  0
ARC
  8
0
 10
-238.686874
 20
134.200760
 40
4.361739
 50
55.885761
 51
124.114235
  0
ARC
  8
0
 10
-246.040619
 20
122.143730
 40
16.418772
 50
72.608765
 51
107.391136
  0
ARC
  8
0
 10
-253.394348
 20
134.200760
 40
4.361739
 50
55.885761
 51
124.114235
  0
ARC
  8
0
 10
-238.686874
 20
139.200760
 40
4.361739
 50
55.885761
 51
124.114235
  0
ARC
  8
0
 10
-253.394348
 20
139.200760
 40
4.361739
 50
55.885761
 51
124.114235
  0
ARC
  8
0
 10
-238.686874
 20
142.924240
 40
4.361739
 50
235.885757
 51
304.114227
  0
ARC
  8
0
 10
-246.040619
 20
127.143730
 40
16.418772
 50
72.608765
 51
107.391136
  0
ARC
  8
0
 10
-246.040604
 20
154.981262
 40
16.418760
 50
252.608810
 51
287.391144
  0
ARC
  8
0
 10
-253.394348
 20
142.924240
 40
4.361739
 50
235.885757
 51
304.114227
  0
ARC
  8
0
 10
-243.333511
 20
97.245346
 40
0.299994
 50
135.000000
 51
225.000000
  0
ARC
  8
0
 10
-248.747726
 20
97.245346
 40
0.299994
 50
315.000000
 51
45.000000
  0
POINT
  8
0
 10
-246.040619
 20
54.687500
  0
POINT
  8
0
 10
-236.225662
 20
54.687500
  0
LINE
  8
0
 10
-246.040619
 20
44.392761
 11
-246.040619
 21
64.924713
  0
LINE
  8
0
 10
-253.040619
 20
52.187500
 11
-253.040619
 21
57.187500
  0
LINE
  8
0
 10
-258.040619
 20
53.612602
 11
-258.040619
 21
55.762398
  0
LINE
  8
0
 10
-256.540619
 20
53.237499
 11
-256.540619
 21
56.137501
  0
LINE
  8
0
 10
-255.040619
 20
53.237499
 11
-255.040619
 21
56.137505
  0
LINE
  8
0
 10
-256.540619
 20
53.437496
 11
-255.040619
 21
53.237492
  0
LINE
  8
0
 10
-256.540619
 20
55.937504
 11
-255.040619
 21
56.137505
  0
LINE
  8
0
 10
-257.867065
 20
53.414349
 11
-256.540619
 21
53.237492
  0
LINE
  8
0
 10
-257.867065
 20
55.960644
 11
-256.540619
 21
56.137501
  0
LINE
  8
0
 10
-254.940613
 20
53.437500
 11
-253.140625
 21
53.437500
  0
LINE
  8
0
 10
-254.940613
 20
55.937500
 11
-253.140625
 21
55.937500
  0
LINE
  8
0
 10
-260.144470
 20
54.687500
 11
-234.333633
 21
54.687500
  0
LINE
  8
0
 10
-242.540619
 20
54.687500
 11
-242.540619
 21
54.687500
  0
LINE
  8
0
 10
-241.040619
 20
54.687500
 11
-241.040619
 21
54.687500
  0
LINE
  8
0
 10
-249.540619
 20
54.687500
 11
-249.540619
 21
54.687500
  0
LINE
  8
0
 10
-251.040619
 20
54.687500
 11
-251.040619
 21
54.687500
  0
LINE
  8
0
 10
-251.040619
 20
54.687500
 11
-251.040619
 21
54.687500
  0
LINE
  8
0
 10
-241.040619
 20
54.687500
 11
-241.040619
 21
54.687500
  0
LINE
  8
0
 10
-253.040619
 20
52.187500
 11
-250.140625
 21
52.187500
  0
LINE
  8
0
 10
-253.040619
 20
57.187500
 11
-250.140625
 21
57.187500
  0
LINE
  8
0
 10
-250.948105
 20
46.187500
 11
-241.133148
 21
46.187500
  0
LINE
  8
0
 10
-250.948090
 20
63.187500
 11
-241.133133
 21
63.187500
  0
LINE
  8
0
 10
-236.225662
 20
54.687500
 11
-241.133148
 21
63.187500
  0
LINE
  8
0
 10
-250.948105
 20
46.187496
 11
-255.016571
 21
53.234295
  0
LINE
  8
0
 10
-255.016556
 20
56.140717
 11
-250.948090
 21
63.187500
  0
LINE
  8
0
 10
-241.133148
 20
46.187500
 11
-236.225662
 21
54.687500
  0
LINE
  8
0
 10
-251.323456
 20
54.687500
 11
-252.809677
 21
54.687500
  0
LINE
  8
0
 10
-247.040619
 20
51.187500
 11
-245.040619
 21
51.187500
  0
LINE
  8
0
 10
-247.040619
 20
58.187500
 11
-245.040619
 21
58.187500
  0
LINE
  8
0
 10
-241.540619
 20
54.687500
 11
-241.540619
 21
54.687500
  0
LINE
  8
0
 10
-250.540619
 20
54.687500
 11
-250.540619
 21
54.687500
  0
ARC
  8
0
 10
-254.940613
 20
53.337502
 40
0.099998
 50
90.000000
 51
180.000000
  0
ARC
  8
0
 10
-253.140625
 20
53.337502
 40
0.100006
 50
0.000000
 51
90.000000
  0
ARC
  8
0
 10
-254.940613
 20
56.037502
 40
0.100006
 50
180.000000
 51
270.000000
  0
ARC
  8
0
 10
-253.140625
 20
56.037502
 40
0.099998
 50
270.000000
 51
0.000000
  0
ARC
  8
0
 10
-257.840637
 20
53.612602
 40
0.199982
 50
180.000000
 51
262.406647
  0
ARC
  8
0
 10
-257.840637
 20
55.762398
 40
0.200000
 50
97.593346
 51
180.000000
  0
ARC
  8
0
 10
-253.639038
 20
55.937504
 40
3.498414
 50
18.514271
 51
20.934704
  0
ARC
  8
0
 10
-253.639038
 20
53.437504
 40
3.498425
 50
339.065247
 51
341.485596
  0
ARC
  8
0
 10
-249.542206
 20
55.937500
 40
3.498410
 50
159.065201
 51
200.934799
  0
ARC
  8
0
 10
-249.542206
 20
53.437500
 40
3.498410
 50
159.065201
 51
200.934845
  0
ARC
  8
0
 10
-246.040619
 20
54.687500
 40
8.500000
 50
90.000000
 51
171.543457
  0
ARC
  8
0
 10
-246.040619
 20
54.687500
 40
8.500008
 50
188.456543
 51
90.000000
  0
ARC
  8
0
 10
-246.040619
 20
54.687500
 40
7.000000
 50
90.000000
 51
150.000000
  0
ARC
  8
0
 10
-246.040619
 20
54.687500
 40
7.000000
 50
90.000000
 51
159.075165
  0
ARC
  8
0
 10
-246.040619
 20
54.687500
 40
7.000001
 50
29.999992
 51
90.000000
  0
ARC
  8
0
 10
-246.040619
 20
54.687500
 40
6.999999
 50
200.924866
 51
90.000000
  0
CIRCLE
  8
0
 10
-246.040619
 20
54.687500
 40
3.000000
  0
CIRCLE
  8
0
 10
-246.040619
 20
54.687500
 40
3.282843
  0
ARC
  8
0
 10
-245.040619
 20
54.687500
 40
3.500000
 50
270.000000
 51
90.000000
  0
ARC
  8
0
 10
-247.040619
 20
54.687500
 40
3.500000
 50
90.000000
 51
270.000000
  0
CIRCLE
  8
0
 10
-246.040619
 20
54.687500
 40
1.000000
  0
POINT
  8
0
 10
-165.821884
 20
138.562500
  0
LINE
  8
0
 10
-172.121887
 20
103.462502
 11
-172.121887
 21
118.562500
  0
LINE
  8
0
 10
-179.121887
 20
103.462502
 11
-179.121887
 21
118.562500
  0
LINE
  8
0
 10
-181.871872
 20
148.562500
 11
-169.371887
 21
148.562500
  0
LINE
  8
0
 10
-189.442093
 20
113.462502
 11
-176.955215
 21
113.462502
  0
LINE
  8
0
 10
-179.721893
 20
115.962502
 11
-179.952835
 21
116.362495
  0
LINE
  8
0
 10
-179.721878
 20
110.962502
 11
-179.952820
 21
110.562508
  0
LINE
  8
0
 10
-173.121887
 20
152.062500
 11
-172.721893
 21
152.293442
  0
LINE
  8
0
 10
-174.178513
 20
152.293427
 11
-174.178513
 21
154.731567
  0
LINE
  8
0
 10
-177.793564
 20
154.962494
 11
-176.121872
 21
154.962494
  0
LINE
  8
0
 10
-178.121887
 20
152.062500
 11
-178.521881
 21
152.293442
  0
LINE
  8
0
 10
-178.521881
 20
152.293427
 11
-178.521881
 21
154.731567
  0
LINE
  8
0
 10
-172.721893
 20
152.293427
 11
-172.721893
 21
154.731567
  0
LINE
  8
0
 10
-177.065445
 20
154.731567
 11
-177.065445
 21
152.293442
  0
LINE
  8
0
 10
-172.821884
 20
151.462494
 11
-172.821884
 21
152.062500
  0
LINE
  8
0
 10
-178.421890
 20
152.062500
 11
-172.821884
 21
152.062500
  0
LINE
  8
0
 10
-178.421890
 20
151.462494
 11
-178.421890
 21
152.062500
  0
LINE
  8
0
 10
-175.621887
 20
91.967659
 11
-175.621887
 21
157.412506
  0
LINE
  8
0
 10
-187.621887
 20
112.387604
 11
-187.621887
 21
114.537399
  0
LINE
  8
0
 10
-186.121887
 20
112.012505
 11
-186.121887
 21
114.912506
  0
LINE
  8
0
 10
-184.621887
 20
112.012505
 11
-184.621887
 21
114.912506
  0
LINE
  8
0
 10
-186.121887
 20
112.212479
 11
-184.621887
 21
112.012482
  0
LINE
  8
0
 10
-186.121887
 20
114.712509
 11
-184.621887
 21
114.912514
  0
LINE
  8
0
 10
-187.448318
 20
112.189346
 11
-186.121887
 21
112.012482
  0
LINE
  8
0
 10
-187.448318
 20
114.735641
 11
-186.121887
 21
114.912506
  0
LINE
  8
0
 10
-184.521881
 20
112.212502
 11
-182.721893
 21
112.212502
  0
LINE
  8
0
 10
-184.521881
 20
114.712502
 11
-182.721893
 21
114.712502
  0
LINE
  8
0
 10
-182.621887
 20
111.290817
 11
-182.621887
 21
115.634193
  0
LINE
  8
0
 10
-179.952820
 20
110.562500
 11
-182.390945
 21
110.562500
  0
LINE
  8
0
 10
-179.952820
 20
116.362503
 11
-182.390945
 21
116.362503
  0
LINE
  8
0
 10
-179.952820
 20
114.905876
 11
-182.390945
 21
114.905876
  0
LINE
  8
0
 10
-182.390945
 20
112.019066
 11
-179.952820
 21
112.019066
  0
LINE
  8
0
 10
-179.721893
 20
110.662506
 11
-179.721893
 21
116.262497
  0
LINE
  8
0
 10
-179.121887
 20
110.662506
 11
-179.721878
 21
110.662506
  0
LINE
  8
0
 10
-179.121887
 20
116.262497
 11
-179.721878
 21
116.262497
  0
LINE
  8
0
 10
-176.121887
 20
154.962494
 11
-176.121887
 21
153.962494
  0
LINE
  8
0
 10
-176.121887
 20
153.962494
 11
-175.121887
 21
153.962494
  0
LINE
  8
0
 10
-175.121887
 20
153.962494
 11
-175.121887
 21
154.962494
  0
LINE
  8
0
 10
-175.121872
 20
154.962494
 11
-173.450195
 21
154.962494
  0
LINE
  8
0
 10
-168.621872
 20
148.129486
 11
-169.371872
 21
148.562500
  0
LINE
  8
0
 10
-182.621887
 20
148.129517
 11
-181.871887
 21
148.562531
  0
LINE
  8
0
  6
PHANTOM
 10
-168.621887
 20
123.995514
 11
-168.621887
 21
128.562500
  0
LINE
  8
0
  6
PHANTOM
 10
-182.621887
 20
123.995514
 11
-182.621887
 21
128.562500
  0
LINE
  8
0
  6
PHANTOM
 10
-169.371887
 20
123.562500
 11
-169.371887
 21
128.562500
  0
LINE
  8
0
  6
PHANTOM
 10
-181.871887
 20
123.562500
 11
-181.871887
 21
128.562500
  0
LINE
  8
0
  6
PHANTOM
 10
-169.371887
 20
123.562515
 11
-168.621887
 21
123.995529
  0
LINE
  8
0
  6
PHANTOM
 10
-181.871872
 20
123.562508
 11
-182.621872
 21
123.995522
  0
LINE
  8
0
  6
PHANTOM
 10
-181.871887
 20
123.562500
 11
-169.371887
 21
123.562500
  0
LINE
  8
0
 10
-172.121887
 20
151.462494
 11
-172.121887
 21
149.162506
  0
LINE
  8
0
 10
-170.971878
 20
149.162506
 11
-180.271881
 21
149.162506
  0
LINE
  8
0
 10
-179.121887
 20
149.162506
 11
-179.121887
 21
151.462494
  0
LINE
  8
0
 10
-179.121887
 20
151.462494
 11
-172.121887
 21
151.462494
  0
LINE
  8
0
 10
-170.971893
 20
149.162506
 11
-170.971893
 21
148.562500
  0
LINE
  8
0
 10
-180.271881
 20
149.162506
 11
-180.271881
 21
148.562500
  0
LINE
  8
0
 10
-181.621887
 20
118.562500
 11
-169.621887
 21
118.562500
  0
LINE
  8
0
 10
-181.621887
 20
119.362503
 11
-169.621887
 21
119.362503
  0
LINE
  8
0
 10
-181.621887
 20
118.562500
 11
-181.621887
 21
119.362503
  0
LINE
  8
0
 10
-169.621887
 20
118.562500
 11
-169.621887
 21
119.362503
  0
LINE
  8
0
 10
-181.121887
 20
116.912498
 11
-181.121887
 21
129.712494
  0
LINE
  8
0
 10
-170.121887
 20
117.045837
 11
-170.121887
 21
129.845825
  0
LINE
  8
0
  6
PHANTOM
 10
-169.784103
 20
120.412720
 11
-169.784103
 21
127.167290
  0
LINE
  8
0
  6
PHANTOM
 10
-170.484100
 20
120.361816
 11
-170.484100
 21
127.042168
  0
LINE
  8
0
  6
PHANTOM
 10
-180.777405
 20
120.737183
 11
-180.777405
 21
127.402298
  0
LINE
  8
0
  6
PHANTOM
 10
-181.477402
 20
120.796616
 11
-181.477402
 21
127.480095
  0
LINE
  8
0
 10
-179.121887
 20
120.062500
 11
-179.121887
 21
120.376366
  0
LINE
  8
0
 10
-184.121887
 20
133.562485
 11
-185.421890
 21
134.313049
  0
LINE
  8
0
 10
-184.121857
 20
138.562469
 11
-185.421860
 21
137.811905
  0
LINE
  8
0
 10
-185.421890
 20
134.313065
 11
-185.421890
 21
137.811935
  0
LINE
  8
0
 10
-184.121872
 20
133.562500
 11
-167.121872
 21
133.562500
  0
LINE
  8
0
 10
-184.121872
 20
138.562500
 11
-167.121857
 21
138.562500
  0
LINE
  8
0
 10
-167.121872
 20
133.562469
 11
-165.821869
 21
134.313034
  0
LINE
  8
0
 10
-165.821884
 20
134.313065
 11
-165.821884
 21
137.811935
  0
LINE
  8
0
 10
-167.121887
 20
138.562500
 11
-165.821899
 21
137.811951
  0
LINE
  8
0
 10
-184.121872
 20
138.562485
 11
-185.421860
 21
137.811935
  0
LINE
  8
0
 10
-170.714417
 20
134.313065
 11
-170.714417
 21
137.811935
  0
LINE
  8
0
 10
-180.529358
 20
134.313065
 11
-180.529358
 21
137.811935
  0
LINE
  8
0
 10
-184.121887
 20
138.562485
 11
-185.421890
 21
139.313049
  0
LINE
  8
0
 10
-184.121857
 20
143.562469
 11
-185.421860
 21
142.811905
  0
LINE
  8
0
 10
-185.421890
 20
139.313065
 11
-185.421890
 21
142.811935
  0
LINE
  8
0
 10
-184.121872
 20
138.562500
 11
-167.121872
 21
138.562500
  0
LINE
  8
0
 10
-184.121872
 20
143.562500
 11
-167.121857
 21
143.562500
  0
LINE
  8
0
 10
-167.121872
 20
138.562485
 11
-165.821884
 21
139.313034
  0
LINE
  8
0
 10
-165.821884
 20
139.313065
 11
-165.821884
 21
142.811935
  0
LINE
  8
0
 10
-167.121887
 20
143.562515
 11
-165.821899
 21
142.811966
  0
LINE
  8
0
 10
-184.121872
 20
143.562500
 11
-185.421875
 21
142.811935
  0
LINE
  8
0
 10
-170.714417
 20
139.313065
 11
-170.714417
 21
142.811935
  0
LINE
  8
0
 10
-180.529358
 20
139.313065
 11
-180.529358
 21
142.811935
  0
LINE
  8
0
 10
-169.371887
 20
143.562500
 11
-169.371887
 21
148.562500
  0
LINE
  8
0
 10
-168.621887
 20
143.562500
 11
-168.621887
 21
148.129486
  0
LINE
  8
0
 10
-181.871887
 20
143.562500
 11
-181.871887
 21
148.562500
  0
LINE
  8
0
 10
-182.621887
 20
143.562500
 11
-182.621887
 21
148.129486
  0
LINE
  8
0
  6
PHANTOM
 10
-182.621887
 20
123.995514
 11
-168.621887
 21
123.995514
  0
LINE
  8
0
 10
-182.621887
 20
148.129486
 11
-168.621887
 21
148.129486
  0
LINE
  8
0
 10
-179.121887
 20
105.462502
 11
-172.121887
 21
105.462502
  0
LINE
  8
0
 10
-181.121887
 20
120.062500
 11
-170.121887
 21
120.062500
  0
LINE
  8
0
 10
-181.121887
 20
127.862503
 11
-170.121887
 21
127.862503
  0
LINE
  8
0
 10
-170.121887
 20
127.478813
 11
-181.121887
 21
127.862946
  0
LINE
  8
0
 10
-170.121887
 20
126.778389
 11
-181.121887
 21
127.162514
  0
LINE
  8
0
 10
-170.121887
 20
120.762512
 11
-181.121887
 21
121.146637
  0
LINE
  8
0
 10
-170.121887
 20
120.062080
 11
-181.121887
 21
120.446213
  0
LINE
  8
0
 10
-172.121887
 20
120.832344
 11
-172.121887
 21
126.848221
  0
LINE
  8
0
 10
-179.121887
 20
121.076790
 11
-179.121887
 21
127.092667
  0
LINE
  8
0
 10
-172.121887
 20
127.548645
 11
-172.121887
 21
127.862503
  0
LINE
  8
0
 10
-169.371887
 20
128.562515
 11
-168.621887
 21
128.995529
  0
LINE
  8
0
 10
-169.371887
 20
128.562500
 11
-169.371887
 21
133.562500
  0
LINE
  8
0
 10
-168.621887
 20
128.995514
 11
-168.621887
 21
133.562500
  0
LINE
  8
0
 10
-181.871872
 20
128.562500
 11
-169.371887
 21
128.562500
  0
LINE
  8
0
 10
-182.621887
 20
128.995514
 11
-168.621887
 21
128.995514
  0
LINE
  8
0
 10
-181.871887
 20
128.562500
 11
-181.871887
 21
133.562500
  0
LINE
  8
0
 10
-182.621887
 20
128.995514
 11
-182.621887
 21
133.562500
  0
LINE
  8
0
 10
-181.871872
 20
128.562500
 11
-182.621872
 21
128.995514
  0
LINE
  8
0
 10
-179.621887
 20
95.962502
 11
-171.621887
 21
95.962502
  0
LINE
  8
0
 10
-180.121887
 20
103.462502
 11
-171.121887
 21
103.462502
  0
LINE
  8
0
 10
-180.121887
 20
99.462502
 11
-180.121887
 21
103.462502
  0
LINE
  8
0
 10
-179.621902
 20
95.962494
 11
-179.914719
 21
96.255318
  0
LINE
  8
0
 10
-178.473541
 20
97.814148
 11
-180.121887
 21
99.462494
  0
LINE
  8
0
 10
-179.914703
 20
96.255310
 11
-178.577087
 21
97.027588
  0
LINE
  8
0
 10
-171.121887
 20
99.462502
 11
-171.121887
 21
103.462502
  0
LINE
  8
0
 10
-171.621887
 20
95.962502
 11
-171.329071
 21
96.255325
  0
LINE
  8
0
 10
-172.770218
 20
97.814148
 11
-171.121872
 21
99.462494
  0
LINE
  8
0
 10
-171.329071
 20
96.255310
 11
-172.666687
 21
97.027588
  0
LINE
  8
0
 10
-171.329071
 20
96.255325
 11
-179.914703
 21
96.255325
  0
LINE
  8
0
 10
-178.169891
 20
97.353401
 11
-173.073883
 21
97.353401
  0
LINE
  8
0
 10
-171.121887
 20
99.462502
 11
-180.121887
 21
99.462502
  0
ARC
  8
0
 10
-180.985794
 20
111.290817
 40
1.263911
 50
324.813843
 51
35.186165
  0
ARC
  8
0
 10
-180.985794
 20
115.634186
 40
1.263911
 50
324.813843
 51
35.186165
  0
ARC
  8
0
 10
-184.347946
 20
113.462502
 40
4.626064
 50
341.819641
 51
18.180359
  0
ARC
  8
0
 10
-173.450195
 20
153.326416
 40
1.263919
 50
234.814514
 51
305.186035
  0
ARC
  8
0
 10
-175.621872
 20
156.688568
 40
4.626083
 50
251.819519
 51
288.180115
  0
ARC
  8
0
 10
-177.793564
 20
153.698578
 40
1.263919
 50
54.814518
 51
125.186050
  0
ARC
  8
0
 10
-177.793564
 20
153.326416
 40
1.263928
 50
234.813950
 51
305.185486
  0
ARC
  8
0
 10
-173.450195
 20
153.698578
 40
1.263928
 50
54.813953
 51
125.185478
  0
ARC
  8
0
 10
-175.621887
 20
150.336426
 40
4.626083
 50
71.819519
 51
83.795174
  0
ARC
  8
0
 10
-187.421890
 20
114.537399
 40
0.199996
 50
97.593491
 51
180.000000
  0
ARC
  8
0
 10
-184.521881
 20
112.112503
 40
0.099998
 50
90.000000
 51
180.000000
  0
ARC
  8
0
 10
-184.521881
 20
114.812508
 40
0.100006
 50
180.000000
 51
270.000000
  0
ARC
  8
0
 10
-187.421890
 20
112.387604
 40
0.199997
 50
180.000000
 51
262.406525
  0
ARC
  8
0
 10
-182.721893
 20
114.812508
 40
0.099998
 50
270.000000
 51
0.000000
  0
ARC
  8
0
 10
-182.721893
 20
112.112503
 40
0.100006
 50
0.000000
 51
90.000000
  0
ARC
  8
0
 10
-181.357971
 20
115.634186
 40
1.263911
 50
144.813843
 51
215.186157
  0
ARC
  8
0
 10
-181.357971
 20
111.290817
 40
1.263911
 50
144.813843
 51
215.186157
  0
ARC
  8
0
 10
-177.995819
 20
113.462502
 40
4.626066
 50
161.819550
 51
198.180267
  0
ARC
  8
0
 10
-175.621887
 20
150.336426
 40
4.626067
 50
96.204643
 51
108.180122
  0
CIRCLE
  8
0
 10
-181.121887
 20
128.212494
 40
0.350000
  0
CIRCLE
  8
0
 10
-170.121887
 20
128.212494
 40
0.350000
  0
CIRCLE
  8
0
 10
-170.121887
 20
119.712502
 40
0.350000
  0
CIRCLE
  8
0
 10
-181.121887
 20
119.712502
 40
0.350000
  0
CIRCLE
  8
0
 10
-181.127396
 20
120.796616
 40
0.350000
  0
CIRCLE
  8
0
 10
-170.134094
 20
120.412720
 40
0.350000
  0
CIRCLE
  8
0
 10
-170.116364
 20
127.128395
 40
0.350000
  0
CIRCLE
  8
0
 10
-181.109665
 20
127.512291
 40
0.350000
  0
ARC
  8
0
 10
-182.975616
 20
137.924240
 40
4.361739
 50
235.885757
 51
304.114227
  0
ARC
  8
0
 10
-168.268143
 20
137.924240
 40
4.361739
 50
235.885757
 51
304.114227
  0
ARC
  8
0
 10
-175.621887
 20
149.981262
 40
16.418756
 50
252.608856
 51
287.391205
  0
ARC
  8
0
 10
-168.268143
 20
134.200760
 40
4.361739
 50
55.885761
 51
124.114235
  0
ARC
  8
0
 10
-175.621887
 20
122.143730
 40
16.418772
 50
72.608765
 51
107.391136
  0
ARC
  8
0
 10
-182.975616
 20
134.200760
 40
4.361739
 50
55.885761
 51
124.114235
  0
ARC
  8
0
 10
-168.268143
 20
139.200760
 40
4.361739
 50
55.885761
 51
124.114235
  0
ARC
  8
0
 10
-182.975616
 20
139.200760
 40
4.361739
 50
55.885761
 51
124.114235
  0
ARC
  8
0
 10
-168.268143
 20
142.924240
 40
4.361739
 50
235.885757
 51
304.114227
  0
ARC
  8
0
 10
-175.621887
 20
127.143730
 40
16.418772
 50
72.608765
 51
107.391136
  0
ARC
  8
0
 10
-175.621872
 20
154.981262
 40
16.418760
 50
252.608810
 51
287.391144
  0
ARC
  8
0
 10
-182.975616
 20
142.924240
 40
4.361739
 50
235.885757
 51
304.114227
  0
ARC
  8
0
 10
-178.827103
 20
97.460602
 40
0.500001
 50
299.999939
 51
44.999382
  0
ARC
  8
0
 10
-172.416672
 20
97.460602
 40
0.500006
 50
135.000626
 51
240.000076
  0
POINT
  8
0
 10
-175.621887
 20
54.687500
  0
POINT
  8
0
 10
-175.621887
 20
54.687500
  0
POINT
  8
0
 10
-165.806931
 20
54.687500
  0
LINE
  8
0
 10
-175.621887
 20
44.392761
 11
-175.621887
 21
64.924713
  0
LINE
  8
0
 10
-182.621887
 20
52.187500
 11
-182.621887
 21
57.187500
  0
LINE
  8
0
 10
-187.621887
 20
53.612602
 11
-187.621887
 21
55.762398
  0
LINE
  8
0
 10
-186.121887
 20
53.237499
 11
-186.121887
 21
56.137501
  0
LINE
  8
0
 10
-184.621887
 20
53.237499
 11
-184.621887
 21
56.137505
  0
LINE
  8
0
 10
-186.121887
 20
53.437492
 11
-184.621887
 21
53.237492
  0
LINE
  8
0
 10
-186.121887
 20
55.937504
 11
-184.621887
 21
56.137505
  0
LINE
  8
0
 10
-187.448318
 20
53.414349
 11
-186.121887
 21
53.237492
  0
LINE
  8
0
 10
-187.448334
 20
55.960644
 11
-186.121887
 21
56.137501
  0
LINE
  8
0
 10
-184.521881
 20
53.437500
 11
-182.721893
 21
53.437500
  0
LINE
  8
0
 10
-184.521881
 20
55.937500
 11
-182.721893
 21
55.937500
  0
LINE
  8
0
 10
-189.725754
 20
54.687500
 11
-163.914902
 21
54.687500
  0
LINE
  8
0
 10
-172.121887
 20
54.687500
 11
-172.121887
 21
54.687500
  0
LINE
  8
0
 10
-170.621887
 20
54.687500
 11
-170.621887
 21
54.687500
  0
LINE
  8
0
 10
-179.121887
 20
54.687500
 11
-179.121887
 21
54.687500
  0
LINE
  8
0
 10
-180.621887
 20
54.687500
 11
-180.621887
 21
54.687500
  0
LINE
  8
0
 10
-180.621887
 20
54.687500
 11
-180.621887
 21
54.687500
  0
LINE
  8
0
 10
-170.621887
 20
54.687500
 11
-170.621887
 21
54.687500
  0
LINE
  8
0
 10
-182.621887
 20
52.187500
 11
-179.111633
 21
52.187500
  0
LINE
  8
0
 10
-182.621887
 20
57.187500
 11
-179.111633
 21
57.187500
  0
LINE
  8
0
 10
-180.529373
 20
46.187500
 11
-170.714417
 21
46.187500
  0
LINE
  8
0
 10
-180.529358
 20
63.187500
 11
-170.714401
 21
63.187500
  0
LINE
  8
0
 10
-165.806931
 20
54.687500
 11
-170.714417
 21
63.187500
  0
LINE
  8
0
 10
-180.529373
 20
46.187496
 11
-184.597839
 21
53.234295
  0
LINE
  8
0
 10
-184.597824
 20
56.140717
 11
-180.529358
 21
63.187500
  0
LINE
  8
0
 10
-170.714417
 20
46.187500
 11
-165.806931
 21
54.687500
  0
LINE
  8
0
 10
-180.904724
 20
54.687500
 11
-182.390945
 21
54.687500
  0
LINE
  8
0
 10
-171.121887
 20
54.687500
 11
-171.121887
 21
54.687500
  0
LINE
  8
0
 10
-180.121887
 20
54.687500
 11
-180.121887
 21
54.687500
  0
ARC
  8
0
 10
-184.521881
 20
53.337502
 40
0.099998
 50
90.000000
 51
180.000000
  0
ARC
  8
0
 10
-182.721893
 20
53.337502
 40
0.100006
 50
0.000000
 51
90.000000
  0
ARC
  8
0
 10
-184.521881
 20
56.037502
 40
0.100006
 50
180.000000
 51
270.000000
  0
ARC
  8
0
 10
-182.721893
 20
56.037502
 40
0.099998
 50
270.000000
 51
0.000000
  0
ARC
  8
0
 10
-187.421890
 20
53.612602
 40
0.199997
 50
180.000000
 51
262.406647
  0
ARC
  8
0
 10
-187.421890
 20
55.762398
 40
0.200000
 50
97.593346
 51
180.000000
  0
ARC
  8
0
 10
-179.123474
 20
55.937500
 40
3.498410
 50
159.065201
 51
200.934799
  0
ARC
  8
0
 10
-179.123474
 20
53.437500
 40
3.498410
 50
159.065201
 51
200.934845
  0
ARC
  8
0
 10
-175.621887
 20
54.687500
 40
8.500000
 50
90.000000
 51
171.543457
  0
ARC
  8
0
 10
-175.621887
 20
54.687500
 40
8.500008
 50
188.456543
 51
90.000000
  0
ARC
  8
0
 10
-175.621887
 20
54.687500
 40
7.000000
 50
90.000000
 51
150.000000
  0
ARC
  8
0
 10
-175.621887
 20
54.687500
 40
7.000000
 50
90.000000
 51
159.075165
  0
ARC
  8
0
 10
-175.621887
 20
54.687500
 40
6.999999
 50
200.924866
 51
90.000000
  0
CIRCLE
  8
0
 10
-175.621887
 20
54.687500
 40
4.000000
  0
CIRCLE
  8
0
 10
-175.621887
 20
54.687500
 40
4.292821
  0
CIRCLE
  8
0
 10
-175.621887
 20
54.687500
 40
1.000000
  0
ARC
  8
0
 10
-174.621887
 20
54.687500
 40
3.500004
 50
317.710846
 51
42.289165
  0
ARC
  8
0
 10
-176.621887
 20
54.687500
 40
3.500004
 50
137.710831
 51
222.289124
  0
POINT
  8
0
 10
-105.203133
 20
138.562500
  0
POINT
  8
0
 10
-95.403137
 20
138.562500
  0
LINE
  8
0
 10
-101.703133
 20
103.462502
 11
-101.703133
 21
118.562500
  0
LINE
  8
0
 10
-108.703133
 20
103.462502
 11
-108.703133
 21
118.562500
  0
LINE
  8
0
 10
-111.453117
 20
148.562500
 11
-98.953125
 21
148.562500
  0
LINE
  8
0
 10
-119.846870
 20
113.462502
 11
-106.536469
 21
113.462502
  0
LINE
  8
0
 10
-109.303139
 20
115.962502
 11
-109.534081
 21
116.362495
  0
LINE
  8
0
 10
-109.303131
 20
110.962502
 11
-109.534065
 21
110.562508
  0
LINE
  8
0
 10
-102.703133
 20
152.062500
 11
-102.303131
 21
152.293442
  0
LINE
  8
0
 10
-103.759766
 20
152.293427
 11
-103.759766
 21
154.731567
  0
LINE
  8
0
 10
-107.374817
 20
154.962494
 11
-105.703125
 21
154.962494
  0
LINE
  8
0
 10
-107.703125
 20
152.062500
 11
-108.103127
 21
152.293442
  0
LINE
  8
0
 10
-108.103134
 20
152.293427
 11
-108.103134
 21
154.731567
  0
LINE
  8
0
 10
-102.303131
 20
152.293427
 11
-102.303131
 21
154.731567
  0
LINE
  8
0
 10
-106.646683
 20
154.731567
 11
-106.646683
 21
152.293442
  0
LINE
  8
0
 10
-102.403137
 20
151.462494
 11
-102.403137
 21
152.062500
  0
LINE
  8
0
 10
-108.003128
 20
152.062500
 11
-102.403130
 21
152.062500
  0
LINE
  8
0
 10
-108.003136
 20
151.462494
 11
-108.003136
 21
152.062500
  0
LINE
  8
0
 10
-105.203133
 20
91.967659
 11
-105.203133
 21
157.412506
  0
LINE
  8
0
 10
-117.203133
 20
112.387604
 11
-117.203133
 21
114.537399
  0
LINE
  8
0
 10
-115.703133
 20
112.012505
 11
-115.703133
 21
114.912506
  0
LINE
  8
0
 10
-114.203133
 20
112.012505
 11
-114.203133
 21
114.912506
  0
LINE
  8
0
 10
-115.703140
 20
112.212471
 11
-114.203140
 21
112.012466
  0
LINE
  8
0
 10
-115.703133
 20
114.712509
 11
-114.203133
 21
114.912514
  0
LINE
  8
0
 10
-117.029572
 20
112.189331
 11
-115.703140
 21
112.012474
  0
LINE
  8
0
 10
-117.029572
 20
114.735641
 11
-115.703140
 21
114.912506
  0
LINE
  8
0
 10
-114.103134
 20
112.212502
 11
-112.303131
 21
112.212502
  0
LINE
  8
0
 10
-114.103134
 20
114.712502
 11
-112.303131
 21
114.712502
  0
LINE
  8
0
 10
-112.203133
 20
111.290817
 11
-112.203133
 21
115.634193
  0
LINE
  8
0
 10
-109.534065
 20
110.562500
 11
-111.972191
 21
110.562500
  0
LINE
  8
0
 10
-109.534065
 20
116.362503
 11
-111.972191
 21
116.362503
  0
LINE
  8
0
 10
-109.534073
 20
114.905876
 11
-111.972198
 21
114.905876
  0
LINE
  8
0
 10
-111.972198
 20
112.019066
 11
-109.534065
 21
112.019066
  0
LINE
  8
0
 10
-109.303131
 20
110.662506
 11
-109.303131
 21
116.262497
  0
LINE
  8
0
 10
-108.703133
 20
110.662506
 11
-109.303131
 21
110.662506
  0
LINE
  8
0
 10
-108.703133
 20
116.262497
 11
-109.303131
 21
116.262497
  0
LINE
  8
0
 10
-105.703133
 20
154.962494
 11
-105.703133
 21
153.962494
  0
LINE
  8
0
 10
-105.703125
 20
153.962494
 11
-104.703125
 21
153.962494
  0
LINE
  8
0
 10
-104.703133
 20
153.962494
 11
-104.703133
 21
154.962494
  0
LINE
  8
0
 10
-104.703125
 20
154.962494
 11
-103.031433
 21
154.962494
  0
LINE
  8
0
 10
-98.203117
 20
148.129486
 11
-98.953125
 21
148.562500
  0
LINE
  8
0
 10
-112.203140
 20
148.129517
 11
-111.453140
 21
148.562531
  0
LINE
  8
0
  6
PHANTOM
 10
-98.203133
 20
123.995514
 11
-98.203133
 21
128.562500
  0
LINE
  8
0
  6
PHANTOM
 10
-112.203133
 20
123.995514
 11
-112.203133
 21
128.562500
  0
LINE
  8
0
  6
PHANTOM
 10
-98.953133
 20
123.562500
 11
-98.953133
 21
128.562500
  0
LINE
  8
0
  6
PHANTOM
 10
-111.453133
 20
123.562500
 11
-111.453133
 21
128.562500
  0
LINE
  8
0
  6
PHANTOM
 10
-98.953133
 20
123.562515
 11
-98.203133
 21
123.995529
  0
LINE
  8
0
  6
PHANTOM
 10
-111.453117
 20
123.562508
 11
-112.203117
 21
123.995522
  0
LINE
  8
0
  6
PHANTOM
 10
-111.453125
 20
123.562500
 11
-98.953133
 21
123.562500
  0
LINE
  8
0
 10
-101.703133
 20
151.462494
 11
-101.703133
 21
149.162506
  0
LINE
  8
0
 10
-100.553123
 20
149.162506
 11
-109.853127
 21
149.162506
  0
LINE
  8
0
 10
-108.703133
 20
149.162506
 11
-108.703133
 21
151.462494
  0
LINE
  8
0
 10
-108.703125
 20
151.462494
 11
-101.703125
 21
151.462494
  0
LINE
  8
0
 10
-100.553131
 20
149.162506
 11
-100.553131
 21
148.562500
  0
LINE
  8
0
 10
-109.853134
 20
149.162506
 11
-109.853134
 21
148.562500
  0
LINE
  8
0
 10
-111.203133
 20
118.562500
 11
-99.203133
 21
118.562500
  0
LINE
  8
0
 10
-111.203133
 20
119.362503
 11
-99.203133
 21
119.362503
  0
LINE
  8
0
 10
-111.203133
 20
118.562500
 11
-111.203133
 21
119.362503
  0
LINE
  8
0
 10
-99.203133
 20
118.562500
 11
-99.203133
 21
119.362503
  0
LINE
  8
0
 10
-110.703133
 20
116.912498
 11
-110.703133
 21
129.712494
  0
LINE
  8
0
 10
-99.703133
 20
117.045837
 11
-99.703133
 21
129.845825
  0
LINE
  8
0
  6
PHANTOM
 10
-99.365349
 20
120.412720
 11
-99.365349
 21
127.167290
  0
LINE
  8
0
  6
PHANTOM
 10
-100.065346
 20
120.361816
 11
-100.065346
 21
127.042168
  0
LINE
  8
0
  6
PHANTOM
 10
-110.358650
 20
120.737183
 11
-110.358650
 21
127.402298
  0
LINE
  8
0
  6
PHANTOM
 10
-111.058647
 20
120.796616
 11
-111.058647
 21
127.480095
  0
LINE
  8
0
 10
-108.703133
 20
120.062500
 11
-108.703133
 21
120.376366
  0
LINE
  8
0
 10
-113.703133
 20
133.562485
 11
-115.003136
 21
134.313049
  0
LINE
  8
0
 10
-113.703110
 20
138.562469
 11
-115.003113
 21
137.811905
  0
LINE
  8
0
 10
-115.003128
 20
134.313065
 11
-115.003128
 21
137.811935
  0
LINE
  8
0
 10
-113.703125
 20
133.562500
 11
-96.703110
 21
133.562500
  0
LINE
  8
0
 10
-113.703125
 20
138.562500
 11
-96.703094
 21
138.562500
  0
LINE
  8
0
 10
-96.703125
 20
133.562469
 11
-95.403122
 21
134.313034
  0
LINE
  8
0
 10
-95.403137
 20
134.313065
 11
-95.403137
 21
137.811935
  0
LINE
  8
0
 10
-96.703133
 20
138.562500
 11
-95.403137
 21
137.811951
  0
LINE
  8
0
 10
-113.703110
 20
138.562485
 11
-115.003113
 21
137.811935
  0
LINE
  8
0
 10
-100.295654
 20
134.313065
 11
-100.295654
 21
137.811935
  0
LINE
  8
0
 10
-110.110611
 20
134.313065
 11
-110.110611
 21
137.811935
  0
LINE
  8
0
 10
-113.703133
 20
138.562485
 11
-115.003128
 21
139.313049
  0
LINE
  8
0
 10
-113.703110
 20
143.562469
 11
-115.003113
 21
142.811905
  0
LINE
  8
0
 10
-115.003128
 20
139.313065
 11
-115.003128
 21
142.811935
  0
LINE
  8
0
 10
-113.703125
 20
138.562500
 11
-96.703110
 21
138.562500
  0
LINE
  8
0
 10
-113.703125
 20
143.562500
 11
-96.703094
 21
143.562500
  0
LINE
  8
0
 10
-96.703125
 20
138.562485
 11
-95.403122
 21
139.313034
  0
LINE
  8
0
 10
-95.403137
 20
139.313065
 11
-95.403137
 21
142.811935
  0
LINE
  8
0
 10
-96.703140
 20
143.562515
 11
-95.403145
 21
142.811966
  0
LINE
  8
0
 10
-113.703125
 20
143.562500
 11
-115.003120
 21
142.811935
  0
LINE
  8
0
 10
-100.295654
 20
139.313065
 11
-100.295654
 21
142.811935
  0
LINE
  8
0
 10
-110.110611
 20
139.313065
 11
-110.110611
 21
142.811935
  0
LINE
  8
0
 10
-98.953133
 20
143.562500
 11
-98.953133
 21
148.562500
  0
LINE
  8
0
 10
-98.203133
 20
143.562500
 11
-98.203133
 21
148.129486
  0
LINE
  8
0
 10
-111.453133
 20
143.562500
 11
-111.453133
 21
148.562500
  0
LINE
  8
0
 10
-112.203133
 20
143.562500
 11
-112.203133
 21
148.129486
  0
LINE
  8
0
  6
PHANTOM
 10
-112.203133
 20
123.995514
 11
-98.203133
 21
123.995514
  0
LINE
  8
0
 10
-112.203125
 20
148.129486
 11
-98.203125
 21
148.129486
  0
LINE
  8
0
 10
-108.703133
 20
105.462502
 11
-101.703133
 21
105.462502
  0
LINE
  8
0
 10
-110.703133
 20
120.062500
 11
-99.703133
 21
120.062500
  0
LINE
  8
0
 10
-110.703125
 20
127.862503
 11
-99.703125
 21
127.862503
  0
LINE
  8
0
 10
-99.703125
 20
127.478813
 11
-110.703125
 21
127.862946
  0
LINE
  8
0
 10
-99.703125
 20
126.778389
 11
-110.703125
 21
127.162514
  0
LINE
  8
0
 10
-99.703133
 20
120.762512
 11
-110.703133
 21
121.146637
  0
LINE
  8
0
 10
-99.703133
 20
120.062080
 11
-110.703133
 21
120.446213
  0
LINE
  8
0
 10
-101.703133
 20
120.832344
 11
-101.703133
 21
126.848221
  0
LINE
  8
0
 10
-108.703133
 20
121.076790
 11
-108.703133
 21
127.092667
  0
LINE
  8
0
 10
-101.703133
 20
127.548645
 11
-101.703133
 21
127.862503
  0
LINE
  8
0
 10
-98.953133
 20
128.562515
 11
-98.203133
 21
128.995529
  0
LINE
  8
0
 10
-98.953133
 20
128.562500
 11
-98.953133
 21
133.562500
  0
LINE
  8
0
 10
-98.203133
 20
128.995514
 11
-98.203133
 21
133.562500
  0
LINE
  8
0
 10
-111.453125
 20
128.562500
 11
-98.953133
 21
128.562500
  0
LINE
  8
0
 10
-112.203125
 20
128.995514
 11
-98.203125
 21
128.995514
  0
LINE
  8
0
 10
-111.453133
 20
128.562500
 11
-111.453133
 21
133.562500
  0
LINE
  8
0
 10
-112.203133
 20
128.995514
 11
-112.203133
 21
133.562500
  0
LINE
  8
0
 10
-111.453117
 20
128.562500
 11
-112.203117
 21
128.995514
  0
LINE
  8
0
 10
-109.703133
 20
99.462502
 11
-109.703133
 21
103.462502
  0
LINE
  8
0
 10
-110.504120
 20
96.263489
 11
-108.423355
 21
97.233765
  0
LINE
  8
0
 10
-108.281120
 20
98.040466
 11
-109.703140
 21
99.462494
  0
LINE
  8
0
 10
-110.203140
 20
95.962494
 11
-110.504135
 21
96.263489
  0
LINE
  8
0
 10
-100.203133
 20
95.962502
 11
-110.203133
 21
95.962502
  0
LINE
  8
0
 10
-100.703133
 20
103.462502
 11
-109.703133
 21
103.462502
  0
LINE
  8
0
 10
-100.703133
 20
99.462502
 11
-100.703133
 21
103.462502
  0
LINE
  8
0
 10
-99.902130
 20
96.263527
 11
-101.982895
 21
97.233810
  0
LINE
  8
0
 10
-102.125145
 20
98.040474
 11
-100.703125
 21
99.462494
  0
LINE
  8
0
 10
-100.203133
 20
95.962509
 11
-99.902138
 21
96.263504
  0
LINE
  8
0
 10
-110.504128
 20
96.263496
 11
-99.902138
 21
96.263496
  0
LINE
  8
0
 10
-102.462723
 20
97.535553
 11
-107.934700
 21
97.535553
  0
LINE
  8
0
 10
-100.703133
 20
99.462502
 11
-109.703133
 21
99.462502
  0
ARC
  8
0
 10
-110.567039
 20
111.290817
 40
1.263911
 50
324.813843
 51
35.186165
  0
ARC
  8
0
 10
-110.567039
 20
115.634186
 40
1.263911
 50
324.813843
 51
35.186165
  0
ARC
  8
0
 10
-113.929199
 20
113.462502
 40
4.626064
 50
341.819641
 51
18.180359
  0
ARC
  8
0
 10
-103.031433
 20
153.326416
 40
1.263928
 50
234.813950
 51
305.185760
  0
ARC
  8
0
 10
-105.203125
 20
156.688568
 40
4.626078
 50
251.819702
 51
288.180298
  0
ARC
  8
0
 10
-107.374817
 20
153.698578
 40
1.263928
 50
54.813953
 51
125.185768
  0
ARC
  8
0
 10
-107.374817
 20
153.326416
 40
1.263923
 50
234.814240
 51
305.186035
  0
ARC
  8
0
 10
-103.031433
 20
153.698578
 40
1.263923
 50
54.814236
 51
125.186050
  0
ARC
  8
0
 10
-105.203125
 20
150.336426
 40
4.626078
 50
71.819702
 51
83.795174
  0
ARC
  8
0
 10
-117.003136
 20
114.537399
 40
0.199997
 50
97.595657
 51
180.000000
  0
ARC
  8
0
 10
-114.103134
 20
112.112503
 40
0.099998
 50
90.000000
 51
180.000000
  0
ARC
  8
0
 10
-114.103134
 20
114.812508
 40
0.099998
 50
180.000000
 51
270.000000
  0
ARC
  8
0
 10
-117.003136
 20
112.387604
 40
0.199997
 50
180.000000
 51
262.404358
  0
ARC
  8
0
 10
-112.303131
 20
114.812508
 40
0.099998
 50
270.000000
 51
0.000000
  0
ARC
  8
0
 10
-112.303131
 20
112.112503
 40
0.099998
 50
0.000000
 51
90.000000
  0
ARC
  8
0
 10
-110.939217
 20
115.634186
 40
1.263911
 50
144.813843
 51
215.185959
  0
ARC
  8
0
 10
-110.939217
 20
111.290817
 40
1.263911
 50
144.813843
 51
215.185959
  0
ARC
  8
0
 10
-107.577065
 20
113.462502
 40
4.626066
 50
161.819550
 51
198.180237
  0
ARC
  8
0
 10
-105.203125
 20
150.336426
 40
4.626069
 50
96.204826
 51
108.180298
  0
CIRCLE
  8
0
 10
-110.703125
 20
128.212494
 40
0.350000
  0
CIRCLE
  8
0
 10
-99.703125
 20
128.212494
 40
0.350000
  0
CIRCLE
  8
0
 10
-99.703133
 20
119.712502
 40
0.350000
  0
CIRCLE
  8
0
 10
-110.703133
 20
119.712502
 40
0.350000
  0
CIRCLE
  8
0
 10
-110.708649
 20
120.796616
 40
0.350000
  0
CIRCLE
  8
0
 10
-99.715347
 20
120.412720
 40
0.350000
  0
CIRCLE
  8
0
 10
-99.697609
 20
127.128395
 40
0.350000
  0
CIRCLE
  8
0
 10
-110.690910
 20
127.512291
 40
0.350000
  0
ARC
  8
0
 10
-112.556862
 20
137.924240
 40
4.361743
 50
235.885681
 51
304.114227
  0
ARC
  8
0
 10
-97.849388
 20
137.924240
 40
4.361743
 50
235.885681
 51
304.114227
  0
ARC
  8
0
 10
-105.203125
 20
149.981262
 40
16.418760
 50
252.608810
 51
287.391174
  0
ARC
  8
0
 10
-97.849388
 20
134.200760
 40
4.361739
 50
55.885761
 51
124.114235
  0
ARC
  8
0
 10
-105.203125
 20
122.143730
 40
16.418768
 50
72.608818
 51
107.391136
  0
ARC
  8
0
 10
-112.556862
 20
134.200760
 40
4.361739
 50
55.885761
 51
124.114235
  0
ARC
  8
0
 10
-97.849388
 20
139.200760
 40
4.361739
 50
55.885761
 51
124.114235
  0
ARC
  8
0
 10
-112.556862
 20
139.200760
 40
4.361739
 50
55.885761
 51
124.114235
  0
ARC
  8
0
 10
-97.849388
 20
142.924240
 40
4.361743
 50
235.885681
 51
304.114227
  0
ARC
  8
0
 10
-105.203125
 20
127.143730
 40
16.418768
 50
72.608818
 51
107.391136
  0
ARC
  8
0
 10
-105.203125
 20
154.981262
 40
16.418760
 50
252.608810
 51
287.391174
  0
ARC
  8
0
 10
-112.556862
 20
142.924240
 40
4.361743
 50
235.885681
 51
304.114227
  0
ARC
  8
0
 10
-108.634666
 20
97.686928
 40
0.500002
 50
295.000153
 51
45.000000
  0
ARC
  8
0
 10
-101.771599
 20
97.686928
 40
0.500001
 50
135.000000
 51
244.999847
  0
POINT
  8
0
 10
-105.203133
 20
54.687500
  0
POINT
  8
0
 10
-105.203133
 20
54.687500
  0
POINT
  8
0
 10
-95.388176
 20
54.687500
  0
LINE
  8
0
 10
-105.203133
 20
44.392761
 11
-105.203133
 21
64.924713
  0
LINE
  8
0
 10
-112.203133
 20
52.187500
 11
-112.203133
 21
57.187500
  0
LINE
  8
0
 10
-117.203133
 20
53.612602
 11
-117.203133
 21
55.762398
  0
LINE
  8
0
 10
-115.703133
 20
53.237499
 11
-115.703133
 21
56.137501
  0
LINE
  8
0
 10
-114.203133
 20
53.237499
 11
-114.203133
 21
56.137505
  0
LINE
  8
0
 10
-115.703140
 20
53.437492
 11
-114.203140
 21
53.237492
  0
LINE
  8
0
 10
-115.703133
 20
55.937504
 11
-114.203133
 21
56.137505
  0
LINE
  8
0
 10
-117.029572
 20
53.414349
 11
-115.703133
 21
53.237492
  0
LINE
  8
0
 10
-117.029572
 20
55.960644
 11
-115.703140
 21
56.137501
  0
LINE
  8
0
 10
-114.103134
 20
53.437500
 11
-112.303131
 21
53.437500
  0
LINE
  8
0
 10
-114.103134
 20
55.937500
 11
-112.303131
 21
55.937500
  0
LINE
  8
0
 10
-119.306992
 20
54.687500
 11
-93.496155
 21
54.687500
  0
LINE
  8
0
 10
-101.703133
 20
54.687500
 11
-101.703133
 21
54.687500
  0
LINE
  8
0
 10
-100.203133
 20
54.687500
 11
-100.203133
 21
54.687500
  0
LINE
  8
0
 10
-108.703133
 20
54.687500
 11
-108.703133
 21
54.687500
  0
LINE
  8
0
 10
-110.203133
 20
54.687500
 11
-110.203133
 21
54.687500
  0
LINE
  8
0
 10
-110.203133
 20
54.687500
 11
-110.203133
 21
54.687500
  0
LINE
  8
0
 10
-100.203133
 20
54.687500
 11
-100.203133
 21
54.687500
  0
LINE
  8
0
 10
-112.203133
 20
52.187500
 11
-109.877586
 21
52.187500
  0
LINE
  8
0
 10
-112.203133
 20
57.187500
 11
-109.877586
 21
57.187500
  0
LINE
  8
0
 10
-110.110611
 20
46.187500
 11
-100.295654
 21
46.187500
  0
LINE
  8
0
 10
-110.110611
 20
63.187500
 11
-100.295654
 21
63.187500
  0
LINE
  8
0
 10
-95.388176
 20
54.687500
 11
-100.295654
 21
63.187500
  0
LINE
  8
0
 10
-110.110619
 20
46.187496
 11
-114.179092
 21
53.234295
  0
LINE
  8
0
 10
-114.179077
 20
56.140717
 11
-110.110611
 21
63.187500
  0
LINE
  8
0
 10
-100.295654
 20
46.187500
 11
-95.388176
 21
54.687500
  0
LINE
  8
0
 10
-110.485977
 20
54.687500
 11
-111.972198
 21
54.687500
  0
LINE
  8
0
 10
-109.703133
 20
54.687500
 11
-109.703133
 21
54.687500
  0
LINE
  8
0
 10
-100.703133
 20
54.687500
 11
-100.703133
 21
54.687500
  0
ARC
  8
0
 10
-114.103134
 20
53.337502
 40
0.099998
 50
90.000000
 51
180.000000
  0
ARC
  8
0
 10
-112.303131
 20
53.337502
 40
0.099998
 50
0.000000
 51
90.000000
  0
ARC
  8
0
 10
-114.103134
 20
56.037502
 40
0.099998
 50
180.000000
 51
270.000000
  0
ARC
  8
0
 10
-112.303131
 20
56.037502
 40
0.099998
 50
270.000000
 51
0.000000
  0
ARC
  8
0
 10
-117.003136
 20
53.612602
 40
0.199997
 50
180.000000
 51
262.404480
  0
ARC
  8
0
 10
-117.003136
 20
55.762398
 40
0.200001
 50
97.595512
 51
180.000000
  0
ARC
  8
0
 10
-108.704712
 20
55.937500
 40
3.498424
 50
159.065292
 51
200.934708
  0
ARC
  8
0
 10
-108.704720
 20
53.437500
 40
3.498410
 50
159.065201
 51
200.934845
  0
ARC
  8
0
 10
-105.203133
 20
54.687500
 40
8.500000
 50
90.000000
 51
171.543457
  0
ARC
  8
0
 10
-105.203133
 20
54.687500
 40
8.500000
 50
188.456543
 51
90.000000
  0
ARC
  8
0
 10
-105.203133
 20
54.687500
 40
7.000000
 50
90.000000
 51
150.000000
  0
ARC
  8
0
 10
-105.203133
 20
54.687500
 40
7.000000
 50
90.000000
 51
159.075165
  0
ARC
  8
0
 10
-105.203133
 20
54.687500
 40
7.000001
 50
29.999992
 51
90.000000
  0
ARC
  8
0
 10
-105.203133
 20
54.687500
 40
6.999999
 50
200.924866
 51
90.000000
  0
CIRCLE
  8
0
 10
-105.203133
 20
54.687500
 40
5.300995
  0
CIRCLE
  8
0
 10
-105.203133
 20
54.687500
 40
5.000000
  0
CIRCLE
  8
0
 10
-105.203133
 20
54.687500
 40
1.000000
  0
POINT
  8
0
 10
-34.784386
 20
138.562500
  0
POINT
  8
0
 10
-24.984386
 20
138.562500
  0
LINE
  8
0
 10
-31.284386
 20
103.462502
 11
-31.284386
 21
118.562500
  0
LINE
  8
0
 10
-38.284386
 20
103.462502
 11
-38.284386
 21
118.562500
  0
LINE
  8
0
 10
-41.034370
 20
148.562500
 11
-28.534378
 21
148.562500
  0
LINE
  8
0
 10
-49.319618
 20
113.462502
 11
-36.117718
 21
113.462502
  0
LINE
  8
0
 10
-38.884392
 20
115.962502
 11
-39.115330
 21
116.362495
  0
LINE
  8
0
 10
-38.884384
 20
110.962502
 11
-39.115318
 21
110.562508
  0
LINE
  8
0
 10
-32.284382
 20
152.062500
 11
-31.884386
 21
152.293442
  0
LINE
  8
0
 10
-33.341015
 20
152.293427
 11
-33.341015
 21
154.731567
  0
LINE
  8
0
 10
-36.956066
 20
154.962494
 11
-35.284378
 21
154.962494
  0
LINE
  8
0
 10
-37.284378
 20
152.062500
 11
-37.684380
 21
152.293442
  0
LINE
  8
0
 10
-37.684387
 20
152.293427
 11
-37.684387
 21
154.731567
  0
LINE
  8
0
 10
-31.884386
 20
152.293427
 11
-31.884386
 21
154.731567
  0
LINE
  8
0
 10
-36.227940
 20
154.731567
 11
-36.227940
 21
152.293442
  0
LINE
  8
0
 10
-31.984386
 20
151.462494
 11
-31.984386
 21
152.062500
  0
LINE
  8
0
 10
-37.584381
 20
152.062500
 11
-31.984379
 21
152.062500
  0
LINE
  8
0
 10
-37.584389
 20
151.462494
 11
-37.584389
 21
152.062500
  0
LINE
  8
0
 10
-34.784386
 20
91.967659
 11
-34.784386
 21
157.412506
  0
LINE
  8
0
 10
-46.784386
 20
112.387604
 11
-46.784386
 21
114.537399
  0
LINE
  8
0
 10
-45.284386
 20
112.012505
 11
-45.284386
 21
114.912506
  0
LINE
  8
0
 10
-43.784386
 20
112.012505
 11
-43.784386
 21
114.912506
  0
LINE
  8
0
 10
-45.284393
 20
112.212463
 11
-43.784393
 21
112.012466
  0
LINE
  8
0
 10
-45.284386
 20
114.712509
 11
-43.784386
 21
114.912514
  0
LINE
  8
0
 10
-46.610825
 20
112.189331
 11
-45.284389
 21
112.012466
  0
LINE
  8
0
 10
-46.610825
 20
114.735641
 11
-45.284389
 21
114.912506
  0
LINE
  8
0
 10
-43.684387
 20
112.212502
 11
-41.884388
 21
112.212502
  0
LINE
  8
0
 10
-43.684387
 20
114.712502
 11
-41.884388
 21
114.712502
  0
LINE
  8
0
 10
-41.784386
 20
111.290817
 11
-41.784386
 21
115.634193
  0
LINE
  8
0
 10
-39.115322
 20
110.562500
 11
-41.553448
 21
110.562500
  0
LINE
  8
0
 10
-39.115322
 20
116.362503
 11
-41.553448
 21
116.362503
  0
LINE
  8
0
 10
-39.115326
 20
114.905876
 11
-41.553452
 21
114.905876
  0
LINE
  8
0
 10
-41.553452
 20
112.019066
 11
-39.115322
 21
112.019066
  0
LINE
  8
0
 10
-38.884384
 20
110.662506
 11
-38.884384
 21
116.262497
  0
LINE
  8
0
 10
-38.284386
 20
110.662506
 11
-38.884384
 21
110.662506
  0
LINE
  8
0
 10
-38.284386
 20
116.262497
 11
-38.884384
 21
116.262497
  0
LINE
  8
0
 10
-35.284386
 20
154.962494
 11
-35.284386
 21
153.962494
  0
LINE
  8
0
 10
-35.284378
 20
153.962494
 11
-34.284378
 21
153.962494
  0
LINE
  8
0
 10
-34.284386
 20
153.962494
 11
-34.284386
 21
154.962494
  0
LINE
  8
0
 10
-34.284378
 20
154.962494
 11
-32.612690
 21
154.962494
  0
LINE
  8
0
 10
-27.784374
 20
148.129486
 11
-28.534374
 21
148.562500
  0
LINE
  8
0
 10
-41.784393
 20
148.129517
 11
-41.034393
 21
148.562531
  0
LINE
  8
0
  6
PHANTOM
 10
-27.784386
 20
123.995514
 11
-27.784386
 21
128.562500
  0
LINE
  8
0
  6
PHANTOM
 10
-41.784386
 20
123.995514
 11
-41.784386
 21
128.562500
  0
LINE
  8
0
  6
PHANTOM
 10
-28.534386
 20
123.562500
 11
-28.534386
 21
128.562500
  0
LINE
  8
0
  6
PHANTOM
 10
-41.034386
 20
123.562500
 11
-41.034386
 21
128.562500
  0
LINE
  8
0
  6
PHANTOM
 10
-28.534386
 20
123.562515
 11
-27.784384
 21
123.995529
  0
LINE
  8
0
  6
PHANTOM
 10
-41.034367
 20
123.562508
 11
-41.784370
 21
123.995522
  0
LINE
  8
0
  6
PHANTOM
 10
-41.034378
 20
123.562500
 11
-28.534386
 21
123.562500
  0
LINE
  8
0
 10
-31.284386
 20
151.462494
 11
-31.284386
 21
149.162506
  0
LINE
  8
0
 10
-30.134378
 20
149.162506
 11
-39.434380
 21
149.162506
  0
LINE
  8
0
 10
-38.284386
 20
149.162506
 11
-38.284386
 21
151.462494
  0
LINE
  8
0
 10
-38.284378
 20
151.462494
 11
-31.284378
 21
151.462494
  0
LINE
  8
0
 10
-30.134386
 20
149.162506
 11
-30.134386
 21
148.562500
  0
LINE
  8
0
 10
-39.434387
 20
149.162506
 11
-39.434387
 21
148.562500
  0
LINE
  8
0
 10
-40.784386
 20
118.562500
 11
-28.784386
 21
118.562500
  0
LINE
  8
0
 10
-40.784386
 20
119.362503
 11
-28.784384
 21
119.362503
  0
LINE
  8
0
 10
-40.784386
 20
118.562500
 11
-40.784386
 21
119.362503
  0
LINE
  8
0
 10
-28.784386
 20
118.562500
 11
-28.784386
 21
119.362503
  0
LINE
  8
0
 10
-40.284386
 20
116.912498
 11
-40.284386
 21
129.712494
  0
LINE
  8
0
 10
-29.284386
 20
117.045837
 11
-29.284386
 21
129.845825
  0
LINE
  8
0
  6
PHANTOM
 10
-28.946600
 20
120.412720
 11
-28.946600
 21
127.167290
  0
LINE
  8
0
  6
PHANTOM
 10
-29.646601
 20
120.361816
 11
-29.646601
 21
127.042168
  0
LINE
  8
0
  6
PHANTOM
 10
-39.939903
 20
120.737183
 11
-39.939903
 21
127.402298
  0
LINE
  8
0
  6
PHANTOM
 10
-40.639900
 20
120.796616
 11
-40.639900
 21
127.480095
  0
LINE
  8
0
 10
-38.284386
 20
120.062500
 11
-38.284386
 21
120.376366
  0
LINE
  8
0
 10
-43.284386
 20
133.562485
 11
-44.584389
 21
134.313049
  0
LINE
  8
0
 10
-43.284359
 20
138.562469
 11
-44.584362
 21
137.811905
  0
LINE
  8
0
 10
-44.584385
 20
134.313065
 11
-44.584385
 21
137.811935
  0
LINE
  8
0
 10
-43.284378
 20
133.562500
 11
-26.284365
 21
133.562500
  0
LINE
  8
0
 10
-43.284374
 20
138.562500
 11
-26.284348
 21
138.562500
  0
LINE
  8
0
 10
-26.284376
 20
133.562469
 11
-24.984375
 21
134.313034
  0
LINE
  8
0
 10
-24.984386
 20
134.313065
 11
-24.984386
 21
137.811935
  0
LINE
  8
0
 10
-26.284386
 20
138.562500
 11
-24.984392
 21
137.811951
  0
LINE
  8
0
 10
-43.284367
 20
138.562485
 11
-44.584366
 21
137.811935
  0
LINE
  8
0
 10
-29.876907
 20
134.313065
 11
-29.876907
 21
137.811935
  0
LINE
  8
0
 10
-39.691864
 20
134.313065
 11
-39.691864
 21
137.811935
  0
LINE
  8
0
 10
-43.284386
 20
138.562485
 11
-44.584385
 21
139.313049
  0
LINE
  8
0
 10
-43.284359
 20
143.562469
 11
-44.584362
 21
142.811905
  0
LINE
  8
0
 10
-44.584385
 20
139.313065
 11
-44.584385
 21
142.811935
  0
LINE
  8
0
 10
-43.284374
 20
138.562500
 11
-26.284363
 21
138.562500
  0
LINE
  8
0
 10
-43.284374
 20
143.562500
 11
-26.284348
 21
143.562500
  0
LINE
  8
0
 10
-26.284376
 20
138.562485
 11
-24.984379
 21
139.313034
  0
LINE
  8
0
 10
-24.984386
 20
139.313065
 11
-24.984386
 21
142.811935
  0
LINE
  8
0
 10
-26.284391
 20
143.562515
 11
-24.984398
 21
142.811966
  0
LINE
  8
0
 10
-43.284374
 20
143.562500
 11
-44.584377
 21
142.811935
  0
LINE
  8
0
 10
-29.876907
 20
139.313065
 11
-29.876907
 21
142.811935
  0
LINE
  8
0
 10
-39.691864
 20
139.313065
 11
-39.691864
 21
142.811935
  0
LINE
  8
0
 10
-28.534386
 20
143.562500
 11
-28.534386
 21
148.562500
  0
LINE
  8
0
 10
-27.784386
 20
143.562500
 11
-27.784386
 21
148.129486
  0
LINE
  8
0
 10
-41.034386
 20
143.562500
 11
-41.034386
 21
148.562500
  0
LINE
  8
0
 10
-41.784386
 20
143.562500
 11
-41.784386
 21
148.129486
  0
LINE
  8
0
  6
PHANTOM
 10
-41.784382
 20
123.995514
 11
-27.784382
 21
123.995514
  0
LINE
  8
0
 10
-41.784378
 20
148.129486
 11
-27.784378
 21
148.129486
  0
LINE
  8
0
 10
-38.284386
 20
105.462502
 11
-31.284386
 21
105.462502
  0
LINE
  8
0
 10
-40.284386
 20
120.062500
 11
-29.284384
 21
120.062500
  0
LINE
  8
0
 10
-40.284378
 20
127.862503
 11
-29.284380
 21
127.862503
  0
LINE
  8
0
 10
-29.284380
 20
127.478813
 11
-40.284378
 21
127.862946
  0
LINE
  8
0
 10
-29.284382
 20
126.778389
 11
-40.284382
 21
127.162514
  0
LINE
  8
0
 10
-29.284384
 20
120.762512
 11
-40.284386
 21
121.146637
  0
LINE
  8
0
 10
-29.284384
 20
120.062080
 11
-40.284386
 21
120.446213
  0
LINE
  8
0
 10
-31.284386
 20
120.832344
 11
-31.284386
 21
126.848221
  0
LINE
  8
0
 10
-38.284386
 20
121.076790
 11
-38.284386
 21
127.092667
  0
LINE
  8
0
 10
-31.284386
 20
127.548645
 11
-31.284386
 21
127.862503
  0
LINE
  8
0
 10
-28.534388
 20
128.562515
 11
-27.784382
 21
128.995529
  0
LINE
  8
0
 10
-28.534386
 20
128.562500
 11
-28.534386
 21
133.562500
  0
LINE
  8
0
 10
-27.784386
 20
128.995514
 11
-27.784386
 21
133.562500
  0
LINE
  8
0
 10
-41.034378
 20
128.562500
 11
-28.534384
 21
128.562500
  0
LINE
  8
0
 10
-41.784378
 20
128.995514
 11
-27.784380
 21
128.995514
  0
LINE
  8
0
 10
-41.034386
 20
128.562500
 11
-41.034386
 21
133.562500
  0
LINE
  8
0
 10
-41.784386
 20
128.995514
 11
-41.784386
 21
133.562500
  0
LINE
  8
0
 10
-41.034370
 20
128.562500
 11
-41.784374
 21
128.995514
  0
LINE
  8
0
 10
-39.784386
 20
98.462502
 11
-39.784386
 21
103.462502
  0
LINE
  8
0
 10
-36.881882
 20
96.786743
 11
-39.784386
 21
98.462502
  0
LINE
  8
0
 10
-36.784389
 20
95.962494
 11
-37.067230
 21
96.245346
  0
LINE
  8
0
 10
-37.067230
 20
96.245338
 11
-36.840458
 21
96.472107
  0
LINE
  8
0
 10
-32.784386
 20
95.962502
 11
-36.784386
 21
95.962502
  0
LINE
  8
0
 10
-29.784386
 20
103.462502
 11
-39.784386
 21
103.462502
  0
LINE
  8
0
 10
-29.784386
 20
98.462502
 11
-29.784386
 21
103.462502
  0
LINE
  8
0
 10
-32.686890
 20
96.786743
 11
-29.784386
 21
98.462509
  0
LINE
  8
0
 10
-32.784386
 20
95.962494
 11
-32.501541
 21
96.245331
  0
LINE
  8
0
 10
-32.501541
 20
96.245346
 11
-32.728310
 21
96.472115
  0
LINE
  8
0
 10
-32.501545
 20
96.245346
 11
-37.067230
 21
96.245346
  0
LINE
  8
0
 10
-36.656155
 20
96.656418
 11
-32.912617
 21
96.656418
  0
LINE
  8
0
 10
-29.784386
 20
98.462502
 11
-39.784386
 21
98.462502
  0
ARC
  8
0
 10
-40.148296
 20
111.290817
 40
1.263911
 50
324.813843
 51
35.186165
  0
ARC
  8
0
 10
-40.148296
 20
115.634186
 40
1.263911
 50
324.813843
 51
35.186165
  0
ARC
  8
0
 10
-43.510452
 20
113.462502
 40
4.626067
 50
341.819672
 51
18.180344
  0
ARC
  8
0
 10
-32.612690
 20
153.326416
 40
1.263923
 50
234.814240
 51
305.185822
  0
ARC
  8
0
 10
-34.784378
 20
156.688568
 40
4.626078
 50
251.819702
 51
288.180298
  0
ARC
  8
0
 10
-36.956066
 20
153.698578
 40
1.263926
 50
54.814095
 51
125.185768
  0
ARC
  8
0
 10
-36.956066
 20
153.326416
 40
1.263923
 50
234.814240
 51
305.185760
  0
ARC
  8
0
 10
-32.612690
 20
153.698578
 40
1.263924
 50
54.814163
 51
125.185768
  0
ARC
  8
0
 10
-34.784378
 20
150.336426
 40
4.626080
 50
71.819656
 51
83.795174
  0
ARC
  8
0
 10
-46.584389
 20
114.537399
 40
0.199997
 50
97.594574
 51
180.000000
  0
ARC
  8
0
 10
-43.684387
 20
112.112503
 40
0.099998
 50
90.000000
 51
180.000000
  0
ARC
  8
0
 10
-43.684387
 20
114.812508
 40
0.099998
 50
180.000000
 51
270.000000
  0
ARC
  8
0
 10
-46.584389
 20
112.387604
 40
0.199997
 50
180.000000
 51
262.405426
  0
ARC
  8
0
 10
-41.884388
 20
114.812508
 40
0.099998
 50
270.000000
 51
0.000000
  0
ARC
  8
0
 10
-41.884388
 20
112.112503
 40
0.100002
 50
0.000000
 51
90.000000
  0
ARC
  8
0
 10
-40.520473
 20
115.634186
 40
1.263911
 50
144.813843
 51
215.186157
  0
ARC
  8
0
 10
-40.520473
 20
111.290817
 40
1.263911
 50
144.813843
 51
215.186157
  0
ARC
  8
0
 10
-37.158321
 20
113.462502
 40
4.626066
 50
161.819550
 51
198.180252
  0
ARC
  8
0
 10
-34.784378
 20
150.336426
 40
4.626069
 50
96.204826
 51
108.180252
  0
CIRCLE
  8
0
 10
-40.284378
 20
128.212494
 40
0.350000
  0
CIRCLE
  8
0
 10
-29.284380
 20
128.212494
 40
0.350000
  0
CIRCLE
  8
0
 10
-29.284384
 20
119.712502
 40
0.350000
  0
CIRCLE
  8
0
 10
-40.284386
 20
119.712502
 40
0.350000
  0
CIRCLE
  8
0
 10
-40.289902
 20
120.796616
 40
0.350000
  0
CIRCLE
  8
0
 10
-29.296598
 20
120.412720
 40
0.350000
  0
CIRCLE
  8
0
 10
-29.278864
 20
127.128395
 40
0.350000
  0
CIRCLE
  8
0
 10
-40.272163
 20
127.512291
 40
0.350000
  0
ARC
  8
0
 10
-42.138115
 20
137.924240
 40
4.361742
 50
235.885727
 51
304.114227
  0
ARC
  8
0
 10
-27.430643
 20
137.924240
 40
4.361741
 50
235.885742
 51
304.114258
  0
ARC
  8
0
 10
-34.784378
 20
149.981262
 40
16.418758
 50
252.608826
 51
287.391174
  0
ARC
  8
0
 10
-27.430643
 20
134.200760
 40
4.361741
 50
55.885742
 51
124.114235
  0
ARC
  8
0
 10
-34.784382
 20
122.143730
 40
16.418768
 50
72.608803
 51
107.391136
  0
ARC
  8
0
 10
-42.138115
 20
134.200760
 40
4.361739
 50
55.885761
 51
124.114235
  0
ARC
  8
0
 10
-27.430641
 20
139.200760
 40
4.361739
 50
55.885761
 51
124.114258
  0
ARC
  8
0
 10
-42.138115
 20
139.200760
 40
4.361739
 50
55.885761
 51
124.114235
  0
ARC
  8
0
 10
-27.430641
 20
142.924240
 40
4.361742
 50
235.885727
 51
304.114227
  0
ARC
  8
0
 10
-34.784382
 20
127.143730
 40
16.418770
 50
72.608795
 51
107.391136
  0
ARC
  8
0
 10
-34.784378
 20
154.981262
 40
16.418758
 50
252.608826
 51
287.391174
  0
ARC
  8
0
 10
-42.138115
 20
142.924240
 40
4.361742
 50
235.885727
 51
304.114227
  0
ARC
  8
0
 10
-36.981880
 20
96.613533
 40
0.200001
 50
314.998444
 51
60.001102
  0
ARC
  8
0
 10
-32.586891
 20
96.613533
 40
0.200004
 50
119.998894
 51
225.000778
  0
POINT
  8
0
 10
-34.784386
 20
54.687500
  0
POINT
  8
0
 10
-34.784386
 20
54.687500
  0
POINT
  8
0
 10
-24.969429
 20
54.687500
  0
LINE
  8
0
 10
-34.784386
 20
44.392761
 11
-34.784386
 21
64.924713
  0
LINE
  8
0
 10
-41.784386
 20
52.187500
 11
-41.784386
 21
57.187500
  0
LINE
  8
0
 10
-46.784386
 20
53.612602
 11
-46.784386
 21
55.762398
  0
LINE
  8
0
 10
-45.284386
 20
53.237499
 11
-45.284386
 21
56.137501
  0
LINE
  8
0
 10
-43.784386
 20
53.237499
 11
-43.784386
 21
56.137505
  0
LINE
  8
0
 10
-45.284389
 20
53.437492
 11
-43.784389
 21
53.237492
  0
LINE
  8
0
 10
-45.284386
 20
55.937504
 11
-43.784386
 21
56.137505
  0
LINE
  8
0
 10
-46.610825
 20
53.414349
 11
-45.284389
 21
53.237488
  0
LINE
  8
0
 10
-46.610825
 20
55.960644
 11
-45.284389
 21
56.137505
  0
LINE
  8
0
 10
-43.684387
 20
53.437500
 11
-41.884388
 21
53.437500
  0
LINE
  8
0
 10
-43.684387
 20
55.937500
 11
-41.884388
 21
55.937500
  0
LINE
  8
0
 10
-48.888248
 20
54.687500
 11
-23.077404
 21
54.687500
  0
LINE
  8
0
 10
-31.284386
 20
54.687500
 11
-31.284386
 21
54.687500
  0
LINE
  8
0
 10
-29.784386
 20
54.687500
 11
-29.784386
 21
54.687500
  0
LINE
  8
0
 10
-38.284386
 20
54.687500
 11
-38.284386
 21
54.687500
  0
LINE
  8
0
 10
-39.784386
 20
54.687500
 11
-39.784386
 21
54.687500
  0
LINE
  8
0
 10
-39.784386
 20
54.687500
 11
-39.784386
 21
54.687500
  0
LINE
  8
0
 10
-29.784386
 20
54.687500
 11
-29.784386
 21
54.687500
  0
LINE
  8
0
 10
-41.784386
 20
52.187500
 11
-38.884384
 21
52.187500
  0
LINE
  8
0
 10
-41.784386
 20
57.187500
 11
-38.884384
 21
57.187500
  0
LINE
  8
0
 10
-39.691864
 20
46.187500
 11
-29.876909
 21
46.187500
  0
LINE
  8
0
 10
-39.691864
 20
63.187500
 11
-29.876907
 21
63.187500
  0
LINE
  8
0
 10
-24.969429
 20
54.687500
 11
-29.876907
 21
63.187504
  0
LINE
  8
0
 10
-39.691875
 20
46.187496
 11
-43.760345
 21
53.234295
  0
LINE
  8
0
 10
-43.760330
 20
56.140717
 11
-39.691864
 21
63.187500
  0
LINE
  8
0
 10
-29.876907
 20
46.187500
 11
-24.969429
 21
54.687500
  0
LINE
  8
0
 10
-40.067230
 20
54.687500
 11
-41.553448
 21
54.687500
  0
LINE
  8
0
 10
-29.784386
 20
54.687500
 11
-29.784386
 21
54.687500
  0
LINE
  8
0
 10
-39.784386
 20
54.687500
 11
-39.784386
 21
54.687500
  0
LINE
  8
0
 10
-36.284386
 20
51.187500
 11
-33.284386
 21
51.187500
  0
LINE
  8
0
 10
-36.284386
 20
58.187500
 11
-33.284386
 21
58.187500
  0
LINE
  8
0
 10
-32.784386
 20
54.687500
 11
-32.784386
 21
54.687500
  0
LINE
  8
0
 10
-36.784386
 20
54.687500
 11
-36.784386
 21
54.687500
  0
LINE
  8
0
 10
-35.784386
 20
53.687500
 11
-33.784386
 21
53.687500
  0
LINE
  8
0
 10
-35.784386
 20
55.687500
 11
-33.784386
 21
55.687500
  0
LINE
  8
0
 10
-35.784386
 20
53.404659
 11
-33.784386
 21
53.404659
  0
LINE
  8
0
 10
-35.784386
 20
55.970341
 11
-33.784386
 21
55.970341
  0
ARC
  8
0
 10
-43.684387
 20
53.337502
 40
0.099998
 50
90.000000
 51
180.000000
  0
ARC
  8
0
 10
-41.884388
 20
53.337502
 40
0.099998
 50
0.000000
 51
90.000000
  0
ARC
  8
0
 10
-43.684387
 20
56.037502
 40
0.099998
 50
180.000000
 51
270.000000
  0
ARC
  8
0
 10
-41.884388
 20
56.037502
 40
0.099998
 50
270.000000
 51
0.000000
  0
ARC
  8
0
 10
-46.584389
 20
53.612602
 40
0.200001
 50
180.000000
 51
262.405579
  0
ARC
  8
0
 10
-46.584389
 20
55.762398
 40
0.200000
 50
97.594429
 51
180.000000
  0
ARC
  8
0
 10
-42.382797
 20
55.937504
 40
3.498410
 50
18.514292
 51
20.934771
  0
ARC
  8
0
 10
-42.382801
 20
53.437504
 40
3.498418
 50
339.065186
 51
341.485596
  0
ARC
  8
0
 10
-38.285969
 20
55.937500
 40
3.498417
 50
159.065247
 51
200.934753
  0
ARC
  8
0
 10
-38.285973
 20
53.437500
 40
3.498413
 50
159.065231
 51
200.934830
  0
ARC
  8
0
 10
-34.784386
 20
54.687500
 40
8.500000
 50
90.000000
 51
171.543457
  0
ARC
  8
0
 10
-34.784386
 20
54.687500
 40
8.500000
 50
188.456543
 51
89.999977
  0
ARC
  8
0
 10
-34.784386
 20
54.687500
 40
7.000000
 50
90.000000
 51
150.000000
  0
ARC
  8
0
 10
-34.784386
 20
54.687500
 40
7.000000
 50
90.000000
 51
159.075165
  0
ARC
  8
0
 10
-34.784386
 20
54.687500
 40
7.000000
 50
30.000000
 51
90.000000
  0
ARC
  8
0
 10
-34.784386
 20
54.687500
 40
6.999999
 50
200.924866
 51
89.999969
  0
CIRCLE
  8
0
 10
-34.784386
 20
54.687500
 40
0.750000
  0
ARC
  8
0
 10
-33.284386
 20
54.687500
 40
3.500000
 50
270.000000
 51
90.000000
  0
ARC
  8
0
 10
-36.284386
 20
54.687500
 40
3.500000
 50
90.000000
 51
269.999939
  0
ARC
  8
0
 10
-33.784386
 20
54.687500
 40
1.000000
 50
270.000000
 51
90.000000
  0
ARC
  8
0
 10
-35.784386
 20
54.687500
 40
1.000000
 50
90.000000
 51
270.000000
  0
ARC
  8
0
 10
-33.784386
 20
54.687500
 40
1.282841
 50
270.000000
 51
90.000000
  0
ARC
  8
0
 10
-35.784386
 20
54.687500
 40
1.282845
 50
90.000000
 51
270.000000
  0
POINT
  8
0
 10
35.634361
 20
138.562500
  0
POINT
  8
0
 10
45.434361
 20
138.562500
  0
LINE
  8
0
 10
39.134361
 20
103.462502
 11
39.134361
 21
118.562500
  0
LINE
  8
0
 10
32.134361
 20
103.462502
 11
32.134361
 21
118.562500
  0
LINE
  8
0
 10
29.384377
 20
148.562500
 11
41.884369
 21
148.562500
  0
LINE
  8
0
 10
22.032990
 20
113.462502
 11
34.301029
 21
113.462502
  0
LINE
  8
0
 10
31.534348
 20
115.962494
 11
31.303410
 21
116.362495
  0
LINE
  8
0
 10
31.534363
 20
110.962502
 11
31.303425
 21
110.562508
  0
LINE
  8
0
 10
38.134361
 20
152.062515
 11
38.534359
 21
152.293457
  0
LINE
  8
0
 10
37.077732
 20
152.293427
 11
37.077732
 21
154.731567
  0
LINE
  8
0
 10
33.462681
 20
154.962494
 11
35.134369
 21
154.962494
  0
LINE
  8
0
 10
33.134369
 20
152.062500
 11
32.734367
 21
152.293442
  0
LINE
  8
0
 10
32.734360
 20
152.293427
 11
32.734360
 21
154.731567
  0
LINE
  8
0
 10
38.534363
 20
152.293427
 11
38.534363
 21
154.731567
  0
LINE
  8
0
 10
34.190807
 20
154.731567
 11
34.190807
 21
152.293442
  0
LINE
  8
0
 10
38.434361
 20
151.462494
 11
38.434361
 21
152.062500
  0
LINE
  8
0
 10
32.834366
 20
152.062500
 11
38.434368
 21
152.062500
  0
LINE
  8
0
 10
32.834358
 20
151.462494
 11
32.834358
 21
152.062500
  0
LINE
  8
0
 10
35.634361
 20
91.967659
 11
35.634361
 21
157.412506
  0
LINE
  8
0
 10
23.634361
 20
112.387604
 11
23.634361
 21
114.537399
  0
LINE
  8
0
 10
25.134361
 20
112.012505
 11
25.134361
 21
114.912506
  0
LINE
  8
0
 10
26.634361
 20
112.012505
 11
26.634361
 21
114.912506
  0
LINE
  8
0
 10
25.134352
 20
112.212456
 11
26.634352
 21
112.012451
  0
LINE
  8
0
 10
25.134363
 20
114.712509
 11
26.634363
 21
114.912506
  0
LINE
  8
0
 10
23.807926
 20
112.189316
 11
25.134361
 21
112.012459
  0
LINE
  8
0
 10
23.807926
 20
114.735641
 11
25.134359
 21
114.912506
  0
LINE
  8
0
 10
26.734360
 20
112.212502
 11
28.534359
 21
112.212502
  0
LINE
  8
0
 10
26.734360
 20
114.712502
 11
28.534359
 21
114.712502
  0
LINE
  8
0
 10
28.634361
 20
111.290817
 11
28.634361
 21
115.634193
  0
LINE
  8
0
 10
31.303425
 20
110.562500
 11
28.865299
 21
110.562500
  0
LINE
  8
0
 10
31.303425
 20
116.362503
 11
28.865299
 21
116.362503
  0
LINE
  8
0
 10
31.303421
 20
114.905876
 11
28.865295
 21
114.905876
  0
LINE
  8
0
 10
28.865295
 20
112.019066
 11
31.303425
 21
112.019066
  0
LINE
  8
0
 10
31.534363
 20
110.662506
 11
31.534363
 21
116.262497
  0
LINE
  8
0
 10
32.134361
 20
110.662506
 11
31.534363
 21
110.662506
  0
LINE
  8
0
 10
32.134361
 20
116.262497
 11
31.534363
 21
116.262497
  0
LINE
  8
0
 10
35.134361
 20
154.962494
 11
35.134361
 21
153.962494
  0
LINE
  8
0
 10
35.134369
 20
153.962494
 11
36.134369
 21
153.962494
  0
LINE
  8
0
 10
36.134361
 20
153.962494
 11
36.134361
 21
154.962494
  0
LINE
  8
0
 10
36.134369
 20
154.962494
 11
37.806057
 21
154.962494
  0
LINE
  8
0
 10
42.634377
 20
148.129486
 11
41.884377
 21
148.562500
  0
LINE
  8
0
 10
28.634350
 20
148.129517
 11
29.384354
 21
148.562531
  0
LINE
  8
0
  6
PHANTOM
 10
42.634361
 20
123.995514
 11
42.634361
 21
128.562500
  0
LINE
  8
0
  6
PHANTOM
 10
28.634361
 20
123.995514
 11
28.634361
 21
128.562500
  0
LINE
  8
0
  6
PHANTOM
 10
41.884361
 20
123.562500
 11
41.884361
 21
128.562500
  0
LINE
  8
0
  6
PHANTOM
 10
29.384361
 20
123.562500
 11
29.384361
 21
128.562500
  0
LINE
  8
0
  6
PHANTOM
 10
41.884361
 20
123.562515
 11
42.634365
 21
123.995529
  0
LINE
  8
0
  6
PHANTOM
 10
29.384380
 20
123.562508
 11
28.634377
 21
123.995522
  0
LINE
  8
0
  6
PHANTOM
 10
29.384369
 20
123.562500
 11
41.884361
 21
123.562500
  0
LINE
  8
0
 10
39.134361
 20
151.462494
 11
39.134361
 21
149.162506
  0
LINE
  8
0
 10
40.284367
 20
149.162506
 11
30.984367
 21
149.162506
  0
LINE
  8
0
 10
32.134361
 20
149.162506
 11
32.134361
 21
151.462494
  0
LINE
  8
0
 10
32.134369
 20
151.462494
 11
39.134369
 21
151.462494
  0
LINE
  8
0
 10
40.284363
 20
149.162506
 11
40.284363
 21
148.562500
  0
LINE
  8
0
 10
30.984360
 20
149.162506
 11
30.984360
 21
148.562500
  0
LINE
  8
0
 10
29.634361
 20
118.562500
 11
41.634361
 21
118.562500
  0
LINE
  8
0
 10
29.634361
 20
119.362503
 11
41.634361
 21
119.362503
  0
LINE
  8
0
 10
29.634361
 20
118.562500
 11
29.634361
 21
119.362503
  0
LINE
  8
0
 10
41.634361
 20
118.562500
 11
41.634361
 21
119.362503
  0
LINE
  8
0
 10
30.134361
 20
116.912498
 11
30.134361
 21
129.712494
  0
LINE
  8
0
 10
41.134361
 20
117.045837
 11
41.134361
 21
129.845825
  0
LINE
  8
0
  6
PHANTOM
 10
41.472145
 20
120.412720
 11
41.472145
 21
127.167290
  0
LINE
  8
0
  6
PHANTOM
 10
40.772148
 20
120.361816
 11
40.772148
 21
127.042168
  0
LINE
  8
0
  6
PHANTOM
 10
30.478844
 20
120.737183
 11
30.478844
 21
127.402298
  0
LINE
  8
0
  6
PHANTOM
 10
29.778847
 20
120.796616
 11
29.778847
 21
127.480095
  0
LINE
  8
0
 10
32.134361
 20
120.062500
 11
32.134361
 21
120.376366
  0
LINE
  8
0
 10
27.134361
 20
133.562485
 11
25.834360
 21
134.313049
  0
LINE
  8
0
 10
27.134388
 20
138.562454
 11
25.834385
 21
137.811905
  0
LINE
  8
0
 10
25.834362
 20
134.313065
 11
25.834362
 21
137.811935
  0
LINE
  8
0
 10
27.134369
 20
133.562500
 11
44.134384
 21
133.562500
  0
LINE
  8
0
 10
27.134373
 20
138.562500
 11
44.134399
 21
138.562500
  0
LINE
  8
0
 10
44.134373
 20
133.562469
 11
45.434376
 21
134.313034
  0
LINE
  8
0
 10
45.434361
 20
134.313065
 11
45.434361
 21
137.811935
  0
LINE
  8
0
 10
44.134357
 20
138.562500
 11
45.434353
 21
137.811951
  0
LINE
  8
0
 10
27.134380
 20
138.562485
 11
25.834381
 21
137.811935
  0
LINE
  8
0
 10
40.541840
 20
134.313065
 11
40.541840
 21
137.811935
  0
LINE
  8
0
 10
30.726883
 20
134.313065
 11
30.726883
 21
137.811935
  0
LINE
  8
0
 10
27.134365
 20
138.562485
 11
25.834358
 21
139.313049
  0
LINE
  8
0
 10
27.134386
 20
143.562469
 11
25.834383
 21
142.811905
  0
LINE
  8
0
 10
25.834362
 20
139.313065
 11
25.834362
 21
142.811935
  0
LINE
  8
0
 10
27.134373
 20
138.562500
 11
44.134384
 21
138.562500
  0
LINE
  8
0
 10
27.134373
 20
143.562500
 11
44.134399
 21
143.562500
  0
LINE
  8
0
 10
44.134369
 20
138.562485
 11
45.434368
 21
139.313034
  0
LINE
  8
0
 10
45.434361
 20
139.313065
 11
45.434361
 21
142.811935
  0
LINE
  8
0
 10
44.134354
 20
143.562515
 11
45.434349
 21
142.811966
  0
LINE
  8
0
 10
27.134373
 20
143.562500
 11
25.834370
 21
142.811935
  0
LINE
  8
0
 10
40.541840
 20
139.313065
 11
40.541840
 21
142.811935
  0
LINE
  8
0
 10
30.726883
 20
139.313065
 11
30.726883
 21
142.811935
  0
LINE
  8
0
 10
41.884361
 20
143.562500
 11
41.884361
 21
148.562500
  0
LINE
  8
0
 10
42.634361
 20
143.562500
 11
42.634361
 21
148.129486
  0
LINE
  8
0
 10
29.384361
 20
143.562500
 11
29.384361
 21
148.562500
  0
LINE
  8
0
 10
28.634361
 20
143.562500
 11
28.634361
 21
148.129486
  0
LINE
  8
0
  6
PHANTOM
 10
28.634365
 20
123.995514
 11
42.634365
 21
123.995514
  0
LINE
  8
0
 10
28.634369
 20
148.129486
 11
42.634369
 21
148.129486
  0
LINE
  8
0
 10
32.134361
 20
105.462502
 11
39.134361
 21
105.462502
  0
LINE
  8
0
 10
30.134361
 20
120.062500
 11
41.134361
 21
120.062500
  0
LINE
  8
0
 10
30.134369
 20
127.862503
 11
41.134369
 21
127.862503
  0
LINE
  8
0
 10
41.134369
 20
127.478813
 11
30.134369
 21
127.862946
  0
LINE
  8
0
 10
41.134369
 20
126.778381
 11
30.134367
 21
127.162514
  0
LINE
  8
0
 10
41.134365
 20
120.762505
 11
30.134363
 21
121.146637
  0
LINE
  8
0
 10
41.134361
 20
120.062080
 11
30.134361
 21
120.446213
  0
LINE
  8
0
 10
39.134361
 20
120.832344
 11
39.134361
 21
126.848221
  0
LINE
  8
0
 10
32.134361
 20
121.076790
 11
32.134361
 21
127.092667
  0
LINE
  8
0
 10
39.134361
 20
127.548645
 11
39.134361
 21
127.862503
  0
LINE
  8
0
 10
41.884361
 20
128.562515
 11
42.634369
 21
128.995529
  0
LINE
  8
0
 10
41.884361
 20
128.562500
 11
41.884361
 21
133.562500
  0
LINE
  8
0
 10
42.634361
 20
128.995514
 11
42.634361
 21
133.562500
  0
LINE
  8
0
 10
29.384369
 20
128.562500
 11
41.884361
 21
128.562500
  0
LINE
  8
0
 10
28.634369
 20
128.995514
 11
42.634369
 21
128.995514
  0
LINE
  8
0
 10
29.384361
 20
128.562500
 11
29.384361
 21
133.562500
  0
LINE
  8
0
 10
28.634361
 20
128.995514
 11
28.634361
 21
133.562500
  0
LINE
  8
0
 10
29.384377
 20
128.562500
 11
28.634375
 21
128.995514
  0
LINE
  8
0
 10
30.634361
 20
98.462502
 11
30.634361
 21
103.462502
  0
LINE
  8
0
 10
32.247314
 20
97.531265
 11
30.634361
 21
98.462502
  0
LINE
  8
0
 10
32.134357
 20
95.962494
 11
31.851515
 21
96.245346
  0
LINE
  8
0
 10
31.851517
 20
96.245346
 11
32.350868
 21
96.744690
  0
LINE
  8
0
 10
39.134361
 20
95.962502
 11
32.134361
 21
95.962502
  0
LINE
  8
0
 10
40.634361
 20
103.462502
 11
30.634361
 21
103.462502
  0
LINE
  8
0
 10
40.634361
 20
98.462502
 11
40.634361
 21
103.462502
  0
LINE
  8
0
 10
39.021404
 20
97.531265
 11
40.634361
 21
98.462509
  0
LINE
  8
0
 10
39.134365
 20
95.962494
 11
39.417210
 21
96.245331
  0
LINE
  8
0
 10
39.417206
 20
96.245346
 11
38.917854
 21
96.744698
  0
LINE
  8
0
 10
39.417206
 20
96.245346
 11
31.851517
 21
96.245346
  0
LINE
  8
0
 10
40.634361
 20
98.462502
 11
30.634361
 21
98.462502
  0
LINE
  8
0
 10
38.457092
 20
97.205460
 11
32.811630
 21
97.205460
  0
ARC
  8
0
 10
30.270451
 20
111.290817
 40
1.263911
 50
324.813843
 51
35.186165
  0
ARC
  8
0
 10
30.270451
 20
115.634186
 40
1.263911
 50
324.813843
 51
35.186165
  0
ARC
  8
0
 10
26.908295
 20
113.462502
 40
4.626066
 50
341.819641
 51
18.180351
  0
ARC
  8
0
 10
37.806057
 20
153.326416
 40
1.263923
 50
234.814240
 51
305.185760
  0
ARC
  8
0
 10
35.634369
 20
156.688568
 40
4.626078
 50
251.819702
 51
288.180298
  0
ARC
  8
0
 10
33.462681
 20
153.698578
 40
1.263926
 50
54.814095
 51
125.185768
  0
ARC
  8
0
 10
33.462681
 20
153.326416
 40
1.263923
 50
234.814240
 51
305.185760
  0
ARC
  8
0
 10
37.806057
 20
153.698578
 40
1.263926
 50
54.814095
 51
125.185768
  0
ARC
  8
0
 10
35.634369
 20
150.336426
 40
4.626080
 50
71.819656
 51
83.795174
  0
ARC
  8
0
 10
23.834358
 20
114.537399
 40
0.199997
 50
97.594574
 51
180.000000
  0
ARC
  8
0
 10
26.734360
 20
112.112503
 40
0.099998
 50
90.000000
 51
180.000000
  0
ARC
  8
0
 10
26.734360
 20
114.812508
 40
0.100000
 50
180.000000
 51
270.000000
  0
ARC
  8
0
 10
23.834358
 20
112.387604
 40
0.200001
 50
180.000000
 51
262.405426
  0
ARC
  8
0
 10
28.534359
 20
114.812508
 40
0.099998
 50
270.000000
 51
0.000000
  0
ARC
  8
0
 10
28.534359
 20
112.112503
 40
0.100000
 50
0.000000
 51
90.000000
  0
ARC
  8
0
 10
29.898273
 20
115.634186
 40
1.263911
 50
144.813843
 51
215.186157
  0
ARC
  8
0
 10
29.898273
 20
111.290817
 40
1.263911
 50
144.813843
 51
215.186157
  0
ARC
  8
0
 10
33.260426
 20
113.462502
 40
4.626066
 50
161.819550
 51
198.180252
  0
ARC
  8
0
 10
35.634369
 20
150.336426
 40
4.626069
 50
96.204826
 51
108.180252
  0
CIRCLE
  8
0
 10
30.134369
 20
128.212494
 40
0.350000
  0
CIRCLE
  8
0
 10
41.134369
 20
128.212494
 40
0.350000
  0
CIRCLE
  8
0
 10
41.134361
 20
119.712502
 40
0.350000
  0
CIRCLE
  8
0
 10
30.134361
 20
119.712502
 40
0.350000
  0
CIRCLE
  8
0
 10
30.128845
 20
120.796616
 40
0.350000
  0
CIRCLE
  8
0
 10
41.122147
 20
120.412720
 40
0.350000
  0
CIRCLE
  8
0
 10
41.139885
 20
127.128395
 40
0.350000
  0
CIRCLE
  8
0
 10
30.146584
 20
127.512291
 40
0.350000
  0
ARC
  8
0
 10
28.280632
 20
137.924240
 40
4.361742
 50
235.885727
 51
304.114227
  0
ARC
  8
0
 10
42.988106
 20
137.924240
 40
4.361742
 50
235.885727
 51
304.114227
  0
ARC
  8
0
 10
35.634369
 20
149.981262
 40
16.418758
 50
252.608826
 51
287.391174
  0
ARC
  8
0
 10
42.988106
 20
134.200760
 40
4.361739
 50
55.885761
 51
124.114235
  0
ARC
  8
0
 10
35.634365
 20
122.143730
 40
16.418768
 50
72.608803
 51
107.391136
  0
ARC
  8
0
 10
28.280632
 20
134.200760
 40
4.361741
 50
55.885742
 51
124.114235
  0
ARC
  8
0
 10
42.988106
 20
139.200760
 40
4.361739
 50
55.885761
 51
124.114235
  0
ARC
  8
0
 10
28.280632
 20
139.200760
 40
4.361741
 50
55.885742
 51
124.114235
  0
ARC
  8
0
 10
42.988106
 20
142.924240
 40
4.361742
 50
235.885727
 51
304.114227
  0
ARC
  8
0
 10
35.634365
 20
127.143730
 40
16.418768
 50
72.608803
 51
107.391136
  0
ARC
  8
0
 10
35.634369
 20
154.981262
 40
16.418758
 50
252.608826
 51
287.391174
  0
ARC
  8
0
 10
28.280632
 20
142.924240
 40
4.361742
 50
235.885727
 51
304.114227
  0
ARC
  8
0
 10
39.271408
 20
97.098251
 40
0.500001
 50
119.999931
 51
225.000626
  0
ARC
  8
0
 10
31.997314
 20
97.098251
 40
0.500001
 50
315.000000
 51
60.000069
  0
POINT
  8
0
 10
35.634361
 20
54.687500
  0
POINT
  8
0
 10
35.634361
 20
54.687500
  0
POINT
  8
0
 10
45.449318
 20
54.687500
  0
LINE
  8
0
 10
35.634361
 20
44.392761
 11
35.634361
 21
64.924713
  0
LINE
  8
0
 10
28.634361
 20
52.187500
 11
28.634361
 21
57.187500
  0
LINE
  8
0
 10
23.634361
 20
53.612602
 11
23.634361
 21
55.762398
  0
LINE
  8
0
 10
25.134361
 20
53.237499
 11
25.134361
 21
56.137501
  0
LINE
  8
0
 10
26.634361
 20
53.237499
 11
26.634361
 21
56.137505
  0
LINE
  8
0
 10
25.134357
 20
53.437492
 11
26.634357
 21
53.237492
  0
LINE
  8
0
 10
25.134359
 20
55.937504
 11
26.634361
 21
56.137505
  0
LINE
  8
0
 10
23.807924
 20
53.414349
 11
25.134357
 21
53.237488
  0
LINE
  8
0
 10
23.807922
 20
55.960644
 11
25.134357
 21
56.137505
  0
LINE
  8
0
 10
26.734360
 20
53.437500
 11
28.534359
 21
53.437500
  0
LINE
  8
0
 10
26.734360
 20
55.937500
 11
28.534359
 21
55.937500
  0
LINE
  8
0
 10
21.530499
 20
54.687500
 11
47.341343
 21
54.687500
  0
LINE
  8
0
 10
39.134361
 20
54.687500
 11
39.134361
 21
54.687500
  0
LINE
  8
0
 10
40.634361
 20
54.687500
 11
40.634361
 21
54.687500
  0
LINE
  8
0
 10
32.134361
 20
54.687500
 11
32.134361
 21
54.687500
  0
LINE
  8
0
 10
30.634361
 20
54.687500
 11
30.634361
 21
54.687500
  0
LINE
  8
0
 10
30.634361
 20
54.687500
 11
30.634361
 21
54.687500
  0
LINE
  8
0
 10
40.634361
 20
54.687500
 11
40.634361
 21
54.687500
  0
LINE
  8
0
 10
28.634361
 20
52.187500
 11
31.534363
 21
52.187500
  0
LINE
  8
0
 10
28.634361
 20
57.187500
 11
31.534363
 21
57.187500
  0
LINE
  8
0
 10
30.726883
 20
46.187500
 11
40.541836
 21
46.187500
  0
LINE
  8
0
 10
30.726883
 20
63.187500
 11
40.541840
 21
63.187500
  0
LINE
  8
0
 10
45.449318
 20
54.687500
 11
40.541840
 21
63.187504
  0
LINE
  8
0
 10
30.726871
 20
46.187496
 11
26.658401
 21
53.234295
  0
LINE
  8
0
 10
26.658419
 20
56.140717
 11
30.726883
 21
63.187500
  0
LINE
  8
0
 10
40.541840
 20
46.187500
 11
45.449318
 21
54.687500
  0
LINE
  8
0
 10
30.351517
 20
54.687500
 11
28.865299
 21
54.687500
  0
LINE
  8
0
 10
40.634361
 20
54.687500
 11
40.634361
 21
54.687500
  0
LINE
  8
0
 10
30.634361
 20
54.687500
 11
30.634361
 21
54.687500
  0
LINE
  8
0
 10
34.134361
 20
51.187500
 11
37.134361
 21
51.187500
  0
LINE
  8
0
 10
34.134361
 20
58.187500
 11
37.134361
 21
58.187500
  0
LINE
  8
0
 10
37.634361
 20
54.687500
 11
37.634361
 21
54.687500
  0
LINE
  8
0
 10
33.634361
 20
54.687500
 11
33.634361
 21
54.687500
  0
LINE
  8
0
 10
37.634361
 20
54.687500
 11
37.634361
 21
54.687500
  0
LINE
  8
0
 10
33.634361
 20
54.687500
 11
33.634361
 21
54.687500
  0
LINE
  8
0
 10
32.134361
 20
54.687500
 11
32.134361
 21
54.687500
  0
LINE
  8
0
 10
39.134361
 20
54.687500
 11
39.134361
 21
54.687500
  0
LINE
  8
0
 10
39.134361
 20
54.687500
 11
39.134361
 21
54.687500
  0
LINE
  8
0
 10
32.134361
 20
54.687500
 11
32.134361
 21
54.687500
  0
LINE
  8
0
 10
33.884361
 20
56.437500
 11
37.384361
 21
56.437500
  0
LINE
  8
0
 10
33.884361
 20
52.937500
 11
37.384361
 21
52.937500
  0
LINE
  8
0
 10
33.884361
 20
52.654659
 11
37.384361
 21
52.654659
  0
LINE
  8
0
 10
33.884361
 20
56.720341
 11
37.384361
 21
56.720341
  0
ARC
  8
0
 10
26.734360
 20
53.337502
 40
0.099998
 50
90.000000
 51
180.000000
  0
ARC
  8
0
 10
28.534359
 20
53.337502
 40
0.100000
 50
0.000000
 51
90.000000
  0
ARC
  8
0
 10
26.734360
 20
56.037502
 40
0.100000
 50
180.000000
 51
270.000000
  0
ARC
  8
0
 10
28.534359
 20
56.037502
 40
0.099998
 50
270.000000
 51
0.000000
  0
ARC
  8
0
 10
23.834358
 20
53.612602
 40
0.200001
 50
180.000000
 51
262.405579
  0
ARC
  8
0
 10
23.834358
 20
55.762398
 40
0.200000
 50
97.594429
 51
180.000000
  0
ARC
  8
0
 10
28.035950
 20
55.937504
 40
3.498410
 50
18.514292
 51
20.934771
  0
ARC
  8
0
 10
28.035946
 20
53.437504
 40
3.498418
 50
339.065186
 51
341.485596
  0
ARC
  8
0
 10
32.132778
 20
55.937500
 40
3.498417
 50
159.065247
 51
200.934753
  0
ARC
  8
0
 10
32.132774
 20
53.437500
 40
3.498413
 50
159.065231
 51
200.934845
  0
ARC
  8
0
 10
35.634361
 20
54.687500
 40
8.500000
 50
90.000000
 51
171.543457
  0
ARC
  8
0
 10
35.634361
 20
54.687500
 40
8.500000
 50
188.456543
 51
89.999977
  0
ARC
  8
0
 10
35.634361
 20
54.687500
 40
7.000000
 50
90.000000
 51
150.000000
  0
ARC
  8
0
 10
35.634361
 20
54.687500
 40
7.000000
 50
90.000000
 51
159.075165
  0
ARC
  8
0
 10
35.634361
 20
54.687500
 40
7.000001
 50
29.999992
 51
90.000000
  0
ARC
  8
0
 10
35.634361
 20
54.687500
 40
7.000000
 50
200.924866
 51
89.999969
  0
CIRCLE
  8
0
 10
35.634361
 20
54.687500
 40
0.750000
  0
ARC
  8
0
 10
37.134361
 20
54.687500
 40
3.500000
 50
270.000000
 51
90.000000
  0
ARC
  8
0
 10
34.134361
 20
54.687500
 40
3.500000
 50
90.000000
 51
269.999939
  0
ARC
  8
0
 10
33.884361
 20
54.687500
 40
1.750000
 50
90.000000
 51
270.000000
  0
ARC
  8
0
 10
37.384361
 20
54.687500
 40
1.750000
 50
270.000000
 51
90.000000
  0
ARC
  8
0
 10
33.884357
 20
54.687500
 40
2.032841
 50
90.000000
 51
270.000000
  0
ARC
  8
0
 10
37.384365
 20
54.687500
 40
2.032841
 50
270.000000
 51
90.000000
  0
POINT
  8
0
 10
106.053108
 20
138.562500
  0
POINT
  8
0
 10
115.853104
 20
138.562500
  0
LINE
  8
0
 10
109.553108
 20
103.462502
 11
109.553108
 21
118.562500
  0
LINE
  8
0
 10
102.553108
 20
103.462502
 11
102.553108
 21
118.562500
  0
LINE
  8
0
 10
99.803123
 20
148.562500
 11
112.303116
 21
148.562500
  0
LINE
  8
0
 10
91.764320
 20
113.462502
 11
104.719772
 21
113.462502
  0
LINE
  8
0
 10
101.953102
 20
115.962494
 11
101.722160
 21
116.362488
  0
LINE
  8
0
 10
101.953110
 20
110.962502
 11
101.722168
 21
110.562508
  0
LINE
  8
0
 10
108.553108
 20
152.062515
 11
108.953102
 21
152.293457
  0
LINE
  8
0
 10
107.496475
 20
152.293427
 11
107.496475
 21
154.731567
  0
LINE
  8
0
 10
103.881424
 20
154.962494
 11
105.553116
 21
154.962494
  0
LINE
  8
0
 10
103.553116
 20
152.062500
 11
103.153114
 21
152.293457
  0
LINE
  8
0
 10
103.153107
 20
152.293427
 11
103.153107
 21
154.731567
  0
LINE
  8
0
 10
108.953110
 20
152.293427
 11
108.953110
 21
154.731567
  0
LINE
  8
0
 10
104.609558
 20
154.731567
 11
104.609558
 21
152.293442
  0
LINE
  8
0
 10
108.853104
 20
151.462494
 11
108.853104
 21
152.062500
  0
LINE
  8
0
 10
103.253113
 20
152.062500
 11
108.853111
 21
152.062500
  0
LINE
  8
0
 10
103.253105
 20
151.462494
 11
103.253105
 21
152.062500
  0
LINE
  8
0
 10
106.053108
 20
91.967659
 11
106.053108
 21
157.412506
  0
LINE
  8
0
 10
94.053108
 20
112.387604
 11
94.053108
 21
114.537399
  0
LINE
  8
0
 10
95.553108
 20
112.012505
 11
95.553108
 21
114.912506
  0
LINE
  8
0
 10
97.053108
 20
112.012505
 11
97.053108
 21
114.912506
  0
LINE
  8
0
 10
95.553085
 20
112.212456
 11
97.053085
 21
112.012451
  0
LINE
  8
0
 10
95.553108
 20
114.712509
 11
97.053108
 21
114.912506
  0
LINE
  8
0
 10
94.226677
 20
112.189316
 11
95.553108
 21
112.012459
  0
LINE
  8
0
 10
94.226669
 20
114.735641
 11
95.553108
 21
114.912506
  0
LINE
  8
0
 10
97.153107
 20
112.212502
 11
98.953110
 21
112.212502
  0
LINE
  8
0
 10
97.153107
 20
114.712502
 11
98.953110
 21
114.712502
  0
LINE
  8
0
 10
99.053108
 20
111.290817
 11
99.053108
 21
115.634193
  0
LINE
  8
0
 10
101.722176
 20
110.562500
 11
99.284050
 21
110.562500
  0
LINE
  8
0
 10
101.722176
 20
116.362503
 11
99.284050
 21
116.362503
  0
LINE
  8
0
 10
101.722168
 20
114.905876
 11
99.284042
 21
114.905876
  0
LINE
  8
0
 10
99.284042
 20
112.019066
 11
101.722176
 21
112.019066
  0
LINE
  8
0
 10
101.953110
 20
110.662506
 11
101.953110
 21
116.262497
  0
LINE
  8
0
 10
102.553108
 20
110.662506
 11
101.953110
 21
110.662506
  0
LINE
  8
0
 10
102.553108
 20
116.262497
 11
101.953110
 21
116.262497
  0
LINE
  8
0
 10
105.553108
 20
154.962494
 11
105.553108
 21
153.962494
  0
LINE
  8
0
 10
105.553116
 20
153.962494
 11
106.553116
 21
153.962494
  0
LINE
  8
0
 10
106.553108
 20
153.962494
 11
106.553108
 21
154.962494
  0
LINE
  8
0
 10
106.553116
 20
154.962494
 11
108.224808
 21
154.962494
  0
LINE
  8
0
 10
113.053123
 20
148.129486
 11
112.303116
 21
148.562515
  0
LINE
  8
0
 10
99.053101
 20
148.129517
 11
99.803101
 21
148.562531
  0
LINE
  8
0
  6
PHANTOM
 10
113.053108
 20
123.995514
 11
113.053108
 21
128.562500
  0
LINE
  8
0
  6
PHANTOM
 10
99.053108
 20
123.995514
 11
99.053108
 21
128.562500
  0
LINE
  8
0
  6
PHANTOM
 10
112.303108
 20
123.562500
 11
112.303108
 21
128.562500
  0
LINE
  8
0
  6
PHANTOM
 10
99.803108
 20
123.562500
 11
99.803108
 21
128.562500
  0
LINE
  8
0
  6
PHANTOM
 10
112.303116
 20
123.562515
 11
113.053116
 21
123.995529
  0
LINE
  8
0
  6
PHANTOM
 10
99.803131
 20
123.562508
 11
99.053123
 21
123.995522
  0
LINE
  8
0
  6
PHANTOM
 10
99.803116
 20
123.562500
 11
112.303108
 21
123.562500
  0
LINE
  8
0
 10
109.553108
 20
151.462494
 11
109.553108
 21
149.162506
  0
LINE
  8
0
 10
110.703117
 20
149.162506
 11
101.403114
 21
149.162506
  0
LINE
  8
0
 10
102.553108
 20
149.162506
 11
102.553108
 21
151.462494
  0
LINE
  8
0
 10
102.553116
 20
151.462494
 11
109.553116
 21
151.462494
  0
LINE
  8
0
 10
110.703110
 20
149.162506
 11
110.703110
 21
148.562500
  0
LINE
  8
0
 10
101.403107
 20
149.162506
 11
101.403107
 21
148.562500
  0
LINE
  8
0
 10
100.053108
 20
118.562500
 11
112.053108
 21
118.562500
  0
LINE
  8
0
 10
100.053108
 20
119.362503
 11
112.053108
 21
119.362503
  0
LINE
  8
0
 10
100.053108
 20
118.562500
 11
100.053108
 21
119.362503
  0
LINE
  8
0
 10
112.053108
 20
118.562500
 11
112.053108
 21
119.362503
  0
LINE
  8
0
 10
100.553108
 20
116.912498
 11
100.553108
 21
129.712494
  0
LINE
  8
0
 10
111.553108
 20
117.045837
 11
111.553108
 21
129.845825
  0
LINE
  8
0
  6
PHANTOM
 10
111.890892
 20
120.412720
 11
111.890892
 21
127.167290
  0
LINE
  8
0
  6
PHANTOM
 10
111.190895
 20
120.361816
 11
111.190895
 21
127.042168
  0
LINE
  8
0
  6
PHANTOM
 10
100.897591
 20
120.737183
 11
100.897591
 21
127.402298
  0
LINE
  8
0
  6
PHANTOM
 10
100.197594
 20
120.796616
 11
100.197594
 21
127.480095
  0
LINE
  8
0
 10
102.553108
 20
120.062500
 11
102.553108
 21
120.376366
  0
LINE
  8
0
 10
97.553116
 20
133.562485
 11
96.253113
 21
134.313049
  0
LINE
  8
0
 10
97.553139
 20
138.562454
 11
96.253136
 21
137.811905
  0
LINE
  8
0
 10
96.253113
 20
134.313065
 11
96.253113
 21
137.811935
  0
LINE
  8
0
 10
97.553116
 20
133.562500
 11
114.553131
 21
133.562500
  0
LINE
  8
0
 10
97.553116
 20
138.562500
 11
114.553146
 21
138.562500
  0
LINE
  8
0
 10
114.553108
 20
133.562469
 11
115.853111
 21
134.313034
  0
LINE
  8
0
 10
115.853104
 20
134.313065
 11
115.853104
 21
137.811935
  0
LINE
  8
0
 10
114.553108
 20
138.562500
 11
115.853104
 21
137.811951
  0
LINE
  8
0
 10
97.553131
 20
138.562485
 11
96.253136
 21
137.811935
  0
LINE
  8
0
 10
110.960587
 20
134.313065
 11
110.960587
 21
137.811935
  0
LINE
  8
0
 10
101.145630
 20
134.313065
 11
101.145630
 21
137.811935
  0
LINE
  8
0
 10
97.553101
 20
138.562500
 11
96.253098
 21
139.313049
  0
LINE
  8
0
 10
97.553139
 20
143.562469
 11
96.253136
 21
142.811905
  0
LINE
  8
0
 10
96.253113
 20
139.313065
 11
96.253113
 21
142.811935
  0
LINE
  8
0
 10
97.553116
 20
138.562500
 11
114.553131
 21
138.562500
  0
LINE
  8
0
 10
97.553116
 20
143.562500
 11
114.553146
 21
143.562500
  0
LINE
  8
0
 10
114.553116
 20
138.562485
 11
115.853111
 21
139.313034
  0
LINE
  8
0
 10
115.853104
 20
139.313065
 11
115.853104
 21
142.811935
  0
LINE
  8
0
 10
114.553108
 20
143.562515
 11
115.853096
 21
142.811966
  0
LINE
  8
0
 10
97.553123
 20
143.562500
 11
96.253120
 21
142.811935
  0
LINE
  8
0
 10
110.960587
 20
139.313065
 11
110.960587
 21
142.811935
  0
LINE
  8
0
 10
101.145630
 20
139.313065
 11
101.145630
 21
142.811935
  0
LINE
  8
0
 10
112.303108
 20
143.562500
 11
112.303108
 21
148.562500
  0
LINE
  8
0
 10
113.053108
 20
143.562500
 11
113.053108
 21
148.129486
  0
LINE
  8
0
 10
99.803108
 20
143.562500
 11
99.803108
 21
148.562500
  0
LINE
  8
0
 10
99.053108
 20
143.562500
 11
99.053108
 21
148.129486
  0
LINE
  8
0
  6
PHANTOM
 10
99.053108
 20
123.995514
 11
113.053108
 21
123.995514
  0
LINE
  8
0
 10
99.053116
 20
148.129486
 11
113.053116
 21
148.129486
  0
LINE
  8
0
 10
102.553108
 20
105.462502
 11
109.553108
 21
105.462502
  0
LINE
  8
0
 10
100.553108
 20
120.062500
 11
111.553108
 21
120.062500
  0
LINE
  8
0
 10
100.553116
 20
127.862503
 11
111.553116
 21
127.862503
  0
LINE
  8
0
 10
111.553108
 20
127.478813
 11
100.553116
 21
127.862946
  0
LINE
  8
0
 10
111.553108
 20
126.778381
 11
100.553116
 21
127.162514
  0
LINE
  8
0
 10
111.553108
 20
120.762505
 11
100.553108
 21
121.146637
  0
LINE
  8
0
 10
111.553108
 20
120.062080
 11
100.553108
 21
120.446213
  0
LINE
  8
0
 10
109.553108
 20
120.832344
 11
109.553108
 21
126.848221
  0
LINE
  8
0
 10
102.553108
 20
121.076790
 11
102.553108
 21
127.092667
  0
LINE
  8
0
 10
109.553108
 20
127.548645
 11
109.553108
 21
127.862503
  0
LINE
  8
0
 10
112.303101
 20
128.562515
 11
113.053108
 21
128.995529
  0
LINE
  8
0
 10
112.303108
 20
128.562500
 11
112.303108
 21
133.562500
  0
LINE
  8
0
 10
113.053108
 20
128.995514
 11
113.053108
 21
133.562500
  0
LINE
  8
0
 10
99.803116
 20
128.562500
 11
112.303108
 21
128.562500
  0
LINE
  8
0
 10
99.053116
 20
128.995514
 11
113.053116
 21
128.995514
  0
LINE
  8
0
 10
99.803108
 20
128.562500
 11
99.803108
 21
133.562500
  0
LINE
  8
0
 10
99.053108
 20
128.995514
 11
99.053108
 21
133.562500
  0
LINE
  8
0
 10
99.803123
 20
128.562500
 11
99.053123
 21
128.995514
  0
LINE
  8
0
 10
101.053108
 20
98.462502
 11
101.053108
 21
103.462502
  0
LINE
  8
0
 10
101.940826
 20
97.949982
 11
101.053108
 21
98.462502
  0
LINE
  8
0
 10
101.053108
 20
95.962502
 11
100.770264
 21
96.245346
  0
LINE
  8
0
 10
100.770264
 20
96.245346
 11
102.002960
 21
97.478035
  0
LINE
  8
0
 10
111.053108
 20
95.962502
 11
101.053108
 21
95.962502
  0
LINE
  8
0
 10
111.053108
 20
103.462502
 11
101.053108
 21
103.462502
  0
LINE
  8
0
 10
111.053108
 20
98.462502
 11
111.053108
 21
103.462502
  0
LINE
  8
0
 10
110.165390
 20
97.949982
 11
111.053108
 21
98.462509
  0
LINE
  8
0
 10
111.053116
 20
95.962494
 11
111.335960
 21
96.245331
  0
LINE
  8
0
 10
111.335953
 20
96.245346
 11
110.103256
 21
97.478043
  0
LINE
  8
0
 10
111.335953
 20
96.245346
 11
100.770264
 21
96.245346
  0
LINE
  8
0
 10
111.053108
 20
98.462502
 11
101.053108
 21
98.462502
  0
LINE
  8
0
 10
109.826805
 20
97.754494
 11
102.279411
 21
97.754494
  0
ARC
  8
0
 10
100.689201
 20
111.290817
 40
1.263911
 50
324.813843
 51
35.186165
  0
ARC
  8
0
 10
100.689201
 20
115.634186
 40
1.263911
 50
324.813843
 51
35.186165
  0
ARC
  8
0
 10
97.327042
 20
113.462502
 40
4.626064
 50
341.819641
 51
18.180359
  0
ARC
  8
0
 10
108.224808
 20
153.326401
 40
1.263911
 50
234.813843
 51
305.186157
  0
ARC
  8
0
 10
106.053116
 20
156.688568
 40
4.626078
 50
251.819702
 51
288.180298
  0
ARC
  8
0
 10
103.881424
 20
153.698578
 40
1.263911
 50
54.813835
 51
125.185768
  0
ARC
  8
0
 10
103.881424
 20
153.326401
 40
1.263911
 50
234.813843
 51
305.186157
  0
ARC
  8
0
 10
108.224808
 20
153.698578
 40
1.263911
 50
54.813835
 51
125.185768
  0
ARC
  8
0
 10
106.053116
 20
150.336426
 40
4.626078
 50
71.819702
 51
83.795174
  0
ARC
  8
0
 10
94.253105
 20
114.537399
 40
0.199997
 50
97.595657
 51
180.000000
  0
ARC
  8
0
 10
97.153107
 20
112.112503
 40
0.099998
 50
90.000000
 51
180.000000
  0
ARC
  8
0
 10
97.153107
 20
114.812508
 40
0.099998
 50
180.000000
 51
270.000000
  0
ARC
  8
0
 10
94.253105
 20
112.387604
 40
0.199997
 50
180.000000
 51
262.404358
  0
ARC
  8
0
 10
98.953110
 20
114.812508
 40
0.099998
 50
270.000000
 51
0.000000
  0
ARC
  8
0
 10
98.953110
 20
112.112503
 40
0.099998
 50
0.000000
 51
90.000000
  0
ARC
  8
0
 10
100.317024
 20
115.634186
 40
1.263911
 50
144.813843
 51
215.186157
  0
ARC
  8
0
 10
100.317024
 20
111.290817
 40
1.263911
 50
144.813843
 51
215.186157
  0
ARC
  8
0
 10
103.679176
 20
113.462502
 40
4.626066
 50
161.819550
 51
198.180267
  0
ARC
  8
0
 10
106.053116
 20
150.336426
 40
4.626069
 50
96.204826
 51
108.180298
  0
CIRCLE
  8
0
 10
100.553116
 20
128.212494
 40
0.350000
  0
CIRCLE
  8
0
 10
111.553116
 20
128.212494
 40
0.350000
  0
CIRCLE
  8
0
 10
111.553108
 20
119.712502
 40
0.350000
  0
CIRCLE
  8
0
 10
100.553108
 20
119.712502
 40
0.350000
  0
CIRCLE
  8
0
 10
100.547592
 20
120.796616
 40
0.350000
  0
CIRCLE
  8
0
 10
111.540894
 20
120.412720
 40
0.350000
  0
CIRCLE
  8
0
 10
111.558632
 20
127.128395
 40
0.350000
  0
CIRCLE
  8
0
 10
100.565331
 20
127.512291
 40
0.350000
  0
ARC
  8
0
 10
98.699379
 20
137.924240
 40
4.361739
 50
235.885757
 51
304.114227
  0
ARC
  8
0
 10
113.406853
 20
137.924240
 40
4.361739
 50
235.885757
 51
304.114227
  0
ARC
  8
0
 10
106.053116
 20
149.981262
 40
16.418760
 50
252.608810
 51
287.391174
  0
ARC
  8
0
 10
113.406853
 20
134.200760
 40
4.361739
 50
55.885761
 51
124.114235
  0
ARC
  8
0
 10
106.053116
 20
122.143730
 40
16.418768
 50
72.608818
 51
107.391136
  0
ARC
  8
0
 10
98.699379
 20
134.200760
 40
4.361739
 50
55.885761
 51
124.114235
  0
ARC
  8
0
 10
113.406853
 20
139.200760
 40
4.361739
 50
55.885761
 51
124.114235
  0
ARC
  8
0
 10
98.699379
 20
139.200760
 40
4.361739
 50
55.885761
 51
124.114235
  0
ARC
  8
0
 10
113.406853
 20
142.924240
 40
4.361739
 50
235.885757
 51
304.114227
  0
ARC
  8
0
 10
106.053116
 20
127.143730
 40
16.418768
 50
72.608818
 51
107.391136
  0
ARC
  8
0
 10
106.053116
 20
154.981262
 40
16.418760
 50
252.608810
 51
287.391174
  0
ARC
  8
0
 10
98.699379
 20
142.924240
 40
4.361739
 50
235.885757
 51
304.114227
  0
ARC
  8
0
 10
110.315392
 20
97.690170
 40
0.300004
 50
119.999893
 51
224.998962
  0
ARC
  8
0
 10
101.790825
 20
97.690170
 40
0.299999
 50
315.001038
 51
60.000107
  0
POINT
  8
0
 10
106.053108
 20
54.687500
  0
POINT
  8
0
 10
106.053108
 20
54.687500
  0
POINT
  8
0
 10
115.868065
 20
54.687500
  0
LINE
  8
0
 10
106.053108
 20
44.392761
 11
106.053108
 21
64.924713
  0
LINE
  8
0
 10
99.053108
 20
52.187500
 11
99.053108
 21
57.187500
  0
LINE
  8
0
 10
94.053108
 20
53.612602
 11
94.053108
 21
55.762398
  0
LINE
  8
0
 10
95.553108
 20
53.237499
 11
95.553108
 21
56.137501
  0
LINE
  8
0
 10
97.053108
 20
53.237499
 11
97.053108
 21
56.137505
  0
LINE
  8
0
 10
95.553101
 20
53.437492
 11
97.053101
 21
53.237492
  0
LINE
  8
0
 10
95.553108
 20
55.937504
 11
97.053108
 21
56.137505
  0
LINE
  8
0
 10
94.226669
 20
53.414349
 11
95.553108
 21
53.237488
  0
LINE
  8
0
 10
94.226669
 20
55.960644
 11
95.553101
 21
56.137505
  0
LINE
  8
0
 10
97.153107
 20
53.437500
 11
98.953110
 21
53.437500
  0
LINE
  8
0
 10
97.153107
 20
55.937500
 11
98.953110
 21
55.937500
  0
LINE
  8
0
 10
91.949249
 20
54.687500
 11
117.760086
 21
54.687500
  0
LINE
  8
0
 10
109.553108
 20
54.687500
 11
109.553108
 21
54.687500
  0
LINE
  8
0
 10
111.053108
 20
54.687500
 11
111.053108
 21
54.687500
  0
LINE
  8
0
 10
102.553108
 20
54.687500
 11
102.553108
 21
54.687500
  0
LINE
  8
0
 10
101.053108
 20
54.687500
 11
101.053108
 21
54.687500
  0
LINE
  8
0
 10
101.053108
 20
54.687500
 11
101.053108
 21
54.687500
  0
LINE
  8
0
 10
111.053108
 20
54.687500
 11
111.053108
 21
54.687500
  0
LINE
  8
0
 10
99.053108
 20
52.187500
 11
101.953110
 21
52.187500
  0
LINE
  8
0
 10
99.053108
 20
57.187500
 11
101.953110
 21
57.187500
  0
LINE
  8
0
 10
101.145630
 20
46.187500
 11
110.960587
 21
46.187500
  0
LINE
  8
0
 10
101.145630
 20
63.187500
 11
110.960587
 21
63.187500
  0
LINE
  8
0
 10
115.868065
 20
54.687500
 11
110.960587
 21
63.187504
  0
LINE
  8
0
 10
101.145615
 20
46.187496
 11
97.077148
 21
53.234295
  0
LINE
  8
0
 10
97.077164
 20
56.140717
 11
101.145630
 21
63.187500
  0
LINE
  8
0
 10
110.960587
 20
46.187500
 11
115.868065
 21
54.687500
  0
LINE
  8
0
 10
100.770264
 20
54.687500
 11
99.284042
 21
54.687500
  0
LINE
  8
0
 10
111.053108
 20
54.687500
 11
111.053108
 21
54.687500
  0
LINE
  8
0
 10
101.053108
 20
54.687500
 11
101.053108
 21
54.687500
  0
LINE
  8
0
 10
104.553108
 20
51.187500
 11
107.553108
 21
51.187500
  0
LINE
  8
0
 10
104.553108
 20
58.187500
 11
107.553108
 21
58.187500
  0
LINE
  8
0
 10
103.053108
 20
56.687500
 11
109.053108
 21
56.687500
  0
LINE
  8
0
 10
103.053108
 20
52.687500
 11
109.053108
 21
52.687500
  0
LINE
  8
0
 10
109.553108
 20
54.687500
 11
109.553108
 21
54.687500
  0
LINE
  8
0
 10
102.553108
 20
54.687500
 11
102.553108
 21
54.687500
  0
LINE
  8
0
 10
101.053108
 20
54.687500
 11
101.053108
 21
54.687500
  0
LINE
  8
0
 10
111.053108
 20
54.687500
 11
111.053108
 21
54.687500
  0
LINE
  8
0
 10
103.053108
 20
56.970341
 11
109.053108
 21
56.970341
  0
LINE
  8
0
 10
103.053108
 20
52.404659
 11
109.053108
 21
52.404659
  0
ARC
  8
0
 10
97.153107
 20
53.337502
 40
0.099998
 50
90.000000
 51
180.000000
  0
ARC
  8
0
 10
98.953110
 20
53.337502
 40
0.099998
 50
0.000000
 51
90.000000
  0
ARC
  8
0
 10
97.153107
 20
56.037502
 40
0.099998
 50
180.000000
 51
270.000000
  0
ARC
  8
0
 10
98.953110
 20
56.037502
 40
0.099998
 50
270.000000
 51
0.000000
  0
ARC
  8
0
 10
94.253105
 20
53.612602
 40
0.199997
 50
180.000000
 51
262.404480
  0
ARC
  8
0
 10
94.253105
 20
55.762398
 40
0.200001
 50
97.595512
 51
180.000000
  0
ARC
  8
0
 10
98.454697
 20
55.937504
 40
3.498414
 50
18.514271
 51
20.934793
  0
ARC
  8
0
 10
98.454697
 20
53.437504
 40
3.498418
 50
339.065186
 51
341.485596
  0
ARC
  8
0
 10
102.551529
 20
55.937500
 40
3.498424
 50
159.065292
 51
200.934708
  0
ARC
  8
0
 10
102.551521
 20
53.437500
 40
3.498410
 50
159.065201
 51
200.934845
  0
ARC
  8
0
 10
106.053108
 20
54.687500
 40
8.500000
 50
90.000000
 51
171.543457
  0
ARC
  8
0
 10
106.053108
 20
54.687500
 40
8.500000
 50
188.456543
 51
90.000000
  0
ARC
  8
0
 10
106.053108
 20
54.687500
 40
7.000000
 50
90.000000
 51
150.000000
  0
ARC
  8
0
 10
106.053108
 20
54.687500
 40
7.000000
 50
90.000000
 51
159.075165
  0
ARC
  8
0
 10
106.053108
 20
54.687500
 40
7.000001
 50
29.999992
 51
90.000000
  0
ARC
  8
0
 10
106.053108
 20
54.687500
 40
6.999999
 50
200.924866
 51
90.000000
  0
ARC
  8
0
 10
107.553108
 20
54.687500
 40
3.500000
 50
270.000000
 51
332.206329
  0
ARC
  8
0
 10
104.553108
 20
54.687500
 40
3.500000
 50
90.000000
 51
152.206329
  0
ARC
  8
0
 10
103.053108
 20
54.687500
 40
2.000000
 50
90.000000
 51
270.000000
  0
ARC
  8
0
 10
109.053108
 20
54.687500
 40
2.000000
 50
270.000000
 51
90.000000
  0
CIRCLE
  8
0
 10
106.053108
 20
54.687500
 40
1.000000
  0
ARC
  8
0
 10
103.053108
 20
54.687500
 40
2.282841
 50
90.000000
 51
270.000000
  0
ARC
  8
0
 10
109.053108
 20
54.687500
 40
2.282841
 50
270.000000
 51
90.000000
  0
ARC
  8
0
 10
104.553108
 20
54.687500
 40
3.500001
 50
207.793671
 51
270.000000
  0
ARC
  8
0
 10
107.553108
 20
54.687500
 40
3.500001
 50
27.793669
 51
90.000000
  0
POINT
  8
0
 10
176.471863
 20
138.562500
  0
POINT
  8
0
 10
186.271866
 20
138.562500
  0
LINE
  8
0
 10
179.971863
 20
103.462502
 11
179.971863
 21
118.562500
  0
LINE
  8
0
 10
172.971863
 20
103.462502
 11
172.971863
 21
118.562500
  0
LINE
  8
0
 10
170.221878
 20
148.562500
 11
182.721863
 21
148.562500
  0
LINE
  8
0
 10
162.129868
 20
113.462502
 11
175.138535
 21
113.462502
  0
LINE
  8
0
 10
172.371857
 20
115.962494
 11
172.140915
 21
116.362495
  0
LINE
  8
0
 10
172.371872
 20
110.962509
 11
172.140930
 21
110.562515
  0
LINE
  8
0
 10
178.971863
 20
152.062531
 11
179.371857
 21
152.293457
  0
LINE
  8
0
 10
177.915237
 20
152.293427
 11
177.915237
 21
154.731567
  0
LINE
  8
0
 10
174.300186
 20
154.962494
 11
175.971878
 21
154.962494
  0
LINE
  8
0
 10
173.971863
 20
152.062515
 11
173.571854
 21
152.293457
  0
LINE
  8
0
 10
173.571869
 20
152.293427
 11
173.571869
 21
154.731567
  0
LINE
  8
0
 10
179.371857
 20
152.293427
 11
179.371857
 21
154.731567
  0
LINE
  8
0
 10
175.028305
 20
154.731567
 11
175.028305
 21
152.293442
  0
LINE
  8
0
 10
179.271866
 20
151.462494
 11
179.271866
 21
152.062500
  0
LINE
  8
0
 10
173.671860
 20
152.062500
 11
179.271866
 21
152.062500
  0
LINE
  8
0
 10
173.671860
 20
151.462494
 11
173.671860
 21
152.062500
  0
LINE
  8
0
 10
176.471863
 20
91.967659
 11
176.471863
 21
157.412506
  0
LINE
  8
0
 10
164.471863
 20
112.387604
 11
164.471863
 21
114.537399
  0
LINE
  8
0
 10
165.971863
 20
112.012505
 11
165.971863
 21
114.912506
  0
LINE
  8
0
 10
167.471863
 20
112.012505
 11
167.471863
 21
114.912506
  0
LINE
  8
0
 10
165.971863
 20
112.212463
 11
167.471863
 21
112.012459
  0
LINE
  8
0
 10
165.971863
 20
114.712509
 11
167.471878
 21
114.912514
  0
LINE
  8
0
 10
164.645432
 20
112.189323
 11
165.971878
 21
112.012466
  0
LINE
  8
0
 10
164.645447
 20
114.735649
 11
165.971863
 21
114.912506
  0
LINE
  8
0
 10
167.571869
 20
112.212502
 11
169.371857
 21
112.212502
  0
LINE
  8
0
 10
167.571869
 20
114.712502
 11
169.371857
 21
114.712502
  0
LINE
  8
0
 10
169.471863
 20
111.290817
 11
169.471863
 21
115.634193
  0
LINE
  8
0
 10
172.140930
 20
110.562500
 11
169.702805
 21
110.562500
  0
LINE
  8
0
 10
172.140930
 20
116.362503
 11
169.702805
 21
116.362503
  0
LINE
  8
0
 10
172.140930
 20
114.905876
 11
169.702805
 21
114.905876
  0
LINE
  8
0
 10
169.702805
 20
112.019066
 11
172.140930
 21
112.019066
  0
LINE
  8
0
 10
172.371857
 20
110.662506
 11
172.371857
 21
116.262497
  0
LINE
  8
0
 10
172.971863
 20
110.662506
 11
172.371872
 21
110.662506
  0
LINE
  8
0
 10
172.971863
 20
116.262497
 11
172.371872
 21
116.262497
  0
LINE
  8
0
 10
175.971863
 20
154.962494
 11
175.971863
 21
153.962494
  0
LINE
  8
0
 10
175.971863
 20
153.962494
 11
176.971863
 21
153.962494
  0
LINE
  8
0
 10
176.971863
 20
153.962494
 11
176.971863
 21
154.962494
  0
LINE
  8
0
 10
176.971878
 20
154.962494
 11
178.643555
 21
154.962494
  0
LINE
  8
0
 10
183.471878
 20
148.129501
 11
182.721878
 21
148.562515
  0
LINE
  8
0
 10
169.471848
 20
148.129532
 11
170.221848
 21
148.562546
  0
LINE
  8
0
  6
PHANTOM
 10
183.471863
 20
123.995514
 11
183.471863
 21
128.562500
  0
LINE
  8
0
  6
PHANTOM
 10
169.471863
 20
123.995514
 11
169.471863
 21
128.562500
  0
LINE
  8
0
  6
PHANTOM
 10
182.721863
 20
123.562500
 11
182.721863
 21
128.562500
  0
LINE
  8
0
  6
PHANTOM
 10
170.221863
 20
123.562500
 11
170.221863
 21
128.562500
  0
LINE
  8
0
  6
PHANTOM
 10
182.721848
 20
123.562515
 11
183.471863
 21
123.995529
  0
LINE
  8
0
  6
PHANTOM
 10
170.221878
 20
123.562515
 11
169.471878
 21
123.995529
  0
LINE
  8
0
  6
PHANTOM
 10
170.221863
 20
123.562500
 11
182.721863
 21
123.562500
  0
LINE
  8
0
 10
179.971863
 20
151.462494
 11
179.971863
 21
149.162506
  0
LINE
  8
0
 10
181.121872
 20
149.162506
 11
171.821869
 21
149.162506
  0
LINE
  8
0
 10
172.971863
 20
149.162506
 11
172.971863
 21
151.462494
  0
LINE
  8
0
 10
172.971863
 20
151.462494
 11
179.971863
 21
151.462494
  0
LINE
  8
0
 10
181.121857
 20
149.162506
 11
181.121857
 21
148.562500
  0
LINE
  8
0
 10
171.821869
 20
149.162506
 11
171.821869
 21
148.562500
  0
LINE
  8
0
 10
170.471863
 20
118.562500
 11
182.471863
 21
118.562500
  0
LINE
  8
0
 10
170.471863
 20
119.362503
 11
182.471863
 21
119.362503
  0
LINE
  8
0
 10
170.471863
 20
118.562500
 11
170.471863
 21
119.362503
  0
LINE
  8
0
 10
182.471863
 20
118.562500
 11
182.471863
 21
119.362503
  0
LINE
  8
0
 10
170.971863
 20
116.912498
 11
170.971863
 21
129.712494
  0
LINE
  8
0
 10
181.971863
 20
117.045837
 11
181.971863
 21
129.845825
  0
LINE
  8
0
  6
PHANTOM
 10
182.309647
 20
120.412720
 11
182.309647
 21
127.167290
  0
LINE
  8
0
  6
PHANTOM
 10
181.609650
 20
120.361816
 11
181.609650
 21
127.042168
  0
LINE
  8
0
  6
PHANTOM
 10
171.316345
 20
120.737183
 11
171.316345
 21
127.402298
  0
LINE
  8
0
  6
PHANTOM
 10
170.616348
 20
120.796616
 11
170.616348
 21
127.480095
  0
LINE
  8
0
 10
172.971863
 20
120.062500
 11
172.971863
 21
120.376366
  0
LINE
  8
0
 10
167.971863
 20
133.562500
 11
166.671875
 21
134.313049
  0
LINE
  8
0
 10
167.971893
 20
138.562469
 11
166.671890
 21
137.811905
  0
LINE
  8
0
 10
166.671860
 20
134.313065
 11
166.671860
 21
137.811935
  0
LINE
  8
0
 10
167.971878
 20
133.562500
 11
184.971878
 21
133.562500
  0
LINE
  8
0
 10
167.971878
 20
138.562500
 11
184.971893
 21
138.562500
  0
LINE
  8
0
 10
184.971863
 20
133.562469
 11
186.271866
 21
134.313034
  0
LINE
  8
0
 10
186.271866
 20
134.313065
 11
186.271866
 21
137.811935
  0
LINE
  8
0
 10
184.971863
 20
138.562500
 11
186.271851
 21
137.811951
  0
LINE
  8
0
 10
167.971893
 20
138.562500
 11
166.671890
 21
137.811935
  0
LINE
  8
0
 10
181.379333
 20
134.313065
 11
181.379333
 21
137.811935
  0
LINE
  8
0
 10
171.564392
 20
134.313065
 11
171.564392
 21
137.811935
  0
LINE
  8
0
 10
167.971863
 20
138.562500
 11
166.671860
 21
139.313065
  0
LINE
  8
0
 10
167.971893
 20
143.562469
 11
166.671890
 21
142.811905
  0
LINE
  8
0
 10
166.671860
 20
139.313065
 11
166.671860
 21
142.811935
  0
LINE
  8
0
 10
167.971878
 20
138.562500
 11
184.971878
 21
138.562500
  0
LINE
  8
0
 10
167.971878
 20
143.562500
 11
184.971893
 21
143.562500
  0
LINE
  8
0
 10
184.971878
 20
138.562485
 11
186.271866
 21
139.313034
  0
LINE
  8
0
 10
186.271866
 20
139.313065
 11
186.271866
 21
142.811935
  0
LINE
  8
0
 10
184.971863
 20
143.562515
 11
186.271851
 21
142.811966
  0
LINE
  8
0
 10
167.971878
 20
143.562500
 11
166.671875
 21
142.811935
  0
LINE
  8
0
 10
181.379333
 20
139.313065
 11
181.379333
 21
142.811935
  0
LINE
  8
0
 10
171.564392
 20
139.313065
 11
171.564392
 21
142.811935
  0
LINE
  8
0
 10
182.721863
 20
143.562500
 11
182.721863
 21
148.562500
  0
LINE
  8
0
 10
183.471863
 20
143.562500
 11
183.471863
 21
148.129486
  0
LINE
  8
0
 10
170.221863
 20
143.562500
 11
170.221863
 21
148.562500
  0
LINE
  8
0
 10
169.471863
 20
143.562500
 11
169.471863
 21
148.129486
  0
LINE
  8
0
  6
PHANTOM
 10
169.471863
 20
123.995514
 11
183.471863
 21
123.995514
  0
LINE
  8
0
 10
169.471863
 20
148.129486
 11
183.471863
 21
148.129486
  0
LINE
  8
0
 10
172.971863
 20
105.462502
 11
179.971863
 21
105.462502
  0
LINE
  8
0
 10
170.971863
 20
120.062500
 11
181.971863
 21
120.062500
  0
LINE
  8
0
 10
170.971863
 20
127.862503
 11
181.971863
 21
127.862503
  0
LINE
  8
0
 10
181.971863
 20
127.478813
 11
170.971878
 21
127.862946
  0
LINE
  8
0
 10
181.971863
 20
126.778389
 11
170.971878
 21
127.162514
  0
LINE
  8
0
 10
181.971863
 20
120.762505
 11
170.971863
 21
121.146637
  0
LINE
  8
0
 10
181.971878
 20
120.062080
 11
170.971878
 21
120.446213
  0
LINE
  8
0
 10
179.971863
 20
120.832344
 11
179.971863
 21
126.848221
  0
LINE
  8
0
 10
172.971863
 20
121.076790
 11
172.971863
 21
127.092667
  0
LINE
  8
0
 10
179.971863
 20
127.548645
 11
179.971863
 21
127.862503
  0
LINE
  8
0
 10
182.721863
 20
128.562515
 11
183.471863
 21
128.995544
  0
LINE
  8
0
 10
182.721863
 20
128.562500
 11
182.721863
 21
133.562500
  0
LINE
  8
0
 10
183.471863
 20
128.995514
 11
183.471863
 21
133.562500
  0
LINE
  8
0
 10
170.221878
 20
128.562500
 11
182.721863
 21
128.562500
  0
LINE
  8
0
 10
169.471863
 20
128.995514
 11
183.471863
 21
128.995514
  0
LINE
  8
0
 10
170.221863
 20
128.562500
 11
170.221863
 21
133.562500
  0
LINE
  8
0
 10
169.471863
 20
128.995514
 11
169.471863
 21
133.562500
  0
LINE
  8
0
 10
170.221878
 20
128.562515
 11
169.471878
 21
128.995529
  0
LINE
  8
0
 10
171.471863
 20
103.462502
 11
181.471863
 21
103.462502
  0
LINE
  8
0
 10
171.471863
 20
98.462502
 11
171.471863
 21
103.462502
  0
LINE
  8
0
 10
172.359589
 20
97.949982
 11
171.471863
 21
98.462502
  0
LINE
  8
0
 10
171.471863
 20
95.962502
 11
171.189026
 21
96.245346
  0
LINE
  8
0
 10
171.189026
 20
96.245346
 11
172.421707
 21
97.478035
  0
LINE
  8
0
 10
181.471863
 20
95.962502
 11
171.471863
 21
95.962502
  0
LINE
  8
0
 10
181.471863
 20
98.462502
 11
181.471863
 21
103.462502
  0
LINE
  8
0
 10
180.584137
 20
97.949982
 11
181.471863
 21
98.462509
  0
LINE
  8
0
 10
181.471863
 20
95.962494
 11
181.754715
 21
96.245331
  0
LINE
  8
0
 10
181.754700
 20
96.245346
 11
180.522018
 21
97.478043
  0
LINE
  8
0
 10
181.754700
 20
96.245346
 11
171.189026
 21
96.245346
  0
LINE
  8
0
 10
181.471863
 20
98.462502
 11
171.471863
 21
98.462502
  0
LINE
  8
0
 10
180.245560
 20
97.754494
 11
172.698166
 21
97.754494
  0
ARC
  8
0
 10
171.107956
 20
111.290817
 40
1.263911
 50
324.813843
 51
35.186165
  0
ARC
  8
0
 10
171.107956
 20
115.634186
 40
1.263911
 50
324.813843
 51
35.186165
  0
ARC
  8
0
 10
167.745804
 20
113.462502
 40
4.626064
 50
341.819641
 51
18.180359
  0
ARC
  8
0
 10
178.643555
 20
153.326416
 40
1.263928
 50
234.813950
 51
305.186035
  0
ARC
  8
0
 10
176.471878
 20
156.688568
 40
4.626078
 50
251.819702
 51
288.180298
  0
ARC
  8
0
 10
174.300186
 20
153.698578
 40
1.263928
 50
54.813953
 51
125.186050
  0
ARC
  8
0
 10
174.300186
 20
153.326416
 40
1.263928
 50
234.813950
 51
305.186035
  0
ARC
  8
0
 10
178.643555
 20
153.698578
 40
1.263928
 50
54.813953
 51
125.186050
  0
ARC
  8
0
 10
176.471863
 20
150.336426
 40
4.626078
 50
71.819702
 51
83.795174
  0
ARC
  8
0
 10
164.671860
 20
114.537399
 40
0.199996
 50
97.593491
 51
180.000000
  0
ARC
  8
0
 10
167.571869
 20
112.112503
 40
0.099998
 50
90.000000
 51
180.000000
  0
ARC
  8
0
 10
167.571869
 20
114.812508
 40
0.100006
 50
180.000000
 51
270.000000
  0
ARC
  8
0
 10
164.671860
 20
112.387604
 40
0.199997
 50
180.000000
 51
262.406525
  0
ARC
  8
0
 10
169.371857
 20
114.812508
 40
0.099998
 50
270.000000
 51
0.000000
  0
ARC
  8
0
 10
169.371857
 20
112.112503
 40
0.100006
 50
0.000000
 51
90.000000
  0
ARC
  8
0
 10
170.735779
 20
115.634186
 40
1.263911
 50
144.813843
 51
215.186157
  0
ARC
  8
0
 10
170.735779
 20
111.290817
 40
1.263911
 50
144.813843
 51
215.186157
  0
ARC
  8
0
 10
174.097931
 20
113.462502
 40
4.626066
 50
161.819550
 51
198.180267
  0
ARC
  8
0
 10
176.471863
 20
150.336426
 40
4.626069
 50
96.204826
 51
108.180298
  0
CIRCLE
  8
0
 10
170.971863
 20
128.212494
 40
0.350000
  0
CIRCLE
  8
0
 10
181.971863
 20
128.212494
 40
0.350000
  0
CIRCLE
  8
0
 10
181.971863
 20
119.712502
 40
0.350000
  0
CIRCLE
  8
0
 10
170.971863
 20
119.712502
 40
0.350000
  0
CIRCLE
  8
0
 10
170.966354
 20
120.796616
 40
0.350000
  0
CIRCLE
  8
0
 10
181.959656
 20
120.412720
 40
0.350000
  0
CIRCLE
  8
0
 10
181.977386
 20
127.128395
 40
0.350000
  0
CIRCLE
  8
0
 10
170.984085
 20
127.512291
 40
0.350000
  0
ARC
  8
0
 10
169.118134
 20
137.924240
 40
4.361739
 50
235.885757
 51
304.114227
  0
ARC
  8
0
 10
183.825607
 20
137.924240
 40
4.361739
 50
235.885757
 51
304.114227
  0
ARC
  8
0
 10
176.471863
 20
149.981262
 40
16.418760
 50
252.608810
 51
287.391144
  0
ARC
  8
0
 10
183.825607
 20
134.200760
 40
4.361739
 50
55.885761
 51
124.114235
  0
ARC
  8
0
 10
176.471863
 20
122.143730
 40
16.418768
 50
72.608818
 51
107.391136
  0
ARC
  8
0
 10
169.118134
 20
134.200760
 40
4.361739
 50
55.885761
 51
124.114235
  0
ARC
  8
0
 10
183.825607
 20
139.200760
 40
4.361739
 50
55.885761
 51
124.114235
  0
ARC
  8
0
 10
169.118134
 20
139.200760
 40
4.361739
 50
55.885761
 51
124.114235
  0
ARC
  8
0
 10
183.825607
 20
142.924240
 40
4.361739
 50
235.885757
 51
304.114227
  0
ARC
  8
0
 10
176.471863
 20
127.143730
 40
16.418768
 50
72.608818
 51
107.391136
  0
ARC
  8
0
 10
176.471878
 20
154.981262
 40
16.418760
 50
252.608810
 51
287.391144
  0
ARC
  8
0
 10
169.118134
 20
142.924240
 40
4.361739
 50
235.885757
 51
304.114227
  0
ARC
  8
0
 10
180.734146
 20
97.690170
 40
0.300000
 50
119.998627
 51
225.000000
  0
ARC
  8
0
 10
172.209579
 20
97.690170
 40
0.299994
 50
315.000000
 51
60.001369
  0
POINT
  8
0
 10
176.471863
 20
54.687500
  0
POINT
  8
0
 10
176.471863
 20
54.687500
  0
POINT
  8
0
 10
186.286819
 20
54.687500
  0
LINE
  8
0
 10
176.471863
 20
44.392761
 11
176.471863
 21
64.924713
  0
LINE
  8
0
 10
169.471863
 20
52.187500
 11
169.471863
 21
57.187500
  0
LINE
  8
0
 10
164.471863
 20
53.612602
 11
164.471863
 21
55.762398
  0
LINE
  8
0
 10
165.971863
 20
53.237499
 11
165.971863
 21
56.137501
  0
LINE
  8
0
 10
167.471863
 20
53.237499
 11
167.471863
 21
56.137505
  0
LINE
  8
0
 10
165.971863
 20
53.437492
 11
167.471863
 21
53.237492
  0
LINE
  8
0
 10
165.971863
 20
55.937504
 11
167.471863
 21
56.137505
  0
LINE
  8
0
 10
164.645432
 20
53.414349
 11
165.971863
 21
53.237488
  0
LINE
  8
0
 10
164.645416
 20
55.960644
 11
165.971863
 21
56.137505
  0
LINE
  8
0
 10
167.571869
 20
53.437500
 11
169.371857
 21
53.437500
  0
LINE
  8
0
 10
167.571869
 20
55.937500
 11
169.371857
 21
55.937500
  0
LINE
  8
0
 10
162.367996
 20
54.687500
 11
188.178848
 21
54.687500
  0
LINE
  8
0
 10
179.971863
 20
54.687500
 11
179.971863
 21
54.687500
  0
LINE
  8
0
 10
181.471863
 20
54.687500
 11
181.471863
 21
54.687500
  0
LINE
  8
0
 10
172.971863
 20
54.687500
 11
172.971863
 21
54.687500
  0
LINE
  8
0
 10
171.471863
 20
54.687500
 11
171.471863
 21
54.687500
  0
LINE
  8
0
 10
171.471863
 20
54.687500
 11
171.471863
 21
54.687500
  0
LINE
  8
0
 10
181.471863
 20
54.687500
 11
181.471863
 21
54.687500
  0
LINE
  8
0
 10
169.471863
 20
52.187500
 11
172.371857
 21
52.187500
  0
LINE
  8
0
 10
169.471863
 20
57.187500
 11
172.371857
 21
57.187500
  0
LINE
  8
0
 10
171.564377
 20
46.187500
 11
181.379333
 21
46.187500
  0
LINE
  8
0
 10
171.564392
 20
63.187500
 11
181.379349
 21
63.187500
  0
LINE
  8
0
 10
186.286819
 20
54.687500
 11
181.379349
 21
63.187504
  0
LINE
  8
0
 10
171.564377
 20
46.187496
 11
167.495895
 21
53.234291
  0
LINE
  8
0
 10
167.495926
 20
56.140717
 11
171.564392
 21
63.187500
  0
LINE
  8
0
 10
181.379333
 20
46.187500
 11
186.286819
 21
54.687500
  0
LINE
  8
0
 10
171.189026
 20
54.687500
 11
169.702805
 21
54.687500
  0
LINE
  8
0
 10
181.471863
 20
54.687500
 11
181.471863
 21
54.687500
  0
LINE
  8
0
 10
171.471863
 20
54.687500
 11
171.471863
 21
54.687500
  0
LINE
  8
0
 10
179.971863
 20
54.687500
 11
179.971863
 21
54.687500
  0
LINE
  8
0
 10
172.971863
 20
54.687500
 11
172.971863
 21
54.687500
  0
LINE
  8
0
 10
171.471863
 20
54.687500
 11
171.471863
 21
54.687500
  0
LINE
  8
0
 10
181.471863
 20
54.687500
 11
181.471863
 21
54.687500
  0
LINE
  8
0
 10
181.471863
 20
54.687500
 11
181.471863
 21
54.687500
  0
LINE
  8
0
 10
181.754700
 20
54.687500
 11
181.754700
 21
54.687500
  0
LINE
  8
0
 10
171.471863
 20
54.687500
 11
171.471863
 21
54.687500
  0
LINE
  8
0
 10
171.189026
 20
54.687500
 11
171.189026
 21
54.687500
  0
LINE
  8
0
 10
173.971863
 20
57.187500
 11
178.971863
 21
57.187500
  0
LINE
  8
0
 10
173.971863
 20
52.187500
 11
178.971863
 21
52.187500
  0
LINE
  8
0
 10
179.971863
 20
54.687500
 11
179.971863
 21
54.687500
  0
LINE
  8
0
 10
172.971863
 20
54.687500
 11
172.971863
 21
54.687500
  0
LINE
  8
0
 10
173.971863
 20
57.470341
 11
178.971863
 21
57.470341
  0
LINE
  8
0
 10
173.971863
 20
51.904659
 11
178.971863
 21
51.904659
  0
ARC
  8
0
 10
167.571869
 20
53.337502
 40
0.099998
 50
90.000000
 51
180.000000
  0
ARC
  8
0
 10
169.371857
 20
53.337502
 40
0.100006
 50
0.000000
 51
90.000000
  0
ARC
  8
0
 10
167.571869
 20
56.037502
 40
0.100006
 50
180.000000
 51
270.000000
  0
ARC
  8
0
 10
169.371857
 20
56.037502
 40
0.099998
 50
270.000000
 51
0.000000
  0
ARC
  8
0
 10
164.671860
 20
53.612602
 40
0.199997
 50
180.000000
 51
262.406647
  0
ARC
  8
0
 10
164.671860
 20
55.762398
 40
0.200000
 50
97.593346
 51
180.000000
  0
ARC
  8
0
 10
168.873444
 20
55.937504
 40
3.498414
 50
18.514271
 51
20.934704
  0
ARC
  8
0
 10
168.873444
 20
53.437504
 40
3.498425
 50
339.065247
 51
341.485596
  0
ARC
  8
0
 10
172.970276
 20
55.937500
 40
3.498410
 50
159.065201
 51
200.934799
  0
ARC
  8
0
 10
172.970276
 20
53.437500
 40
3.498410
 50
159.065201
 51
200.934845
  0
ARC
  8
0
 10
176.471863
 20
54.687500
 40
8.500000
 50
90.000000
 51
171.543457
  0
ARC
  8
0
 10
176.471863
 20
54.687500
 40
8.500008
 50
188.456543
 51
90.000000
  0
ARC
  8
0
 10
176.471863
 20
54.687500
 40
7.000000
 50
90.000000
 51
150.000000
  0
ARC
  8
0
 10
176.471863
 20
54.687500
 40
7.000000
 50
90.000000
 51
159.075165
  0
ARC
  8
0
 10
176.471863
 20
54.687500
 40
6.999999
 50
200.924866
 51
90.000000
  0
CIRCLE
  8
0
 10
176.471863
 20
54.687500
 40
1.000000
  0
ARC
  8
0
 10
173.971863
 20
54.687500
 40
2.500000
 50
90.000000
 51
270.000000
  0
ARC
  8
0
 10
178.971863
 20
54.687500
 40
2.500000
 50
270.000000
 51
90.000000
  0
ARC
  8
0
 10
178.971863
 20
54.687500
 40
2.782841
 50
270.000000
 51
90.000000
  0
ARC
  8
0
 10
173.971863
 20
54.687500
 40
2.782841
 50
90.000000
 51
270.000000
  0
POINT
  8
0
 10
246.890594
 20
138.562500
  0
POINT
  8
0
 10
256.690613
 20
138.562500
  0
LINE
  8
0
 10
250.390594
 20
103.462502
 11
250.390594
 21
118.562500
  0
LINE
  8
0
 10
243.390594
 20
103.462502
 11
243.390594
 21
118.562500
  0
LINE
  8
0
 10
240.640610
 20
148.562500
 11
253.140594
 21
148.562500
  0
LINE
  8
0
 10
232.793076
 20
113.462502
 11
245.557266
 21
113.462502
  0
LINE
  8
0
 10
242.790588
 20
115.962494
 11
242.559662
 21
116.362488
  0
LINE
  8
0
 10
242.790604
 20
110.962509
 11
242.559677
 21
110.562515
  0
LINE
  8
0
 10
249.390594
 20
152.062500
 11
249.790588
 21
152.293442
  0
LINE
  8
0
 10
248.333969
 20
152.293427
 11
248.333969
 21
154.731567
  0
LINE
  8
0
 10
244.718918
 20
154.962494
 11
246.390610
 21
154.962494
  0
LINE
  8
0
 10
244.390579
 20
152.062515
 11
243.990585
 21
152.293457
  0
LINE
  8
0
 10
243.990585
 20
152.293427
 11
243.990585
 21
154.731567
  0
LINE
  8
0
 10
249.790588
 20
152.293427
 11
249.790588
 21
154.731567
  0
LINE
  8
0
 10
245.447037
 20
154.731567
 11
245.447037
 21
152.293442
  0
LINE
  8
0
 10
249.690598
 20
151.462494
 11
249.690598
 21
152.062500
  0
LINE
  8
0
 10
244.090591
 20
152.062500
 11
249.690598
 21
152.062500
  0
LINE
  8
0
 10
244.090591
 20
151.462494
 11
244.090591
 21
152.062500
  0
LINE
  8
0
 10
246.890594
 20
91.967659
 11
246.890594
 21
157.412506
  0
LINE
  8
0
 10
234.890594
 20
112.387604
 11
234.890594
 21
114.537399
  0
LINE
  8
0
 10
236.390594
 20
112.012505
 11
236.390594
 21
114.912506
  0
LINE
  8
0
 10
237.890594
 20
112.012505
 11
237.890594
 21
114.912506
  0
LINE
  8
0
 10
236.390594
 20
112.212456
 11
237.890594
 21
112.012459
  0
LINE
  8
0
 10
236.390594
 20
114.712509
 11
237.890610
 21
114.912514
  0
LINE
  8
0
 10
235.064163
 20
112.189323
 11
236.390610
 21
112.012459
  0
LINE
  8
0
 10
235.064163
 20
114.735641
 11
236.390594
 21
114.912506
  0
LINE
  8
0
 10
237.990601
 20
112.212502
 11
239.790588
 21
112.212502
  0
LINE
  8
0
 10
237.990601
 20
114.712502
 11
239.790588
 21
114.712502
  0
LINE
  8
0
 10
239.890594
 20
111.290817
 11
239.890594
 21
115.634193
  0
LINE
  8
0
 10
242.559662
 20
110.562500
 11
240.121536
 21
110.562500
  0
LINE
  8
0
 10
242.559662
 20
116.362503
 11
240.121536
 21
116.362503
  0
LINE
  8
0
 10
242.559662
 20
114.905876
 11
240.121536
 21
114.905876
  0
LINE
  8
0
 10
240.121536
 20
112.019066
 11
242.559662
 21
112.019066
  0
LINE
  8
0
 10
242.790604
 20
110.662506
 11
242.790604
 21
116.262497
  0
LINE
  8
0
 10
243.390594
 20
110.662506
 11
242.790604
 21
110.662506
  0
LINE
  8
0
 10
243.390594
 20
116.262497
 11
242.790604
 21
116.262497
  0
LINE
  8
0
 10
246.390594
 20
154.962494
 11
246.390594
 21
153.962494
  0
LINE
  8
0
 10
246.390594
 20
153.962494
 11
247.390594
 21
153.962494
  0
LINE
  8
0
 10
247.390594
 20
153.962494
 11
247.390594
 21
154.962494
  0
LINE
  8
0
 10
247.390610
 20
154.962494
 11
249.062286
 21
154.962494
  0
LINE
  8
0
 10
253.890625
 20
148.129486
 11
253.140625
 21
148.562500
  0
LINE
  8
0
 10
239.890594
 20
148.129517
 11
240.640594
 21
148.562531
  0
LINE
  8
0
  6
PHANTOM
 10
253.890594
 20
123.995514
 11
253.890594
 21
128.562500
  0
LINE
  8
0
  6
PHANTOM
 10
239.890594
 20
123.995514
 11
239.890594
 21
128.562500
  0
LINE
  8
0
  6
PHANTOM
 10
253.140594
 20
123.562500
 11
253.140594
 21
128.562500
  0
LINE
  8
0
  6
PHANTOM
 10
240.640594
 20
123.562500
 11
240.640594
 21
128.562500
  0
LINE
  8
0
  6
PHANTOM
 10
253.140579
 20
123.562515
 11
253.890594
 21
123.995529
  0
LINE
  8
0
  6
PHANTOM
 10
240.640610
 20
123.562508
 11
239.890610
 21
123.995522
  0
LINE
  8
0
  6
PHANTOM
 10
240.640594
 20
123.562500
 11
253.140594
 21
123.562500
  0
LINE
  8
0
 10
250.390594
 20
151.462494
 11
250.390594
 21
149.162491
  0
LINE
  8
0
 10
251.540604
 20
149.162491
 11
242.240601
 21
149.162491
  0
LINE
  8
0
 10
243.390594
 20
149.162491
 11
243.390594
 21
151.462494
  0
LINE
  8
0
 10
243.390594
 20
151.462494
 11
250.390594
 21
151.462494
  0
LINE
  8
0
 10
251.540588
 20
149.162491
 11
251.540588
 21
148.562500
  0
LINE
  8
0
 10
242.240585
 20
149.162491
 11
242.240585
 21
148.562500
  0
LINE
  8
0
 10
240.890594
 20
118.562500
 11
252.890594
 21
118.562500
  0
LINE
  8
0
 10
240.890594
 20
119.362503
 11
252.890594
 21
119.362503
  0
LINE
  8
0
 10
240.890594
 20
118.562500
 11
240.890594
 21
119.362503
  0
LINE
  8
0
 10
252.890594
 20
118.562500
 11
252.890594
 21
119.362503
  0
LINE
  8
0
 10
241.390594
 20
116.912498
 11
241.390594
 21
129.712494
  0
LINE
  8
0
 10
252.390594
 20
117.045837
 11
252.390594
 21
129.845825
  0
LINE
  8
0
  6
PHANTOM
 10
252.728378
 20
120.412720
 11
252.728378
 21
127.167290
  0
LINE
  8
0
  6
PHANTOM
 10
252.028381
 20
120.361816
 11
252.028381
 21
127.042168
  0
LINE
  8
0
  6
PHANTOM
 10
241.735077
 20
120.737183
 11
241.735077
 21
127.402298
  0
LINE
  8
0
  6
PHANTOM
 10
241.035080
 20
120.796616
 11
241.035080
 21
127.480095
  0
LINE
  8
0
 10
243.390594
 20
120.062500
 11
243.390594
 21
120.376366
  0
LINE
  8
0
 10
238.390610
 20
133.562500
 11
237.090622
 21
134.313049
  0
LINE
  8
0
 10
238.390625
 20
138.562469
 11
237.090622
 21
137.811890
  0
LINE
  8
0
 10
237.090591
 20
134.313065
 11
237.090591
 21
137.811935
  0
LINE
  8
0
 10
238.390610
 20
133.562500
 11
255.390610
 21
133.562500
  0
LINE
  8
0
 10
238.390610
 20
138.562500
 11
255.390625
 21
138.562500
  0
LINE
  8
0
 10
255.390610
 20
133.562469
 11
256.690613
 21
134.313034
  0
LINE
  8
0
 10
256.690613
 20
134.313065
 11
256.690613
 21
137.811935
  0
LINE
  8
0
 10
255.390594
 20
138.562515
 11
256.690613
 21
137.811951
  0
LINE
  8
0
 10
238.390625
 20
138.562500
 11
237.090622
 21
137.811935
  0
LINE
  8
0
 10
251.798080
 20
134.313065
 11
251.798080
 21
137.811935
  0
LINE
  8
0
 10
241.983109
 20
134.313065
 11
241.983109
 21
137.811935
  0
LINE
  8
0
 10
238.390594
 20
138.562500
 11
237.090591
 21
139.313065
  0
LINE
  8
0
 10
238.390640
 20
143.562469
 11
237.090637
 21
142.811905
  0
LINE
  8
0
 10
237.090591
 20
139.313065
 11
237.090591
 21
142.811935
  0
LINE
  8
0
 10
238.390610
 20
138.562500
 11
255.390610
 21
138.562500
  0
LINE
  8
0
 10
238.390610
 20
143.562500
 11
255.390625
 21
143.562500
  0
LINE
  8
0
 10
255.390594
 20
138.562485
 11
256.690613
 21
139.313034
  0
LINE
  8
0
 10
256.690613
 20
139.313065
 11
256.690613
 21
142.811935
  0
LINE
  8
0
 10
255.390579
 20
143.562531
 11
256.690582
 21
142.811966
  0
LINE
  8
0
 10
238.390610
 20
143.562500
 11
237.090591
 21
142.811935
  0
LINE
  8
0
 10
251.798080
 20
139.313065
 11
251.798080
 21
142.811935
  0
LINE
  8
0
 10
241.983109
 20
139.313065
 11
241.983109
 21
142.811935
  0
LINE
  8
0
 10
253.140594
 20
143.562500
 11
253.140594
 21
148.562500
  0
LINE
  8
0
 10
253.890594
 20
143.562500
 11
253.890594
 21
148.129486
  0
LINE
  8
0
 10
240.640594
 20
143.562500
 11
240.640594
 21
148.562500
  0
LINE
  8
0
 10
239.890594
 20
143.562500
 11
239.890594
 21
148.129486
  0
LINE
  8
0
  6
PHANTOM
 10
239.890594
 20
123.995514
 11
253.890594
 21
123.995514
  0
LINE
  8
0
 10
239.890594
 20
148.129486
 11
253.890594
 21
148.129486
  0
LINE
  8
0
 10
243.390594
 20
105.462502
 11
250.390594
 21
105.462502
  0
LINE
  8
0
 10
241.390594
 20
120.062500
 11
252.390594
 21
120.062500
  0
LINE
  8
0
 10
241.390594
 20
127.862503
 11
252.390594
 21
127.862503
  0
LINE
  8
0
 10
252.390594
 20
127.478813
 11
241.390610
 21
127.862946
  0
LINE
  8
0
 10
252.390594
 20
126.778381
 11
241.390610
 21
127.162514
  0
LINE
  8
0
 10
252.390610
 20
120.762505
 11
241.390610
 21
121.146637
  0
LINE
  8
0
 10
252.390610
 20
120.062080
 11
241.390610
 21
120.446213
  0
LINE
  8
0
 10
250.390594
 20
120.832344
 11
250.390594
 21
126.848221
  0
LINE
  8
0
 10
243.390594
 20
121.076790
 11
243.390594
 21
127.092667
  0
LINE
  8
0
 10
250.390594
 20
127.548645
 11
250.390594
 21
127.862503
  0
LINE
  8
0
 10
253.140579
 20
128.562515
 11
253.890594
 21
128.995529
  0
LINE
  8
0
 10
253.140594
 20
128.562500
 11
253.140594
 21
133.562500
  0
LINE
  8
0
 10
253.890594
 20
128.995514
 11
253.890594
 21
133.562500
  0
LINE
  8
0
 10
240.640610
 20
128.562500
 11
253.140594
 21
128.562500
  0
LINE
  8
0
 10
239.890594
 20
128.995514
 11
253.890594
 21
128.995514
  0
LINE
  8
0
 10
240.640594
 20
128.562500
 11
240.640594
 21
133.562500
  0
LINE
  8
0
 10
239.890594
 20
128.995514
 11
239.890594
 21
133.562500
  0
LINE
  8
0
 10
240.640594
 20
128.562500
 11
239.890594
 21
128.995514
  0
LINE
  8
0
 10
241.890594
 20
98.462502
 11
241.890594
 21
103.462502
  0
LINE
  8
0
 10
242.778320
 20
97.949982
 11
241.890594
 21
98.462502
  0
LINE
  8
0
 10
241.890594
 20
95.962502
 11
241.607758
 21
96.245346
  0
LINE
  8
0
 10
241.607758
 20
96.245346
 11
242.840439
 21
97.478035
  0
LINE
  8
0
 10
251.890594
 20
95.962502
 11
241.890594
 21
95.962502
  0
LINE
  8
0
 10
251.890594
 20
103.462502
 11
241.890594
 21
103.462502
  0
LINE
  8
0
 10
251.890594
 20
98.462502
 11
251.890594
 21
103.462502
  0
LINE
  8
0
 10
251.002869
 20
97.949982
 11
251.890594
 21
98.462509
  0
LINE
  8
0
 10
251.890594
 20
95.962494
 11
252.173447
 21
96.245331
  0
LINE
  8
0
 10
252.173431
 20
96.245346
 11
250.940750
 21
97.478043
  0
LINE
  8
0
 10
252.173431
 20
96.245346
 11
241.607758
 21
96.245346
  0
LINE
  8
0
 10
251.890594
 20
98.462502
 11
241.890594
 21
98.462502
  0
LINE
  8
0
 10
250.664291
 20
97.754494
 11
243.116898
 21
97.754494
  0
ARC
  8
0
 10
241.526688
 20
111.290817
 40
1.263911
 50
324.813843
 51
35.186165
  0
ARC
  8
0
 10
241.526688
 20
115.634186
 40
1.263911
 50
324.813843
 51
35.186165
  0
ARC
  8
0
 10
238.164536
 20
113.462502
 40
4.626064
 50
341.819641
 51
18.180359
  0
ARC
  8
0
 10
249.062286
 20
153.326401
 40
1.263915
 50
234.813553
 51
305.186432
  0
ARC
  8
0
 10
246.890610
 20
156.688568
 40
4.626078
 50
251.819702
 51
288.180298
  0
ARC
  8
0
 10
244.718918
 20
153.698578
 40
1.263915
 50
54.813553
 51
125.186050
  0
ARC
  8
0
 10
244.718918
 20
153.326401
 40
1.263915
 50
234.813553
 51
305.186432
  0
ARC
  8
0
 10
249.062286
 20
153.698578
 40
1.263915
 50
54.813553
 51
125.186050
  0
ARC
  8
0
 10
246.890594
 20
150.336426
 40
4.626078
 50
71.819702
 51
83.795174
  0
ARC
  8
0
 10
235.090591
 20
114.537399
 40
0.199996
 50
97.593491
 51
180.000000
  0
ARC
  8
0
 10
237.990601
 20
112.112503
 40
0.099998
 50
90.000000
 51
180.000000
  0
ARC
  8
0
 10
237.990601
 20
114.812508
 40
0.100006
 50
180.000000
 51
270.000000
  0
ARC
  8
0
 10
235.090591
 20
112.387604
 40
0.199997
 50
180.000000
 51
262.406525
  0
ARC
  8
0
 10
239.790588
 20
114.812508
 40
0.099998
 50
270.000000
 51
0.000000
  0
ARC
  8
0
 10
239.790588
 20
112.112503
 40
0.100006
 50
0.000000
 51
90.000000
  0
ARC
  8
0
 10
241.154510
 20
115.634186
 40
1.263911
 50
144.813843
 51
215.186157
  0
ARC
  8
0
 10
241.154510
 20
111.290817
 40
1.263911
 50
144.813843
 51
215.186157
  0
ARC
  8
0
 10
244.516663
 20
113.462502
 40
4.626066
 50
161.819550
 51
198.180267
  0
ARC
  8
0
 10
246.890594
 20
150.336426
 40
4.626069
 50
96.204826
 51
108.180298
  0
CIRCLE
  8
0
 10
241.390594
 20
128.212494
 40
0.350000
  0
CIRCLE
  8
0
 10
252.390594
 20
128.212494
 40
0.350000
  0
CIRCLE
  8
0
 10
252.390594
 20
119.712502
 40
0.350000
  0
CIRCLE
  8
0
 10
241.390594
 20
119.712502
 40
0.350000
  0
CIRCLE
  8
0
 10
241.385086
 20
120.796616
 40
0.350000
  0
CIRCLE
  8
0
 10
252.378387
 20
120.412720
 40
0.350000
  0
CIRCLE
  8
0
 10
252.396118
 20
127.128395
 40
0.350000
  0
CIRCLE
  8
0
 10
241.402817
 20
127.512291
 40
0.350000
  0
ARC
  8
0
 10
239.536865
 20
137.924240
 40
4.361739
 50
235.885757
 51
304.114227
  0
ARC
  8
0
 10
254.244339
 20
137.924240
 40
4.361739
 50
235.885757
 51
304.114410
  0
ARC
  8
0
 10
246.890594
 20
149.981262
 40
16.418760
 50
252.608810
 51
287.391144
  0
ARC
  8
0
 10
254.244339
 20
134.200760
 40
4.361748
 50
55.885597
 51
124.114235
  0
ARC
  8
0
 10
246.890594
 20
122.143730
 40
16.418768
 50
72.608818
 51
107.391136
  0
ARC
  8
0
 10
239.536865
 20
134.200760
 40
4.361739
 50
55.885761
 51
124.114235
  0
ARC
  8
0
 10
254.244339
 20
139.200760
 40
4.361748
 50
55.885597
 51
124.114235
  0
ARC
  8
0
 10
239.536865
 20
139.200760
 40
4.361739
 50
55.885761
 51
124.114235
  0
ARC
  8
0
 10
254.244339
 20
142.924240
 40
4.361739
 50
235.885757
 51
304.114410
  0
ARC
  8
0
 10
246.890594
 20
127.143730
 40
16.418768
 50
72.608818
 51
107.391136
  0
ARC
  8
0
 10
246.890610
 20
154.981262
 40
16.418760
 50
252.608810
 51
287.391144
  0
ARC
  8
0
 10
239.536865
 20
142.924240
 40
4.361739
 50
235.885757
 51
304.114227
  0
ARC
  8
0
 10
251.152878
 20
97.690170
 40
0.300000
 50
119.998627
 51
225.000000
  0
ARC
  8
0
 10
242.628311
 20
97.690170
 40
0.299994
 50
315.000000
 51
60.001369
  0
POINT
  8
0
 10
246.890594
 20
54.687500
  0
POINT
  8
0
 10
256.705536
 20
54.687500
  0
LINE
  8
0
 10
246.890594
 20
44.392761
 11
246.890594
 21
64.924713
  0
LINE
  8
0
 10
239.890594
 20
52.187500
 11
239.890594
 21
57.187500
  0
LINE
  8
0
 10
234.890594
 20
53.612602
 11
234.890594
 21
55.762398
  0
LINE
  8
0
 10
236.390594
 20
53.237499
 11
236.390594
 21
56.137501
  0
LINE
  8
0
 10
237.890594
 20
53.237499
 11
237.890594
 21
56.137505
  0
LINE
  8
0
 10
236.390594
 20
53.437492
 11
237.890594
 21
53.237492
  0
LINE
  8
0
 10
236.390594
 20
55.937504
 11
237.890594
 21
56.137505
  0
LINE
  8
0
 10
235.064163
 20
53.414349
 11
236.390594
 21
53.237488
  0
LINE
  8
0
 10
235.064148
 20
55.960644
 11
236.390594
 21
56.137505
  0
LINE
  8
0
 10
237.990601
 20
53.437500
 11
239.790588
 21
53.437500
  0
LINE
  8
0
 10
237.990601
 20
55.937500
 11
239.790588
 21
55.937500
  0
LINE
  8
0
 10
232.786728
 20
54.687500
 11
258.597565
 21
54.687500
  0
LINE
  8
0
 10
250.390594
 20
54.687500
 11
250.390594
 21
54.687500
  0
LINE
  8
0
 10
251.890594
 20
54.687500
 11
251.890594
 21
54.687500
  0
LINE
  8
0
 10
243.390594
 20
54.687500
 11
243.390594
 21
54.687500
  0
LINE
  8
0
 10
241.890594
 20
54.687500
 11
241.890594
 21
54.687500
  0
LINE
  8
0
 10
241.890594
 20
54.687500
 11
241.890594
 21
54.687500
  0
LINE
  8
0
 10
251.890594
 20
54.687500
 11
251.890594
 21
54.687500
  0
LINE
  8
0
 10
239.890594
 20
52.187500
 11
242.790588
 21
52.187500
  0
LINE
  8
0
 10
239.890594
 20
57.187500
 11
242.790588
 21
57.187500
  0
LINE
  8
0
 10
241.983109
 20
46.187500
 11
251.798065
 21
46.187500
  0
LINE
  8
0
 10
241.983124
 20
63.187500
 11
251.798080
 21
63.187500
  0
LINE
  8
0
 10
256.705566
 20
54.687500
 11
251.798080
 21
63.187504
  0
LINE
  8
0
 10
241.983109
 20
46.187492
 11
237.914627
 21
53.234291
  0
LINE
  8
0
 10
237.914658
 20
56.140717
 11
241.983124
 21
63.187500
  0
LINE
  8
0
 10
251.798065
 20
46.187500
 11
256.705566
 21
54.687500
  0
LINE
  8
0
 10
241.607758
 20
54.687500
 11
240.121536
 21
54.687500
  0
LINE
  8
0
 10
251.890594
 20
54.687500
 11
251.890594
 21
54.687500
  0
LINE
  8
0
 10
241.890594
 20
54.687500
 11
241.890594
 21
54.687500
  0
LINE
  8
0
 10
250.390594
 20
54.687500
 11
250.390594
 21
54.687500
  0
LINE
  8
0
 10
243.390594
 20
54.687500
 11
243.390594
 21
54.687500
  0
LINE
  8
0
 10
241.890594
 20
54.687500
 11
241.890594
 21
54.687500
  0
LINE
  8
0
 10
251.890594
 20
54.687500
 11
251.890594
 21
54.687500
  0
LINE
  8
0
 10
251.890594
 20
54.687500
 11
251.890594
 21
54.687500
  0
LINE
  8
0
 10
252.173431
 20
54.687500
 11
252.173431
 21
54.687500
  0
LINE
  8
0
 10
241.890594
 20
54.687500
 11
241.890594
 21
54.687500
  0
LINE
  8
0
 10
241.607758
 20
54.687500
 11
241.607758
 21
54.687500
  0
LINE
  8
0
 10
244.890594
 20
57.687500
 11
248.890594
 21
57.687500
  0
LINE
  8
0
 10
244.890594
 20
51.687500
 11
248.890594
 21
51.687500
  0
LINE
  8
0
 10
250.390594
 20
54.687500
 11
250.390594
 21
54.687500
  0
LINE
  8
0
 10
243.390594
 20
54.687500
 11
243.390594
 21
54.687500
  0
LINE
  8
0
 10
244.890594
 20
57.970341
 11
248.890594
 21
57.970341
  0
LINE
  8
0
 10
244.890594
 20
51.404659
 11
248.890594
 21
51.404659
  0
LINE
  8
0
 10
250.390594
 20
54.687500
 11
250.390594
 21
54.687500
  0
LINE
  8
0
 10
251.890594
 20
54.687500
 11
251.890594
 21
54.687500
  0
LINE
  8
0
 10
252.173431
 20
54.687500
 11
252.173431
 21
54.687500
  0
LINE
  8
0
 10
241.890594
 20
54.687500
 11
241.890594
 21
54.687500
  0
LINE
  8
0
 10
241.607758
 20
54.687500
 11
241.607758
 21
54.687500
  0
LINE
  8
0
 10
243.390594
 20
54.687500
 11
243.390594
 21
54.687500
  0
ARC
  8
0
 10
237.990601
 20
53.337502
 40
0.099998
 50
90.000000
 51
180.000000
  0
ARC
  8
0
 10
239.790588
 20
53.337502
 40
0.100006
 50
0.000000
 51
90.000000
  0
ARC
  8
0
 10
237.990601
 20
56.037502
 40
0.100006
 50
180.000000
 51
270.000000
  0
ARC
  8
0
 10
239.790588
 20
56.037502
 40
0.099998
 50
270.000000
 51
0.000000
  0
ARC
  8
0
 10
235.090591
 20
53.612602
 40
0.199997
 50
180.000000
 51
262.406647
  0
ARC
  8
0
 10
235.090591
 20
55.762398
 40
0.200000
 50
97.593346
 51
180.000000
  0
ARC
  8
0
 10
239.292175
 20
55.937504
 40
3.498414
 50
18.514271
 51
20.934704
  0
ARC
  8
0
 10
239.292175
 20
53.437504
 40
3.498425
 50
339.065247
 51
341.485596
  0
ARC
  8
0
 10
243.389008
 20
55.937500
 40
3.498410
 50
159.065201
 51
200.934799
  0
ARC
  8
0
 10
243.389008
 20
53.437500
 40
3.498410
 50
159.065201
 51
200.934845
  0
ARC
  8
0
 10
246.890594
 20
54.687500
 40
8.500000
 50
90.000000
 51
171.543457
  0
ARC
  8
0
 10
246.890594
 20
54.687500
 40
8.500008
 50
188.456543
 51
90.000000
  0
ARC
  8
0
 10
246.890594
 20
54.687500
 40
7.000000
 50
90.000000
 51
150.000000
  0
ARC
  8
0
 10
246.890594
 20
54.687500
 40
7.000000
 50
90.000000
 51
159.075165
  0
ARC
  8
0
 10
246.890594
 20
54.687500
 40
7.000001
 50
29.999992
 51
90.000000
  0
ARC
  8
0
 10
246.890594
 20
54.687500
 40
6.999999
 50
200.924866
 51
90.000000
  0
CIRCLE
  8
0
 10
246.890594
 20
54.687500
 40
1.000000
  0
ARC
  8
0
 10
244.890594
 20
54.687500
 40
3.282841
 50
90.000000
 51
270.000000
  0
ARC
  8
0
 10
244.890594
 20
54.687500
 40
3.000000
 50
90.000000
 51
270.000000
  0
ARC
  8
0
 10
248.890594
 20
54.687500
 40
3.282841
 50
270.000000
 51
90.000000
  0
ARC
  8
0
 10
248.890594
 20
54.687500
 40
3.000000
 50
270.000000
 51
90.000000
  0
POINT
  8
0
 10
-246.040619
 20
-39.187500
  0
POINT
  8
0
 10
-236.240616
 20
-39.187500
  0
LINE
  8
0
 10
-256.040619
 20
-74.287498
 11
-236.040619
 21
-74.287498
  0
LINE
  8
0
 10
-253.540619
 20
-74.287498
 11
-253.540619
 21
-72.287498
  0
LINE
  8
0
 10
-238.540619
 20
-74.287498
 11
-238.540619
 21
-72.287498
  0
LINE
  8
0
 10
-253.540619
 20
-72.287498
 11
-238.540619
 21
-72.287498
  0
LINE
  8
0
 10
-252.290604
 20
-29.187500
 11
-239.790619
 21
-29.187500
  0
LINE
  8
0
 10
-262.220337
 20
-64.287498
 11
-247.373947
 21
-64.287498
  0
LINE
  8
0
 10
-250.140610
 20
-61.787506
 11
-250.371552
 21
-61.387505
  0
LINE
  8
0
 10
-250.140625
 20
-66.787498
 11
-250.371567
 21
-67.187492
  0
LINE
  8
0
 10
-243.540634
 20
-25.687483
 11
-243.140625
 21
-25.456541
  0
LINE
  8
0
 10
-244.597244
 20
-25.456566
 11
-244.597244
 21
-23.018440
  0
LINE
  8
0
 10
-248.212296
 20
-22.787498
 11
-246.540604
 21
-22.787498
  0
LINE
  8
0
 10
-248.540619
 20
-25.687492
 11
-248.940613
 21
-25.456551
  0
LINE
  8
0
 10
-248.940613
 20
-25.456566
 11
-248.940613
 21
-23.018440
  0
LINE
  8
0
 10
-243.140625
 20
-25.456566
 11
-243.140625
 21
-23.018440
  0
LINE
  8
0
 10
-247.484177
 20
-23.018433
 11
-247.484177
 21
-25.456558
  0
LINE
  8
0
 10
-243.240616
 20
-26.287498
 11
-243.240616
 21
-25.687500
  0
LINE
  8
0
 10
-248.840622
 20
-25.687500
 11
-243.240616
 21
-25.687500
  0
LINE
  8
0
 10
-248.840622
 20
-26.287498
 11
-248.840622
 21
-25.687500
  0
LINE
  8
0
 10
-246.040619
 20
-85.782333
 11
-246.040619
 21
-20.337494
  0
LINE
  8
0
 10
-258.040619
 20
-65.362396
 11
-258.040619
 21
-63.212601
  0
LINE
  8
0
 10
-256.540619
 20
-65.737503
 11
-256.540619
 21
-62.837498
  0
LINE
  8
0
 10
-255.040619
 20
-65.737503
 11
-255.040619
 21
-62.837494
  0
LINE
  8
0
 10
-256.540619
 20
-65.537483
 11
-255.040619
 21
-65.737488
  0
LINE
  8
0
 10
-256.540619
 20
-63.037487
 11
-255.040619
 21
-62.837486
  0
LINE
  8
0
 10
-257.867065
 20
-65.560631
 11
-256.540619
 21
-65.737488
  0
LINE
  8
0
 10
-257.867065
 20
-63.014347
 11
-256.540619
 21
-62.837486
  0
LINE
  8
0
 10
-254.940613
 20
-65.537498
 11
-253.140625
 21
-65.537498
  0
LINE
  8
0
 10
-254.940613
 20
-63.037498
 11
-253.140625
 21
-63.037498
  0
LINE
  8
0
 10
-253.040619
 20
-66.459183
 11
-253.040619
 21
-62.115810
  0
LINE
  8
0
 10
-250.371552
 20
-67.187500
 11
-252.809677
 21
-67.187500
  0
LINE
  8
0
 10
-250.371552
 20
-61.387497
 11
-252.809677
 21
-61.387497
  0
LINE
  8
0
 10
-250.371552
 20
-62.844124
 11
-252.809677
 21
-62.844124
  0
LINE
  8
0
 10
-252.809677
 20
-65.730934
 11
-250.371552
 21
-65.730934
  0
LINE
  8
0
 10
-250.140625
 20
-67.087494
 11
-250.140625
 21
-61.487499
  0
LINE
  8
0
 10
-249.540619
 20
-67.087494
 11
-250.140610
 21
-67.087494
  0
LINE
  8
0
 10
-249.540619
 20
-61.487499
 11
-250.140610
 21
-61.487499
  0
LINE
  8
0
 10
-246.540619
 20
-22.787498
 11
-246.540619
 21
-23.787498
  0
LINE
  8
0
 10
-246.540619
 20
-23.787498
 11
-245.540619
 21
-23.787498
  0
LINE
  8
0
 10
-245.540619
 20
-23.787498
 11
-245.540619
 21
-22.787498
  0
LINE
  8
0
 10
-245.540604
 20
-22.787498
 11
-243.868927
 21
-22.787498
  0
LINE
  8
0
 10
-239.040619
 20
-29.620502
 11
-239.790619
 21
-29.187489
  0
LINE
  8
0
 10
-253.040634
 20
-29.620491
 11
-252.290619
 21
-29.187473
  0
LINE
  8
0
  6
PHANTOM
 10
-239.040619
 20
-53.754486
 11
-239.040619
 21
-49.187500
  0
LINE
  8
0
  6
PHANTOM
 10
-253.040619
 20
-53.754486
 11
-253.040619
 21
-49.187500
  0
LINE
  8
0
  6
PHANTOM
 10
-239.790619
 20
-54.187500
 11
-239.790619
 21
-49.187500
  0
LINE
  8
0
  6
PHANTOM
 10
-252.290619
 20
-54.187500
 11
-252.290619
 21
-49.187500
  0
LINE
  8
0
  6
PHANTOM
 10
-239.790634
 20
-54.187489
 11
-239.040634
 21
-53.754475
  0
LINE
  8
0
  6
PHANTOM
 10
-252.290604
 20
-54.187489
 11
-253.040604
 21
-53.754475
  0
LINE
  8
0
  6
PHANTOM
 10
-252.290619
 20
-54.187500
 11
-239.790619
 21
-54.187500
  0
LINE
  8
0
 10
-242.540619
 20
-26.287498
 11
-242.540619
 21
-28.587502
  0
LINE
  8
0
 10
-241.390610
 20
-28.587502
 11
-250.690613
 21
-28.587502
  0
LINE
  8
0
 10
-249.540619
 20
-28.587502
 11
-249.540619
 21
-26.287498
  0
LINE
  8
0
 10
-249.540619
 20
-26.287498
 11
-242.540619
 21
-26.287498
  0
LINE
  8
0
 10
-241.390625
 20
-28.587502
 11
-241.390625
 21
-29.187500
  0
LINE
  8
0
 10
-250.690613
 20
-28.587502
 11
-250.690613
 21
-29.187500
  0
LINE
  8
0
 10
-252.040619
 20
-59.187500
 11
-240.040619
 21
-59.187500
  0
LINE
  8
0
 10
-252.040619
 20
-58.387505
 11
-240.040619
 21
-58.387505
  0
LINE
  8
0
 10
-252.040619
 20
-59.187500
 11
-252.040619
 21
-58.387505
  0
LINE
  8
0
 10
-240.040619
 20
-59.187500
 11
-240.040619
 21
-58.387505
  0
LINE
  8
0
 10
-251.540619
 20
-60.837502
 11
-251.540619
 21
-48.037498
  0
LINE
  8
0
 10
-240.540619
 20
-60.704166
 11
-240.540619
 21
-47.904167
  0
LINE
  8
0
  6
PHANTOM
 10
-240.202835
 20
-57.337288
 11
-240.202835
 21
-50.645599
  0
LINE
  8
0
  6
PHANTOM
 10
-240.902832
 20
-57.337288
 11
-240.902832
 21
-50.582710
  0
LINE
  8
0
  6
PHANTOM
 10
-251.196136
 20
-56.953392
 11
-251.196136
 21
-50.347702
  0
LINE
  8
0
  6
PHANTOM
 10
-251.896133
 20
-56.953392
 11
-251.896133
 21
-50.268272
  0
LINE
  8
0
 10
-242.540619
 20
-72.287498
 11
-242.540619
 21
-59.187500
  0
LINE
  8
0
 10
-249.540619
 20
-72.287498
 11
-249.540619
 21
-59.187500
  0
LINE
  8
0
 10
-254.540634
 20
-44.187538
 11
-255.840637
 21
-43.436977
  0
LINE
  8
0
 10
-254.540573
 20
-39.187553
 11
-255.840576
 21
-39.938114
  0
LINE
  8
0
 10
-255.840622
 20
-43.436935
 11
-255.840622
 21
-39.938065
  0
LINE
  8
0
 10
-254.540604
 20
-44.187500
 11
-237.540604
 21
-44.187500
  0
LINE
  8
0
 10
-254.540604
 20
-39.187500
 11
-237.540588
 21
-39.187500
  0
LINE
  8
0
 10
-237.540604
 20
-44.187531
 11
-236.240601
 21
-43.436974
  0
LINE
  8
0
 10
-236.240616
 20
-43.436935
 11
-236.240616
 21
-39.938065
  0
LINE
  8
0
 10
-237.540619
 20
-39.187496
 11
-236.240631
 21
-39.938053
  0
LINE
  8
0
 10
-254.540588
 20
-39.187511
 11
-255.840576
 21
-39.938068
  0
LINE
  8
0
 10
-241.133148
 20
-43.436935
 11
-241.133148
 21
-39.938065
  0
LINE
  8
0
 10
-250.948090
 20
-43.436935
 11
-250.948090
 21
-39.938065
  0
LINE
  8
0
 10
-254.540634
 20
-39.187546
 11
-255.840637
 21
-38.436985
  0
LINE
  8
0
 10
-254.540588
 20
-34.187538
 11
-255.840591
 21
-34.938103
  0
LINE
  8
0
 10
-255.840622
 20
-38.436935
 11
-255.840622
 21
-34.938065
  0
LINE
  8
0
 10
-254.540604
 20
-39.187500
 11
-237.540604
 21
-39.187500
  0
LINE
  8
0
 10
-254.540604
 20
-34.187500
 11
-237.540588
 21
-34.187500
  0
LINE
  8
0
 10
-237.540604
 20
-39.187515
 11
-236.240601
 21
-38.436958
  0
LINE
  8
0
 10
-236.240616
 20
-38.436935
 11
-236.240616
 21
-34.938065
  0
LINE
  8
0
 10
-237.540619
 20
-34.187485
 11
-236.240631
 21
-34.938042
  0
LINE
  8
0
 10
-254.540604
 20
-34.187519
 11
-255.840591
 21
-34.938076
  0
LINE
  8
0
 10
-241.133148
 20
-38.436935
 11
-241.133148
 21
-34.938065
  0
LINE
  8
0
 10
-250.948090
 20
-38.436935
 11
-250.948090
 21
-34.938065
  0
LINE
  8
0
 10
-239.790619
 20
-34.187500
 11
-239.790619
 21
-29.187500
  0
LINE
  8
0
 10
-239.040619
 20
-34.187500
 11
-239.040619
 21
-29.620514
  0
LINE
  8
0
 10
-252.290619
 20
-34.187500
 11
-252.290619
 21
-29.187500
  0
LINE
  8
0
 10
-253.040619
 20
-34.187500
 11
-253.040619
 21
-29.620514
  0
LINE
  8
0
  6
PHANTOM
 10
-253.040619
 20
-53.754486
 11
-239.040619
 21
-53.754486
  0
LINE
  8
0
 10
-253.040619
 20
-29.620514
 11
-239.040619
 21
-29.620514
  0
LINE
  8
0
 10
-249.540619
 20
-72.287498
 11
-242.540619
 21
-72.287498
  0
LINE
  8
0
 10
-249.540619
 20
-57.687500
 11
-249.540619
 21
-57.373634
  0
LINE
  8
0
 10
-251.540619
 20
-57.687500
 11
-240.540619
 21
-57.687500
  0
LINE
  8
0
 10
-240.540619
 20
-57.687923
 11
-251.540619
 21
-57.303795
  0
LINE
  8
0
 10
-240.540619
 20
-56.987488
 11
-251.540619
 21
-56.603355
  0
LINE
  8
0
 10
-242.540619
 20
-56.917656
 11
-242.540619
 21
-50.901779
  0
LINE
  8
0
 10
-249.540619
 20
-56.673210
 11
-249.540619
 21
-50.657333
  0
LINE
  8
0
 10
-240.540619
 20
-50.971615
 11
-251.540619
 21
-50.587482
  0
LINE
  8
0
 10
-240.540619
 20
-50.271183
 11
-251.540619
 21
-49.887054
  0
LINE
  8
0
 10
-251.540619
 20
-49.887497
 11
-240.540619
 21
-49.887497
  0
LINE
  8
0
 10
-242.540619
 20
-50.201355
 11
-242.540619
 21
-49.887497
  0
LINE
  8
0
 10
-239.790619
 20
-49.187492
 11
-239.040619
 21
-48.754478
  0
LINE
  8
0
 10
-239.790619
 20
-49.187500
 11
-239.790619
 21
-44.187500
  0
LINE
  8
0
 10
-239.040619
 20
-48.754486
 11
-239.040619
 21
-44.187500
  0
LINE
  8
0
 10
-253.040619
 20
-48.754486
 11
-239.040619
 21
-48.754486
  0
LINE
  8
0
 10
-252.290604
 20
-49.187500
 11
-239.790619
 21
-49.187500
  0
LINE
  8
0
 10
-252.290604
 20
-49.187485
 11
-253.040604
 21
-48.754471
  0
LINE
  8
0
 10
-253.040619
 20
-48.754486
 11
-253.040619
 21
-44.187500
  0
LINE
  8
0
 10
-252.290619
 20
-49.187500
 11
-252.290619
 21
-44.187500
  0
LINE
  8
0
 10
-256.040619
 20
-81.787498
 11
-236.040619
 21
-81.787498
  0
LINE
  8
0
 10
-236.040619
 20
-81.787498
 11
-235.757782
 21
-81.504654
  0
LINE
  8
0
 10
-235.757782
 20
-81.504654
 11
-236.795639
 21
-80.466789
  0
LINE
  8
0
 10
-256.040619
 20
-74.287498
 11
-236.040619
 21
-74.287498
  0
LINE
  8
0
 10
-236.040619
 20
-79.287498
 11
-236.040619
 21
-74.287498
  0
LINE
  8
0
 10
-236.795654
 20
-80.042526
 11
-236.040619
 21
-79.287498
  0
LINE
  8
0
 10
-256.323456
 20
-81.504654
 11
-255.285599
 21
-80.466782
  0
LINE
  8
0
 10
-255.285599
 20
-80.042519
 11
-256.040619
 21
-79.287491
  0
LINE
  8
0
 10
-256.040619
 20
-81.787491
 11
-256.323456
 21
-81.504654
  0
LINE
  8
0
 10
-256.040619
 20
-79.287498
 11
-256.040619
 21
-74.287498
  0
LINE
  8
0
 10
-236.040619
 20
-79.287506
 11
-256.040619
 21
-79.287506
  0
LINE
  8
0
 10
-256.323456
 20
-81.504654
 11
-235.757782
 21
-81.504654
  0
LINE
  8
0
 10
-237.440613
 20
-80.254654
 11
-254.780624
 21
-80.254654
  0
ARC
  8
0
 10
-251.404526
 20
-66.459183
 40
1.263915
 50
324.813568
 51
35.186165
  0
ARC
  8
0
 10
-251.404526
 20
-62.115810
 40
1.263913
 50
324.813690
 51
35.186306
  0
ARC
  8
0
 10
-254.766678
 20
-64.287498
 40
4.626064
 50
341.819641
 51
18.180359
  0
ARC
  8
0
 10
-243.868927
 20
-24.423592
 40
1.263906
 50
234.814117
 51
305.186432
  0
ARC
  8
0
 10
-246.040604
 20
-21.061440
 40
4.626069
 50
251.819458
 51
288.180176
  0
ARC
  8
0
 10
-248.212296
 20
-24.051414
 40
1.263906
 50
54.814121
 51
125.186447
  0
ARC
  8
0
 10
-248.212296
 20
-24.423592
 40
1.263915
 50
234.813553
 51
305.185883
  0
ARC
  8
0
 10
-243.868927
 20
-24.051414
 40
1.263915
 50
54.813553
 51
125.185883
  0
ARC
  8
0
 10
-246.040619
 20
-27.413567
 40
4.626069
 50
71.819466
 51
83.795166
  0
ARC
  8
0
 10
-257.840607
 20
-63.212601
 40
0.200004
 50
97.602013
 51
180.000000
  0
ARC
  8
0
 10
-254.940613
 20
-65.637497
 40
0.099998
 50
90.000000
 51
180.000000
  0
ARC
  8
0
 10
-254.940613
 20
-62.937496
 40
0.100006
 50
180.000000
 51
270.000000
  0
ARC
  8
0
 10
-257.840607
 20
-65.362396
 40
0.200012
 50
180.000000
 51
262.397858
  0
ARC
  8
0
 10
-253.140625
 20
-62.937496
 40
0.100002
 50
270.000000
 51
0.000000
  0
ARC
  8
0
 10
-253.140625
 20
-65.637497
 40
0.100006
 50
0.000000
 51
90.000000
  0
ARC
  8
0
 10
-251.776703
 20
-62.115810
 40
1.263913
 50
144.813690
 51
215.186157
  0
ARC
  8
0
 10
-251.776703
 20
-66.459183
 40
1.263911
 50
144.813843
 51
215.186447
  0
ARC
  8
0
 10
-248.414551
 20
-64.287498
 40
4.626065
 50
161.819595
 51
198.180267
  0
ARC
  8
0
 10
-246.040619
 20
-27.413567
 40
4.626063
 50
96.204643
 51
108.180168
  0
CIRCLE
  8
0
 10
-251.540619
 20
-49.537498
 40
0.350000
  0
CIRCLE
  8
0
 10
-240.540619
 20
-49.537498
 40
0.350000
  0
CIRCLE
  8
0
 10
-240.540619
 20
-58.037498
 40
0.350000
  0
CIRCLE
  8
0
 10
-251.540619
 20
-58.037498
 40
0.350000
  0
CIRCLE
  8
0
 10
-251.546127
 20
-56.953392
 40
0.350000
  0
CIRCLE
  8
0
 10
-240.552826
 20
-57.337288
 40
0.350000
  0
CIRCLE
  8
0
 10
-240.535095
 20
-50.621605
 40
0.350000
  0
CIRCLE
  8
0
 10
-251.528397
 20
-50.237709
 40
0.350000
  0
ARC
  8
0
 10
-253.394348
 20
-39.825760
 40
4.361739
 50
235.885757
 51
304.114197
  0
ARC
  8
0
 10
-238.686874
 20
-39.825760
 40
4.361739
 50
235.885757
 51
304.114197
  0
ARC
  8
0
 10
-246.040619
 20
-27.768730
 40
16.418762
 50
252.608871
 51
287.391174
  0
ARC
  8
0
 10
-238.686874
 20
-43.549240
 40
4.361739
 50
55.885761
 51
124.114212
  0
ARC
  8
0
 10
-246.040619
 20
-55.606270
 40
16.418772
 50
72.608765
 51
107.391129
  0
ARC
  8
0
 10
-253.394348
 20
-43.549240
 40
4.361739
 50
55.885761
 51
124.114212
  0
ARC
  8
0
 10
-238.686874
 20
-38.549240
 40
4.361739
 50
55.885761
 51
124.114212
  0
ARC
  8
0
 10
-253.394348
 20
-38.549240
 40
4.361739
 50
55.885761
 51
124.114212
  0
ARC
  8
0
 10
-238.686874
 20
-34.825760
 40
4.361739
 50
235.885757
 51
304.114197
  0
ARC
  8
0
 10
-246.040619
 20
-50.606270
 40
16.418772
 50
72.608765
 51
107.391129
  0
ARC
  8
0
 10
-246.040604
 20
-22.768730
 40
16.418768
 50
252.608810
 51
287.391144
  0
ARC
  8
0
 10
-253.394348
 20
-34.825760
 40
4.361739
 50
235.885757
 51
304.114197
  0
ARC
  8
0
 10
-236.583511
 20
-80.254654
 40
0.299994
 50
135.000000
 51
225.001038
  0
ARC
  8
0
 10
-255.497726
 20
-80.254654
 40
0.299994
 50
315.000000
 51
45.000000
  0
POINT
  8
0
 10
-246.040619
 20
-123.062500
  0
POINT
  8
0
 10
-246.040619
 20
-123.062500
  0
POINT
  8
0
 10
-235.757782
 20
-123.062500
  0
LINE
  8
0
 10
-258.040619
 20
-124.137398
 11
-258.040619
 21
-121.987602
  0
LINE
  8
0
 10
-256.540619
 20
-124.512505
 11
-256.540619
 21
-121.612495
  0
LINE
  8
0
 10
-256.540619
 20
-124.312508
 11
-255.891281
 21
-124.399094
  0
LINE
  8
0
 10
-256.540619
 20
-121.812492
 11
-255.891266
 21
-121.725914
  0
LINE
  8
0
 10
-257.867065
 20
-124.335640
 11
-256.540619
 21
-124.512497
  0
LINE
  8
0
 10
-257.867065
 20
-121.789352
 11
-256.540619
 21
-121.612495
  0
LINE
  8
0
 10
-260.110443
 20
-123.062500
 11
-233.748138
 21
-123.062500
  0
LINE
  8
0
 10
-246.040619
 20
-133.276855
 11
-246.040619
 21
-112.431229
  0
LINE
  8
0
 10
-250.948105
 20
-131.562500
 11
-241.133148
 21
-131.562500
  0
LINE
  8
0
 10
-250.948090
 20
-114.562500
 11
-241.133133
 21
-114.562500
  0
LINE
  8
0
 10
-238.679398
 20
-118.812500
 11
-241.133148
 21
-114.562500
  0
LINE
  8
0
 10
-250.948105
 20
-131.562500
 11
-254.025803
 21
-126.231766
  0
LINE
  8
0
 10
-254.025803
 20
-119.893234
 11
-250.948090
 21
-114.562500
  0
LINE
  8
0
 10
-241.133133
 20
-131.562500
 11
-238.055435
 21
-126.231766
  0
LINE
  8
0
 10
-252.540619
 20
-119.562500
 11
-239.540619
 21
-119.562500
  0
LINE
  8
0
 10
-252.540619
 20
-126.562500
 11
-239.540619
 21
-126.562500
  0
LINE
  8
0
 10
-236.040619
 20
-123.062500
 11
-236.040619
 21
-123.062500
  0
LINE
  8
0
 10
-256.040619
 20
-123.062500
 11
-256.040619
 21
-123.062500
  0
LINE
  8
0
 10
-254.540619
 20
-123.062500
 11
-254.540619
 21
-123.062500
  0
LINE
  8
0
 10
-237.540619
 20
-123.062500
 11
-237.540619
 21
-123.062500
  0
LINE
  8
0
 10
-256.040619
 20
-123.062500
 11
-256.040619
 21
-123.062500
  0
LINE
  8
0
 10
-236.040619
 20
-123.062500
 11
-236.040619
 21
-123.062500
  0
LINE
  8
0
 10
-254.040619
 20
-121.062500
 11
-238.040619
 21
-121.062500
  0
LINE
  8
0
 10
-254.040619
 20
-125.062500
 11
-238.040619
 21
-125.062500
  0
LINE
  8
0
 10
-256.323456
 20
-123.062500
 11
-256.323456
 21
-123.062500
  0
LINE
  8
0
 10
-235.757782
 20
-123.062500
 11
-235.757782
 21
-123.062500
  0
LINE
  8
0
 10
-254.040619
 20
-125.345337
 11
-238.040619
 21
-125.345337
  0
LINE
  8
0
 10
-254.040619
 20
-120.779663
 11
-238.040619
 21
-120.779663
  0
ARC
  8
0
 10
-257.840637
 20
-121.987602
 40
0.199996
 50
97.593491
 51
180.000000
  0
ARC
  8
0
 10
-257.840637
 20
-124.137398
 40
0.199982
 50
180.000000
 51
262.406799
  0
ARC
  8
0
 10
-246.040619
 20
-123.062500
 40
8.500000
 50
90.000000
 51
157.719604
  0
ARC
  8
0
 10
-246.040619
 20
-123.062500
 40
8.500001
 50
22.280396
 51
90.000000
  0
ARC
  8
0
 10
-246.040619
 20
-123.062500
 40
8.500004
 50
202.280441
 51
337.719604
  0
ARC
  8
0
 10
-246.040619
 20
-123.062500
 40
7.000000
 50
90.000000
 51
150.000000
  0
ARC
  8
0
 10
-246.040619
 20
-123.062500
 40
7.000001
 50
210.000000
 51
329.999939
  0
ARC
  8
0
 10
-246.040619
 20
-123.062500
 40
7.000001
 50
29.999992
 51
90.000000
  0
CIRCLE
  8
0
 10
-246.040619
 20
-123.062500
 40
1.000000
  0
ARC
  8
0
 10
-239.540619
 20
-123.062500
 40
3.500000
 50
270.000000
 51
332.206268
  0
ARC
  8
0
 10
-252.540619
 20
-123.062500
 40
3.500000
 50
90.000000
 51
152.206268
  0
ARC
  8
0
 10
-238.040619
 20
-123.062500
 40
2.000000
 50
270.000000
 51
90.000000
  0
ARC
  8
0
 10
-254.040619
 20
-123.062500
 40
2.000000
 50
90.000000
 51
270.000000
  0
ARC
  8
0
 10
-238.040619
 20
-123.062500
 40
2.282845
 50
270.000000
 51
90.000000
  0
ARC
  8
0
 10
-254.040619
 20
-123.062500
 40
2.282845
 50
90.000000
 51
270.000000
  0
ARC
  8
0
 10
-252.540619
 20
-123.062500
 40
3.499997
 50
207.793839
 51
270.000000
  0
ARC
  8
0
 10
-239.540619
 20
-123.062500
 40
3.500007
 50
27.793612
 51
90.000000
  0
POINT
  8
0
 10
-175.621887
 20
-39.187500
  0
POINT
  8
0
 10
-165.821884
 20
-39.187500
  0
LINE
  8
0
 10
-183.121887
 20
-74.287498
 11
-183.121887
 21
-72.287498
  0
LINE
  8
0
 10
-168.121887
 20
-74.287498
 11
-168.121887
 21
-72.287498
  0
LINE
  8
0
 10
-183.121887
 20
-72.287498
 11
-168.121887
 21
-72.287498
  0
LINE
  8
0
 10
-181.871872
 20
-29.187500
 11
-169.371887
 21
-29.187500
  0
LINE
  8
0
 10
-190.421127
 20
-64.287498
 11
-176.955215
 21
-64.287498
  0
LINE
  8
0
 10
-179.721878
 20
-61.787506
 11
-179.952820
 21
-61.387508
  0
LINE
  8
0
 10
-179.721893
 20
-66.787498
 11
-179.952835
 21
-67.187492
  0
LINE
  8
0
 10
-173.121902
 20
-25.687481
 11
-172.721893
 21
-25.456539
  0
LINE
  8
0
 10
-174.178513
 20
-25.456566
 11
-174.178513
 21
-23.018440
  0
LINE
  8
0
 10
-177.793564
 20
-22.787498
 11
-176.121872
 21
-22.787498
  0
LINE
  8
0
 10
-178.121887
 20
-25.687492
 11
-178.521881
 21
-25.456551
  0
LINE
  8
0
 10
-178.521881
 20
-25.456566
 11
-178.521881
 21
-23.018440
  0
LINE
  8
0
 10
-172.721893
 20
-25.456566
 11
-172.721893
 21
-23.018440
  0
LINE
  8
0
 10
-177.065445
 20
-23.018433
 11
-177.065445
 21
-25.456558
  0
LINE
  8
0
 10
-172.821884
 20
-26.287498
 11
-172.821884
 21
-25.687500
  0
LINE
  8
0
 10
-178.421890
 20
-25.687500
 11
-172.821884
 21
-25.687500
  0
LINE
  8
0
 10
-178.421890
 20
-26.287498
 11
-178.421890
 21
-25.687500
  0
LINE
  8
0
 10
-175.621887
 20
-85.782333
 11
-175.621887
 21
-20.337494
  0
LINE
  8
0
 10
-187.621887
 20
-65.362396
 11
-187.621887
 21
-63.212601
  0
LINE
  8
0
 10
-186.121887
 20
-65.737503
 11
-186.121887
 21
-62.837498
  0
LINE
  8
0
 10
-184.621887
 20
-65.737503
 11
-184.621887
 21
-62.837494
  0
LINE
  8
0
 10
-186.121887
 20
-65.537491
 11
-184.621887
 21
-65.737488
  0
LINE
  8
0
 10
-186.121887
 20
-63.037487
 11
-184.621887
 21
-62.837486
  0
LINE
  8
0
 10
-187.448318
 20
-65.560631
 11
-186.121887
 21
-65.737488
  0
LINE
  8
0
 10
-187.448334
 20
-63.014347
 11
-186.121887
 21
-62.837486
  0
LINE
  8
0
 10
-184.521881
 20
-65.537498
 11
-182.721893
 21
-65.537498
  0
LINE
  8
0
 10
-184.521881
 20
-63.037498
 11
-182.721893
 21
-63.037498
  0
LINE
  8
0
 10
-182.621887
 20
-66.459183
 11
-182.621887
 21
-62.115810
  0
LINE
  8
0
 10
-179.952820
 20
-67.187500
 11
-182.390945
 21
-67.187500
  0
LINE
  8
0
 10
-179.952820
 20
-61.387497
 11
-182.390945
 21
-61.387497
  0
LINE
  8
0
 10
-179.952820
 20
-62.844124
 11
-182.390945
 21
-62.844124
  0
LINE
  8
0
 10
-182.390945
 20
-65.730934
 11
-179.952820
 21
-65.730934
  0
LINE
  8
0
 10
-179.721893
 20
-67.087494
 11
-179.721893
 21
-61.487499
  0
LINE
  8
0
 10
-179.121887
 20
-67.087494
 11
-179.721878
 21
-67.087494
  0
LINE
  8
0
 10
-179.121887
 20
-61.487499
 11
-179.721878
 21
-61.487499
  0
LINE
  8
0
 10
-176.121887
 20
-22.787498
 11
-176.121887
 21
-23.787498
  0
LINE
  8
0
 10
-176.121887
 20
-23.787498
 11
-175.121887
 21
-23.787498
  0
LINE
  8
0
 10
-175.121887
 20
-23.787498
 11
-175.121887
 21
-22.787498
  0
LINE
  8
0
 10
-175.121872
 20
-22.787498
 11
-173.450195
 21
-22.787498
  0
LINE
  8
0
 10
-168.621887
 20
-29.620502
 11
-169.371887
 21
-29.187489
  0
LINE
  8
0
 10
-182.621902
 20
-29.620491
 11
-181.871887
 21
-29.187473
  0
LINE
  8
0
  6
PHANTOM
 10
-168.621887
 20
-53.754486
 11
-168.621887
 21
-49.187500
  0
LINE
  8
0
  6
PHANTOM
 10
-182.621887
 20
-53.754486
 11
-182.621887
 21
-49.187500
  0
LINE
  8
0
  6
PHANTOM
 10
-169.371887
 20
-54.187500
 11
-169.371887
 21
-49.187500
  0
LINE
  8
0
  6
PHANTOM
 10
-181.871887
 20
-54.187500
 11
-181.871887
 21
-49.187500
  0
LINE
  8
0
  6
PHANTOM
 10
-169.371902
 20
-54.187489
 11
-168.621902
 21
-53.754475
  0
LINE
  8
0
  6
PHANTOM
 10
-181.871872
 20
-54.187489
 11
-182.621872
 21
-53.754475
  0
LINE
  8
0
  6
PHANTOM
 10
-181.871887
 20
-54.187500
 11
-169.371887
 21
-54.187500
  0
LINE
  8
0
 10
-172.121887
 20
-26.287498
 11
-172.121887
 21
-28.587502
  0
LINE
  8
0
 10
-170.971878
 20
-28.587502
 11
-180.271881
 21
-28.587502
  0
LINE
  8
0
 10
-179.121887
 20
-28.587502
 11
-179.121887
 21
-26.287498
  0
LINE
  8
0
 10
-179.121887
 20
-26.287498
 11
-172.121887
 21
-26.287498
  0
LINE
  8
0
 10
-170.971893
 20
-28.587502
 11
-170.971893
 21
-29.187500
  0
LINE
  8
0
 10
-180.271881
 20
-28.587502
 11
-180.271881
 21
-29.187500
  0
LINE
  8
0
 10
-181.621887
 20
-59.187500
 11
-169.621887
 21
-59.187500
  0
LINE
  8
0
 10
-181.621887
 20
-58.387505
 11
-169.621887
 21
-58.387505
  0
LINE
  8
0
 10
-181.621887
 20
-59.187500
 11
-181.621887
 21
-58.387505
  0
LINE
  8
0
 10
-169.621887
 20
-59.187500
 11
-169.621887
 21
-58.387505
  0
LINE
  8
0
 10
-181.121887
 20
-60.837502
 11
-181.121887
 21
-48.037498
  0
LINE
  8
0
 10
-170.121887
 20
-60.704166
 11
-170.121887
 21
-47.904167
  0
LINE
  8
0
  6
PHANTOM
 10
-169.784103
 20
-57.337288
 11
-169.784103
 21
-50.645599
  0
LINE
  8
0
  6
PHANTOM
 10
-170.484100
 20
-57.337288
 11
-170.484100
 21
-50.582710
  0
LINE
  8
0
  6
PHANTOM
 10
-180.777405
 20
-56.953392
 11
-180.777405
 21
-50.347702
  0
LINE
  8
0
  6
PHANTOM
 10
-181.477402
 20
-56.953392
 11
-181.477402
 21
-50.268272
  0
LINE
  8
0
 10
-172.121887
 20
-72.287498
 11
-172.121887
 21
-59.187500
  0
LINE
  8
0
 10
-179.121887
 20
-72.287498
 11
-179.121887
 21
-59.187500
  0
LINE
  8
0
 10
-184.121902
 20
-44.187538
 11
-185.421906
 21
-43.436977
  0
LINE
  8
0
 10
-184.121841
 20
-39.187553
 11
-185.421844
 21
-39.938114
  0
LINE
  8
0
 10
-185.421890
 20
-43.436935
 11
-185.421890
 21
-39.938065
  0
LINE
  8
0
 10
-184.121872
 20
-44.187500
 11
-167.121872
 21
-44.187500
  0
LINE
  8
0
 10
-184.121872
 20
-39.187500
 11
-167.121857
 21
-39.187500
  0
LINE
  8
0
 10
-167.121872
 20
-44.187531
 11
-165.821869
 21
-43.436974
  0
LINE
  8
0
 10
-165.821884
 20
-43.436935
 11
-165.821884
 21
-39.938065
  0
LINE
  8
0
 10
-167.121887
 20
-39.187496
 11
-165.821899
 21
-39.938053
  0
LINE
  8
0
 10
-184.121857
 20
-39.187511
 11
-185.421844
 21
-39.938068
  0
LINE
  8
0
 10
-170.714417
 20
-43.436935
 11
-170.714417
 21
-39.938065
  0
LINE
  8
0
 10
-180.529358
 20
-43.436935
 11
-180.529358
 21
-39.938065
  0
LINE
  8
0
 10
-184.121902
 20
-39.187542
 11
-185.421906
 21
-38.436981
  0
LINE
  8
0
 10
-184.121857
 20
-34.187538
 11
-185.421860
 21
-34.938103
  0
LINE
  8
0
 10
-185.421890
 20
-38.436935
 11
-185.421890
 21
-34.938065
  0
LINE
  8
0
 10
-184.121872
 20
-39.187500
 11
-167.121872
 21
-39.187500
  0
LINE
  8
0
 10
-184.121872
 20
-34.187500
 11
-167.121857
 21
-34.187500
  0
LINE
  8
0
 10
-167.121872
 20
-39.187515
 11
-165.821869
 21
-38.436958
  0
LINE
  8
0
 10
-165.821884
 20
-38.436935
 11
-165.821884
 21
-34.938065
  0
LINE
  8
0
 10
-167.121887
 20
-34.187485
 11
-165.821899
 21
-34.938042
  0
LINE
  8
0
 10
-184.121872
 20
-34.187519
 11
-185.421860
 21
-34.938076
  0
LINE
  8
0
 10
-170.714417
 20
-38.436935
 11
-170.714417
 21
-34.938065
  0
LINE
  8
0
 10
-180.529358
 20
-38.436935
 11
-180.529358
 21
-34.938065
  0
LINE
  8
0
 10
-169.371887
 20
-34.187500
 11
-169.371887
 21
-29.187500
  0
LINE
  8
0
 10
-168.621887
 20
-34.187500
 11
-168.621887
 21
-29.620514
  0
LINE
  8
0
 10
-181.871887
 20
-34.187500
 11
-181.871887
 21
-29.187500
  0
LINE
  8
0
 10
-182.621887
 20
-34.187500
 11
-182.621887
 21
-29.620514
  0
LINE
  8
0
  6
PHANTOM
 10
-182.621887
 20
-53.754486
 11
-168.621887
 21
-53.754486
  0
LINE
  8
0
 10
-182.621887
 20
-29.620514
 11
-168.621887
 21
-29.620514
  0
LINE
  8
0
 10
-179.121887
 20
-72.287498
 11
-172.121887
 21
-72.287498
  0
LINE
  8
0
 10
-179.121887
 20
-57.687500
 11
-179.121887
 21
-57.373634
  0
LINE
  8
0
 10
-181.121887
 20
-57.687500
 11
-170.121887
 21
-57.687500
  0
LINE
  8
0
 10
-170.121887
 20
-57.687923
 11
-181.121887
 21
-57.303795
  0
LINE
  8
0
 10
-170.121887
 20
-56.987488
 11
-181.121887
 21
-56.603355
  0
LINE
  8
0
 10
-172.121887
 20
-56.917656
 11
-172.121887
 21
-50.901779
  0
LINE
  8
0
 10
-179.121887
 20
-56.673210
 11
-179.121887
 21
-50.657333
  0
LINE
  8
0
 10
-170.121887
 20
-50.971615
 11
-181.121887
 21
-50.587482
  0
LINE
  8
0
 10
-170.121887
 20
-50.271183
 11
-181.121887
 21
-49.887054
  0
LINE
  8
0
 10
-181.121887
 20
-49.887497
 11
-170.121887
 21
-49.887497
  0
LINE
  8
0
 10
-172.121887
 20
-50.201355
 11
-172.121887
 21
-49.887497
  0
LINE
  8
0
 10
-169.371887
 20
-49.187492
 11
-168.621887
 21
-48.754478
  0
LINE
  8
0
 10
-169.371887
 20
-49.187500
 11
-169.371887
 21
-44.187500
  0
LINE
  8
0
 10
-168.621887
 20
-48.754486
 11
-168.621887
 21
-44.187500
  0
LINE
  8
0
 10
-182.621887
 20
-48.754486
 11
-168.621887
 21
-48.754486
  0
LINE
  8
0
 10
-181.871872
 20
-49.187500
 11
-169.371887
 21
-49.187500
  0
LINE
  8
0
 10
-181.871872
 20
-49.187485
 11
-182.621872
 21
-48.754471
  0
LINE
  8
0
 10
-182.621887
 20
-48.754486
 11
-182.621887
 21
-44.187500
  0
LINE
  8
0
 10
-181.871887
 20
-49.187500
 11
-181.871887
 21
-44.187500
  0
LINE
  8
0
 10
-185.621887
 20
-81.787498
 11
-165.621887
 21
-81.787498
  0
LINE
  8
0
 10
-165.621887
 20
-81.787498
 11
-165.339050
 21
-81.504654
  0
LINE
  8
0
 10
-165.339050
 20
-81.504654
 11
-166.376907
 21
-80.466789
  0
LINE
  8
0
 10
-185.621887
 20
-74.287498
 11
-165.621887
 21
-74.287498
  0
LINE
  8
0
 10
-165.621887
 20
-79.287498
 11
-165.621887
 21
-74.287498
  0
LINE
  8
0
 10
-166.376923
 20
-80.042526
 11
-165.621887
 21
-79.287498
  0
LINE
  8
0
 10
-185.904739
 20
-81.504654
 11
-184.866867
 21
-80.466782
  0
LINE
  8
0
 10
-184.866867
 20
-80.042519
 11
-185.621887
 21
-79.287491
  0
LINE
  8
0
 10
-185.621887
 20
-81.787491
 11
-185.904724
 21
-81.504654
  0
LINE
  8
0
 10
-185.621887
 20
-79.287498
 11
-185.621887
 21
-74.287498
  0
LINE
  8
0
 10
-165.621887
 20
-79.287506
 11
-185.621887
 21
-79.287506
  0
LINE
  8
0
 10
-185.904739
 20
-81.504654
 11
-165.339050
 21
-81.504654
  0
LINE
  8
0
 10
-167.021881
 20
-80.254654
 11
-184.361893
 21
-80.254654
  0
ARC
  8
0
 10
-180.985794
 20
-66.459183
 40
1.263915
 50
324.813568
 51
35.186165
  0
ARC
  8
0
 10
-180.985794
 20
-62.115810
 40
1.263913
 50
324.813690
 51
35.186306
  0
ARC
  8
0
 10
-184.347946
 20
-64.287498
 40
4.626064
 50
341.819641
 51
18.180359
  0
ARC
  8
0
 10
-173.450195
 20
-24.423592
 40
1.263906
 50
234.814117
 51
305.186432
  0
ARC
  8
0
 10
-175.621872
 20
-21.061440
 40
4.626069
 50
251.819458
 51
288.180176
  0
ARC
  8
0
 10
-177.793564
 20
-24.051414
 40
1.263906
 50
54.814121
 51
125.186447
  0
ARC
  8
0
 10
-177.793564
 20
-24.423592
 40
1.263915
 50
234.813553
 51
305.185883
  0
ARC
  8
0
 10
-173.450195
 20
-24.051414
 40
1.263915
 50
54.813553
 51
125.185883
  0
ARC
  8
0
 10
-175.621887
 20
-27.413567
 40
4.626069
 50
71.819466
 51
83.795166
  0
ARC
  8
0
 10
-187.421890
 20
-63.212601
 40
0.200000
 50
97.593346
 51
180.000000
  0
ARC
  8
0
 10
-184.521881
 20
-65.637497
 40
0.099998
 50
90.000000
 51
180.000000
  0
ARC
  8
0
 10
-184.521881
 20
-62.937496
 40
0.100006
 50
180.000000
 51
270.000000
  0
ARC
  8
0
 10
-187.421890
 20
-65.362396
 40
0.199997
 50
180.000000
 51
262.406525
  0
ARC
  8
0
 10
-182.721893
 20
-62.937496
 40
0.100002
 50
270.000000
 51
0.000000
  0
ARC
  8
0
 10
-182.721893
 20
-65.637497
 40
0.100006
 50
0.000000
 51
90.000000
  0
ARC
  8
0
 10
-181.357971
 20
-62.115810
 40
1.263913
 50
144.813690
 51
215.186157
  0
ARC
  8
0
 10
-181.357971
 20
-66.459183
 40
1.263911
 50
144.813843
 51
215.186447
  0
ARC
  8
0
 10
-177.995819
 20
-64.287498
 40
4.626065
 50
161.819595
 51
198.180267
  0
ARC
  8
0
 10
-175.621887
 20
-27.413567
 40
4.626063
 50
96.204643
 51
108.180168
  0
CIRCLE
  8
0
 10
-181.121887
 20
-49.537498
 40
0.350000
  0
CIRCLE
  8
0
 10
-170.121887
 20
-49.537498
 40
0.350000
  0
CIRCLE
  8
0
 10
-170.121887
 20
-58.037498
 40
0.350000
  0
CIRCLE
  8
0
 10
-181.121887
 20
-58.037498
 40
0.350000
  0
CIRCLE
  8
0
 10
-181.127396
 20
-56.953392
 40
0.350000
  0
CIRCLE
  8
0
 10
-170.134094
 20
-57.337288
 40
0.350000
  0
CIRCLE
  8
0
 10
-170.116364
 20
-50.621605
 40
0.350000
  0
CIRCLE
  8
0
 10
-181.109665
 20
-50.237709
 40
0.350000
  0
ARC
  8
0
 10
-182.975616
 20
-39.825760
 40
4.361739
 50
235.885757
 51
304.114197
  0
ARC
  8
0
 10
-168.268143
 20
-39.825760
 40
4.361739
 50
235.885757
 51
304.114197
  0
ARC
  8
0
 10
-175.621887
 20
-27.768730
 40
16.418762
 50
252.608871
 51
287.391174
  0
ARC
  8
0
 10
-168.268143
 20
-43.549240
 40
4.361739
 50
55.885761
 51
124.114212
  0
ARC
  8
0
 10
-175.621887
 20
-55.606270
 40
16.418772
 50
72.608765
 51
107.391129
  0
ARC
  8
0
 10
-182.975616
 20
-43.549240
 40
4.361739
 50
55.885761
 51
124.114212
  0
ARC
  8
0
 10
-168.268143
 20
-38.549240
 40
4.361739
 50
55.885761
 51
124.114212
  0
ARC
  8
0
 10
-182.975616
 20
-38.549240
 40
4.361739
 50
55.885761
 51
124.114212
  0
ARC
  8
0
 10
-168.268143
 20
-34.825760
 40
4.361739
 50
235.885757
 51
304.114197
  0
ARC
  8
0
 10
-175.621887
 20
-50.606270
 40
16.418772
 50
72.608765
 51
107.391129
  0
ARC
  8
0
 10
-175.621872
 20
-22.768730
 40
16.418768
 50
252.608810
 51
287.391144
  0
ARC
  8
0
 10
-182.975616
 20
-34.825760
 40
4.361739
 50
235.885757
 51
304.114197
  0
ARC
  8
0
 10
-166.164780
 20
-80.254654
 40
0.299994
 50
135.000000
 51
225.001038
  0
ARC
  8
0
 10
-185.078995
 20
-80.254654
 40
0.299994
 50
315.000000
 51
45.000000
  0
POINT
  8
0
 10
-175.621887
 20
-123.062500
  0
POINT
  8
0
 10
-175.621887
 20
-123.062500
  0
POINT
  8
0
 10
-165.339050
 20
-123.062500
  0
LINE
  8
0
 10
-187.621887
 20
-124.137398
 11
-187.621887
 21
-121.987602
  0
LINE
  8
0
 10
-186.121887
 20
-124.512505
 11
-186.121887
 21
-121.612495
  0
LINE
  8
0
 10
-186.121887
 20
-124.312508
 11
-185.472549
 21
-124.399094
  0
LINE
  8
0
 10
-186.121887
 20
-121.812492
 11
-185.472534
 21
-121.725914
  0
LINE
  8
0
 10
-187.448318
 20
-124.335640
 11
-186.121887
 21
-124.512497
  0
LINE
  8
0
 10
-187.448334
 20
-121.789352
 11
-186.121887
 21
-121.612495
  0
LINE
  8
0
 10
-189.691711
 20
-123.062500
 11
-163.329407
 21
-123.062500
  0
LINE
  8
0
 10
-175.621887
 20
-133.276855
 11
-175.621887
 21
-112.431229
  0
LINE
  8
0
 10
-180.529373
 20
-131.562500
 11
-170.714417
 21
-131.562500
  0
LINE
  8
0
 10
-180.529358
 20
-114.562500
 11
-170.714401
 21
-114.562500
  0
LINE
  8
0
 10
-168.260666
 20
-118.812500
 11
-170.714417
 21
-114.562500
  0
LINE
  8
0
 10
-180.529373
 20
-131.562500
 11
-183.607071
 21
-126.231766
  0
LINE
  8
0
 10
-183.607071
 20
-119.893234
 11
-180.529358
 21
-114.562500
  0
LINE
  8
0
 10
-170.714401
 20
-131.562500
 11
-167.636703
 21
-126.231766
  0
LINE
  8
0
 10
-182.121887
 20
-119.562500
 11
-169.121887
 21
-119.562500
  0
LINE
  8
0
 10
-182.121887
 20
-126.562500
 11
-169.121887
 21
-126.562500
  0
LINE
  8
0
 10
-165.621887
 20
-123.062500
 11
-165.621887
 21
-123.062500
  0
LINE
  8
0
 10
-185.621887
 20
-123.062500
 11
-185.621887
 21
-123.062500
  0
LINE
  8
0
 10
-184.121887
 20
-123.062500
 11
-184.121887
 21
-123.062500
  0
LINE
  8
0
 10
-167.121887
 20
-123.062500
 11
-167.121887
 21
-123.062500
  0
LINE
  8
0
 10
-185.621887
 20
-123.062500
 11
-185.621887
 21
-123.062500
  0
LINE
  8
0
 10
-165.621887
 20
-123.062500
 11
-165.621887
 21
-123.062500
  0
LINE
  8
0
 10
-185.904724
 20
-123.062500
 11
-185.904724
 21
-123.062500
  0
LINE
  8
0
 10
-165.339050
 20
-123.062500
 11
-165.339050
 21
-123.062500
  0
LINE
  8
0
 10
-184.121887
 20
-123.062500
 11
-184.121887
 21
-123.062500
  0
LINE
  8
0
 10
-167.121887
 20
-123.062500
 11
-167.121887
 21
-123.062500
  0
LINE
  8
0
 10
-165.621887
 20
-123.062500
 11
-165.621887
 21
-123.062500
  0
LINE
  8
0
 10
-185.621887
 20
-123.062500
 11
-185.621887
 21
-123.062500
  0
LINE
  8
0
 10
-183.121887
 20
-125.562500
 11
-168.121887
 21
-125.562500
  0
LINE
  8
0
 10
-183.121887
 20
-120.562500
 11
-168.121887
 21
-120.562500
  0
LINE
  8
0
 10
-165.621887
 20
-123.062500
 11
-165.621887
 21
-123.062500
  0
LINE
  8
0
 10
-185.621887
 20
-123.062500
 11
-185.621887
 21
-123.062500
  0
LINE
  8
0
 10
-185.904724
 20
-123.062500
 11
-185.904724
 21
-123.062500
  0
LINE
  8
0
 10
-165.339050
 20
-123.062500
 11
-165.339050
 21
-123.062500
  0
LINE
  8
0
 10
-183.121887
 20
-125.845337
 11
-168.121887
 21
-125.845337
  0
LINE
  8
0
 10
-183.121887
 20
-120.279663
 11
-168.121887
 21
-120.279663
  0
ARC
  8
0
 10
-187.421890
 20
-121.987602
 40
0.199996
 50
97.593491
 51
180.000000
  0
ARC
  8
0
 10
-187.421890
 20
-124.137398
 40
0.199997
 50
180.000000
 51
262.406799
  0
ARC
  8
0
 10
-175.621887
 20
-123.062500
 40
8.500000
 50
90.000000
 51
157.719604
  0
ARC
  8
0
 10
-175.621887
 20
-123.062500
 40
8.500001
 50
22.280396
 51
90.000000
  0
ARC
  8
0
 10
-175.621887
 20
-123.062500
 40
8.500004
 50
202.280441
 51
337.719604
  0
ARC
  8
0
 10
-175.621887
 20
-123.062500
 40
7.000000
 50
90.000000
 51
150.000000
  0
ARC
  8
0
 10
-175.621887
 20
-123.062500
 40
7.000001
 50
210.000000
 51
329.999939
  0
ARC
  8
0
 10
-175.621887
 20
-123.062500
 40
7.000001
 50
29.999992
 51
90.000000
  0
CIRCLE
  8
0
 10
-175.621887
 20
-123.062500
 40
1.000000
  0
ARC
  8
0
 10
-169.121887
 20
-123.062500
 40
3.500000
 50
270.000000
 51
321.863556
  0
ARC
  8
0
 10
-182.121887
 20
-123.062500
 40
3.500000
 50
90.000000
 51
141.863571
  0
ARC
  8
0
 10
-182.121887
 20
-123.062500
 40
3.500005
 50
218.136536
 51
270.000000
  0
ARC
  8
0
 10
-169.121887
 20
-123.062500
 40
3.499996
 50
38.136337
 51
90.000000
  0
ARC
  8
0
 10
-168.121887
 20
-123.062500
 40
2.782845
 50
270.000000
 51
90.000000
  0
ARC
  8
0
 10
-168.121887
 20
-123.062500
 40
2.500000
 50
270.000000
 51
90.000000
  0
ARC
  8
0
 10
-183.121887
 20
-123.062500
 40
2.500000
 50
90.000000
 51
270.000000
  0
ARC
  8
0
 10
-183.121887
 20
-123.062500
 40
2.782845
 50
90.000000
 51
270.000000
  0
POINT
  8
0
 10
-105.203133
 20
-39.187500
  0
POINT
  8
0
 10
-95.403137
 20
-39.187500
  0
LINE
  8
0
 10
-112.703125
 20
-74.287498
 11
-112.703125
 21
-72.287498
  0
LINE
  8
0
 10
-97.703125
 20
-74.287498
 11
-97.703125
 21
-72.287498
  0
LINE
  8
0
 10
-112.703125
 20
-72.287498
 11
-97.703125
 21
-72.287498
  0
LINE
  8
0
 10
-111.453117
 20
-29.187500
 11
-98.953125
 21
-29.187500
  0
LINE
  8
0
 10
-120.337845
 20
-64.287498
 11
-106.536469
 21
-64.287498
  0
LINE
  8
0
 10
-109.303131
 20
-61.787506
 11
-109.534065
 21
-61.387508
  0
LINE
  8
0
 10
-109.303139
 20
-66.787498
 11
-109.534073
 21
-67.187492
  0
LINE
  8
0
 10
-102.703148
 20
-25.687481
 11
-102.303139
 21
-25.456539
  0
LINE
  8
0
 10
-103.759766
 20
-25.456566
 11
-103.759766
 21
-23.018440
  0
LINE
  8
0
 10
-107.374817
 20
-22.787498
 11
-105.703125
 21
-22.787498
  0
LINE
  8
0
 10
-107.703125
 20
-25.687492
 11
-108.103127
 21
-25.456551
  0
LINE
  8
0
 10
-108.103134
 20
-25.456566
 11
-108.103134
 21
-23.018440
  0
LINE
  8
0
 10
-102.303131
 20
-25.456566
 11
-102.303131
 21
-23.018440
  0
LINE
  8
0
 10
-106.646683
 20
-23.018433
 11
-106.646683
 21
-25.456558
  0
LINE
  8
0
 10
-102.403137
 20
-26.287498
 11
-102.403137
 21
-25.687500
  0
LINE
  8
0
 10
-108.003128
 20
-25.687500
 11
-102.403130
 21
-25.687500
  0
LINE
  8
0
 10
-108.003136
 20
-26.287498
 11
-108.003136
 21
-25.687500
  0
LINE
  8
0
 10
-105.203133
 20
-85.782333
 11
-105.203133
 21
-20.337494
  0
LINE
  8
0
 10
-117.203133
 20
-65.362396
 11
-117.203133
 21
-63.212601
  0
LINE
  8
0
 10
-115.703133
 20
-65.737503
 11
-115.703133
 21
-62.837498
  0
LINE
  8
0
 10
-114.203133
 20
-65.737503
 11
-114.203133
 21
-62.837494
  0
LINE
  8
0
 10
-115.703133
 20
-65.537491
 11
-114.203133
 21
-65.737488
  0
LINE
  8
0
 10
-115.703133
 20
-63.037487
 11
-114.203133
 21
-62.837486
  0
LINE
  8
0
 10
-117.029564
 20
-65.560638
 11
-115.703133
 21
-65.737495
  0
LINE
  8
0
 10
-117.029572
 20
-63.014347
 11
-115.703140
 21
-62.837486
  0
LINE
  8
0
 10
-114.103134
 20
-65.537498
 11
-112.303131
 21
-65.537498
  0
LINE
  8
0
 10
-114.103134
 20
-63.037498
 11
-112.303131
 21
-63.037498
  0
LINE
  8
0
 10
-112.203133
 20
-66.459183
 11
-112.203133
 21
-62.115810
  0
LINE
  8
0
 10
-109.534065
 20
-67.187500
 11
-111.972191
 21
-67.187500
  0
LINE
  8
0
 10
-109.534065
 20
-61.387497
 11
-111.972191
 21
-61.387497
  0
LINE
  8
0
 10
-109.534073
 20
-62.844124
 11
-111.972198
 21
-62.844124
  0
LINE
  8
0
 10
-111.972198
 20
-65.730934
 11
-109.534065
 21
-65.730934
  0
LINE
  8
0
 10
-109.303131
 20
-67.087494
 11
-109.303131
 21
-61.487499
  0
LINE
  8
0
 10
-108.703133
 20
-67.087494
 11
-109.303131
 21
-67.087494
  0
LINE
  8
0
 10
-108.703133
 20
-61.487499
 11
-109.303131
 21
-61.487499
  0
LINE
  8
0
 10
-105.703133
 20
-22.787498
 11
-105.703133
 21
-23.787498
  0
LINE
  8
0
 10
-105.703125
 20
-23.787498
 11
-104.703125
 21
-23.787498
  0
LINE
  8
0
 10
-104.703133
 20
-23.787498
 11
-104.703133
 21
-22.787498
  0
LINE
  8
0
 10
-104.703125
 20
-22.787498
 11
-103.031433
 21
-22.787498
  0
LINE
  8
0
 10
-98.203125
 20
-29.620502
 11
-98.953125
 21
-29.187489
  0
LINE
  8
0
 10
-112.203140
 20
-29.620489
 11
-111.453133
 21
-29.187471
  0
LINE
  8
0
  6
PHANTOM
 10
-98.203133
 20
-53.754486
 11
-98.203133
 21
-49.187500
  0
LINE
  8
0
  6
PHANTOM
 10
-112.203133
 20
-53.754486
 11
-112.203133
 21
-49.187500
  0
LINE
  8
0
  6
PHANTOM
 10
-98.953133
 20
-54.187500
 11
-98.953133
 21
-49.187500
  0
LINE
  8
0
  6
PHANTOM
 10
-111.453133
 20
-54.187500
 11
-111.453133
 21
-49.187500
  0
LINE
  8
0
  6
PHANTOM
 10
-98.953140
 20
-54.187489
 11
-98.203140
 21
-53.754475
  0
LINE
  8
0
  6
PHANTOM
 10
-111.453117
 20
-54.187489
 11
-112.203125
 21
-53.754475
  0
LINE
  8
0
  6
PHANTOM
 10
-111.453125
 20
-54.187500
 11
-98.953133
 21
-54.187500
  0
LINE
  8
0
 10
-101.703133
 20
-26.287498
 11
-101.703133
 21
-28.587502
  0
LINE
  8
0
 10
-100.553123
 20
-28.587502
 11
-109.853127
 21
-28.587502
  0
LINE
  8
0
 10
-108.703133
 20
-28.587502
 11
-108.703133
 21
-26.287498
  0
LINE
  8
0
 10
-108.703125
 20
-26.287498
 11
-101.703125
 21
-26.287498
  0
LINE
  8
0
 10
-100.553131
 20
-28.587502
 11
-100.553131
 21
-29.187500
  0
LINE
  8
0
 10
-109.853134
 20
-28.587502
 11
-109.853134
 21
-29.187500
  0
LINE
  8
0
 10
-111.203133
 20
-59.187500
 11
-99.203133
 21
-59.187500
  0
LINE
  8
0
 10
-111.203133
 20
-58.387505
 11
-99.203133
 21
-58.387505
  0
LINE
  8
0
 10
-111.203133
 20
-59.187500
 11
-111.203133
 21
-58.387505
  0
LINE
  8
0
 10
-99.203133
 20
-59.187500
 11
-99.203133
 21
-58.387505
  0
LINE
  8
0
 10
-110.703133
 20
-60.837502
 11
-110.703133
 21
-48.037498
  0
LINE
  8
0
 10
-99.703133
 20
-60.704166
 11
-99.703133
 21
-47.904167
  0
LINE
  8
0
  6
PHANTOM
 10
-99.365349
 20
-57.337288
 11
-99.365349
 21
-50.645599
  0
LINE
  8
0
  6
PHANTOM
 10
-100.065346
 20
-57.337288
 11
-100.065346
 21
-50.582710
  0
LINE
  8
0
  6
PHANTOM
 10
-110.358650
 20
-56.953392
 11
-110.358650
 21
-50.347702
  0
LINE
  8
0
  6
PHANTOM
 10
-111.058647
 20
-56.953392
 11
-111.058647
 21
-50.268272
  0
LINE
  8
0
 10
-101.703133
 20
-72.287498
 11
-101.703133
 21
-59.187500
  0
LINE
  8
0
 10
-108.703133
 20
-72.287498
 11
-108.703133
 21
-59.187500
  0
LINE
  8
0
 10
-113.703148
 20
-44.187538
 11
-115.003143
 21
-43.436974
  0
LINE
  8
0
 10
-113.703087
 20
-39.187553
 11
-115.003090
 21
-39.938114
  0
LINE
  8
0
 10
-115.003128
 20
-43.436935
 11
-115.003128
 21
-39.938065
  0
LINE
  8
0
 10
-113.703125
 20
-44.187500
 11
-96.703110
 21
-44.187500
  0
LINE
  8
0
 10
-113.703125
 20
-39.187500
 11
-96.703094
 21
-39.187500
  0
LINE
  8
0
 10
-96.703110
 20
-44.187531
 11
-95.403114
 21
-43.436974
  0
LINE
  8
0
 10
-95.403137
 20
-43.436935
 11
-95.403137
 21
-39.938065
  0
LINE
  8
0
 10
-96.703133
 20
-39.187496
 11
-95.403137
 21
-39.938053
  0
LINE
  8
0
 10
-113.703102
 20
-39.187511
 11
-115.003098
 21
-39.938068
  0
LINE
  8
0
 10
-100.295654
 20
-43.436935
 11
-100.295654
 21
-39.938065
  0
LINE
  8
0
 10
-110.110611
 20
-43.436935
 11
-110.110611
 21
-39.938065
  0
LINE
  8
0
 10
-113.703140
 20
-39.187542
 11
-115.003143
 21
-38.436981
  0
LINE
  8
0
 10
-113.703110
 20
-34.187538
 11
-115.003113
 21
-34.938103
  0
LINE
  8
0
 10
-115.003128
 20
-38.436935
 11
-115.003128
 21
-34.938065
  0
LINE
  8
0
 10
-113.703125
 20
-39.187500
 11
-96.703110
 21
-39.187500
  0
LINE
  8
0
 10
-113.703125
 20
-34.187500
 11
-96.703094
 21
-34.187500
  0
LINE
  8
0
 10
-96.703110
 20
-39.187515
 11
-95.403122
 21
-38.436958
  0
LINE
  8
0
 10
-95.403137
 20
-38.436935
 11
-95.403137
 21
-34.938065
  0
LINE
  8
0
 10
-96.703133
 20
-34.187485
 11
-95.403137
 21
-34.938042
  0
LINE
  8
0
 10
-113.703110
 20
-34.187519
 11
-115.003113
 21
-34.938076
  0
LINE
  8
0
 10
-100.295654
 20
-38.436935
 11
-100.295654
 21
-34.938065
  0
LINE
  8
0
 10
-110.110611
 20
-38.436935
 11
-110.110611
 21
-34.938065
  0
LINE
  8
0
 10
-98.953133
 20
-34.187500
 11
-98.953133
 21
-29.187500
  0
LINE
  8
0
 10
-98.203133
 20
-34.187500
 11
-98.203133
 21
-29.620514
  0
LINE
  8
0
 10
-111.453133
 20
-34.187500
 11
-111.453133
 21
-29.187500
  0
LINE
  8
0
 10
-112.203133
 20
-34.187500
 11
-112.203133
 21
-29.620514
  0
LINE
  8
0
  6
PHANTOM
 10
-112.203133
 20
-53.754486
 11
-98.203133
 21
-53.754486
  0
LINE
  8
0
 10
-112.203125
 20
-29.620514
 11
-98.203125
 21
-29.620514
  0
LINE
  8
0
 10
-108.703133
 20
-72.287498
 11
-101.703133
 21
-72.287498
  0
LINE
  8
0
 10
-108.703133
 20
-57.687500
 11
-108.703133
 21
-57.373634
  0
LINE
  8
0
 10
-110.703133
 20
-57.687500
 11
-99.703133
 21
-57.687500
  0
LINE
  8
0
 10
-99.703133
 20
-57.687923
 11
-110.703133
 21
-57.303795
  0
LINE
  8
0
 10
-99.703133
 20
-56.987488
 11
-110.703133
 21
-56.603355
  0
LINE
  8
0
 10
-101.703133
 20
-56.917656
 11
-101.703133
 21
-50.901779
  0
LINE
  8
0
 10
-108.703133
 20
-56.673210
 11
-108.703133
 21
-50.657333
  0
LINE
  8
0
 10
-99.703125
 20
-50.971615
 11
-110.703125
 21
-50.587482
  0
LINE
  8
0
 10
-99.703125
 20
-50.271183
 11
-110.703125
 21
-49.887054
  0
LINE
  8
0
 10
-110.703125
 20
-49.887497
 11
-99.703125
 21
-49.887497
  0
LINE
  8
0
 10
-101.703133
 20
-50.201355
 11
-101.703133
 21
-49.887497
  0
LINE
  8
0
 10
-98.953140
 20
-49.187492
 11
-98.203133
 21
-48.754478
  0
LINE
  8
0
 10
-98.953133
 20
-49.187500
 11
-98.953133
 21
-44.187500
  0
LINE
  8
0
 10
-98.203133
 20
-48.754486
 11
-98.203133
 21
-44.187500
  0
LINE
  8
0
 10
-112.203125
 20
-48.754486
 11
-98.203125
 21
-48.754486
  0
LINE
  8
0
 10
-111.453125
 20
-49.187500
 11
-98.953133
 21
-49.187500
  0
LINE
  8
0
 10
-111.453110
 20
-49.187485
 11
-112.203117
 21
-48.754471
  0
LINE
  8
0
 10
-112.203133
 20
-48.754486
 11
-112.203133
 21
-44.187500
  0
LINE
  8
0
 10
-111.453133
 20
-49.187500
 11
-111.453133
 21
-44.187500
  0
LINE
  8
0
 10
-115.203133
 20
-81.787498
 11
-95.203133
 21
-81.787498
  0
LINE
  8
0
 10
-95.203140
 20
-81.787498
 11
-94.920296
 21
-81.504654
  0
LINE
  8
0
 10
-94.920296
 20
-81.504654
 11
-95.958160
 21
-80.466789
  0
LINE
  8
0
 10
-115.203133
 20
-74.287498
 11
-95.203133
 21
-74.287498
  0
LINE
  8
0
 10
-95.203133
 20
-79.287498
 11
-95.203133
 21
-74.287498
  0
LINE
  8
0
 10
-95.958160
 20
-80.042526
 11
-95.203133
 21
-79.287498
  0
LINE
  8
0
 10
-115.485977
 20
-81.504654
 11
-114.448105
 21
-80.466782
  0
LINE
  8
0
 10
-114.448105
 20
-80.042519
 11
-115.203133
 21
-79.287491
  0
LINE
  8
0
 10
-115.203133
 20
-81.787491
 11
-115.485977
 21
-81.504654
  0
LINE
  8
0
 10
-115.203133
 20
-79.287498
 11
-115.203133
 21
-74.287498
  0
LINE
  8
0
 10
-95.203133
 20
-79.287506
 11
-115.203140
 21
-79.287506
  0
LINE
  8
0
 10
-115.485977
 20
-81.504654
 11
-94.920288
 21
-81.504654
  0
LINE
  8
0
 10
-96.603134
 20
-80.254654
 11
-113.943130
 21
-80.254654
  0
ARC
  8
0
 10
-110.567039
 20
-66.459183
 40
1.263915
 50
324.813568
 51
35.186165
  0
ARC
  8
0
 10
-110.567039
 20
-62.115810
 40
1.263913
 50
324.813690
 51
35.186306
  0
ARC
  8
0
 10
-113.929199
 20
-64.287498
 40
4.626064
 50
341.819641
 51
18.180359
  0
ARC
  8
0
 10
-103.031433
 20
-24.423592
 40
1.263915
 50
234.813553
 51
305.186157
  0
ARC
  8
0
 10
-105.203125
 20
-21.061440
 40
4.626064
 50
251.819641
 51
288.180359
  0
ARC
  8
0
 10
-107.374817
 20
-24.051414
 40
1.263915
 50
54.813553
 51
125.186165
  0
ARC
  8
0
 10
-107.374817
 20
-24.423592
 40
1.263911
 50
234.813843
 51
305.186432
  0
ARC
  8
0
 10
-103.031433
 20
-24.051414
 40
1.263911
 50
54.813835
 51
125.186447
  0
ARC
  8
0
 10
-105.203125
 20
-27.413567
 40
4.626064
 50
71.819641
 51
83.795166
  0
ARC
  8
0
 10
-117.003136
 20
-63.212601
 40
0.200001
 50
97.595512
 51
180.000000
  0
ARC
  8
0
 10
-114.103134
 20
-65.637497
 40
0.099998
 50
90.000000
 51
180.000000
  0
ARC
  8
0
 10
-114.103134
 20
-62.937496
 40
0.099998
 50
180.000000
 51
270.000000
  0
ARC
  8
0
 10
-117.003136
 20
-65.362396
 40
0.199997
 50
180.000000
 51
262.404358
  0
ARC
  8
0
 10
-112.303131
 20
-62.937496
 40
0.100002
 50
270.000000
 51
0.000000
  0
ARC
  8
0
 10
-112.303131
 20
-65.637497
 40
0.099998
 50
0.000000
 51
90.000000
  0
ARC
  8
0
 10
-110.939217
 20
-62.115810
 40
1.263913
 50
144.813690
 51
215.185959
  0
ARC
  8
0
 10
-110.939217
 20
-66.459183
 40
1.263911
 50
144.813843
 51
215.186249
  0
ARC
  8
0
 10
-107.577065
 20
-64.287498
 40
4.626065
 50
161.819595
 51
198.180237
  0
ARC
  8
0
 10
-105.203125
 20
-27.413567
 40
4.626065
 50
96.204834
 51
108.180351
  0
CIRCLE
  8
0
 10
-110.703125
 20
-49.537498
 40
0.350000
  0
CIRCLE
  8
0
 10
-99.703125
 20
-49.537498
 40
0.350000
  0
CIRCLE
  8
0
 10
-99.703133
 20
-58.037498
 40
0.350000
  0
CIRCLE
  8
0
 10
-110.703133
 20
-58.037498
 40
0.350000
  0
CIRCLE
  8
0
 10
-110.708649
 20
-56.953392
 40
0.350000
  0
CIRCLE
  8
0
 10
-99.715347
 20
-57.337288
 40
0.350000
  0
CIRCLE
  8
0
 10
-99.697609
 20
-50.621605
 40
0.350000
  0
CIRCLE
  8
0
 10
-110.690910
 20
-50.237709
 40
0.350000
  0
ARC
  8
0
 10
-112.556862
 20
-39.825760
 40
4.361743
 50
235.885681
 51
304.114197
  0
ARC
  8
0
 10
-97.849388
 20
-39.825760
 40
4.361743
 50
235.885681
 51
304.114197
  0
ARC
  8
0
 10
-105.203125
 20
-27.768730
 40
16.418768
 50
252.608810
 51
287.391144
  0
ARC
  8
0
 10
-97.849388
 20
-43.549240
 40
4.361739
 50
55.885761
 51
124.114212
  0
ARC
  8
0
 10
-105.203125
 20
-55.606270
 40
16.418768
 50
72.608818
 51
107.391129
  0
ARC
  8
0
 10
-112.556862
 20
-43.549240
 40
4.361739
 50
55.885761
 51
124.114212
  0
ARC
  8
0
 10
-97.849388
 20
-38.549240
 40
4.361739
 50
55.885761
 51
124.114212
  0
ARC
  8
0
 10
-112.556862
 20
-38.549240
 40
4.361739
 50
55.885761
 51
124.114212
  0
ARC
  8
0
 10
-97.849388
 20
-34.825760
 40
4.361743
 50
235.885681
 51
304.114197
  0
ARC
  8
0
 10
-105.203125
 20
-50.606270
 40
16.418768
 50
72.608818
 51
107.391129
  0
ARC
  8
0
 10
-105.203125
 20
-22.768730
 40
16.418768
 50
252.608810
 51
287.391144
  0
ARC
  8
0
 10
-112.556862
 20
-34.825760
 40
4.361743
 50
235.885681
 51
304.114197
  0
ARC
  8
0
 10
-95.746025
 20
-80.254654
 40
0.299999
 50
135.001038
 51
225.000000
  0
ARC
  8
0
 10
-114.660240
 20
-80.254654
 40
0.299999
 50
315.001038
 51
44.998970
  0
POINT
  8
0
 10
-105.203133
 20
-123.062500
  0
POINT
  8
0
 10
-94.920288
 20
-123.062500
  0
LINE
  8
0
 10
-117.203133
 20
-124.137398
 11
-117.203133
 21
-121.987602
  0
LINE
  8
0
 10
-115.703133
 20
-124.512505
 11
-115.703133
 21
-121.612495
  0
LINE
  8
0
 10
-115.703140
 20
-124.312508
 11
-115.053787
 21
-124.399094
  0
LINE
  8
0
 10
-115.703133
 20
-121.812492
 11
-115.053772
 21
-121.725914
  0
LINE
  8
0
 10
-117.029572
 20
-124.335640
 11
-115.703140
 21
-124.512497
  0
LINE
  8
0
 10
-117.029572
 20
-121.789352
 11
-115.703140
 21
-121.612495
  0
LINE
  8
0
 10
-119.272949
 20
-123.062500
 11
-92.910660
 21
-123.062500
  0
LINE
  8
0
 10
-105.203133
 20
-133.276855
 11
-105.203133
 21
-112.431229
  0
LINE
  8
0
 10
-110.110611
 20
-131.562500
 11
-100.295654
 21
-131.562500
  0
LINE
  8
0
 10
-110.110611
 20
-114.562500
 11
-100.295654
 21
-114.562500
  0
LINE
  8
0
 10
-97.841919
 20
-118.812500
 11
-100.295654
 21
-114.562500
  0
LINE
  8
0
 10
-110.110619
 20
-131.562500
 11
-113.188316
 21
-126.231766
  0
LINE
  8
0
 10
-113.188309
 20
-119.893234
 11
-110.110611
 21
-114.562500
  0
LINE
  8
0
 10
-100.295654
 20
-131.562500
 11
-97.217949
 21
-126.231766
  0
LINE
  8
0
 10
-95.203133
 20
-123.062500
 11
-95.203133
 21
-123.062500
  0
LINE
  8
0
 10
-115.203133
 20
-123.062500
 11
-115.203133
 21
-123.062500
  0
LINE
  8
0
 10
-113.703133
 20
-123.062500
 11
-113.703133
 21
-123.062500
  0
LINE
  8
0
 10
-96.703133
 20
-123.062500
 11
-96.703133
 21
-123.062500
  0
LINE
  8
0
 10
-115.203133
 20
-123.062500
 11
-115.203133
 21
-123.062500
  0
LINE
  8
0
 10
-95.203133
 20
-123.062500
 11
-95.203133
 21
-123.062500
  0
LINE
  8
0
 10
-115.485977
 20
-123.062500
 11
-115.485977
 21
-123.062500
  0
LINE
  8
0
 10
-94.920288
 20
-123.062500
 11
-94.920288
 21
-123.062500
  0
LINE
  8
0
 10
-113.703133
 20
-123.062500
 11
-113.703133
 21
-123.062500
  0
LINE
  8
0
 10
-96.703133
 20
-123.062500
 11
-96.703133
 21
-123.062500
  0
LINE
  8
0
 10
-95.203133
 20
-123.062500
 11
-95.203133
 21
-123.062500
  0
LINE
  8
0
 10
-115.203133
 20
-123.062500
 11
-115.203133
 21
-123.062500
  0
LINE
  8
0
 10
-95.203133
 20
-123.062500
 11
-95.203133
 21
-123.062500
  0
LINE
  8
0
 10
-115.203133
 20
-123.062500
 11
-115.203133
 21
-123.062500
  0
LINE
  8
0
 10
-115.485977
 20
-123.062500
 11
-115.485977
 21
-123.062500
  0
LINE
  8
0
 10
-94.920296
 20
-123.062500
 11
-94.920296
 21
-123.062500
  0
LINE
  8
0
 10
-115.203133
 20
-123.062500
 11
-115.203133
 21
-123.062500
  0
LINE
  8
0
 10
-95.203133
 20
-123.062500
 11
-95.203133
 21
-123.062500
  0
LINE
  8
0
 10
-112.203133
 20
-126.062500
 11
-98.203133
 21
-126.062500
  0
LINE
  8
0
 10
-112.203133
 20
-120.062500
 11
-98.203133
 21
-120.062500
  0
LINE
  8
0
 10
-112.203133
 20
-126.345337
 11
-98.203133
 21
-126.345337
  0
LINE
  8
0
 10
-112.203133
 20
-119.779663
 11
-98.203133
 21
-119.779663
  0
LINE
  8
0
 10
-111.803131
 20
-124.962502
 11
-98.603134
 21
-124.962502
  0
LINE
  8
0
 10
-111.803131
 20
-121.162498
 11
-98.603134
 21
-121.162498
  0
LINE
  8
0
 10
-96.703133
 20
-123.062500
 11
-96.703133
 21
-123.062500
  0
LINE
  8
0
 10
-113.703133
 20
-123.062500
 11
-113.703133
 21
-123.062500
  0
LINE
  8
0
 10
-94.920288
 20
-123.062500
 11
-94.920288
 21
-123.062500
  0
LINE
  8
0
 10
-115.485977
 20
-123.062500
 11
-115.485977
 21
-123.062500
  0
ARC
  8
0
 10
-117.003136
 20
-121.987602
 40
0.199997
 50
97.595657
 51
180.000000
  0
ARC
  8
0
 10
-117.003136
 20
-124.137398
 40
0.199997
 50
180.000000
 51
262.404633
  0
ARC
  8
0
 10
-105.203133
 20
-123.062500
 40
8.500000
 50
90.000000
 51
157.719604
  0
ARC
  8
0
 10
-105.203133
 20
-123.062500
 40
8.500001
 50
22.280396
 51
90.000000
  0
ARC
  8
0
 10
-105.203133
 20
-123.062500
 40
8.499997
 50
202.280457
 51
337.719604
  0
ARC
  8
0
 10
-105.203133
 20
-123.062500
 40
7.000000
 50
90.000000
 51
150.000000
  0
ARC
  8
0
 10
-105.203133
 20
-123.062500
 40
7.000001
 50
210.000000
 51
329.999908
  0
ARC
  8
0
 10
-105.203133
 20
-123.062500
 40
7.000001
 50
29.999992
 51
90.000000
  0
CIRCLE
  8
0
 10
-105.203133
 20
-123.062500
 40
1.000000
  0
ARC
  8
0
 10
-111.803131
 20
-123.062500
 40
1.900002
 50
90.000000
 51
270.000000
  0
ARC
  8
0
 10
-98.603134
 20
-123.062500
 40
1.900002
 50
270.000000
 51
90.000000
  0
ARC
  8
0
 10
-98.203133
 20
-123.062500
 40
3.000000
 50
270.000000
 51
90.000000
  0
ARC
  8
0
 10
-112.203133
 20
-123.062500
 40
3.000000
 50
90.000000
 51
270.000000
  0
ARC
  8
0
 10
-112.203133
 20
-123.062500
 40
3.282845
 50
90.000000
 51
269.999878
  0
ARC
  8
0
 10
-98.203133
 20
-123.062500
 40
3.282845
 50
270.000000
 51
90.000000
  0
POINT
  8
0
 10
-34.784386
 20
-39.187500
  0
POINT
  8
0
 10
-24.984386
 20
-39.187500
  0
LINE
  8
0
 10
-42.284382
 20
-74.287498
 11
-42.284382
 21
-72.287498
  0
LINE
  8
0
 10
-27.284382
 20
-74.287498
 11
-27.284382
 21
-72.287498
  0
LINE
  8
0
 10
-42.284382
 20
-72.287498
 11
-27.284382
 21
-72.287498
  0
LINE
  8
0
 10
-41.034370
 20
-29.187500
 11
-28.534378
 21
-29.187500
  0
LINE
  8
0
 10
-49.294575
 20
-64.287498
 11
-36.117718
 21
-64.287498
  0
LINE
  8
0
 10
-38.884384
 20
-61.787506
 11
-39.115322
 21
-61.387508
  0
LINE
  8
0
 10
-38.884392
 20
-66.787498
 11
-39.115326
 21
-67.187492
  0
LINE
  8
0
 10
-32.284397
 20
-25.687481
 11
-31.884396
 21
-25.456539
  0
LINE
  8
0
 10
-33.341015
 20
-25.456566
 11
-33.341015
 21
-23.018440
  0
LINE
  8
0
 10
-36.956066
 20
-22.787498
 11
-35.284378
 21
-22.787498
  0
LINE
  8
0
 10
-37.284378
 20
-25.687492
 11
-37.684380
 21
-25.456551
  0
LINE
  8
0
 10
-37.684387
 20
-25.456566
 11
-37.684387
 21
-23.018440
  0
LINE
  8
0
 10
-31.884386
 20
-25.456566
 11
-31.884386
 21
-23.018440
  0
LINE
  8
0
 10
-36.227940
 20
-23.018433
 11
-36.227940
 21
-25.456558
  0
LINE
  8
0
 10
-31.984386
 20
-26.287498
 11
-31.984386
 21
-25.687500
  0
LINE
  8
0
 10
-37.584381
 20
-25.687500
 11
-31.984379
 21
-25.687500
  0
LINE
  8
0
 10
-37.584389
 20
-26.287498
 11
-37.584389
 21
-25.687500
  0
LINE
  8
0
 10
-34.784386
 20
-85.782333
 11
-34.784386
 21
-20.337494
  0
LINE
  8
0
 10
-46.784386
 20
-65.362396
 11
-46.784386
 21
-63.212601
  0
LINE
  8
0
 10
-45.284386
 20
-65.737503
 11
-45.284386
 21
-62.837498
  0
LINE
  8
0
 10
-43.784386
 20
-65.737503
 11
-43.784386
 21
-62.837494
  0
LINE
  8
0
 10
-45.284389
 20
-65.537491
 11
-43.784386
 21
-65.737488
  0
LINE
  8
0
 10
-45.284389
 20
-63.037487
 11
-43.784389
 21
-62.837486
  0
LINE
  8
0
 10
-46.610821
 20
-65.560638
 11
-45.284386
 21
-65.737495
  0
LINE
  8
0
 10
-46.610825
 20
-63.014347
 11
-45.284389
 21
-62.837486
  0
LINE
  8
0
 10
-43.684387
 20
-65.537498
 11
-41.884388
 21
-65.537498
  0
LINE
  8
0
 10
-43.684387
 20
-63.037498
 11
-41.884388
 21
-63.037498
  0
LINE
  8
0
 10
-41.784386
 20
-66.459183
 11
-41.784386
 21
-62.115810
  0
LINE
  8
0
 10
-39.115322
 20
-67.187500
 11
-41.553448
 21
-67.187500
  0
LINE
  8
0
 10
-39.115322
 20
-61.387497
 11
-41.553448
 21
-61.387497
  0
LINE
  8
0
 10
-39.115326
 20
-62.844124
 11
-41.553452
 21
-62.844124
  0
LINE
  8
0
 10
-41.553452
 20
-65.730934
 11
-39.115322
 21
-65.730934
  0
LINE
  8
0
 10
-38.884384
 20
-67.087494
 11
-38.884384
 21
-61.487499
  0
LINE
  8
0
 10
-38.284386
 20
-67.087494
 11
-38.884384
 21
-67.087494
  0
LINE
  8
0
 10
-38.284386
 20
-61.487499
 11
-38.884384
 21
-61.487499
  0
LINE
  8
0
 10
-35.284386
 20
-22.787498
 11
-35.284386
 21
-23.787498
  0
LINE
  8
0
 10
-35.284378
 20
-23.787498
 11
-34.284378
 21
-23.787498
  0
LINE
  8
0
 10
-34.284386
 20
-23.787498
 11
-34.284386
 21
-22.787498
  0
LINE
  8
0
 10
-34.284378
 20
-22.787498
 11
-32.612690
 21
-22.787498
  0
LINE
  8
0
 10
-27.784380
 20
-29.620502
 11
-28.534382
 21
-29.187489
  0
LINE
  8
0
 10
-41.784397
 20
-29.620487
 11
-41.034389
 21
-29.187469
  0
LINE
  8
0
  6
PHANTOM
 10
-27.784386
 20
-53.754486
 11
-27.784386
 21
-49.187500
  0
LINE
  8
0
  6
PHANTOM
 10
-41.784386
 20
-53.754486
 11
-41.784386
 21
-49.187500
  0
LINE
  8
0
  6
PHANTOM
 10
-28.534386
 20
-54.187500
 11
-28.534386
 21
-49.187500
  0
LINE
  8
0
  6
PHANTOM
 10
-41.034386
 20
-54.187500
 11
-41.034386
 21
-49.187500
  0
LINE
  8
0
  6
PHANTOM
 10
-28.534397
 20
-54.187489
 11
-27.784395
 21
-53.754475
  0
LINE
  8
0
  6
PHANTOM
 10
-41.034374
 20
-54.187489
 11
-41.784374
 21
-53.754475
  0
LINE
  8
0
  6
PHANTOM
 10
-41.034378
 20
-54.187500
 11
-28.534386
 21
-54.187500
  0
LINE
  8
0
 10
-31.284386
 20
-26.287498
 11
-31.284386
 21
-28.587502
  0
LINE
  8
0
 10
-30.134378
 20
-28.587502
 11
-39.434380
 21
-28.587502
  0
LINE
  8
0
 10
-38.284386
 20
-28.587502
 11
-38.284386
 21
-26.287498
  0
LINE
  8
0
 10
-38.284378
 20
-26.287498
 11
-31.284378
 21
-26.287498
  0
LINE
  8
0
 10
-30.134386
 20
-28.587502
 11
-30.134386
 21
-29.187500
  0
LINE
  8
0
 10
-39.434387
 20
-28.587502
 11
-39.434387
 21
-29.187500
  0
LINE
  8
0
 10
-40.784386
 20
-59.187500
 11
-28.784386
 21
-59.187500
  0
LINE
  8
0
 10
-40.784386
 20
-58.387505
 11
-28.784384
 21
-58.387505
  0
LINE
  8
0
 10
-40.784386
 20
-59.187500
 11
-40.784386
 21
-58.387505
  0
LINE
  8
0
 10
-28.784386
 20
-59.187500
 11
-28.784386
 21
-58.387505
  0
LINE
  8
0
 10
-40.284386
 20
-60.837502
 11
-40.284386
 21
-48.037498
  0
LINE
  8
0
 10
-29.284386
 20
-60.704166
 11
-29.284386
 21
-47.904167
  0
LINE
  8
0
  6
PHANTOM
 10
-28.946600
 20
-57.337288
 11
-28.946600
 21
-50.645599
  0
LINE
  8
0
  6
PHANTOM
 10
-29.646601
 20
-57.337288
 11
-29.646601
 21
-50.582710
  0
LINE
  8
0
  6
PHANTOM
 10
-39.939903
 20
-56.953392
 11
-39.939903
 21
-50.347702
  0
LINE
  8
0
  6
PHANTOM
 10
-40.639900
 20
-56.953392
 11
-40.639900
 21
-50.268272
  0
LINE
  8
0
 10
-31.284386
 20
-72.287498
 11
-31.284386
 21
-59.187500
  0
LINE
  8
0
 10
-38.284386
 20
-72.287498
 11
-38.284386
 21
-59.187500
  0
LINE
  8
0
 10
-43.284401
 20
-44.187534
 11
-44.584400
 21
-43.436974
  0
LINE
  8
0
 10
-43.284340
 20
-39.187553
 11
-44.584339
 21
-39.938114
  0
LINE
  8
0
 10
-44.584385
 20
-43.436935
 11
-44.584385
 21
-39.938065
  0
LINE
  8
0
 10
-43.284378
 20
-44.187500
 11
-26.284365
 21
-44.187500
  0
LINE
  8
0
 10
-43.284374
 20
-39.187500
 11
-26.284348
 21
-39.187500
  0
LINE
  8
0
 10
-26.284365
 20
-44.187531
 11
-24.984369
 21
-43.436974
  0
LINE
  8
0
 10
-24.984386
 20
-43.436935
 11
-24.984386
 21
-39.938065
  0
LINE
  8
0
 10
-26.284386
 20
-39.187496
 11
-24.984392
 21
-39.938053
  0
LINE
  8
0
 10
-43.284355
 20
-39.187511
 11
-44.584351
 21
-39.938068
  0
LINE
  8
0
 10
-29.876907
 20
-43.436935
 11
-29.876907
 21
-39.938065
  0
LINE
  8
0
 10
-39.691864
 20
-43.436935
 11
-39.691864
 21
-39.938065
  0
LINE
  8
0
 10
-43.284397
 20
-39.187542
 11
-44.584396
 21
-38.436981
  0
LINE
  8
0
 10
-43.284359
 20
-34.187538
 11
-44.584362
 21
-34.938103
  0
LINE
  8
0
 10
-44.584385
 20
-38.436935
 11
-44.584385
 21
-34.938065
  0
LINE
  8
0
 10
-43.284374
 20
-39.187500
 11
-26.284363
 21
-39.187500
  0
LINE
  8
0
 10
-43.284374
 20
-34.187500
 11
-26.284348
 21
-34.187500
  0
LINE
  8
0
 10
-26.284367
 20
-39.187515
 11
-24.984371
 21
-38.436958
  0
LINE
  8
0
 10
-24.984386
 20
-38.436935
 11
-24.984386
 21
-34.938065
  0
LINE
  8
0
 10
-26.284388
 20
-34.187485
 11
-24.984394
 21
-34.938042
  0
LINE
  8
0
 10
-43.284363
 20
-34.187519
 11
-44.584362
 21
-34.938076
  0
LINE
  8
0
 10
-29.876907
 20
-38.436935
 11
-29.876907
 21
-34.938065
  0
LINE
  8
0
 10
-39.691864
 20
-38.436935
 11
-39.691864
 21
-34.938065
  0
LINE
  8
0
 10
-28.534386
 20
-34.187500
 11
-28.534386
 21
-29.187500
  0
LINE
  8
0
 10
-27.784386
 20
-34.187500
 11
-27.784386
 21
-29.620514
  0
LINE
  8
0
 10
-41.034386
 20
-34.187500
 11
-41.034386
 21
-29.187500
  0
LINE
  8
0
 10
-41.784386
 20
-34.187500
 11
-41.784386
 21
-29.620514
  0
LINE
  8
0
  6
PHANTOM
 10
-41.784382
 20
-53.754486
 11
-27.784382
 21
-53.754486
  0
LINE
  8
0
 10
-41.784378
 20
-29.620514
 11
-27.784378
 21
-29.620514
  0
LINE
  8
0
 10
-38.284386
 20
-72.287498
 11
-31.284386
 21
-72.287498
  0
LINE
  8
0
 10
-38.284386
 20
-57.687500
 11
-38.284386
 21
-57.373634
  0
LINE
  8
0
 10
-40.284386
 20
-57.687500
 11
-29.284384
 21
-57.687500
  0
LINE
  8
0
 10
-29.284384
 20
-57.687923
 11
-40.284386
 21
-57.303795
  0
LINE
  8
0
 10
-29.284384
 20
-56.987488
 11
-40.284386
 21
-56.603355
  0
LINE
  8
0
 10
-31.284386
 20
-56.917656
 11
-31.284386
 21
-50.901779
  0
LINE
  8
0
 10
-38.284386
 20
-56.673210
 11
-38.284386
 21
-50.657333
  0
LINE
  8
0
 10
-29.284382
 20
-50.971615
 11
-40.284382
 21
-50.587482
  0
LINE
  8
0
 10
-29.284380
 20
-50.271183
 11
-40.284378
 21
-49.887054
  0
LINE
  8
0
 10
-40.284378
 20
-49.887497
 11
-29.284380
 21
-49.887497
  0
LINE
  8
0
 10
-31.284386
 20
-50.201355
 11
-31.284386
 21
-49.887497
  0
LINE
  8
0
 10
-28.534389
 20
-49.187492
 11
-27.784389
 21
-48.754478
  0
LINE
  8
0
 10
-28.534386
 20
-49.187500
 11
-28.534386
 21
-44.187500
  0
LINE
  8
0
 10
-27.784386
 20
-48.754486
 11
-27.784386
 21
-44.187500
  0
LINE
  8
0
 10
-41.784378
 20
-48.754486
 11
-27.784380
 21
-48.754486
  0
LINE
  8
0
 10
-41.034378
 20
-49.187500
 11
-28.534384
 21
-49.187500
  0
LINE
  8
0
 10
-41.034367
 20
-49.187485
 11
-41.784367
 21
-48.754471
  0
LINE
  8
0
 10
-41.784386
 20
-48.754486
 11
-41.784386
 21
-44.187500
  0
LINE
  8
0
 10
-41.034386
 20
-49.187500
 11
-41.034386
 21
-44.187500
  0
LINE
  8
0
 10
-44.784386
 20
-81.787498
 11
-24.784386
 21
-81.787498
  0
LINE
  8
0
 10
-24.784389
 20
-81.787498
 11
-24.501549
 21
-81.504654
  0
LINE
  8
0
 10
-24.501545
 20
-81.504654
 11
-25.539413
 21
-80.466789
  0
LINE
  8
0
 10
-44.784386
 20
-74.287498
 11
-24.784386
 21
-74.287498
  0
LINE
  8
0
 10
-24.784386
 20
-79.287498
 11
-24.784386
 21
-74.287498
  0
LINE
  8
0
 10
-25.539413
 20
-80.042526
 11
-24.784388
 21
-79.287498
  0
LINE
  8
0
 10
-45.067230
 20
-81.504654
 11
-44.029362
 21
-80.466782
  0
LINE
  8
0
 10
-44.029358
 20
-80.042519
 11
-44.784386
 21
-79.287491
  0
LINE
  8
0
 10
-44.784386
 20
-81.787491
 11
-45.067230
 21
-81.504654
  0
LINE
  8
0
 10
-44.784386
 20
-79.287498
 11
-44.784386
 21
-74.287498
  0
LINE
  8
0
 10
-24.784386
 20
-79.287506
 11
-44.784389
 21
-79.287506
  0
LINE
  8
0
 10
-45.067234
 20
-81.504654
 11
-24.501545
 21
-81.504654
  0
LINE
  8
0
 10
-26.184385
 20
-80.254654
 11
-43.524387
 21
-80.254654
  0
ARC
  8
0
 10
-40.148296
 20
-66.459183
 40
1.263915
 50
324.813568
 51
35.186165
  0
ARC
  8
0
 10
-40.148296
 20
-62.115810
 40
1.263913
 50
324.813690
 51
35.186306
  0
ARC
  8
0
 10
-43.510452
 20
-64.287498
 40
4.626067
 50
341.819672
 51
18.180344
  0
ARC
  8
0
 10
-32.612690
 20
-24.423592
 40
1.263911
 50
234.813843
 51
305.186249
  0
ARC
  8
0
 10
-34.784378
 20
-21.061440
 40
4.626064
 50
251.819641
 51
288.180359
  0
ARC
  8
0
 10
-36.956066
 20
-24.051414
 40
1.263913
 50
54.813694
 51
125.186165
  0
ARC
  8
0
 10
-36.956066
 20
-24.423592
 40
1.263911
 50
234.813843
 51
305.186157
  0
ARC
  8
0
 10
-32.612690
 20
-24.051414
 40
1.263912
 50
54.813766
 51
125.186165
  0
ARC
  8
0
 10
-34.784378
 20
-27.413567
 40
4.626065
 50
71.819595
 51
83.795166
  0
ARC
  8
0
 10
-46.584389
 20
-63.212601
 40
0.200000
 50
97.594429
 51
180.000000
  0
ARC
  8
0
 10
-43.684387
 20
-65.637497
 40
0.099998
 50
90.000000
 51
180.000000
  0
ARC
  8
0
 10
-43.684387
 20
-62.937496
 40
0.099998
 50
180.000000
 51
270.000000
  0
ARC
  8
0
 10
-46.584389
 20
-65.362396
 40
0.199997
 50
180.000000
 51
262.405426
  0
ARC
  8
0
 10
-41.884388
 20
-62.937496
 40
0.100002
 50
270.000000
 51
0.000000
  0
ARC
  8
0
 10
-41.884388
 20
-65.637497
 40
0.100002
 50
0.000000
 51
90.000000
  0
ARC
  8
0
 10
-40.520473
 20
-62.115810
 40
1.263913
 50
144.813690
 51
215.186157
  0
ARC
  8
0
 10
-40.520473
 20
-66.459183
 40
1.263911
 50
144.813843
 51
215.186447
  0
ARC
  8
0
 10
-37.158321
 20
-64.287498
 40
4.626065
 50
161.819595
 51
198.180252
  0
ARC
  8
0
 10
-34.784378
 20
-27.413567
 40
4.626065
 50
96.204834
 51
108.180305
  0
CIRCLE
  8
0
 10
-40.284378
 20
-49.537498
 40
0.350000
  0
CIRCLE
  8
0
 10
-29.284380
 20
-49.537498
 40
0.350000
  0
CIRCLE
  8
0
 10
-29.284384
 20
-58.037498
 40
0.350000
  0
CIRCLE
  8
0
 10
-40.284386
 20
-58.037498
 40
0.350000
  0
CIRCLE
  8
0
 10
-40.289902
 20
-56.953392
 40
0.350000
  0
CIRCLE
  8
0
 10
-29.296598
 20
-57.337288
 40
0.350000
  0
CIRCLE
  8
0
 10
-29.278864
 20
-50.621605
 40
0.350000
  0
CIRCLE
  8
0
 10
-40.272163
 20
-50.237709
 40
0.350000
  0
ARC
  8
0
 10
-42.138115
 20
-39.825760
 40
4.361742
 50
235.885727
 51
304.114197
  0
ARC
  8
0
 10
-27.430643
 20
-39.825760
 40
4.361741
 50
235.885742
 51
304.114227
  0
ARC
  8
0
 10
-34.784378
 20
-27.768730
 40
16.418766
 50
252.608826
 51
287.391144
  0
ARC
  8
0
 10
-27.430643
 20
-43.549240
 40
4.361741
 50
55.885742
 51
124.114212
  0
ARC
  8
0
 10
-34.784382
 20
-55.606270
 40
16.418768
 50
72.608803
 51
107.391129
  0
ARC
  8
0
 10
-42.138115
 20
-43.549240
 40
4.361739
 50
55.885761
 51
124.114212
  0
ARC
  8
0
 10
-27.430641
 20
-38.549240
 40
4.361739
 50
55.885761
 51
124.114227
  0
ARC
  8
0
 10
-42.138115
 20
-38.549240
 40
4.361739
 50
55.885761
 51
124.114212
  0
ARC
  8
0
 10
-27.430641
 20
-34.825760
 40
4.361742
 50
235.885727
 51
304.114197
  0
ARC
  8
0
 10
-34.784382
 20
-50.606270
 40
16.418770
 50
72.608795
 51
107.391129
  0
ARC
  8
0
 10
-34.784378
 20
-22.768730
 40
16.418766
 50
252.608826
 51
287.391144
  0
ARC
  8
0
 10
-42.138115
 20
-34.825760
 40
4.361742
 50
235.885727
 51
304.114197
  0
ARC
  8
0
 10
-25.327278
 20
-80.254654
 40
0.299998
 50
135.000778
 51
225.000259
  0
ARC
  8
0
 10
-44.241493
 20
-80.254654
 40
0.299997
 50
315.000519
 51
44.998970
  0
POINT
  8
0
 10
-24.501545
 20
-123.062500
  0
POINT
  8
0
 10
-34.784386
 20
-123.062500
  0
LINE
  8
0
 10
-46.784386
 20
-124.137398
 11
-46.784386
 21
-121.987602
  0
LINE
  8
0
 10
-45.284386
 20
-124.512505
 11
-45.284386
 21
-121.612495
  0
LINE
  8
0
 10
-45.284393
 20
-124.312508
 11
-44.863190
 21
-124.368668
  0
LINE
  8
0
 10
-45.284386
 20
-121.812492
 11
-44.863194
 21
-121.756332
  0
LINE
  8
0
 10
-46.610825
 20
-124.335640
 11
-45.284389
 21
-124.512497
  0
LINE
  8
0
 10
-46.610825
 20
-121.789352
 11
-45.284389
 21
-121.612495
  0
LINE
  8
0
 10
-48.854202
 20
-123.062500
 11
-22.491909
 21
-123.062500
  0
LINE
  8
0
 10
-34.784386
 20
-133.276855
 11
-34.784386
 21
-112.431229
  0
LINE
  8
0
 10
-39.691864
 20
-131.562500
 11
-29.876909
 21
-131.562500
  0
LINE
  8
0
 10
-39.691864
 20
-114.562500
 11
-29.876907
 21
-114.562500
  0
LINE
  8
0
 10
-27.285820
 20
-119.050392
 11
-29.876905
 21
-114.562500
  0
LINE
  8
0
 10
-39.691868
 20
-131.562500
 11
-42.282951
 21
-127.074608
  0
LINE
  8
0
 10
-42.282948
 20
-119.050385
 11
-39.691864
 21
-114.562500
  0
LINE
  8
0
 10
-29.876907
 20
-131.562500
 11
-27.285820
 21
-127.074608
  0
LINE
  8
0
 10
-24.784386
 20
-123.062500
 11
-24.784386
 21
-123.062500
  0
LINE
  8
0
 10
-44.784386
 20
-123.062500
 11
-44.784386
 21
-123.062500
  0
LINE
  8
0
 10
-43.284386
 20
-123.062500
 11
-43.284386
 21
-123.062500
  0
LINE
  8
0
 10
-26.284386
 20
-123.062500
 11
-26.284386
 21
-123.062500
  0
LINE
  8
0
 10
-44.784386
 20
-123.062500
 11
-44.784386
 21
-123.062500
  0
LINE
  8
0
 10
-24.784386
 20
-123.062500
 11
-24.784386
 21
-123.062500
  0
LINE
  8
0
 10
-45.067226
 20
-123.062500
 11
-45.067226
 21
-123.062500
  0
LINE
  8
0
 10
-24.501545
 20
-123.062500
 11
-24.501545
 21
-123.062500
  0
LINE
  8
0
 10
-43.284386
 20
-123.062500
 11
-43.284386
 21
-123.062500
  0
LINE
  8
0
 10
-26.284386
 20
-123.062500
 11
-26.284386
 21
-123.062500
  0
LINE
  8
0
 10
-24.784386
 20
-123.062500
 11
-24.784386
 21
-123.062500
  0
LINE
  8
0
 10
-44.784386
 20
-123.062500
 11
-44.784386
 21
-123.062500
  0
LINE
  8
0
 10
-24.784386
 20
-123.062500
 11
-24.784386
 21
-123.062500
  0
LINE
  8
0
 10
-44.784386
 20
-123.062500
 11
-44.784386
 21
-123.062500
  0
LINE
  8
0
 10
-45.067230
 20
-123.062500
 11
-45.067230
 21
-123.062500
  0
LINE
  8
0
 10
-24.501545
 20
-123.062500
 11
-24.501545
 21
-123.062500
  0
LINE
  8
0
 10
-44.784386
 20
-123.062500
 11
-44.784386
 21
-123.062500
  0
LINE
  8
0
 10
-24.784386
 20
-123.062500
 11
-24.784386
 21
-123.062500
  0
LINE
  8
0
 10
-26.284386
 20
-123.062500
 11
-26.284386
 21
-123.062500
  0
LINE
  8
0
 10
-43.284386
 20
-123.062500
 11
-43.284386
 21
-123.062500
  0
LINE
  8
0
 10
-24.501545
 20
-123.062500
 11
-24.501545
 21
-123.062500
  0
LINE
  8
0
 10
-45.067226
 20
-123.062500
 11
-45.067226
 21
-123.062500
  0
LINE
  8
0
 10
-44.784386
 20
-123.062500
 11
-44.784386
 21
-123.062500
  0
LINE
  8
0
 10
-24.784386
 20
-123.062500
 11
-24.784386
 21
-123.062500
  0
LINE
  8
0
 10
-24.501545
 20
-123.062500
 11
-24.501545
 21
-123.062500
  0
LINE
  8
0
 10
-45.067226
 20
-123.062500
 11
-45.067226
 21
-123.062500
  0
LINE
  8
0
 10
-40.384384
 20
-125.962502
 11
-29.184385
 21
-125.962502
  0
LINE
  8
0
 10
-40.384384
 20
-120.162498
 11
-29.184385
 21
-120.162498
  0
LINE
  8
0
 10
-40.784386
 20
-118.779663
 11
-28.784386
 21
-118.779663
  0
LINE
  8
0
 10
-40.784386
 20
-127.345337
 11
-28.784386
 21
-127.345337
  0
LINE
  8
0
 10
-40.784386
 20
-119.062500
 11
-28.784386
 21
-119.062500
  0
LINE
  8
0
 10
-40.784386
 20
-127.062500
 11
-28.784386
 21
-127.062500
  0
LINE
  8
0
 10
-26.284386
 20
-123.062500
 11
-26.284386
 21
-123.062500
  0
LINE
  8
0
 10
-43.284386
 20
-123.062500
 11
-43.284386
 21
-123.062500
  0
ARC
  8
0
 10
-46.584389
 20
-121.987602
 40
0.199997
 50
97.594574
 51
180.000000
  0
ARC
  8
0
 10
-46.584389
 20
-124.137398
 40
0.200001
 50
180.000000
 51
262.405731
  0
ARC
  8
0
 10
-34.784386
 20
-123.062500
 40
8.499998
 50
28.182941
 51
151.817062
  0
ARC
  8
0
 10
-34.784386
 20
-123.062500
 40
8.500000
 50
208.182938
 51
331.817017
  0
ARC
  8
0
 10
-34.784386
 20
-123.062500
 40
7.000000
 50
37.482521
 51
142.277771
  0
ARC
  8
0
 10
-34.784386
 20
-123.062500
 40
5.999998
 50
45.545464
 51
134.454529
  0
ARC
  8
0
 10
-34.784386
 20
-123.062500
 40
7.000000
 50
217.722229
 51
322.517487
  0
CIRCLE
  8
0
 10
-34.784386
 20
-123.062500
 40
1.000000
  0
ARC
  8
0
 10
-40.384384
 20
-123.062500
 40
2.900002
 50
90.000000
 51
269.999939
  0
ARC
  8
0
 10
-29.184385
 20
-123.062500
 40
2.900002
 50
269.999969
 51
90.000000
  0
ARC
  8
0
 10
-40.784386
 20
-123.062500
 40
4.000000
 50
90.000000
 51
269.999939
  0
ARC
  8
0
 10
-28.784386
 20
-123.062500
 40
4.000000
 50
269.999969
 51
90.000000
  0
ARC
  8
0
 10
-28.784386
 20
-123.062500
 40
4.282837
 50
269.999969
 51
90.000000
  0
ARC
  8
0
 10
-40.784386
 20
-123.062500
 40
4.282837
 50
90.000000
 51
269.999939
  0
POINT
  8
0
 10
35.634361
 20
-39.187500
  0
POINT
  8
0
 10
45.434361
 20
-39.187500
  0
LINE
  8
0
 10
28.134365
 20
-74.287498
 11
28.134365
 21
-72.287498
  0
LINE
  8
0
 10
43.134365
 20
-74.287498
 11
43.134365
 21
-72.287498
  0
LINE
  8
0
 10
28.134365
 20
-72.287498
 11
43.134365
 21
-72.287498
  0
LINE
  8
0
 10
29.384377
 20
-29.187500
 11
41.884369
 21
-29.187500
  0
LINE
  8
0
 10
20.658192
 20
-64.287498
 11
34.301029
 21
-64.287498
  0
LINE
  8
0
 10
31.534363
 20
-61.787506
 11
31.303425
 21
-61.387508
  0
LINE
  8
0
 10
31.534357
 20
-66.787498
 11
31.303419
 21
-67.187492
  0
LINE
  8
0
 10
38.134350
 20
-25.687479
 11
38.534351
 21
-25.456537
  0
LINE
  8
0
 10
37.077732
 20
-25.456566
 11
37.077732
 21
-23.018440
  0
LINE
  8
0
 10
33.462681
 20
-22.787498
 11
35.134369
 21
-22.787498
  0
LINE
  8
0
 10
33.134369
 20
-25.687492
 11
32.734367
 21
-25.456551
  0
LINE
  8
0
 10
32.734360
 20
-25.456566
 11
32.734360
 21
-23.018440
  0
LINE
  8
0
 10
38.534363
 20
-25.456566
 11
38.534363
 21
-23.018440
  0
LINE
  8
0
 10
34.190807
 20
-23.018433
 11
34.190807
 21
-25.456558
  0
LINE
  8
0
 10
38.434361
 20
-26.287498
 11
38.434361
 21
-25.687500
  0
LINE
  8
0
 10
32.834366
 20
-25.687500
 11
38.434368
 21
-25.687500
  0
LINE
  8
0
 10
32.834358
 20
-26.287498
 11
32.834358
 21
-25.687500
  0
LINE
  8
0
 10
35.634361
 20
-85.782333
 11
35.634361
 21
-20.337494
  0
LINE
  8
0
 10
23.634361
 20
-65.362396
 11
23.634361
 21
-63.212601
  0
LINE
  8
0
 10
25.134361
 20
-65.737503
 11
25.134361
 21
-62.837498
  0
LINE
  8
0
 10
26.634361
 20
-65.737503
 11
26.634361
 21
-62.837494
  0
LINE
  8
0
 10
25.134357
 20
-65.537491
 11
26.634359
 21
-65.737495
  0
LINE
  8
0
 10
25.134357
 20
-63.037487
 11
26.634357
 21
-62.837486
  0
LINE
  8
0
 10
23.807926
 20
-65.560638
 11
25.134361
 21
-65.737495
  0
LINE
  8
0
 10
23.807922
 20
-63.014347
 11
25.134357
 21
-62.837486
  0
LINE
  8
0
 10
26.734360
 20
-65.537498
 11
28.534359
 21
-65.537498
  0
LINE
  8
0
 10
26.734360
 20
-63.037498
 11
28.534359
 21
-63.037498
  0
LINE
  8
0
 10
28.634361
 20
-66.459183
 11
28.634361
 21
-62.115810
  0
LINE
  8
0
 10
31.303425
 20
-67.187500
 11
28.865299
 21
-67.187500
  0
LINE
  8
0
 10
31.303425
 20
-61.387497
 11
28.865299
 21
-61.387497
  0
LINE
  8
0
 10
31.303421
 20
-62.844124
 11
28.865295
 21
-62.844124
  0
LINE
  8
0
 10
28.865295
 20
-65.730934
 11
31.303425
 21
-65.730934
  0
LINE
  8
0
 10
31.534363
 20
-67.087494
 11
31.534363
 21
-61.487499
  0
LINE
  8
0
 10
32.134361
 20
-67.087494
 11
31.534363
 21
-67.087494
  0
LINE
  8
0
 10
32.134361
 20
-61.487499
 11
31.534363
 21
-61.487499
  0
LINE
  8
0
 10
35.134361
 20
-22.787498
 11
35.134361
 21
-23.787498
  0
LINE
  8
0
 10
35.134369
 20
-23.787498
 11
36.134369
 21
-23.787498
  0
LINE
  8
0
 10
36.134361
 20
-23.787498
 11
36.134361
 21
-22.787498
  0
LINE
  8
0
 10
36.134369
 20
-22.787498
 11
37.806057
 21
-22.787498
  0
LINE
  8
0
 10
42.634369
 20
-29.620502
 11
41.884365
 21
-29.187489
  0
LINE
  8
0
 10
28.634350
 20
-29.620487
 11
29.384357
 21
-29.187469
  0
LINE
  8
0
  6
PHANTOM
 10
42.634361
 20
-53.754486
 11
42.634361
 21
-49.187500
  0
LINE
  8
0
  6
PHANTOM
 10
28.634361
 20
-53.754486
 11
28.634361
 21
-49.187500
  0
LINE
  8
0
  6
PHANTOM
 10
41.884361
 20
-54.187500
 11
41.884361
 21
-49.187500
  0
LINE
  8
0
  6
PHANTOM
 10
29.384361
 20
-54.187500
 11
29.384361
 21
-49.187500
  0
LINE
  8
0
  6
PHANTOM
 10
41.884350
 20
-54.187489
 11
42.634354
 21
-53.754475
  0
LINE
  8
0
  6
PHANTOM
 10
29.384373
 20
-54.187489
 11
28.634373
 21
-53.754475
  0
LINE
  8
0
  6
PHANTOM
 10
29.384369
 20
-54.187500
 11
41.884361
 21
-54.187500
  0
LINE
  8
0
 10
39.134361
 20
-26.287498
 11
39.134361
 21
-28.587502
  0
LINE
  8
0
 10
40.284367
 20
-28.587502
 11
30.984367
 21
-28.587502
  0
LINE
  8
0
 10
32.134361
 20
-28.587502
 11
32.134361
 21
-26.287498
  0
LINE
  8
0
 10
32.134369
 20
-26.287498
 11
39.134369
 21
-26.287498
  0
LINE
  8
0
 10
40.284363
 20
-28.587502
 11
40.284363
 21
-29.187500
  0
LINE
  8
0
 10
30.984360
 20
-28.587502
 11
30.984360
 21
-29.187500
  0
LINE
  8
0
 10
29.634361
 20
-59.187500
 11
41.634361
 21
-59.187500
  0
LINE
  8
0
 10
29.634363
 20
-58.387505
 11
41.634361
 21
-58.387505
  0
LINE
  8
0
 10
29.634361
 20
-59.187500
 11
29.634361
 21
-58.387505
  0
LINE
  8
0
 10
41.634361
 20
-59.187500
 11
41.634361
 21
-58.387505
  0
LINE
  8
0
 10
30.134361
 20
-60.837502
 11
30.134361
 21
-48.037498
  0
LINE
  8
0
 10
41.134361
 20
-60.704166
 11
41.134361
 21
-47.904167
  0
LINE
  8
0
  6
PHANTOM
 10
41.472145
 20
-57.337288
 11
41.472145
 21
-50.645599
  0
LINE
  8
0
  6
PHANTOM
 10
40.772148
 20
-57.337288
 11
40.772148
 21
-50.582710
  0
LINE
  8
0
  6
PHANTOM
 10
30.478844
 20
-56.953392
 11
30.478844
 21
-50.347702
  0
LINE
  8
0
  6
PHANTOM
 10
29.778847
 20
-56.953392
 11
29.778847
 21
-50.268272
  0
LINE
  8
0
 10
39.134361
 20
-72.287498
 11
39.134361
 21
-59.187500
  0
LINE
  8
0
 10
32.134361
 20
-72.287498
 11
32.134361
 21
-59.187500
  0
LINE
  8
0
 10
27.134350
 20
-44.187534
 11
25.834347
 21
-43.436974
  0
LINE
  8
0
 10
27.134407
 20
-39.187553
 11
25.834408
 21
-39.938114
  0
LINE
  8
0
 10
25.834362
 20
-43.436935
 11
25.834362
 21
-39.938065
  0
LINE
  8
0
 10
27.134371
 20
-44.187500
 11
44.134384
 21
-44.187500
  0
LINE
  8
0
 10
27.134373
 20
-39.187500
 11
44.134399
 21
-39.187500
  0
LINE
  8
0
 10
44.134384
 20
-44.187531
 11
45.434380
 21
-43.436974
  0
LINE
  8
0
 10
45.434361
 20
-43.436935
 11
45.434361
 21
-39.938065
  0
LINE
  8
0
 10
44.134361
 20
-39.187496
 11
45.434357
 21
-39.938053
  0
LINE
  8
0
 10
27.134392
 20
-39.187511
 11
25.834396
 21
-39.938068
  0
LINE
  8
0
 10
40.541840
 20
-43.436935
 11
40.541840
 21
-39.938065
  0
LINE
  8
0
 10
30.726883
 20
-43.436935
 11
30.726883
 21
-39.938065
  0
LINE
  8
0
 10
27.134350
 20
-39.187542
 11
25.834351
 21
-38.436981
  0
LINE
  8
0
 10
27.134388
 20
-34.187538
 11
25.834385
 21
-34.938103
  0
LINE
  8
0
 10
25.834362
 20
-38.436935
 11
25.834362
 21
-34.938065
  0
LINE
  8
0
 10
27.134373
 20
-39.187500
 11
44.134384
 21
-39.187500
  0
LINE
  8
0
 10
27.134373
 20
-34.187500
 11
44.134399
 21
-34.187500
  0
LINE
  8
0
 10
44.134380
 20
-39.187515
 11
45.434376
 21
-38.436958
  0
LINE
  8
0
 10
45.434361
 20
-38.436935
 11
45.434361
 21
-34.938065
  0
LINE
  8
0
 10
44.134361
 20
-34.187485
 11
45.434353
 21
-34.938042
  0
LINE
  8
0
 10
27.134382
 20
-34.187519
 11
25.834385
 21
-34.938076
  0
LINE
  8
0
 10
40.541840
 20
-38.436935
 11
40.541840
 21
-34.938065
  0
LINE
  8
0
 10
30.726883
 20
-38.436935
 11
30.726883
 21
-34.938065
  0
LINE
  8
0
 10
41.884361
 20
-34.187500
 11
41.884361
 21
-29.187500
  0
LINE
  8
0
 10
42.634361
 20
-34.187500
 11
42.634361
 21
-29.620514
  0
LINE
  8
0
 10
29.384361
 20
-34.187500
 11
29.384361
 21
-29.187500
  0
LINE
  8
0
 10
28.634361
 20
-34.187500
 11
28.634361
 21
-29.620514
  0
LINE
  8
0
  6
PHANTOM
 10
28.634365
 20
-53.754486
 11
42.634365
 21
-53.754486
  0
LINE
  8
0
 10
28.634369
 20
-29.620514
 11
42.634369
 21
-29.620514
  0
LINE
  8
0
 10
32.134361
 20
-72.287498
 11
39.134361
 21
-72.287498
  0
LINE
  8
0
 10
32.134361
 20
-57.687500
 11
32.134361
 21
-57.373634
  0
LINE
  8
0
 10
30.134363
 20
-57.687500
 11
41.134361
 21
-57.687500
  0
LINE
  8
0
 10
41.134361
 20
-57.687923
 11
30.134361
 21
-57.303795
  0
LINE
  8
0
 10
41.134365
 20
-56.987488
 11
30.134361
 21
-56.603355
  0
LINE
  8
0
 10
39.134361
 20
-56.917656
 11
39.134361
 21
-50.901779
  0
LINE
  8
0
 10
32.134361
 20
-56.673210
 11
32.134361
 21
-50.657333
  0
LINE
  8
0
 10
41.134365
 20
-50.971615
 11
30.134367
 21
-50.587482
  0
LINE
  8
0
 10
41.134369
 20
-50.271183
 11
30.134369
 21
-49.887054
  0
LINE
  8
0
 10
30.134367
 20
-49.887497
 11
41.134369
 21
-49.887497
  0
LINE
  8
0
 10
39.134361
 20
-50.201355
 11
39.134361
 21
-49.887497
  0
LINE
  8
0
 10
41.884357
 20
-49.187492
 11
42.634361
 21
-48.754478
  0
LINE
  8
0
 10
41.884361
 20
-49.187500
 11
41.884361
 21
-44.187500
  0
LINE
  8
0
 10
42.634361
 20
-48.754486
 11
42.634361
 21
-44.187500
  0
LINE
  8
0
 10
28.634367
 20
-48.754486
 11
42.634369
 21
-48.754486
  0
LINE
  8
0
 10
29.384371
 20
-49.187500
 11
41.884361
 21
-49.187500
  0
LINE
  8
0
 10
29.384382
 20
-49.187485
 11
28.634380
 21
-48.754471
  0
LINE
  8
0
 10
28.634361
 20
-48.754486
 11
28.634361
 21
-44.187500
  0
LINE
  8
0
 10
29.384361
 20
-49.187500
 11
29.384361
 21
-44.187500
  0
LINE
  8
0
 10
20.634382
 20
-81.787506
 11
50.634365
 21
-81.787506
  0
LINE
  8
0
 10
50.634365
 20
-81.787491
 11
50.917206
 21
-81.504654
  0
LINE
  8
0
 10
50.917206
 20
-81.504662
 11
49.879341
 21
-80.466797
  0
LINE
  8
0
 10
25.634361
 20
-74.287498
 11
45.634361
 21
-74.287498
  0
LINE
  8
0
 10
50.634365
 20
-79.287506
 11
50.634365
 21
-76.287498
  0
LINE
  8
0
 10
49.879341
 20
-80.042519
 11
50.634369
 21
-79.287491
  0
LINE
  8
0
 10
20.351513
 20
-81.504654
 11
21.389381
 21
-80.466782
  0
LINE
  8
0
 10
21.389380
 20
-80.042526
 11
20.634354
 21
-79.287491
  0
LINE
  8
0
 10
20.634356
 20
-81.787491
 11
20.351511
 21
-81.504654
  0
LINE
  8
0
 10
20.634369
 20
-79.287506
 11
20.634369
 21
-76.287498
  0
LINE
  8
0
 10
50.634357
 20
-79.287514
 11
20.634367
 21
-79.287514
  0
LINE
  8
0
 10
20.351501
 20
-81.504662
 11
50.917206
 21
-81.504662
  0
LINE
  8
0
 10
49.234360
 20
-80.254669
 11
21.924362
 21
-80.254669
  0
LINE
  8
0
 10
20.634365
 20
-76.287498
 11
50.634365
 21
-76.287498
  0
LINE
  8
0
 10
45.634361
 20
-76.287498
 11
45.634361
 21
-74.287498
  0
LINE
  8
0
 10
25.634361
 20
-76.287498
 11
25.634361
 21
-74.287498
  0
ARC
  8
0
 10
30.270451
 20
-66.459183
 40
1.263915
 50
324.813568
 51
35.186165
  0
ARC
  8
0
 10
30.270451
 20
-62.115810
 40
1.263913
 50
324.813690
 51
35.186256
  0
ARC
  8
0
 10
26.908295
 20
-64.287498
 40
4.626066
 50
341.819641
 51
18.180344
  0
ARC
  8
0
 10
37.806057
 20
-24.423592
 40
1.263911
 50
234.813843
 51
305.186157
  0
ARC
  8
0
 10
35.634369
 20
-21.061440
 40
4.626064
 50
251.819641
 51
288.180359
  0
ARC
  8
0
 10
33.462681
 20
-24.051414
 40
1.263913
 50
54.813694
 51
125.186165
  0
ARC
  8
0
 10
33.462681
 20
-24.423592
 40
1.263911
 50
234.813843
 51
305.186157
  0
ARC
  8
0
 10
37.806057
 20
-24.051414
 40
1.263913
 50
54.813694
 51
125.186165
  0
ARC
  8
0
 10
35.634369
 20
-27.413567
 40
4.626065
 50
71.819595
 51
83.795166
  0
ARC
  8
0
 10
23.834358
 20
-63.212601
 40
0.200000
 50
97.594429
 51
180.000000
  0
ARC
  8
0
 10
26.734360
 20
-65.637497
 40
0.099998
 50
90.000000
 51
180.000000
  0
ARC
  8
0
 10
26.734360
 20
-62.937496
 40
0.099998
 50
180.000000
 51
270.000000
  0
ARC
  8
0
 10
23.834358
 20
-65.362396
 40
0.199999
 50
180.000000
 51
262.405426
  0
ARC
  8
0
 10
28.534359
 20
-62.937496
 40
0.100002
 50
270.000000
 51
0.000000
  0
ARC
  8
0
 10
28.534359
 20
-65.637497
 40
0.100000
 50
0.000000
 51
90.000000
  0
ARC
  8
0
 10
29.898273
 20
-62.115810
 40
1.263911
 50
144.813644
 51
215.186157
  0
ARC
  8
0
 10
29.898273
 20
-66.459183
 40
1.263911
 50
144.813843
 51
215.186447
  0
ARC
  8
0
 10
33.260426
 20
-64.287498
 40
4.626065
 50
161.819595
 51
198.180267
  0
ARC
  8
0
 10
35.634369
 20
-27.413567
 40
4.626065
 50
96.204834
 51
108.180305
  0
CIRCLE
  8
0
 10
30.134367
 20
-49.537498
 40
0.350000
  0
CIRCLE
  8
0
 10
41.134369
 20
-49.537498
 40
0.350000
  0
CIRCLE
  8
0
 10
41.134361
 20
-58.037498
 40
0.350000
  0
CIRCLE
  8
0
 10
30.134363
 20
-58.037498
 40
0.350000
  0
CIRCLE
  8
0
 10
30.128847
 20
-56.953392
 40
0.350000
  0
CIRCLE
  8
0
 10
41.122147
 20
-57.337288
 40
0.350000
  0
CIRCLE
  8
0
 10
41.139885
 20
-50.621605
 40
0.350000
  0
CIRCLE
  8
0
 10
30.146582
 20
-50.237709
 40
0.350000
  0
ARC
  8
0
 10
28.280630
 20
-39.825760
 40
4.361741
 50
235.885742
 51
304.114197
  0
ARC
  8
0
 10
42.988106
 20
-39.825760
 40
4.361742
 50
235.885727
 51
304.114197
  0
ARC
  8
0
 10
35.634369
 20
-27.768730
 40
16.418766
 50
252.608826
 51
287.391144
  0
ARC
  8
0
 10
42.988106
 20
-43.549240
 40
4.361739
 50
55.885761
 51
124.114212
  0
ARC
  8
0
 10
35.634365
 20
-55.606270
 40
16.418768
 50
72.608803
 51
107.391129
  0
ARC
  8
0
 10
28.280630
 20
-43.549240
 40
4.361741
 50
55.885742
 51
124.114212
  0
ARC
  8
0
 10
42.988106
 20
-38.549240
 40
4.361739
 50
55.885761
 51
124.114212
  0
ARC
  8
0
 10
28.280632
 20
-38.549240
 40
4.361739
 50
55.885761
 51
124.114212
  0
ARC
  8
0
 10
42.988106
 20
-34.825760
 40
4.361742
 50
235.885727
 51
304.114197
  0
ARC
  8
0
 10
35.634365
 20
-50.606270
 40
16.418768
 50
72.608803
 51
107.391129
  0
ARC
  8
0
 10
35.634369
 20
-22.768730
 40
16.418766
 50
252.608826
 51
287.391144
  0
ARC
  8
0
 10
28.280632
 20
-34.825760
 40
4.361742
 50
235.885727
 51
304.114197
  0
ARC
  8
0
 10
50.091469
 20
-80.254662
 40
0.300002
 50
134.999481
 51
225.000519
  0
ARC
  8
0
 10
21.177254
 20
-80.254662
 40
0.300002
 50
314.999481
 51
45.000259
  0
POINT
  8
0
 10
50.917206
 20
-123.062500
  0
POINT
  8
0
 10
35.634361
 20
-123.062500
  0
LINE
  8
0
 10
35.634361
 20
-133.276855
 11
35.634361
 21
-112.431229
  0
LINE
  8
0
 10
30.726883
 20
-131.562500
 11
40.541836
 21
-131.562500
  0
LINE
  8
0
 10
30.726883
 20
-114.562500
 11
40.541840
 21
-114.562500
  0
LINE
  8
0
 10
42.995579
 20
-118.812500
 11
40.541843
 21
-114.562500
  0
LINE
  8
0
 10
30.726879
 20
-131.562500
 11
27.840126
 21
-126.562500
  0
LINE
  8
0
 10
27.840134
 20
-119.562500
 11
30.726885
 21
-114.562500
  0
LINE
  8
0
 10
40.541840
 20
-131.562500
 11
43.428593
 21
-126.562500
  0
LINE
  8
0
 10
18.924362
 20
-123.062500
 11
52.224365
 21
-123.062500
  0
LINE
  8
0
 10
24.134361
 20
-119.562500
 11
47.134365
 21
-119.562500
  0
LINE
  8
0
 10
24.134361
 20
-126.562500
 11
47.134365
 21
-126.562500
  0
LINE
  8
0
 10
22.634361
 20
-121.062500
 11
48.634365
 21
-121.062500
  0
LINE
  8
0
 10
22.634361
 20
-125.062500
 11
48.634365
 21
-125.062500
  0
LINE
  8
0
 10
22.634359
 20
-125.345337
 11
48.634365
 21
-125.345337
  0
LINE
  8
0
 10
22.634359
 20
-120.779655
 11
48.634365
 21
-120.779655
  0
ARC
  8
0
 10
35.634361
 20
-123.062500
 40
8.500000
 50
90.000000
 51
155.684265
  0
ARC
  8
0
 10
35.634361
 20
-123.062500
 40
8.499997
 50
24.315746
 51
90.000000
  0
ARC
  8
0
 10
35.634361
 20
-123.062500
 40
8.500001
 50
204.315735
 51
335.684265
  0
ARC
  8
0
 10
35.634361
 20
-123.062500
 40
7.000000
 50
90.000000
 51
150.000000
  0
ARC
  8
0
 10
35.634361
 20
-123.062500
 40
6.999998
 50
210.000015
 51
329.999939
  0
ARC
  8
0
 10
35.634361
 20
-123.062500
 40
7.000001
 50
29.999992
 51
90.000000
  0
CIRCLE
  8
0
 10
35.634361
 20
-123.062500
 40
1.000000
  0
ARC
  8
0
 10
48.634365
 20
-123.062500
 40
2.000000
 50
270.000000
 51
89.999893
  0
ARC
  8
0
 10
22.634361
 20
-123.062500
 40
2.000000
 50
90.000000
 51
269.999939
  0
ARC
  8
0
 10
48.634365
 20
-123.062500
 40
2.282837
 50
270.000000
 51
89.999901
  0
ARC
  8
0
 10
22.634359
 20
-123.062500
 40
2.282845
 50
89.999954
 51
269.999939
  0
ARC
  8
0
 10
47.134361
 20
-123.062500
 40
3.500000
 50
270.000000
 51
332.206329
  0
ARC
  8
0
 10
47.134361
 20
-123.062500
 40
3.500004
 50
27.793779
 51
89.999939
  0
ARC
  8
0
 10
24.134361
 20
-123.062500
 40
3.500008
 50
90.000000
 51
152.206223
  0
ARC
  8
0
 10
24.134361
 20
-123.062500
 40
3.500001
 50
207.793671
 51
269.999939
  0
POINT
  8
0
 10
106.053108
 20
-39.187500
  0
POINT
  8
0
 10
115.853104
 20
-39.187500
  0
LINE
  8
0
 10
98.553116
 20
-74.287498
 11
98.553116
 21
-72.287498
  0
LINE
  8
0
 10
113.553116
 20
-74.287498
 11
113.553116
 21
-72.287498
  0
LINE
  8
0
 10
98.553116
 20
-72.287498
 11
113.553116
 21
-72.287498
  0
LINE
  8
0
 10
99.803123
 20
-29.187500
 11
112.303116
 21
-29.187500
  0
LINE
  8
0
 10
91.216644
 20
-64.287498
 11
104.719772
 21
-64.287498
  0
LINE
  8
0
 10
101.953110
 20
-61.787506
 11
101.722168
 21
-61.387512
  0
LINE
  8
0
 10
101.953102
 20
-66.787498
 11
101.722168
 21
-67.187492
  0
LINE
  8
0
 10
108.553093
 20
-25.687477
 11
108.953094
 21
-25.456535
  0
LINE
  8
0
 10
107.496475
 20
-25.456566
 11
107.496475
 21
-23.018440
  0
LINE
  8
0
 10
103.881424
 20
-22.787498
 11
105.553116
 21
-22.787498
  0
LINE
  8
0
 10
103.553116
 20
-25.687492
 11
103.153114
 21
-25.456551
  0
LINE
  8
0
 10
103.153107
 20
-25.456566
 11
103.153107
 21
-23.018440
  0
LINE
  8
0
 10
108.953110
 20
-25.456566
 11
108.953110
 21
-23.018440
  0
LINE
  8
0
 10
104.609558
 20
-23.018433
 11
104.609558
 21
-25.456558
  0
LINE
  8
0
 10
108.853104
 20
-26.287498
 11
108.853104
 21
-25.687500
  0
LINE
  8
0
 10
103.253113
 20
-25.687500
 11
108.853111
 21
-25.687500
  0
LINE
  8
0
 10
103.253105
 20
-26.287498
 11
103.253105
 21
-25.687500
  0
LINE
  8
0
 10
106.053108
 20
-85.782333
 11
106.053108
 21
-20.337494
  0
LINE
  8
0
 10
94.053108
 20
-65.362396
 11
94.053108
 21
-63.212601
  0
LINE
  8
0
 10
95.553108
 20
-65.737503
 11
95.553108
 21
-62.837498
  0
LINE
  8
0
 10
97.053108
 20
-65.737503
 11
97.053108
 21
-62.837494
  0
LINE
  8
0
 10
95.553108
 20
-65.537491
 11
97.053108
 21
-65.737495
  0
LINE
  8
0
 10
95.553108
 20
-63.037487
 11
97.053108
 21
-62.837486
  0
LINE
  8
0
 10
94.226669
 20
-65.560638
 11
95.553108
 21
-65.737503
  0
LINE
  8
0
 10
94.226669
 20
-63.014347
 11
95.553101
 21
-62.837486
  0
LINE
  8
0
 10
97.153107
 20
-65.537498
 11
98.953110
 21
-65.537498
  0
LINE
  8
0
 10
97.153107
 20
-63.037498
 11
98.953110
 21
-63.037498
  0
LINE
  8
0
 10
99.053108
 20
-66.459183
 11
99.053108
 21
-62.115810
  0
LINE
  8
0
 10
101.722176
 20
-67.187500
 11
99.284050
 21
-67.187500
  0
LINE
  8
0
 10
101.722176
 20
-61.387497
 11
99.284050
 21
-61.387497
  0
LINE
  8
0
 10
101.722168
 20
-62.844124
 11
99.284042
 21
-62.844124
  0
LINE
  8
0
 10
99.284042
 20
-65.730934
 11
101.722176
 21
-65.730934
  0
LINE
  8
0
 10
101.953110
 20
-67.087494
 11
101.953110
 21
-61.487499
  0
LINE
  8
0
 10
102.553108
 20
-67.087494
 11
101.953110
 21
-67.087494
  0
LINE
  8
0
 10
102.553108
 20
-61.487499
 11
101.953110
 21
-61.487499
  0
LINE
  8
0
 10
105.553108
 20
-22.787498
 11
105.553108
 21
-23.787498
  0
LINE
  8
0
 10
105.553116
 20
-23.787498
 11
106.553116
 21
-23.787498
  0
LINE
  8
0
 10
106.553108
 20
-23.787498
 11
106.553108
 21
-22.787498
  0
LINE
  8
0
 10
106.553116
 20
-22.787498
 11
108.224808
 21
-22.787498
  0
LINE
  8
0
 10
113.053116
 20
-29.620502
 11
112.303116
 21
-29.187489
  0
LINE
  8
0
 10
99.053093
 20
-29.620487
 11
99.803101
 21
-29.187469
  0
LINE
  8
0
  6
PHANTOM
 10
113.053108
 20
-53.754486
 11
113.053108
 21
-49.187500
  0
LINE
  8
0
  6
PHANTOM
 10
99.053108
 20
-53.754486
 11
99.053108
 21
-49.187500
  0
LINE
  8
0
  6
PHANTOM
 10
112.303108
 20
-54.187500
 11
112.303108
 21
-49.187500
  0
LINE
  8
0
  6
PHANTOM
 10
99.803108
 20
-54.187500
 11
99.803108
 21
-49.187500
  0
LINE
  8
0
  6
PHANTOM
 10
112.303101
 20
-54.187489
 11
113.053101
 21
-53.754475
  0
LINE
  8
0
  6
PHANTOM
 10
99.803123
 20
-54.187489
 11
99.053116
 21
-53.754475
  0
LINE
  8
0
  6
PHANTOM
 10
99.803116
 20
-54.187500
 11
112.303108
 21
-54.187500
  0
LINE
  8
0
 10
109.553108
 20
-26.287498
 11
109.553108
 21
-28.587502
  0
LINE
  8
0
 10
110.703117
 20
-28.587502
 11
101.403114
 21
-28.587502
  0
LINE
  8
0
 10
102.553108
 20
-28.587502
 11
102.553108
 21
-26.287498
  0
LINE
  8
0
 10
102.553116
 20
-26.287498
 11
109.553116
 21
-26.287498
  0
LINE
  8
0
 10
110.703110
 20
-28.587502
 11
110.703110
 21
-29.187500
  0
LINE
  8
0
 10
101.403107
 20
-28.587502
 11
101.403107
 21
-29.187500
  0
LINE
  8
0
 10
100.053108
 20
-59.187500
 11
112.053108
 21
-59.187500
  0
LINE
  8
0
 10
100.053108
 20
-58.387505
 11
112.053108
 21
-58.387505
  0
LINE
  8
0
 10
100.053108
 20
-59.187500
 11
100.053108
 21
-58.387505
  0
LINE
  8
0
 10
112.053108
 20
-59.187500
 11
112.053108
 21
-58.387505
  0
LINE
  8
0
 10
100.553108
 20
-60.837502
 11
100.553108
 21
-48.037498
  0
LINE
  8
0
 10
111.553108
 20
-60.704166
 11
111.553108
 21
-47.904167
  0
LINE
  8
0
  6
PHANTOM
 10
111.890892
 20
-57.337288
 11
111.890892
 21
-50.645599
  0
LINE
  8
0
  6
PHANTOM
 10
111.190895
 20
-57.337288
 11
111.190895
 21
-50.582710
  0
LINE
  8
0
  6
PHANTOM
 10
100.897591
 20
-56.953392
 11
100.897591
 21
-50.347702
  0
LINE
  8
0
  6
PHANTOM
 10
100.197594
 20
-56.953392
 11
100.197594
 21
-50.268272
  0
LINE
  8
0
 10
109.553108
 20
-72.287498
 11
109.553108
 21
-59.187500
  0
LINE
  8
0
 10
102.553108
 20
-72.287498
 11
102.553108
 21
-59.187500
  0
LINE
  8
0
 10
97.553093
 20
-44.187534
 11
96.253098
 21
-43.436974
  0
LINE
  8
0
 10
97.553154
 20
-39.187553
 11
96.253151
 21
-39.938114
  0
LINE
  8
0
 10
96.253113
 20
-43.436935
 11
96.253113
 21
-39.938065
  0
LINE
  8
0
 10
97.553116
 20
-44.187500
 11
114.553131
 21
-44.187500
  0
LINE
  8
0
 10
97.553116
 20
-39.187500
 11
114.553146
 21
-39.187500
  0
LINE
  8
0
 10
114.553131
 20
-44.187531
 11
115.853127
 21
-43.436974
  0
LINE
  8
0
 10
115.853104
 20
-43.436935
 11
115.853104
 21
-39.938065
  0
LINE
  8
0
 10
114.553108
 20
-39.187496
 11
115.853104
 21
-39.938053
  0
LINE
  8
0
 10
97.553139
 20
-39.187511
 11
96.253143
 21
-39.938068
  0
LINE
  8
0
 10
110.960587
 20
-43.436935
 11
110.960587
 21
-39.938065
  0
LINE
  8
0
 10
101.145630
 20
-43.436935
 11
101.145630
 21
-39.938065
  0
LINE
  8
0
 10
97.553101
 20
-39.187542
 11
96.253098
 21
-38.436981
  0
LINE
  8
0
 10
97.553131
 20
-34.187538
 11
96.253128
 21
-34.938103
  0
LINE
  8
0
 10
96.253113
 20
-38.436935
 11
96.253113
 21
-34.938065
  0
LINE
  8
0
 10
97.553116
 20
-39.187500
 11
114.553131
 21
-39.187500
  0
LINE
  8
0
 10
97.553116
 20
-34.187500
 11
114.553146
 21
-34.187500
  0
LINE
  8
0
 10
114.553131
 20
-39.187515
 11
115.853119
 21
-38.436958
  0
LINE
  8
0
 10
115.853104
 20
-38.436935
 11
115.853104
 21
-34.938065
  0
LINE
  8
0
 10
114.553108
 20
-34.187485
 11
115.853104
 21
-34.938042
  0
LINE
  8
0
 10
97.553131
 20
-34.187519
 11
96.253128
 21
-34.938076
  0
LINE
  8
0
 10
110.960587
 20
-38.436935
 11
110.960587
 21
-34.938065
  0
LINE
  8
0
 10
101.145630
 20
-38.436935
 11
101.145630
 21
-34.938065
  0
LINE
  8
0
 10
112.303108
 20
-34.187500
 11
112.303108
 21
-29.187500
  0
LINE
  8
0
 10
113.053108
 20
-34.187500
 11
113.053108
 21
-29.620514
  0
LINE
  8
0
 10
99.803108
 20
-34.187500
 11
99.803108
 21
-29.187500
  0
LINE
  8
0
 10
99.053108
 20
-34.187500
 11
99.053108
 21
-29.620514
  0
LINE
  8
0
  6
PHANTOM
 10
99.053108
 20
-53.754486
 11
113.053108
 21
-53.754486
  0
LINE
  8
0
 10
99.053116
 20
-29.620514
 11
113.053116
 21
-29.620514
  0
LINE
  8
0
 10
102.553108
 20
-72.287498
 11
109.553108
 21
-72.287498
  0
LINE
  8
0
 10
102.553108
 20
-57.687500
 11
102.553108
 21
-57.373634
  0
LINE
  8
0
 10
100.553108
 20
-57.687500
 11
111.553108
 21
-57.687500
  0
LINE
  8
0
 10
111.553108
 20
-57.687923
 11
100.553108
 21
-57.303795
  0
LINE
  8
0
 10
111.553108
 20
-56.987488
 11
100.553108
 21
-56.603355
  0
LINE
  8
0
 10
109.553108
 20
-56.917656
 11
109.553108
 21
-50.901779
  0
LINE
  8
0
 10
102.553108
 20
-56.673210
 11
102.553108
 21
-50.657333
  0
LINE
  8
0
 10
111.553116
 20
-50.971615
 11
100.553116
 21
-50.587482
  0
LINE
  8
0
 10
111.553116
 20
-50.271183
 11
100.553116
 21
-49.887054
  0
LINE
  8
0
 10
100.553116
 20
-49.887497
 11
111.553116
 21
-49.887497
  0
LINE
  8
0
 10
109.553108
 20
-50.201355
 11
109.553108
 21
-49.887497
  0
LINE
  8
0
 10
112.303108
 20
-49.187492
 11
113.053108
 21
-48.754478
  0
LINE
  8
0
 10
112.303108
 20
-49.187500
 11
112.303108
 21
-44.187500
  0
LINE
  8
0
 10
113.053108
 20
-48.754486
 11
113.053108
 21
-44.187500
  0
LINE
  8
0
 10
99.053116
 20
-48.754486
 11
113.053116
 21
-48.754486
  0
LINE
  8
0
 10
99.803116
 20
-49.187500
 11
112.303108
 21
-49.187500
  0
LINE
  8
0
 10
99.803131
 20
-49.187485
 11
99.053123
 21
-48.754471
  0
LINE
  8
0
 10
99.053108
 20
-48.754486
 11
99.053108
 21
-44.187500
  0
LINE
  8
0
 10
99.803108
 20
-49.187500
 11
99.803108
 21
-44.187500
  0
LINE
  8
0
 10
91.053131
 20
-81.787506
 11
121.053108
 21
-81.787506
  0
LINE
  8
0
 10
121.053108
 20
-81.787491
 11
121.335953
 21
-81.504654
  0
LINE
  8
0
 10
121.335953
 20
-81.504662
 11
120.298088
 21
-80.466797
  0
LINE
  8
0
 10
96.053108
 20
-74.287498
 11
116.053108
 21
-74.287498
  0
LINE
  8
0
 10
121.053116
 20
-79.287506
 11
121.053116
 21
-76.287498
  0
LINE
  8
0
 10
120.298088
 20
-80.042519
 11
121.053116
 21
-79.287491
  0
LINE
  8
0
 10
90.770256
 20
-81.504654
 11
91.808128
 21
-80.466782
  0
LINE
  8
0
 10
91.808128
 20
-80.042526
 11
91.053101
 21
-79.287491
  0
LINE
  8
0
 10
91.053101
 20
-81.787491
 11
90.770256
 21
-81.504654
  0
LINE
  8
0
 10
91.053116
 20
-79.287506
 11
91.053116
 21
-76.287498
  0
LINE
  8
0
 10
121.053101
 20
-79.287514
 11
91.053116
 21
-79.287514
  0
LINE
  8
0
 10
90.770248
 20
-81.504662
 11
121.335953
 21
-81.504662
  0
LINE
  8
0
 10
119.653107
 20
-80.254669
 11
92.343109
 21
-80.254669
  0
LINE
  8
0
 10
91.053116
 20
-76.287498
 11
121.053116
 21
-76.287498
  0
LINE
  8
0
 10
116.053108
 20
-76.287498
 11
116.053108
 21
-74.287498
  0
LINE
  8
0
 10
96.053108
 20
-76.287498
 11
96.053108
 21
-74.287498
  0
ARC
  8
0
 10
100.689201
 20
-66.459183
 40
1.263915
 50
324.813568
 51
35.186165
  0
ARC
  8
0
 10
100.689201
 20
-62.115810
 40
1.263913
 50
324.813690
 51
35.186306
  0
ARC
  8
0
 10
97.327042
 20
-64.287498
 40
4.626064
 50
341.819641
 51
18.180359
  0
ARC
  8
0
 10
108.224808
 20
-24.423592
 40
1.263915
 50
234.813553
 51
305.186157
  0
ARC
  8
0
 10
106.053116
 20
-21.061440
 40
4.626064
 50
251.819641
 51
288.180359
  0
ARC
  8
0
 10
103.881424
 20
-24.051414
 40
1.263915
 50
54.813553
 51
125.186165
  0
ARC
  8
0
 10
103.881424
 20
-24.423592
 40
1.263911
 50
234.813843
 51
305.186432
  0
ARC
  8
0
 10
108.224808
 20
-24.051414
 40
1.263911
 50
54.813835
 51
125.186447
  0
ARC
  8
0
 10
106.053116
 20
-27.413567
 40
4.626064
 50
71.819641
 51
83.795166
  0
ARC
  8
0
 10
94.253105
 20
-63.212601
 40
0.200001
 50
97.595512
 51
180.000000
  0
ARC
  8
0
 10
97.153107
 20
-65.637497
 40
0.099998
 50
90.000000
 51
180.000000
  0
ARC
  8
0
 10
97.153107
 20
-62.937496
 40
0.099998
 50
180.000000
 51
270.000000
  0
ARC
  8
0
 10
94.253105
 20
-65.362396
 40
0.199997
 50
180.000000
 51
262.404358
  0
ARC
  8
0
 10
98.953110
 20
-62.937496
 40
0.100002
 50
270.000000
 51
0.000000
  0
ARC
  8
0
 10
98.953110
 20
-65.637497
 40
0.099998
 50
0.000000
 51
90.000000
  0
ARC
  8
0
 10
100.317024
 20
-62.115810
 40
1.263913
 50
144.813690
 51
215.185959
  0
ARC
  8
0
 10
100.317024
 20
-66.459183
 40
1.263911
 50
144.813843
 51
215.186249
  0
ARC
  8
0
 10
103.679176
 20
-64.287498
 40
4.626065
 50
161.819595
 51
198.180237
  0
ARC
  8
0
 10
106.053116
 20
-27.413567
 40
4.626065
 50
96.204834
 51
108.180351
  0
CIRCLE
  8
0
 10
100.553116
 20
-49.537498
 40
0.350000
  0
CIRCLE
  8
0
 10
111.553116
 20
-49.537498
 40
0.350000
  0
CIRCLE
  8
0
 10
111.553108
 20
-58.037498
 40
0.350000
  0
CIRCLE
  8
0
 10
100.553108
 20
-58.037498
 40
0.350000
  0
CIRCLE
  8
0
 10
100.547592
 20
-56.953392
 40
0.350000
  0
CIRCLE
  8
0
 10
111.540894
 20
-57.337288
 40
0.350000
  0
CIRCLE
  8
0
 10
111.558632
 20
-50.621605
 40
0.350000
  0
CIRCLE
  8
0
 10
100.565331
 20
-50.237709
 40
0.350000
  0
ARC
  8
0
 10
98.699379
 20
-39.825760
 40
4.361743
 50
235.885681
 51
304.114197
  0
ARC
  8
0
 10
113.406853
 20
-39.825760
 40
4.361743
 50
235.885681
 51
304.114197
  0
ARC
  8
0
 10
106.053116
 20
-27.768730
 40
16.418768
 50
252.608810
 51
287.391144
  0
ARC
  8
0
 10
113.406853
 20
-43.549240
 40
4.361739
 50
55.885761
 51
124.114212
  0
ARC
  8
0
 10
106.053116
 20
-55.606270
 40
16.418768
 50
72.608818
 51
107.391129
  0
ARC
  8
0
 10
98.699379
 20
-43.549240
 40
4.361739
 50
55.885761
 51
124.114212
  0
ARC
  8
0
 10
113.406853
 20
-38.549240
 40
4.361739
 50
55.885761
 51
124.114212
  0
ARC
  8
0
 10
98.699379
 20
-38.549240
 40
4.361739
 50
55.885761
 51
124.114212
  0
ARC
  8
0
 10
113.406853
 20
-34.825760
 40
4.361743
 50
235.885681
 51
304.114197
  0
ARC
  8
0
 10
106.053116
 20
-50.606270
 40
16.418768
 50
72.608818
 51
107.391129
  0
ARC
  8
0
 10
106.053116
 20
-22.768730
 40
16.418768
 50
252.608810
 51
287.391144
  0
ARC
  8
0
 10
98.699379
 20
-34.825760
 40
4.361743
 50
235.885681
 51
304.114197
  0
ARC
  8
0
 10
120.510216
 20
-80.254662
 40
0.299999
 50
134.998962
 51
225.001038
  0
ARC
  8
0
 10
91.596001
 20
-80.254662
 40
0.300005
 50
315.000000
 51
45.000000
  0
POINT
  8
0
 10
121.334152
 20
-123.062500
  0
POINT
  8
0
 10
106.053108
 20
-123.062500
  0
LINE
  8
0
 10
106.053108
 20
-133.276855
 11
106.053108
 21
-112.431229
  0
LINE
  8
0
 10
101.145630
 20
-131.562500
 11
110.960587
 21
-131.562500
  0
LINE
  8
0
 10
101.145630
 20
-114.562500
 11
110.960587
 21
-114.562500
  0
LINE
  8
0
 10
113.414330
 20
-118.812500
 11
110.960587
 21
-114.562500
  0
LINE
  8
0
 10
101.145622
 20
-131.562500
 11
98.258873
 21
-126.562500
  0
LINE
  8
0
 10
98.258881
 20
-119.562500
 11
101.145630
 21
-114.562500
  0
LINE
  8
0
 10
110.960587
 20
-131.562500
 11
113.847343
 21
-126.562500
  0
LINE
  8
0
 10
89.343109
 20
-123.062500
 11
122.643112
 21
-123.062500
  0
LINE
  8
0
 10
94.553108
 20
-119.562500
 11
117.553108
 21
-119.562500
  0
LINE
  8
0
 10
94.553108
 20
-126.562500
 11
117.553108
 21
-126.562500
  0
LINE
  8
0
 10
93.553108
 20
-120.462502
 11
118.498947
 21
-120.462502
  0
LINE
  8
0
 10
93.553108
 20
-125.572495
 11
118.553108
 21
-125.572495
  0
LINE
  8
0
 10
93.553108
 20
-125.855339
 11
118.553108
 21
-125.855339
  0
LINE
  8
0
 10
93.553108
 20
-120.179657
 11
118.570854
 21
-120.179657
  0
LINE
  8
0
 10
92.553108
 20
-123.062500
 11
92.553108
 21
-123.062500
  0
LINE
  8
0
 10
90.770271
 20
-122.962502
 11
90.770271
 21
-123.072495
  0
LINE
  8
0
 10
91.053108
 20
-122.962502
 11
91.053108
 21
-123.072495
  0
LINE
  8
0
 10
121.335945
 20
-122.962502
 11
121.335945
 21
-123.072495
  0
LINE
  8
0
 10
121.053108
 20
-122.962502
 11
121.053108
 21
-123.072495
  0
ARC
  8
0
 10
106.053108
 20
-123.062500
 40
8.500000
 50
90.000000
 51
150.000000
  0
ARC
  8
0
 10
106.053108
 20
-123.062500
 40
8.499997
 50
24.315746
 51
90.000000
  0
ARC
  8
0
 10
106.053108
 20
-123.062500
 40
8.500005
 50
209.999985
 51
330.000000
  0
ARC
  8
0
 10
106.053108
 20
-123.062500
 40
7.000000
 50
90.000000
 51
150.000000
  0
ARC
  8
0
 10
106.053108
 20
-123.062500
 40
7.000001
 50
210.000000
 51
329.999908
  0
ARC
  8
0
 10
106.053108
 20
-123.062500
 40
7.000001
 50
29.999992
 51
90.000000
  0
CIRCLE
  8
0
 10
106.053108
 20
-123.062500
 40
1.000000
  0
ARC
  8
0
 10
117.553108
 20
-123.062500
 40
3.500000
 50
270.000000
 51
321.288666
  0
ARC
  8
0
 10
117.553108
 20
-123.062500
 40
3.500005
 50
44.076374
 51
90.000000
  0
ARC
  8
0
 10
94.553108
 20
-123.062500
 40
3.500008
 50
90.000000
 51
135.923630
  0
ARC
  8
0
 10
94.553108
 20
-123.062500
 40
3.499998
 50
218.711334
 51
270.000000
  0
ARC
  8
0
 10
93.553108
 20
-122.962502
 40
2.500000
 50
90.000000
 51
179.999832
  0
ARC
  8
0
 10
93.553108
 20
-123.072495
 40
2.500000
 50
180.000000
 51
270.000000
  0
ARC
  8
0
 10
93.553108
 20
-123.072495
 40
2.782837
 50
180.000000
 51
270.000000
  0
ARC
  8
0
 10
93.553108
 20
-122.962502
 40
2.782845
 50
90.000000
 51
179.999847
  0
ARC
  8
0
 10
118.553108
 20
-123.072495
 40
2.500000
 50
270.000000
 51
0.000000
  0
ARC
  8
0
 10
118.553108
 20
-122.962502
 40
2.500000
 50
0.000175
 51
90.000175
  0
ARC
  8
0
 10
118.553108
 20
-122.962502
 40
2.782837
 50
0.000157
 51
90.000160
  0
ARC
  8
0
 10
118.553108
 20
-123.072495
 40
2.782845
 50
270.000000
 51
0.000000
  0
POINT
  8
0
 10
176.471863
 20
-39.187500
  0
POINT
  8
0
 10
186.271866
 20
-39.187500
  0
LINE
  8
0
 10
168.971863
 20
-74.287498
 11
168.971863
 21
-72.287498
  0
LINE
  8
0
 10
183.971863
 20
-74.287498
 11
183.971863
 21
-72.287498
  0
LINE
  8
0
 10
168.971863
 20
-72.287498
 11
183.971863
 21
-72.287498
  0
LINE
  8
0
 10
170.221878
 20
-29.187500
 11
182.721863
 21
-29.187500
  0
LINE
  8
0
 10
162.301743
 20
-64.287498
 11
175.138535
 21
-64.287498
  0
LINE
  8
0
 10
172.371857
 20
-61.787506
 11
172.140930
 21
-61.387512
  0
LINE
  8
0
 10
172.371857
 20
-66.787498
 11
172.140915
 21
-67.187492
  0
LINE
  8
0
 10
178.971848
 20
-25.687477
 11
179.371857
 21
-25.456535
  0
LINE
  8
0
 10
177.915237
 20
-25.456566
 11
177.915237
 21
-23.018440
  0
LINE
  8
0
 10
174.300186
 20
-22.787498
 11
175.971878
 21
-22.787498
  0
LINE
  8
0
 10
173.971863
 20
-25.687492
 11
173.571869
 21
-25.456551
  0
LINE
  8
0
 10
173.571869
 20
-25.456566
 11
173.571869
 21
-23.018440
  0
LINE
  8
0
 10
179.371857
 20
-25.456566
 11
179.371857
 21
-23.018440
  0
LINE
  8
0
 10
175.028305
 20
-23.018433
 11
175.028305
 21
-25.456558
  0
LINE
  8
0
 10
179.271866
 20
-26.287498
 11
179.271866
 21
-25.687500
  0
LINE
  8
0
 10
173.671860
 20
-25.687500
 11
179.271866
 21
-25.687500
  0
LINE
  8
0
 10
173.671860
 20
-26.287498
 11
173.671860
 21
-25.687500
  0
LINE
  8
0
 10
176.471863
 20
-85.782333
 11
176.471863
 21
-20.337494
  0
LINE
  8
0
 10
164.471863
 20
-65.362396
 11
164.471863
 21
-63.212601
  0
LINE
  8
0
 10
165.971863
 20
-65.737503
 11
165.971863
 21
-62.837498
  0
LINE
  8
0
 10
167.471863
 20
-65.737503
 11
167.471863
 21
-62.837494
  0
LINE
  8
0
 10
165.971863
 20
-65.537498
 11
167.471863
 21
-65.737495
  0
LINE
  8
0
 10
165.971863
 20
-63.037487
 11
167.471863
 21
-62.837486
  0
LINE
  8
0
 10
164.645432
 20
-65.560638
 11
165.971863
 21
-65.737503
  0
LINE
  8
0
 10
164.645416
 20
-63.014347
 11
165.971863
 21
-62.837486
  0
LINE
  8
0
 10
167.571869
 20
-65.537498
 11
169.371857
 21
-65.537498
  0
LINE
  8
0
 10
167.571869
 20
-63.037498
 11
169.371857
 21
-63.037498
  0
LINE
  8
0
 10
169.471863
 20
-66.459183
 11
169.471863
 21
-62.115810
  0
LINE
  8
0
 10
172.140930
 20
-67.187500
 11
169.702805
 21
-67.187500
  0
LINE
  8
0
 10
172.140930
 20
-61.387497
 11
169.702805
 21
-61.387497
  0
LINE
  8
0
 10
172.140930
 20
-62.844124
 11
169.702805
 21
-62.844124
  0
LINE
  8
0
 10
169.702805
 20
-65.730934
 11
172.140930
 21
-65.730934
  0
LINE
  8
0
 10
172.371857
 20
-67.087494
 11
172.371857
 21
-61.487499
  0
LINE
  8
0
 10
172.971863
 20
-67.087494
 11
172.371872
 21
-67.087494
  0
LINE
  8
0
 10
172.971863
 20
-61.487499
 11
172.371872
 21
-61.487499
  0
LINE
  8
0
 10
175.971863
 20
-22.787498
 11
175.971863
 21
-23.787498
  0
LINE
  8
0
 10
175.971863
 20
-23.787498
 11
176.971863
 21
-23.787498
  0
LINE
  8
0
 10
176.971863
 20
-23.787498
 11
176.971863
 21
-22.787498
  0
LINE
  8
0
 10
176.971878
 20
-22.787498
 11
178.643555
 21
-22.787498
  0
LINE
  8
0
 10
183.471863
 20
-29.620502
 11
182.721863
 21
-29.187489
  0
LINE
  8
0
 10
169.471848
 20
-29.620487
 11
170.221863
 21
-29.187469
  0
LINE
  8
0
  6
PHANTOM
 10
183.471863
 20
-53.754486
 11
183.471863
 21
-49.187500
  0
LINE
  8
0
  6
PHANTOM
 10
169.471863
 20
-53.754486
 11
169.471863
 21
-49.187500
  0
LINE
  8
0
  6
PHANTOM
 10
182.721863
 20
-54.187500
 11
182.721863
 21
-49.187500
  0
LINE
  8
0
  6
PHANTOM
 10
170.221863
 20
-54.187500
 11
170.221863
 21
-49.187500
  0
LINE
  8
0
  6
PHANTOM
 10
182.721848
 20
-54.187485
 11
183.471848
 21
-53.754475
  0
LINE
  8
0
  6
PHANTOM
 10
170.221878
 20
-54.187489
 11
169.471878
 21
-53.754475
  0
LINE
  8
0
  6
PHANTOM
 10
170.221863
 20
-54.187500
 11
182.721863
 21
-54.187500
  0
LINE
  8
0
 10
179.971863
 20
-26.287498
 11
179.971863
 21
-28.587502
  0
LINE
  8
0
 10
181.121872
 20
-28.587502
 11
171.821869
 21
-28.587502
  0
LINE
  8
0
 10
172.971863
 20
-28.587502
 11
172.971863
 21
-26.287498
  0
LINE
  8
0
 10
172.971863
 20
-26.287498
 11
179.971863
 21
-26.287498
  0
LINE
  8
0
 10
181.121857
 20
-28.587502
 11
181.121857
 21
-29.187500
  0
LINE
  8
0
 10
171.821869
 20
-28.587502
 11
171.821869
 21
-29.187500
  0
LINE
  8
0
 10
170.471863
 20
-59.187500
 11
182.471863
 21
-59.187500
  0
LINE
  8
0
 10
170.471863
 20
-58.387505
 11
182.471863
 21
-58.387505
  0
LINE
  8
0
 10
170.471863
 20
-59.187500
 11
170.471863
 21
-58.387505
  0
LINE
  8
0
 10
182.471863
 20
-59.187500
 11
182.471863
 21
-58.387505
  0
LINE
  8
0
 10
170.971863
 20
-60.837502
 11
170.971863
 21
-48.037498
  0
LINE
  8
0
 10
181.971863
 20
-60.704166
 11
181.971863
 21
-47.904167
  0
LINE
  8
0
  6
PHANTOM
 10
182.309647
 20
-57.337288
 11
182.309647
 21
-50.645599
  0
LINE
  8
0
  6
PHANTOM
 10
181.609650
 20
-57.337288
 11
181.609650
 21
-50.582710
  0
LINE
  8
0
  6
PHANTOM
 10
171.316345
 20
-56.953392
 11
171.316345
 21
-50.347702
  0
LINE
  8
0
  6
PHANTOM
 10
170.616348
 20
-56.953392
 11
170.616348
 21
-50.268272
  0
LINE
  8
0
 10
179.971863
 20
-72.287498
 11
179.971863
 21
-59.187500
  0
LINE
  8
0
 10
172.971863
 20
-72.287498
 11
172.971863
 21
-59.187500
  0
LINE
  8
0
 10
167.971848
 20
-44.187534
 11
166.671844
 21
-43.436974
  0
LINE
  8
0
 10
167.971909
 20
-39.187553
 11
166.671906
 21
-39.938114
  0
LINE
  8
0
 10
166.671860
 20
-43.436935
 11
166.671860
 21
-39.938065
  0
LINE
  8
0
 10
167.971878
 20
-44.187500
 11
184.971878
 21
-44.187500
  0
LINE
  8
0
 10
167.971878
 20
-39.187500
 11
184.971893
 21
-39.187500
  0
LINE
  8
0
 10
184.971878
 20
-44.187531
 11
186.271881
 21
-43.436974
  0
LINE
  8
0
 10
186.271866
 20
-43.436935
 11
186.271866
 21
-39.938065
  0
LINE
  8
0
 10
184.971863
 20
-39.187496
 11
186.271851
 21
-39.938053
  0
LINE
  8
0
 10
167.971893
 20
-39.187511
 11
166.671906
 21
-39.938068
  0
LINE
  8
0
 10
181.379333
 20
-43.436935
 11
181.379333
 21
-39.938065
  0
LINE
  8
0
 10
171.564392
 20
-43.436935
 11
171.564392
 21
-39.938065
  0
LINE
  8
0
 10
167.971848
 20
-39.187542
 11
166.671860
 21
-38.436981
  0
LINE
  8
0
 10
167.971893
 20
-34.187538
 11
166.671890
 21
-34.938103
  0
LINE
  8
0
 10
166.671860
 20
-38.436935
 11
166.671860
 21
-34.938065
  0
LINE
  8
0
 10
167.971878
 20
-39.187500
 11
184.971878
 21
-39.187500
  0
LINE
  8
0
 10
167.971878
 20
-34.187500
 11
184.971893
 21
-34.187500
  0
LINE
  8
0
 10
184.971878
 20
-39.187515
 11
186.271881
 21
-38.436958
  0
LINE
  8
0
 10
186.271866
 20
-38.436935
 11
186.271866
 21
-34.938065
  0
LINE
  8
0
 10
184.971863
 20
-34.187485
 11
186.271851
 21
-34.938042
  0
LINE
  8
0
 10
167.971878
 20
-34.187519
 11
166.671890
 21
-34.938076
  0
LINE
  8
0
 10
181.379333
 20
-38.436935
 11
181.379333
 21
-34.938065
  0
LINE
  8
0
 10
171.564392
 20
-38.436935
 11
171.564392
 21
-34.938065
  0
LINE
  8
0
 10
182.721863
 20
-34.187500
 11
182.721863
 21
-29.187500
  0
LINE
  8
0
 10
183.471863
 20
-34.187500
 11
183.471863
 21
-29.620514
  0
LINE
  8
0
 10
170.221863
 20
-34.187500
 11
170.221863
 21
-29.187500
  0
LINE
  8
0
 10
169.471863
 20
-34.187500
 11
169.471863
 21
-29.620514
  0
LINE
  8
0
  6
PHANTOM
 10
169.471863
 20
-53.754486
 11
183.471863
 21
-53.754486
  0
LINE
  8
0
 10
169.471863
 20
-29.620514
 11
183.471863
 21
-29.620514
  0
LINE
  8
0
 10
172.971863
 20
-72.287498
 11
179.971863
 21
-72.287498
  0
LINE
  8
0
 10
172.971863
 20
-57.687500
 11
172.971863
 21
-57.373634
  0
LINE
  8
0
 10
170.971863
 20
-57.687500
 11
181.971863
 21
-57.687500
  0
LINE
  8
0
 10
181.971863
 20
-57.687923
 11
170.971863
 21
-57.303795
  0
LINE
  8
0
 10
181.971863
 20
-56.987488
 11
170.971863
 21
-56.603355
  0
LINE
  8
0
 10
179.971863
 20
-56.917656
 11
179.971863
 21
-50.901779
  0
LINE
  8
0
 10
172.971863
 20
-56.673210
 11
172.971863
 21
-50.657333
  0
LINE
  8
0
 10
181.971863
 20
-50.971615
 11
170.971863
 21
-50.587482
  0
LINE
  8
0
 10
181.971863
 20
-50.271183
 11
170.971863
 21
-49.887054
  0
LINE
  8
0
 10
170.971863
 20
-49.887497
 11
181.971863
 21
-49.887497
  0
LINE
  8
0
 10
179.971863
 20
-50.201355
 11
179.971863
 21
-49.887497
  0
LINE
  8
0
 10
182.721863
 20
-49.187496
 11
183.471863
 21
-48.754482
  0
LINE
  8
0
 10
182.721863
 20
-49.187500
 11
182.721863
 21
-44.187500
  0
LINE
  8
0
 10
183.471863
 20
-48.754486
 11
183.471863
 21
-44.187500
  0
LINE
  8
0
 10
169.471863
 20
-48.754486
 11
183.471863
 21
-48.754486
  0
LINE
  8
0
 10
170.221878
 20
-49.187500
 11
182.721863
 21
-49.187500
  0
LINE
  8
0
 10
170.221878
 20
-49.187485
 11
169.471878
 21
-48.754471
  0
LINE
  8
0
 10
169.471863
 20
-48.754486
 11
169.471863
 21
-44.187500
  0
LINE
  8
0
 10
170.221863
 20
-49.187500
 11
170.221863
 21
-44.187500
  0
LINE
  8
0
 10
161.471878
 20
-81.787506
 11
191.471863
 21
-81.787506
  0
LINE
  8
0
 10
191.471863
 20
-81.787491
 11
191.754715
 21
-81.504654
  0
LINE
  8
0
 10
191.754715
 20
-81.504662
 11
190.716843
 21
-80.466797
  0
LINE
  8
0
 10
166.471863
 20
-74.287498
 11
186.471863
 21
-74.287498
  0
LINE
  8
0
 10
191.471863
 20
-79.287506
 11
191.471863
 21
-76.287498
  0
LINE
  8
0
 10
190.716843
 20
-80.042519
 11
191.471878
 21
-79.287491
  0
LINE
  8
0
 10
161.189011
 20
-81.504654
 11
162.226883
 21
-80.466782
  0
LINE
  8
0
 10
162.226883
 20
-80.042526
 11
161.471848
 21
-79.287491
  0
LINE
  8
0
 10
161.471863
 20
-81.787491
 11
161.189011
 21
-81.504654
  0
LINE
  8
0
 10
161.471863
 20
-79.287506
 11
161.471863
 21
-76.287498
  0
LINE
  8
0
 10
191.471863
 20
-79.287514
 11
161.471863
 21
-79.287514
  0
LINE
  8
0
 10
161.188995
 20
-81.504662
 11
191.754715
 21
-81.504662
  0
LINE
  8
0
 10
190.071869
 20
-80.254669
 11
162.761871
 21
-80.254669
  0
LINE
  8
0
 10
161.471863
 20
-76.287498
 11
191.471863
 21
-76.287498
  0
LINE
  8
0
 10
186.471863
 20
-76.287498
 11
186.471863
 21
-74.287498
  0
LINE
  8
0
 10
166.471863
 20
-76.287498
 11
166.471863
 21
-74.287498
  0
ARC
  8
0
 10
171.107956
 20
-66.459183
 40
1.263915
 50
324.813568
 51
35.186165
  0
ARC
  8
0
 10
171.107956
 20
-62.115810
 40
1.263913
 50
324.813690
 51
35.186306
  0
ARC
  8
0
 10
167.745804
 20
-64.287498
 40
4.626064
 50
341.819641
 51
18.180359
  0
ARC
  8
0
 10
178.643555
 20
-24.423592
 40
1.263906
 50
234.814117
 51
305.186432
  0
ARC
  8
0
 10
176.471878
 20
-21.061440
 40
4.626069
 50
251.819458
 51
288.180176
  0
ARC
  8
0
 10
174.300186
 20
-24.051414
 40
1.263906
 50
54.814121
 51
125.186447
  0
ARC
  8
0
 10
174.300186
 20
-24.423592
 40
1.263915
 50
234.813553
 51
305.185883
  0
ARC
  8
0
 10
178.643555
 20
-24.051414
 40
1.263915
 50
54.813553
 51
125.185883
  0
ARC
  8
0
 10
176.471863
 20
-27.413567
 40
4.626069
 50
71.819466
 51
83.795166
  0
ARC
  8
0
 10
164.671860
 20
-63.212601
 40
0.200000
 50
97.593346
 51
180.000000
  0
ARC
  8
0
 10
167.571869
 20
-65.637497
 40
0.099998
 50
90.000000
 51
180.000000
  0
ARC
  8
0
 10
167.571869
 20
-62.937496
 40
0.100006
 50
180.000000
 51
270.000000
  0
ARC
  8
0
 10
164.671860
 20
-65.362396
 40
0.199997
 50
180.000000
 51
262.406525
  0
ARC
  8
0
 10
169.371857
 20
-62.937496
 40
0.100002
 50
270.000000
 51
0.000000
  0
ARC
  8
0
 10
169.371857
 20
-65.637497
 40
0.100006
 50
0.000000
 51
90.000000
  0
ARC
  8
0
 10
170.735779
 20
-62.115810
 40
1.263913
 50
144.813690
 51
215.186157
  0
ARC
  8
0
 10
170.735779
 20
-66.459183
 40
1.263911
 50
144.813843
 51
215.186447
  0
ARC
  8
0
 10
174.097931
 20
-64.287498
 40
4.626065
 50
161.819595
 51
198.180267
  0
ARC
  8
0
 10
176.471863
 20
-27.413567
 40
4.626063
 50
96.204643
 51
108.180168
  0
CIRCLE
  8
0
 10
170.971863
 20
-49.537498
 40
0.350000
  0
CIRCLE
  8
0
 10
181.971863
 20
-49.537498
 40
0.350000
  0
CIRCLE
  8
0
 10
181.971863
 20
-58.037498
 40
0.350000
  0
CIRCLE
  8
0
 10
170.971863
 20
-58.037498
 40
0.350000
  0
CIRCLE
  8
0
 10
170.966354
 20
-56.953392
 40
0.350000
  0
CIRCLE
  8
0
 10
181.959656
 20
-57.337288
 40
0.350000
  0
CIRCLE
  8
0
 10
181.977386
 20
-50.621605
 40
0.350000
  0
CIRCLE
  8
0
 10
170.984085
 20
-50.237709
 40
0.350000
  0
ARC
  8
0
 10
169.118134
 20
-39.825760
 40
4.361739
 50
235.885757
 51
304.114197
  0
ARC
  8
0
 10
183.825607
 20
-39.825760
 40
4.361739
 50
235.885757
 51
304.114197
  0
ARC
  8
0
 10
176.471863
 20
-27.768730
 40
16.418762
 50
252.608871
 51
287.391174
  0
ARC
  8
0
 10
183.825607
 20
-43.549240
 40
4.361739
 50
55.885761
 51
124.114212
  0
ARC
  8
0
 10
176.471863
 20
-55.606270
 40
16.418772
 50
72.608765
 51
107.391129
  0
ARC
  8
0
 10
169.118134
 20
-43.549240
 40
4.361739
 50
55.885761
 51
124.114212
  0
ARC
  8
0
 10
183.825607
 20
-38.549240
 40
4.361739
 50
55.885761
 51
124.114212
  0
ARC
  8
0
 10
169.118134
 20
-38.549240
 40
4.361739
 50
55.885761
 51
124.114212
  0
ARC
  8
0
 10
183.825607
 20
-34.825760
 40
4.361739
 50
235.885757
 51
304.114197
  0
ARC
  8
0
 10
176.471863
 20
-50.606270
 40
16.418772
 50
72.608765
 51
107.391129
  0
ARC
  8
0
 10
176.471878
 20
-22.768730
 40
16.418768
 50
252.608810
 51
287.391144
  0
ARC
  8
0
 10
169.118134
 20
-34.825760
 40
4.361739
 50
235.885757
 51
304.114197
  0
ARC
  8
0
 10
190.928970
 20
-80.254662
 40
0.299999
 50
134.998962
 51
225.001038
  0
ARC
  8
0
 10
162.014755
 20
-80.254662
 40
0.299999
 50
314.998962
 51
45.001030
  0
POINT
  8
0
 10
191.754715
 20
-123.062500
  0
POINT
  8
0
 10
176.471863
 20
-123.062500
  0
LINE
  8
0
 10
176.471863
 20
-133.276855
 11
176.471863
 21
-112.431229
  0
LINE
  8
0
 10
171.564377
 20
-131.562500
 11
181.379333
 21
-131.562500
  0
LINE
  8
0
 10
171.564392
 20
-114.562500
 11
181.379349
 21
-114.562500
  0
LINE
  8
0
 10
184.266098
 20
-119.562500
 11
181.379349
 21
-114.562500
  0
LINE
  8
0
 10
171.564377
 20
-131.562500
 11
168.677628
 21
-126.562500
  0
LINE
  8
0
 10
168.677643
 20
-119.562500
 11
171.564392
 21
-114.562500
  0
LINE
  8
0
 10
181.379349
 20
-131.562500
 11
184.266098
 21
-126.562500
  0
LINE
  8
0
 10
159.761871
 20
-123.062500
 11
193.061859
 21
-123.062500
  0
LINE
  8
0
 10
164.971863
 20
-119.562500
 11
187.971863
 21
-119.562500
  0
LINE
  8
0
 10
164.971863
 20
-126.562500
 11
187.971863
 21
-126.562500
  0
LINE
  8
0
 10
164.871857
 20
-121.162498
 11
188.071869
 21
-121.162498
  0
LINE
  8
0
 10
164.871857
 20
-124.962502
 11
188.071869
 21
-124.962502
  0
LINE
  8
0
 10
164.471863
 20
-120.062500
 11
188.471863
 21
-120.062500
  0
LINE
  8
0
 10
164.471863
 20
-125.972496
 11
188.471863
 21
-125.972496
  0
LINE
  8
0
 10
162.971863
 20
-123.062500
 11
162.971863
 21
-123.062500
  0
LINE
  8
0
 10
161.471863
 20
-122.962502
 11
161.471863
 21
-123.072495
  0
LINE
  8
0
 10
166.471863
 20
-123.062500
 11
166.471863
 21
-123.062500
  0
LINE
  8
0
 10
186.471863
 20
-123.062500
 11
186.471863
 21
-123.062500
  0
LINE
  8
0
 10
162.971863
 20
-123.062500
 11
162.971863
 21
-123.062500
  0
LINE
  8
0
 10
189.971863
 20
-123.062500
 11
189.971863
 21
-123.062500
  0
ARC
  8
0
 10
176.471863
 20
-123.062500
 40
8.500005
 50
29.999981
 51
150.000015
  0
ARC
  8
0
 10
176.471863
 20
-123.062500
 40
8.500005
 50
209.999985
 51
330.000031
  0
ARC
  8
0
 10
176.471863
 20
-123.062500
 40
7.000000
 50
90.000000
 51
150.000000
  0
ARC
  8
0
 10
176.471863
 20
-123.062500
 40
7.000001
 50
210.000000
 51
329.999939
  0
ARC
  8
0
 10
176.471863
 20
-123.062500
 40
7.000001
 50
29.999992
 51
90.000000
  0
CIRCLE
  8
0
 10
176.471863
 20
-123.062500
 40
1.000000
  0
ARC
  8
0
 10
187.971863
 20
-123.062500
 40
3.500000
 50
270.000000
 51
309.332397
  0
ARC
  8
0
 10
187.971863
 20
-123.062500
 40
3.500000
 50
60.509796
 51
90.000000
  0
ARC
  8
0
 10
164.971863
 20
-123.062500
 40
3.500008
 50
90.000000
 51
119.490700
  0
ARC
  8
0
 10
164.971863
 20
-123.062500
 40
3.499998
 50
230.667160
 51
270.000000
  0
ARC
  8
0
 10
164.471863
 20
-123.062500
 40
3.000000
 50
90.000000
 51
180.000000
  0
ARC
  8
0
 10
188.471863
 20
-123.062500
 40
3.000000
 50
0.000000
 51
90.000000
  0
ARC
  8
0
 10
188.471863
 20
-122.972496
 40
3.000000
 50
270.000000
 51
358.280792
  0
ARC
  8
0
 10
164.471863
 20
-122.972496
 40
2.999992
 50
181.719208
 51
270.000000
  0
ARC
  8
0
 10
164.471863
 20
-122.972496
 40
3.282835
 50
181.571045
 51
238.436401
  0
ARC
  8
0
 10
188.471863
 20
-122.972496
 40
3.282840
 50
301.562958
 51
0.000000
  0
ARC
  8
0
 10
188.471863
 20
-123.062500
 40
3.282852
 50
0.000000
 51
68.128220
  0
ARC
  8
0
 10
164.471863
 20
-123.062500
 40
3.282838
 50
111.872131
 51
179.999863
  0
ARC
  8
0
 10
164.871857
 20
-123.062500
 40
1.900002
 50
90.000000
 51
270.000000
  0
ARC
  8
0
 10
188.071869
 20
-123.062500
 40
1.899994
 50
270.000000
 51
90.000000
  0
POINT
  8
0
 10
246.890594
 20
-39.187500
  0
POINT
  8
0
 10
256.690582
 20
-39.187500
  0
LINE
  8
0
 10
239.390594
 20
-74.287498
 11
239.390594
 21
-72.287498
  0
LINE
  8
0
 10
254.390594
 20
-74.287498
 11
254.390594
 21
-72.287498
  0
LINE
  8
0
 10
239.390594
 20
-72.287498
 11
254.390594
 21
-72.287498
  0
LINE
  8
0
 10
240.640610
 20
-29.187500
 11
253.140594
 21
-29.187500
  0
LINE
  8
0
 10
232.879471
 20
-64.287498
 11
245.557266
 21
-64.287498
  0
LINE
  8
0
 10
242.790588
 20
-61.787506
 11
242.559647
 21
-61.387512
  0
LINE
  8
0
 10
242.790588
 20
-66.787498
 11
242.559647
 21
-67.187492
  0
LINE
  8
0
 10
249.390579
 20
-25.687477
 11
249.790588
 21
-25.456535
  0
LINE
  8
0
 10
248.333969
 20
-25.456566
 11
248.333969
 21
-23.018440
  0
LINE
  8
0
 10
244.718918
 20
-22.787498
 11
246.390610
 21
-22.787498
  0
LINE
  8
0
 10
244.390594
 20
-25.687492
 11
243.990601
 21
-25.456551
  0
LINE
  8
0
 10
243.990601
 20
-25.456566
 11
243.990601
 21
-23.018440
  0
LINE
  8
0
 10
249.790588
 20
-25.456566
 11
249.790588
 21
-23.018440
  0
LINE
  8
0
 10
245.447037
 20
-23.018433
 11
245.447037
 21
-25.456558
  0
LINE
  8
0
 10
249.690598
 20
-26.287498
 11
249.690598
 21
-25.687500
  0
LINE
  8
0
 10
244.090591
 20
-25.687500
 11
249.690598
 21
-25.687500
  0
LINE
  8
0
 10
244.090591
 20
-26.287498
 11
244.090591
 21
-25.687500
  0
LINE
  8
0
 10
246.890594
 20
-85.782333
 11
246.890594
 21
-20.337494
  0
LINE
  8
0
 10
234.890594
 20
-65.362396
 11
234.890594
 21
-63.212601
  0
LINE
  8
0
 10
236.390594
 20
-65.737503
 11
236.390594
 21
-62.837498
  0
LINE
  8
0
 10
237.890594
 20
-65.737503
 11
237.890594
 21
-62.837494
  0
LINE
  8
0
 10
236.390594
 20
-65.537498
 11
237.890594
 21
-65.737503
  0
LINE
  8
0
 10
236.390594
 20
-63.037487
 11
237.890594
 21
-62.837486
  0
LINE
  8
0
 10
235.064163
 20
-65.560646
 11
236.390594
 21
-65.737503
  0
LINE
  8
0
 10
235.064148
 20
-63.014347
 11
236.390594
 21
-62.837486
  0
LINE
  8
0
 10
237.990601
 20
-65.537498
 11
239.790588
 21
-65.537498
  0
LINE
  8
0
 10
237.990601
 20
-63.037498
 11
239.790588
 21
-63.037498
  0
LINE
  8
0
 10
239.890594
 20
-66.459183
 11
239.890594
 21
-62.115810
  0
LINE
  8
0
 10
242.559662
 20
-67.187500
 11
240.121536
 21
-67.187500
  0
LINE
  8
0
 10
242.559662
 20
-61.387497
 11
240.121536
 21
-61.387497
  0
LINE
  8
0
 10
242.559662
 20
-62.844124
 11
240.121536
 21
-62.844124
  0
LINE
  8
0
 10
240.121536
 20
-65.730934
 11
242.559662
 21
-65.730934
  0
LINE
  8
0
 10
242.790588
 20
-67.087494
 11
242.790588
 21
-61.487499
  0
LINE
  8
0
 10
243.390594
 20
-67.087494
 11
242.790604
 21
-67.087494
  0
LINE
  8
0
 10
243.390594
 20
-61.487499
 11
242.790604
 21
-61.487499
  0
LINE
  8
0
 10
246.390594
 20
-22.787498
 11
246.390594
 21
-23.787498
  0
LINE
  8
0
 10
246.390594
 20
-23.787498
 11
247.390594
 21
-23.787498
  0
LINE
  8
0
 10
247.390594
 20
-23.787498
 11
247.390594
 21
-22.787498
  0
LINE
  8
0
 10
247.390610
 20
-22.787498
 11
249.062286
 21
-22.787498
  0
LINE
  8
0
 10
253.890594
 20
-29.620502
 11
253.140594
 21
-29.187489
  0
LINE
  8
0
 10
239.890579
 20
-29.620485
 11
240.640594
 21
-29.187468
  0
LINE
  8
0
  6
PHANTOM
 10
253.890594
 20
-53.754486
 11
253.890594
 21
-49.187500
  0
LINE
  8
0
  6
PHANTOM
 10
239.890594
 20
-53.754486
 11
239.890594
 21
-49.187500
  0
LINE
  8
0
  6
PHANTOM
 10
253.140594
 20
-54.187500
 11
253.140594
 21
-49.187500
  0
LINE
  8
0
  6
PHANTOM
 10
240.640594
 20
-54.187500
 11
240.640594
 21
-49.187500
  0
LINE
  8
0
  6
PHANTOM
 10
253.140579
 20
-54.187485
 11
253.890579
 21
-53.754475
  0
LINE
  8
0
  6
PHANTOM
 10
240.640610
 20
-54.187489
 11
239.890610
 21
-53.754475
  0
LINE
  8
0
  6
PHANTOM
 10
240.640594
 20
-54.187500
 11
253.140594
 21
-54.187500
  0
LINE
  8
0
 10
250.390594
 20
-26.287498
 11
250.390594
 21
-28.587502
  0
LINE
  8
0
 10
251.540604
 20
-28.587502
 11
242.240601
 21
-28.587502
  0
LINE
  8
0
 10
243.390594
 20
-28.587502
 11
243.390594
 21
-26.287498
  0
LINE
  8
0
 10
243.390594
 20
-26.287498
 11
250.390594
 21
-26.287498
  0
LINE
  8
0
 10
251.540588
 20
-28.587502
 11
251.540588
 21
-29.187500
  0
LINE
  8
0
 10
242.240601
 20
-28.587502
 11
242.240601
 21
-29.187500
  0
LINE
  8
0
 10
240.890594
 20
-59.187500
 11
252.890594
 21
-59.187500
  0
LINE
  8
0
 10
240.890594
 20
-58.387505
 11
252.890594
 21
-58.387505
  0
LINE
  8
0
 10
240.890594
 20
-59.187500
 11
240.890594
 21
-58.387505
  0
LINE
  8
0
 10
252.890594
 20
-59.187500
 11
252.890594
 21
-58.387505
  0
LINE
  8
0
 10
241.390594
 20
-60.837502
 11
241.390594
 21
-48.037498
  0
LINE
  8
0
 10
252.390594
 20
-60.704166
 11
252.390594
 21
-47.904167
  0
LINE
  8
0
  6
PHANTOM
 10
252.728378
 20
-57.337288
 11
252.728378
 21
-50.645599
  0
LINE
  8
0
  6
PHANTOM
 10
252.028381
 20
-57.337288
 11
252.028381
 21
-50.582710
  0
LINE
  8
0
  6
PHANTOM
 10
241.735077
 20
-56.953392
 11
241.735077
 21
-50.347702
  0
LINE
  8
0
  6
PHANTOM
 10
241.035080
 20
-56.953392
 11
241.035080
 21
-50.268272
  0
LINE
  8
0
 10
250.390594
 20
-72.287498
 11
250.390594
 21
-59.187500
  0
LINE
  8
0
 10
243.390594
 20
-72.287498
 11
243.390594
 21
-59.187500
  0
LINE
  8
0
 10
238.390579
 20
-44.187531
 11
237.090576
 21
-43.436970
  0
LINE
  8
0
 10
238.390640
 20
-39.187553
 11
237.090637
 21
-39.938114
  0
LINE
  8
0
 10
237.090591
 20
-43.436935
 11
237.090591
 21
-39.938065
  0
LINE
  8
0
 10
238.390610
 20
-44.187500
 11
255.390610
 21
-44.187500
  0
LINE
  8
0
 10
238.390610
 20
-39.187500
 11
255.390625
 21
-39.187500
  0
LINE
  8
0
 10
255.390610
 20
-44.187531
 11
256.690613
 21
-43.436974
  0
LINE
  8
0
 10
256.690582
 20
-43.436935
 11
256.690582
 21
-39.938065
  0
LINE
  8
0
 10
255.390594
 20
-39.187496
 11
256.690582
 21
-39.938053
  0
LINE
  8
0
 10
238.390625
 20
-39.187511
 11
237.090637
 21
-39.938068
  0
LINE
  8
0
 10
251.798065
 20
-43.436935
 11
251.798065
 21
-39.938065
  0
LINE
  8
0
 10
241.983124
 20
-43.436935
 11
241.983124
 21
-39.938065
  0
LINE
  8
0
 10
238.390579
 20
-39.187542
 11
237.090591
 21
-38.436981
  0
LINE
  8
0
 10
238.390625
 20
-34.187538
 11
237.090622
 21
-34.938103
  0
LINE
  8
0
 10
237.090591
 20
-38.436935
 11
237.090591
 21
-34.938065
  0
LINE
  8
0
 10
238.390610
 20
-39.187500
 11
255.390610
 21
-39.187500
  0
LINE
  8
0
 10
238.390610
 20
-34.187500
 11
255.390625
 21
-34.187500
  0
LINE
  8
0
 10
255.390610
 20
-39.187515
 11
256.690613
 21
-38.436958
  0
LINE
  8
0
 10
256.690582
 20
-38.436935
 11
256.690582
 21
-34.938065
  0
LINE
  8
0
 10
255.390594
 20
-34.187485
 11
256.690582
 21
-34.938042
  0
LINE
  8
0
 10
238.390610
 20
-34.187519
 11
237.090622
 21
-34.938076
  0
LINE
  8
0
 10
251.798065
 20
-38.436935
 11
251.798065
 21
-34.938065
  0
LINE
  8
0
 10
241.983124
 20
-38.436935
 11
241.983124
 21
-34.938065
  0
LINE
  8
0
 10
253.140594
 20
-34.187500
 11
253.140594
 21
-29.187500
  0
LINE
  8
0
 10
253.890594
 20
-34.187500
 11
253.890594
 21
-29.620514
  0
LINE
  8
0
 10
240.640594
 20
-34.187500
 11
240.640594
 21
-29.187500
  0
LINE
  8
0
 10
239.890594
 20
-34.187500
 11
239.890594
 21
-29.620514
  0
LINE
  8
0
  6
PHANTOM
 10
239.890594
 20
-53.754486
 11
253.890594
 21
-53.754486
  0
LINE
  8
0
 10
239.890594
 20
-29.620514
 11
253.890594
 21
-29.620514
  0
LINE
  8
0
 10
243.390594
 20
-72.287498
 11
250.390594
 21
-72.287498
  0
LINE
  8
0
 10
243.390594
 20
-57.687500
 11
243.390594
 21
-57.373634
  0
LINE
  8
0
 10
241.390594
 20
-57.687500
 11
252.390594
 21
-57.687500
  0
LINE
  8
0
 10
252.390594
 20
-57.687923
 11
241.390594
 21
-57.303795
  0
LINE
  8
0
 10
252.390594
 20
-56.987488
 11
241.390594
 21
-56.603355
  0
LINE
  8
0
 10
250.390594
 20
-56.917656
 11
250.390594
 21
-50.901779
  0
LINE
  8
0
 10
243.390594
 20
-56.673210
 11
243.390594
 21
-50.657333
  0
LINE
  8
0
 10
252.390594
 20
-50.971615
 11
241.390594
 21
-50.587482
  0
LINE
  8
0
 10
252.390594
 20
-50.271183
 11
241.390594
 21
-49.887054
  0
LINE
  8
0
 10
241.390594
 20
-49.887497
 11
252.390594
 21
-49.887497
  0
LINE
  8
0
 10
250.390594
 20
-50.201355
 11
250.390594
 21
-49.887497
  0
LINE
  8
0
 10
253.140594
 20
-49.187496
 11
253.890594
 21
-48.754482
  0
LINE
  8
0
 10
253.140594
 20
-49.187500
 11
253.140594
 21
-44.187500
  0
LINE
  8
0
 10
253.890594
 20
-48.754486
 11
253.890594
 21
-44.187500
  0
LINE
  8
0
 10
239.890594
 20
-48.754486
 11
253.890594
 21
-48.754486
  0
LINE
  8
0
 10
240.640610
 20
-49.187500
 11
253.140594
 21
-49.187500
  0
LINE
  8
0
 10
240.640610
 20
-49.187485
 11
239.890610
 21
-48.754471
  0
LINE
  8
0
 10
239.890594
 20
-48.754486
 11
239.890594
 21
-44.187500
  0
LINE
  8
0
 10
240.640594
 20
-49.187500
 11
240.640594
 21
-44.187500
  0
LINE
  8
0
 10
231.890610
 20
-81.787506
 11
261.890594
 21
-81.787506
  0
LINE
  8
0
 10
261.890594
 20
-81.787491
 11
262.173431
 21
-81.504654
  0
LINE
  8
0
 10
262.173431
 20
-81.504662
 11
261.135559
 21
-80.466797
  0
LINE
  8
0
 10
236.890594
 20
-74.287498
 11
256.890594
 21
-74.287498
  0
LINE
  8
0
 10
261.890594
 20
-79.287506
 11
261.890594
 21
-76.287498
  0
LINE
  8
0
 10
261.135559
 20
-80.042519
 11
261.890594
 21
-79.287491
  0
LINE
  8
0
 10
231.607742
 20
-81.504654
 11
232.645615
 21
-80.466782
  0
LINE
  8
0
 10
232.645615
 20
-80.042526
 11
231.890579
 21
-79.287491
  0
LINE
  8
0
 10
231.890594
 20
-81.787491
 11
231.607742
 21
-81.504654
  0
LINE
  8
0
 10
231.890594
 20
-79.287506
 11
231.890594
 21
-76.287498
  0
LINE
  8
0
 10
261.890594
 20
-79.287514
 11
231.890594
 21
-79.287514
  0
LINE
  8
0
 10
231.607727
 20
-81.504662
 11
262.173431
 21
-81.504662
  0
LINE
  8
0
 10
260.490601
 20
-80.254669
 11
233.180603
 21
-80.254669
  0
LINE
  8
0
 10
231.890594
 20
-76.287498
 11
261.890594
 21
-76.287498
  0
LINE
  8
0
 10
256.890594
 20
-76.287498
 11
256.890594
 21
-74.287498
  0
LINE
  8
0
 10
236.890594
 20
-76.287498
 11
236.890594
 21
-74.287498
  0
ARC
  8
0
 10
241.526688
 20
-66.459183
 40
1.263915
 50
324.813568
 51
35.186165
  0
ARC
  8
0
 10
241.526688
 20
-62.115810
 40
1.263913
 50
324.813690
 51
35.186306
  0
ARC
  8
0
 10
238.164536
 20
-64.287498
 40
4.626064
 50
341.819641
 51
18.180359
  0
ARC
  8
0
 10
249.062286
 20
-24.423592
 40
1.263906
 50
234.814117
 51
305.186432
  0
ARC
  8
0
 10
246.890610
 20
-21.061440
 40
4.626069
 50
251.819458
 51
288.180176
  0
ARC
  8
0
 10
244.718918
 20
-24.051414
 40
1.263906
 50
54.814121
 51
125.186447
  0
ARC
  8
0
 10
244.718918
 20
-24.423592
 40
1.263915
 50
234.813553
 51
305.185883
  0
ARC
  8
0
 10
249.062286
 20
-24.051414
 40
1.263915
 50
54.813553
 51
125.185883
  0
ARC
  8
0
 10
246.890594
 20
-27.413567
 40
4.626069
 50
71.819466
 51
83.795166
  0
ARC
  8
0
 10
235.090591
 20
-63.212601
 40
0.200000
 50
97.593346
 51
180.000000
  0
ARC
  8
0
 10
237.990601
 20
-65.637497
 40
0.099998
 50
90.000000
 51
180.000000
  0
ARC
  8
0
 10
237.990601
 20
-62.937496
 40
0.100006
 50
180.000000
 51
270.000000
  0
ARC
  8
0
 10
235.090591
 20
-65.362396
 40
0.199997
 50
180.000000
 51
262.406525
  0
ARC
  8
0
 10
239.790588
 20
-62.937496
 40
0.100002
 50
270.000000
 51
0.000000
  0
ARC
  8
0
 10
239.790588
 20
-65.637497
 40
0.100006
 50
0.000000
 51
90.000000
  0
ARC
  8
0
 10
241.154510
 20
-62.115810
 40
1.263913
 50
144.813690
 51
215.186157
  0
ARC
  8
0
 10
241.154510
 20
-66.459183
 40
1.263911
 50
144.813843
 51
215.186447
  0
ARC
  8
0
 10
244.516663
 20
-64.287498
 40
4.626065
 50
161.819595
 51
198.180267
  0
ARC
  8
0
 10
246.890594
 20
-27.413567
 40
4.626063
 50
96.204643
 51
108.180168
  0
CIRCLE
  8
0
 10
241.390594
 20
-49.537498
 40
0.350000
  0
CIRCLE
  8
0
 10
252.390594
 20
-49.537498
 40
0.350000
  0
CIRCLE
  8
0
 10
252.390594
 20
-58.037498
 40
0.350000
  0
CIRCLE
  8
0
 10
241.390594
 20
-58.037498
 40
0.350000
  0
CIRCLE
  8
0
 10
241.385086
 20
-56.953392
 40
0.350000
  0
CIRCLE
  8
0
 10
252.378387
 20
-57.337288
 40
0.350000
  0
CIRCLE
  8
0
 10
252.396118
 20
-50.621605
 40
0.350000
  0
CIRCLE
  8
0
 10
241.402817
 20
-50.237709
 40
0.350000
  0
ARC
  8
0
 10
239.536865
 20
-39.825760
 40
4.361739
 50
235.885757
 51
304.114197
  0
ARC
  8
0
 10
254.244339
 20
-39.825760
 40
4.361739
 50
235.885757
 51
304.114044
  0
ARC
  8
0
 10
246.890594
 20
-27.768730
 40
16.418762
 50
252.608871
 51
287.391174
  0
ARC
  8
0
 10
254.244339
 20
-43.549240
 40
4.361748
 50
55.885597
 51
124.114212
  0
ARC
  8
0
 10
246.890594
 20
-55.606270
 40
16.418772
 50
72.608765
 51
107.391129
  0
ARC
  8
0
 10
239.536865
 20
-43.549240
 40
4.361739
 50
55.885761
 51
124.114212
  0
ARC
  8
0
 10
254.244339
 20
-38.549240
 40
4.361748
 50
55.885597
 51
124.114212
  0
ARC
  8
0
 10
239.536865
 20
-38.549240
 40
4.361739
 50
55.885761
 51
124.114212
  0
ARC
  8
0
 10
254.244339
 20
-34.825760
 40
4.361739
 50
235.885757
 51
304.114044
  0
ARC
  8
0
 10
246.890594
 20
-50.606270
 40
16.418772
 50
72.608765
 51
107.391129
  0
ARC
  8
0
 10
246.890610
 20
-22.768730
 40
16.418768
 50
252.608810
 51
287.391144
  0
ARC
  8
0
 10
239.536865
 20
-34.825760
 40
4.361739
 50
235.885757
 51
304.114197
  0
ARC
  8
0
 10
261.347717
 20
-80.254662
 40
0.300021
 50
135.003098
 51
224.996902
  0
ARC
  8
0
 10
232.433487
 20
-80.254662
 40
0.299999
 50
314.998962
 51
45.001030
  0
POINT
  8
0
 10
246.890594
 20
-123.062500
  0
POINT
  8
0
 10
262.173431
 20
-123.062500
  0
LINE
  8
0
 10
246.890594
 20
-133.276855
 11
246.890594
 21
-112.431229
  0
LINE
  8
0
 10
241.983109
 20
-131.562500
 11
251.798065
 21
-131.562500
  0
LINE
  8
0
 10
241.983124
 20
-114.562500
 11
251.798080
 21
-114.562500
  0
LINE
  8
0
 10
254.251816
 20
-118.812500
 11
251.798080
 21
-114.562500
  0
LINE
  8
0
 10
241.983109
 20
-131.562500
 11
239.548340
 21
-127.345337
  0
LINE
  8
0
 10
239.548340
 20
-118.779655
 11
241.983124
 21
-114.562500
  0
LINE
  8
0
 10
251.798080
 20
-131.562500
 11
254.232849
 21
-127.345337
  0
LINE
  8
0
 10
231.000595
 20
-123.062500
 11
263.013916
 21
-123.062500
  0
LINE
  8
0
 10
233.390594
 20
-123.062500
 11
233.390594
 21
-123.062500
  0
LINE
  8
0
 10
231.890594
 20
-122.962502
 11
231.890594
 21
-123.072495
  0
LINE
  8
0
 10
231.890594
 20
-122.972496
 11
231.890594
 21
-123.062500
  0
LINE
  8
0
 10
236.890594
 20
-123.062500
 11
236.890594
 21
-123.062500
  0
LINE
  8
0
 10
256.890594
 20
-123.062500
 11
256.890594
 21
-123.062500
  0
LINE
  8
0
 10
261.890594
 20
-122.972496
 11
261.890594
 21
-123.062500
  0
LINE
  8
0
 10
262.173431
 20
-122.972496
 11
262.173431
 21
-123.062500
  0
LINE
  8
0
 10
233.390594
 20
-123.062500
 11
233.390594
 21
-123.062500
  0
LINE
  8
0
 10
260.390594
 20
-123.062500
 11
260.390594
 21
-123.062500
  0
LINE
  8
0
 10
231.890594
 20
-123.062500
 11
231.890594
 21
-123.062500
  0
LINE
  8
0
 10
261.890594
 20
-123.062500
 11
261.890594
 21
-123.062500
  0
LINE
  8
0
 10
231.607758
 20
-123.062500
 11
231.607758
 21
-123.062500
  0
LINE
  8
0
 10
262.173431
 20
-123.062500
 11
262.173431
 21
-123.062500
  0
LINE
  8
0
 10
235.890594
 20
-127.062500
 11
257.890594
 21
-127.062500
  0
LINE
  8
0
 10
235.890594
 20
-119.062500
 11
257.890594
 21
-119.062500
  0
LINE
  8
0
 10
235.890594
 20
-118.779655
 11
257.890594
 21
-118.779655
  0
LINE
  8
0
 10
235.890594
 20
-127.345337
 11
257.890594
 21
-127.345337
  0
LINE
  8
0
 10
236.290588
 20
-125.962502
 11
257.490601
 21
-125.962502
  0
LINE
  8
0
 10
236.290588
 20
-120.162498
 11
257.490601
 21
-120.162498
  0
LINE
  8
0
 10
260.390594
 20
-123.062500
 11
260.390594
 21
-123.062500
  0
LINE
  8
0
 10
233.390594
 20
-123.062500
 11
233.390594
 21
-123.062500
  0
ARC
  8
0
 10
246.890594
 20
-123.062500
 40
8.500005
 50
29.999981
 51
149.744095
  0
ARC
  8
0
 10
246.890594
 20
-123.062500
 40
8.500003
 50
210.255905
 51
330.000031
  0
ARC
  8
0
 10
246.890594
 20
-123.062500
 40
6.999998
 50
37.722313
 51
142.277740
  0
ARC
  8
0
 10
246.890594
 20
-123.062500
 40
6.000003
 50
45.545517
 51
134.454529
  0
ARC
  8
0
 10
246.890594
 20
-123.062500
 40
6.999993
 50
217.722260
 51
322.277740
  0
CIRCLE
  8
0
 10
246.890594
 20
-123.062500
 40
1.000000
  0
ARC
  8
0
 10
236.290588
 20
-123.062500
 40
2.900002
 50
90.000000
 51
270.000000
  0
ARC
  8
0
 10
257.490601
 20
-123.062500
 40
2.900002
 50
270.000000
 51
90.000000
  0
ARC
  8
0
 10
257.890594
 20
-123.062500
 40
4.000000
 50
270.000000
 51
90.000000
  0
ARC
  8
0
 10
235.890594
 20
-123.062500
 40
4.000000
 50
90.000000
 51
270.000000
  0
ARC
  8
0
 10
235.890594
 20
-123.062500
 40
4.282837
 50
90.000000
 51
270.000000
  0
ARC
  8
0
 10
257.890594
 20
-123.062500
 40
4.282837
 50
270.000000
 51
90.000000
  0
TEXT
  8
0
 10
-226.508850
 20
104.504295
 40
3.500000
  1
STROK
 50
89.900002
 41
1.052632
 51
0.000000
  7
STANDARD
  0
LINE
  8
0
 10
-225.493149
 20
123.562500
 11
-225.493149
 21
105.252533
  0
LINE
  8
0
 10
-225.493149
 20
128.562500
 11
-225.493149
 21
123.562500
  0
LINE
  8
0
 10
-225.493149
 20
128.562500
 11
-226.269608
 21
131.460281
  0
LINE
  8
0
 10
-225.493149
 20
128.562500
 11
-224.716690
 21
131.460281
  0
LINE
  8
0
 10
-225.493149
 20
128.562500
 11
-225.493149
 21
134.562500
  0
LINE
  8
0
 10
-225.493149
 20
123.562500
 11
-224.716690
 21
120.664726
  0
LINE
  8
0
 10
-225.493149
 20
123.562500
 11
-226.269608
 21
120.664726
  0
LINE
  8
0
 10
-225.493149
 20
123.562500
 11
-225.493149
 21
117.562500
  0
LINE
  8
0
 10
-239.790649
 20
128.562500
 11
-223.993149
 21
128.562500
  0
LINE
  8
0
 10
-239.790649
 20
123.562500
 11
-223.993149
 21
123.562500
  0
TEXT
  8
0
 10
-156.090088
 20
104.504311
 40
3.500000
  1
STROK
 50
89.900002
 41
1.052632
 51
0.000000
  7
STANDARD
  0
LINE
  8
0
 10
-155.074387
 20
123.562515
 11
-155.074387
 21
105.252548
  0
LINE
  8
0
 10
-155.074387
 20
128.562515
 11
-155.074387
 21
123.562515
  0
LINE
  8
0
 10
-155.074387
 20
128.562515
 11
-155.850845
 21
131.460297
  0
LINE
  8
0
 10
-155.074387
 20
128.562515
 11
-154.297928
 21
131.460297
  0
LINE
  8
0
 10
-155.074387
 20
128.562515
 11
-155.074387
 21
134.562515
  0
LINE
  8
0
 10
-155.074387
 20
123.562515
 11
-154.297928
 21
120.664742
  0
LINE
  8
0
 10
-155.074387
 20
123.562515
 11
-155.850845
 21
120.664742
  0
LINE
  8
0
 10
-155.074387
 20
123.562515
 11
-155.074387
 21
117.562515
  0
LINE
  8
0
 10
-169.371887
 20
128.562515
 11
-153.574387
 21
128.562515
  0
LINE
  8
0
 10
-169.371887
 20
123.562515
 11
-153.574387
 21
123.562515
  0
TEXT
  8
0
 10
-85.671341
 20
104.504311
 40
3.500000
  1
STROK
 50
89.900002
 41
1.052632
 51
0.000000
  7
STANDARD
  0
LINE
  8
0
 10
-84.655632
 20
123.562515
 11
-84.655632
 21
105.252548
  0
LINE
  8
0
 10
-84.655632
 20
128.562515
 11
-84.655632
 21
123.562515
  0
LINE
  8
0
 10
-84.655632
 20
128.562515
 11
-85.432091
 21
131.460297
  0
LINE
  8
0
 10
-84.655632
 20
128.562515
 11
-83.879173
 21
131.460297
  0
LINE
  8
0
 10
-84.655632
 20
128.562515
 11
-84.655632
 21
134.562515
  0
LINE
  8
0
 10
-84.655632
 20
123.562515
 11
-83.879173
 21
120.664742
  0
LINE
  8
0
 10
-84.655632
 20
123.562515
 11
-85.432091
 21
120.664742
  0
LINE
  8
0
 10
-84.655632
 20
123.562515
 11
-84.655632
 21
117.562515
  0
LINE
  8
0
 10
-98.953133
 20
128.562515
 11
-83.155632
 21
128.562515
  0
LINE
  8
0
 10
-98.953133
 20
123.562515
 11
-83.155632
 21
123.562515
  0
TEXT
  8
0
 10
-15.252593
 20
104.504311
 40
3.500000
  1
STROK
 50
89.900002
 41
1.052632
 51
0.000000
  7
STANDARD
  0
LINE
  8
0
 10
-14.236885
 20
123.562515
 11
-14.236885
 21
105.252548
  0
LINE
  8
0
 10
-14.236885
 20
128.562515
 11
-14.236885
 21
123.562515
  0
LINE
  8
0
 10
-14.236885
 20
128.562515
 11
-15.013342
 21
131.460297
  0
LINE
  8
0
 10
-14.236885
 20
128.562515
 11
-13.460428
 21
131.460297
  0
LINE
  8
0
 10
-14.236885
 20
128.562515
 11
-14.236885
 21
134.562515
  0
LINE
  8
0
 10
-14.236885
 20
123.562515
 11
-13.460428
 21
120.664742
  0
LINE
  8
0
 10
-14.236885
 20
123.562515
 11
-15.013342
 21
120.664742
  0
LINE
  8
0
 10
-14.236885
 20
123.562515
 11
-14.236885
 21
117.562515
  0
LINE
  8
0
 10
-28.534386
 20
128.562515
 11
-12.736885
 21
128.562515
  0
LINE
  8
0
 10
-28.534386
 20
123.562515
 11
-12.736885
 21
123.562515
  0
TEXT
  8
0
 10
55.166149
 20
104.504311
 40
3.500000
  1
STROK
 50
89.900002
 41
1.052632
 51
0.000000
  7
STANDARD
  0
LINE
  8
0
 10
56.181862
 20
123.562515
 11
56.181862
 21
105.252548
  0
LINE
  8
0
 10
56.181862
 20
128.562515
 11
56.181862
 21
123.562515
  0
LINE
  8
0
 10
56.181862
 20
128.562515
 11
55.405403
 21
131.460297
  0
LINE
  8
0
 10
56.181862
 20
128.562515
 11
56.958321
 21
131.460297
  0
LINE
  8
0
 10
56.181862
 20
128.562515
 11
56.181862
 21
134.562515
  0
LINE
  8
0
 10
56.181862
 20
123.562515
 11
56.958321
 21
120.664742
  0
LINE
  8
0
 10
56.181862
 20
123.562515
 11
55.405403
 21
120.664742
  0
LINE
  8
0
 10
56.181862
 20
123.562515
 11
56.181862
 21
117.562515
  0
LINE
  8
0
 10
41.884361
 20
128.562515
 11
57.681862
 21
128.562515
  0
LINE
  8
0
 10
41.884361
 20
123.562515
 11
57.681862
 21
123.562515
  0
TEXT
  8
0
 10
125.584900
 20
104.504311
 40
3.500000
  1
STROK
 50
89.900002
 41
1.052632
 51
0.000000
  7
STANDARD
  0
LINE
  8
0
 10
126.600609
 20
123.562515
 11
126.600609
 21
105.252548
  0
LINE
  8
0
 10
126.600609
 20
128.562515
 11
126.600609
 21
123.562515
  0
LINE
  8
0
 10
126.600609
 20
128.562515
 11
125.824150
 21
131.460297
  0
LINE
  8
0
 10
126.600609
 20
128.562515
 11
127.377068
 21
131.460297
  0
LINE
  8
0
 10
126.600609
 20
128.562515
 11
126.600609
 21
134.562515
  0
LINE
  8
0
 10
126.600609
 20
123.562515
 11
127.377068
 21
120.664742
  0
LINE
  8
0
 10
126.600609
 20
123.562515
 11
125.824150
 21
120.664742
  0
LINE
  8
0
 10
126.600609
 20
123.562515
 11
126.600609
 21
117.562515
  0
LINE
  8
0
 10
112.303108
 20
128.562515
 11
128.100616
 21
128.562515
  0
LINE
  8
0
 10
112.303108
 20
123.562515
 11
128.100616
 21
123.562515
  0
TEXT
  8
0
 10
196.003662
 20
104.504311
 40
3.500000
  1
STROK
 50
89.900002
 41
1.052632
 51
0.000000
  7
STANDARD
  0
LINE
  8
0
 10
197.019363
 20
123.562515
 11
197.019363
 21
105.252548
  0
LINE
  8
0
 10
197.019363
 20
128.562515
 11
197.019363
 21
123.562515
  0
LINE
  8
0
 10
197.019363
 20
128.562515
 11
196.242905
 21
131.460297
  0
LINE
  8
0
 10
197.019363
 20
128.562515
 11
197.795822
 21
131.460297
  0
LINE
  8
0
 10
197.019363
 20
128.562515
 11
197.019363
 21
134.562515
  0
LINE
  8
0
 10
197.019363
 20
123.562515
 11
197.795822
 21
120.664742
  0
LINE
  8
0
 10
197.019363
 20
123.562515
 11
196.242905
 21
120.664742
  0
LINE
  8
0
 10
197.019363
 20
123.562515
 11
197.019363
 21
117.562515
  0
LINE
  8
0
 10
182.721863
 20
128.562515
 11
198.519363
 21
128.562515
  0
LINE
  8
0
 10
182.721863
 20
123.562515
 11
198.519363
 21
123.562515
  0
TEXT
  8
0
 10
266.422394
 20
104.504311
 40
3.500000
  1
STROK
 50
89.900002
 41
1.052632
 51
0.000000
  7
STANDARD
  0
LINE
  8
0
 10
267.438110
 20
123.562515
 11
267.438110
 21
105.252548
  0
LINE
  8
0
 10
267.438110
 20
128.562515
 11
267.438110
 21
123.562515
  0
LINE
  8
0
 10
267.438110
 20
128.562515
 11
266.661652
 21
131.460297
  0
LINE
  8
0
 10
267.438110
 20
128.562515
 11
268.214569
 21
131.460297
  0
LINE
  8
0
 10
267.438110
 20
128.562515
 11
267.438110
 21
134.562515
  0
LINE
  8
0
 10
267.438110
 20
123.562515
 11
268.214569
 21
120.664742
  0
LINE
  8
0
 10
267.438110
 20
123.562515
 11
266.661652
 21
120.664742
  0
LINE
  8
0
 10
267.438110
 20
123.562515
 11
267.438110
 21
117.562515
  0
LINE
  8
0
 10
253.140594
 20
128.562515
 11
268.938110
 21
128.562515
  0
LINE
  8
0
 10
253.140594
 20
123.562515
 11
268.938110
 21
123.562515
  0
TEXT
  8
0
 10
-226.508820
 20
-73.245689
 40
3.500000
  1
STROK
 50
89.900002
 41
1.052632
 51
0.000000
  7
STANDARD
  0
LINE
  8
0
 10
-225.493118
 20
-54.187485
 11
-225.493118
 21
-72.497452
  0
LINE
  8
0
 10
-225.493118
 20
-49.187485
 11
-225.493118
 21
-54.187485
  0
LINE
  8
0
 10
-225.493118
 20
-49.187485
 11
-226.269577
 21
-46.289707
  0
LINE
  8
0
 10
-225.493118
 20
-49.187485
 11
-224.716660
 21
-46.289707
  0
LINE
  8
0
 10
-225.493118
 20
-49.187485
 11
-225.493118
 21
-43.187485
  0
LINE
  8
0
 10
-225.493118
 20
-54.187485
 11
-224.716660
 21
-57.085262
  0
LINE
  8
0
 10
-225.493118
 20
-54.187485
 11
-226.269577
 21
-57.085262
  0
LINE
  8
0
 10
-225.493118
 20
-54.187485
 11
-225.493118
 21
-60.187485
  0
LINE
  8
0
 10
-239.790619
 20
-49.187485
 11
-223.993118
 21
-49.187485
  0
LINE
  8
0
 10
-239.790619
 20
-54.187485
 11
-223.993118
 21
-54.187485
  0
TEXT
  8
0
 10
-156.090088
 20
-73.245689
 40
3.500000
  1
STROK
 50
89.900002
 41
1.052632
 51
0.000000
  7
STANDARD
  0
LINE
  8
0
 10
-155.074387
 20
-54.187485
 11
-155.074387
 21
-72.497452
  0
LINE
  8
0
 10
-155.074387
 20
-49.187485
 11
-155.074387
 21
-54.187485
  0
LINE
  8
0
 10
-155.074387
 20
-49.187485
 11
-155.850845
 21
-46.289707
  0
LINE
  8
0
 10
-155.074387
 20
-49.187485
 11
-154.297928
 21
-46.289707
  0
LINE
  8
0
 10
-155.074387
 20
-49.187485
 11
-155.074387
 21
-43.187485
  0
LINE
  8
0
 10
-155.074387
 20
-54.187485
 11
-154.297928
 21
-57.085262
  0
LINE
  8
0
 10
-155.074387
 20
-54.187485
 11
-155.850845
 21
-57.085262
  0
LINE
  8
0
 10
-155.074387
 20
-54.187485
 11
-155.074387
 21
-60.187485
  0
LINE
  8
0
 10
-169.371887
 20
-49.187485
 11
-153.574387
 21
-49.187485
  0
LINE
  8
0
 10
-169.371887
 20
-54.187485
 11
-153.574387
 21
-54.187485
  0
TEXT
  8
0
 10
-85.671341
 20
-73.245689
 40
3.500000
  1
STROK
 50
89.900002
 41
1.052632
 51
0.000000
  7
STANDARD
  0
LINE
  8
0
 10
-84.655632
 20
-54.187489
 11
-84.655632
 21
-72.497452
  0
LINE
  8
0
 10
-84.655632
 20
-49.187489
 11
-84.655632
 21
-54.187489
  0
LINE
  8
0
 10
-84.655632
 20
-49.187489
 11
-85.432091
 21
-46.289711
  0
LINE
  8
0
 10
-84.655632
 20
-49.187489
 11
-83.879173
 21
-46.289711
  0
LINE
  8
0
 10
-84.655632
 20
-49.187489
 11
-84.655632
 21
-43.187489
  0
LINE
  8
0
 10
-84.655632
 20
-54.187489
 11
-83.879173
 21
-57.085266
  0
LINE
  8
0
 10
-84.655632
 20
-54.187489
 11
-85.432091
 21
-57.085266
  0
LINE
  8
0
 10
-84.655632
 20
-54.187489
 11
-84.655632
 21
-60.187489
  0
LINE
  8
0
 10
-98.953133
 20
-49.187489
 11
-83.155632
 21
-49.187489
  0
LINE
  8
0
 10
-98.953133
 20
-54.187489
 11
-83.155632
 21
-54.187489
  0
TEXT
  8
0
 10
-15.252593
 20
-73.245689
 40
3.500000
  1
STROK
 50
89.900002
 41
1.052632
 51
0.000000
  7
STANDARD
  0
LINE
  8
0
 10
-14.236885
 20
-54.187489
 11
-14.236885
 21
-72.497452
  0
LINE
  8
0
 10
-14.236885
 20
-49.187489
 11
-14.236885
 21
-54.187489
  0
LINE
  8
0
 10
-14.236885
 20
-49.187489
 11
-15.013342
 21
-46.289711
  0
LINE
  8
0
 10
-14.236885
 20
-49.187489
 11
-13.460428
 21
-46.289711
  0
LINE
  8
0
 10
-14.236885
 20
-49.187489
 11
-14.236885
 21
-43.187489
  0
LINE
  8
0
 10
-14.236885
 20
-54.187489
 11
-13.460428
 21
-57.085266
  0
LINE
  8
0
 10
-14.236885
 20
-54.187489
 11
-15.013342
 21
-57.085266
  0
LINE
  8
0
 10
-14.236885
 20
-54.187489
 11
-14.236885
 21
-60.187489
  0
LINE
  8
0
 10
-28.534386
 20
-49.187489
 11
-12.736885
 21
-49.187489
  0
LINE
  8
0
 10
-28.534386
 20
-54.187489
 11
-12.736885
 21
-54.187489
  0
TEXT
  8
0
 10
55.166149
 20
-73.245697
 40
3.500000
  1
STROK
 50
89.900002
 41
1.052632
 51
0.000000
  7
STANDARD
  0
LINE
  8
0
 10
56.181862
 20
-54.187492
 11
56.181862
 21
-72.497459
  0
LINE
  8
0
 10
56.181862
 20
-49.187492
 11
56.181862
 21
-54.187492
  0
LINE
  8
0
 10
56.181862
 20
-49.187492
 11
55.405403
 21
-46.289715
  0
LINE
  8
0
 10
56.181862
 20
-49.187492
 11
56.958321
 21
-46.289715
  0
LINE
  8
0
 10
56.181862
 20
-49.187492
 11
56.181862
 21
-43.187492
  0
LINE
  8
0
 10
56.181862
 20
-54.187492
 11
56.958321
 21
-57.085270
  0
LINE
  8
0
 10
56.181862
 20
-54.187492
 11
55.405403
 21
-57.085270
  0
LINE
  8
0
 10
56.181862
 20
-54.187492
 11
56.181862
 21
-60.187492
  0
LINE
  8
0
 10
41.884361
 20
-49.187492
 11
57.681862
 21
-49.187492
  0
LINE
  8
0
 10
41.884361
 20
-54.187492
 11
57.681862
 21
-54.187492
  0
TEXT
  8
0
 10
125.584900
 20
-73.245697
 40
3.500000
  1
STROK
 50
89.900002
 41
1.052632
 51
0.000000
  7
STANDARD
  0
LINE
  8
0
 10
126.600609
 20
-54.187492
 11
126.600609
 21
-72.497459
  0
LINE
  8
0
 10
126.600609
 20
-49.187492
 11
126.600609
 21
-54.187492
  0
LINE
  8
0
 10
126.600609
 20
-49.187492
 11
125.824150
 21
-46.289715
  0
LINE
  8
0
 10
126.600609
 20
-49.187492
 11
127.377068
 21
-46.289715
  0
LINE
  8
0
 10
126.600609
 20
-49.187492
 11
126.600609
 21
-43.187492
  0
LINE
  8
0
 10
126.600609
 20
-54.187492
 11
127.377068
 21
-57.085270
  0
LINE
  8
0
 10
126.600609
 20
-54.187492
 11
125.824150
 21
-57.085270
  0
LINE
  8
0
 10
126.600609
 20
-54.187492
 11
126.600609
 21
-60.187492
  0
LINE
  8
0
 10
112.303108
 20
-49.187492
 11
128.100616
 21
-49.187492
  0
LINE
  8
0
 10
112.303108
 20
-54.187492
 11
128.100616
 21
-54.187492
  0
TEXT
  8
0
 10
196.003662
 20
-73.245697
 40
3.500000
  1
STROK
 50
89.900002
 41
1.052632
 51
0.000000
  7
STANDARD
  0
LINE
  8
0
 10
197.019363
 20
-54.187492
 11
197.019363
 21
-72.497459
  0
LINE
  8
0
 10
197.019363
 20
-49.187492
 11
197.019363
 21
-54.187492
  0
LINE
  8
0
 10
197.019363
 20
-49.187492
 11
196.242905
 21
-46.289715
  0
LINE
  8
0
 10
197.019363
 20
-49.187492
 11
197.795822
 21
-46.289715
  0
LINE
  8
0
 10
197.019363
 20
-49.187492
 11
197.019363
 21
-43.187492
  0
LINE
  8
0
 10
197.019363
 20
-54.187492
 11
197.795822
 21
-57.085270
  0
LINE
  8
0
 10
197.019363
 20
-54.187492
 11
196.242905
 21
-57.085270
  0
LINE
  8
0
 10
197.019363
 20
-54.187492
 11
197.019363
 21
-60.187492
  0
LINE
  8
0
 10
182.721863
 20
-49.187492
 11
198.519363
 21
-49.187492
  0
LINE
  8
0
 10
182.721863
 20
-54.187492
 11
198.519363
 21
-54.187492
  0
TEXT
  8
0
 10
266.422394
 20
-73.245697
 40
3.500000
  1
STROK
 50
89.900002
 41
1.052632
 51
0.000000
  7
STANDARD
  0
LINE
  8
0
 10
267.438110
 20
-54.187492
 11
267.438110
 21
-72.497459
  0
LINE
  8
0
 10
267.438110
 20
-49.187492
 11
267.438110
 21
-54.187492
  0
LINE
  8
0
 10
267.438110
 20
-49.187492
 11
266.661652
 21
-46.289715
  0
LINE
  8
0
 10
267.438110
 20
-49.187492
 11
268.214569
 21
-46.289715
  0
LINE
  8
0
 10
267.438110
 20
-49.187492
 11
267.438110
 21
-43.187492
  0
LINE
  8
0
 10
267.438110
 20
-54.187492
 11
268.214569
 21
-57.085270
  0
LINE
  8
0
 10
267.438110
 20
-54.187492
 11
266.661652
 21
-57.085270
  0
LINE
  8
0
 10
267.438110
 20
-54.187492
 11
267.438110
 21
-60.187492
  0
LINE
  8
0
 10
253.140594
 20
-49.187492
 11
268.938110
 21
-49.187492
  0
LINE
  8
0
 10
253.140594
 20
-54.187492
 11
268.938110
 21
-54.187492
  0
ENDSEC
  0
EOF
