  0
SECTION
  2
HEADER
  0
ENDSEC
  0
SECTION
  2
TABLES
  0
TABLE
  2
LTYPE
 70
     4
  0
LTYPE
  2
CONTINUOUS
 70
    64
  3
Solid line
 72
    65
 73
     0
 40
0.000000
  0
LTYPE
  2
DASHED
 70
    64
  3
__ __ __ __ __ __ __ __ __ __ __ __ __ __ __
 72
    65
 73
     2
 40
3.500000
 49
2.000000
 49
-1.500000
  0
LTYPE
  2
CENTER
 70
    64
  3
____ _ ____ _ ____ _ ____ _ ____ _ ____ _ ____
 72
    65
 73
     4
 40
17.500000
 49
13.000000
 49
-1.500000
 49
1.500000
 49
-1.500000
  0
LTYPE
  2
PHANTOM
 70
    64
  3
_____ _ _ _____ _ _ _____ _ _ _____ _ _ ____  
 72
    65
 73
     6
 40
15.500000
 49
8.000000
 49
-1.500000
 49
1.500000
 49
-1.500000
 49
1.500000
 49
-1.500000
  0
LTYPE
  2
DASHED1
 70
    64
  3
__ __ __ __ __ __ __ __ __ __ __ __ __ __ __
 72
    65
 73
     2
 40
1.500000
 49
1.000000
 49
-0.500000
  0
LTYPE
  2
DASHED2
 70
    64
  3
__ __ __ __ __ __ __ __ __ __ __ __ __ __ __
 72
    65
 73
     2
 40
3.500000
 49
2.500000
 49
-1.000000
  0
LTYPE
  2
DASHED3
 70
    64
  3
__ __ __ __ __ __ __ __ __ __ __ __ __ __ __
 72
    65
 73
     2
 40
6.000000
 49
4.000000
 49
-2.000000
  0
LTYPE
  2
DASHED4
 70
    64
  3
__ __ __ __ __ __ __ __ __ __ __ __ __ __ __
 72
    65
 73
     2
 40
12.000000
 49
10.000000
 49
-2.000000
  0
LTYPE
  2
DASHED5
 70
    64
  3
__ __ __ __ __ __ __ __ __ __ __ __ __ __ __
 72
    65
 73
     2
 40
17.000000
 49
15.000000
 49
-2.000000
  0
LTYPE
  2
DASHED6
 70
    64
  3
__ __ __ __ __ __ __ __ __ __ __ __ __ __ __
 72
    65
 73
     2
 40
29.000000
 49
27.000000
 49
-2.000000
  0
LTYPE
  2
PHANTOM1
 70
    64
  3
_____ _ _ _____ _ _ _____ _ _ _____ _ _ ____  
 72
    65
 73
     6
 40
31.000000
 49
25.000000
 49
-1.500000
 49
1.000000
 49
-1.000000
 49
1.000000
 49
-1.500000
  0
LTYPE
  2
PHANTOM2
 70
    64
  3
_____ _ _ _____ _ _ _____ _ _ _____ _ _ ____  
 72
    65
 73
     6
 40
36.000000
 49
27.000000
 49
-1.500000
 49
2.500000
 49
-1.000000
 49
2.500000
 49
-1.500000
  0
LTYPE
  2
PHANTOM3
 70
    64
  3
_____ _ _ _____ _ _ _____ _ _ _____ _ _ ____  
 72
    65
 73
     6
 40
78.000000
 49
64.000000
 49
-2.000000
 49
4.000000
 49
-2.000000
 49
4.000000
 49
-2.000000
  0
LTYPE
  2
CENTER1
 70
    64
  3
____ _ ____ _ ____ _ ____ _ ____ _ ____ _ ____
 72
    65
 73
     4
 40
19.000000
 49
14.000000
 49
-1.000000
 49
3.000000
 49
-1.000000
  0
LTYPE
  2
CENTER2
 70
    64
  3
____ _ ____ _ ____ _ ____ _ ____ _ ____ _ ____
 72
    65
 73
     4
 40
28.500000
 49
25.000000
 49
-1.000000
 49
1.500000
 49
-1.000000
  0
LTYPE
  2
CENTER3
 70
    64
  3
____ _ ____ _ ____ _ ____ _ ____ _ ____ _ ____
 72
    65
 73
     4
 40
31.500000
 49
27.000000
 49
-1.000000
 49
2.500000
 49
-1.000000
  0
LTYPE
  2
CENTER4
 70
    64
  3
____ _ ____ _ ____ _ ____ _ ____ _ ____ _ ____
 72
    65
 73
     4
 40
50.000000
 49
45.000000
 49
-1.000000
 49
3.000000
 49
-1.000000
  0
LTYPE
  2
CENTER5
 70
    64
  3
____ _ ____ _ ____ _ ____ _ ____ _ ____ _ ____
 72
    65
 73
     4
 40
100.000000
 49
92.000000
 49
-2.000000
 49
4.000000
 49
-2.000000
  0
LTYPE
  2
SBK1
 70
    64
  3
______ _ _ _ ______ _ _ _ ______ _ _ _ _____  
 72
    65
 73
     8
 40
60.500000
 49
45.000000
 49
-2.000000
 49
2.500000
 49
-2.000000
 49
2.500000
 49
-2.000000
 49
2.500000
 49
-2.000000
  0
LTYPE
  2
SBK2
 70
    64
  3
______ _ _ _ ______ _ _ _ ______ _ _ _ _____  
 72
    65
 73
     8
 40
84.000000
 49
64.000000
 49
-2.000000
 49
4.000000
 49
-2.000000
 49
4.000000
 49
-2.000000
 49
4.000000
 49
-2.000000
  0
LTYPE
  2
STCH
 70
    64
  3
__ __ __ __ __ __ __ __ __ __ __ __ __ __ __
 72
    65
 73
     2
 40
3.000000
 49
1.000000
 49
-2.000000
  0
LTYPE
  2
MTCH
 70
    64
  3
_____ _ _ _____ _ _ _____ _ _ _____ _ _ ____  
 72
    65
 73
     6
 40
80.000000
 49
66.000000
 49
-2.000000
 49
4.000000
 49
-2.000000
 49
4.000000
 49
-2.000000
  0
ENDTAB
  0
TABLE
  2
LAYER
 70
     1
  0
LAYER
  2
0
 70
     0
 62
     7
  6
CONTINUOUS
  0
ENDTAB
  0
TABLE
  2
STYLE
 70
     1
  0
STYLE
  2
STANDARD
 70
     0
 40
0.000000
 41
1.000000
 50
0.000000
 71
     0
 42
0.200000
  3
txt
  4
BIGFONT
  0
ENDTAB
  0
TABLE
  2
VIEW
 70
     0
  0
ENDTAB
  0
ENDSEC
  0
SECTION
  2
BLOCKS
  0
ENDSEC
  0
SECTION
  2
ENTITIES
  0
LINE
  8
0
 10
-148.500000
 20
105.000000
 11
148.500000
 21
105.000000
  0
LINE
  8
0
 10
-145.660233
 20
-105.000000
 11
148.500000
 21
-105.000000
  0
LINE
  8
0
 10
148.500000
 20
105.000000
 11
148.500000
 21
-105.000000
  0
LINE
  8
0
 10
-148.500000
 20
105.000000
 11
-148.500000
 21
-105.000000
  0
LINE
  8
0
 10
-138.399994
 20
94.500000
 11
138.350006
 21
94.500000
  0
LINE
  8
0
 10
138.350006
 20
94.500000
 11
138.350006
 21
-94.800003
  0
LINE
  8
0
 10
-138.399994
 20
-94.800003
 11
138.350006
 21
-94.800003
  0
LINE
  8
0
 10
-138.399994
 20
94.500000
 11
-138.399994
 21
-94.800003
  0
LINE
  8
0
 10
69.162506
 20
80.198959
 11
138.350006
 21
80.198959
  0
LINE
  8
0
 10
-138.399994
 20
80.198959
 11
-69.212494
 21
80.198959
  0
LINE
  8
0
 10
62.077805
 20
-84.800003
 11
62.077805
 21
-94.800003
  0
LINE
  8
0
 10
-138.399994
 20
-0.150002
 11
138.350006
 21
-0.150002
  0
LINE
  8
0
 10
-0.024994
 20
94.500000
 11
-0.024994
 21
-94.800003
  0
LINE
  8
0
 10
-69.212494
 20
94.500000
 11
-69.212494
 21
-94.800003
  0
LINE
  8
0
 10
69.162506
 20
94.500000
 11
69.162506
 21
-84.800003
  0
LINE
  8
0
 10
-138.399994
 20
9.849998
 11
138.350006
 21
9.849998
  0
LINE
  8
0
 10
-138.399994
 20
-84.800003
 11
138.350006
 21
-84.800003
  0
LINE
  8
0
 10
69.162506
 20
-74.800003
 11
138.350006
 21
-74.800003
  0
TEXT
  8
0
 10
71.053940
 20
83.705635
 40
4.000000
  1
DATE : MAR ,1987
 50
0.000000
 41
1.052631
 51
0.000000
  7
STANDARD
  0
TEXT
  8
0
 10
-130.308502
 20
83.428780
 40
5.000000
  1
VACUUM PAD
 50
0.000000
 41
1.052632
 51
0.000000
  7
STANDARD
  0
TEXT
  8
0
 10
73.849365
 20
-93.267654
 40
4.000000
  1
KOGANEI CORP.
 50
0.000000
 41
1.052632
 51
15.000000
  7
STANDARD
  0
TEXT
  8
0
 10
-126.413246
 20
2.969998
 40
3.200000
  1
MODEL : KPP-10
 50
0.000000
 41
1.052632
 51
0.000000
  7
STANDARD
  0
TEXT
  8
0
 10
-57.225746
 20
2.969998
 40
3.200000
  1
MODEL : KPP-15
 50
0.000000
 41
1.052632
 51
0.000000
  7
STANDARD
  0
TEXT
  8
0
 10
11.961755
 20
2.969998
 40
3.200000
  1
MODEL : KPP-20
 50
0.000000
 41
1.052632
 51
0.000000
  7
STANDARD
  0
TEXT
  8
0
 10
81.149254
 20
2.969998
 40
3.200000
  1
MODEL : KPP-25
 50
0.000000
 41
1.052632
 51
0.000000
  7
STANDARD
  0
TEXT
  8
0
 10
-126.413246
 20
-91.680000
 40
3.200000
  1
MODEL : KPP-30
 50
0.000000
 41
1.052632
 51
0.000000
  7
STANDARD
  0
TEXT
  8
0
 10
-57.225746
 20
-91.680000
 40
3.200000
  1
MODEL : KPP-35
 50
0.000000
 41
1.052632
 51
0.000000
  7
STANDARD
  0
TEXT
  8
0
 10
11.961755
 20
-91.680000
 40
3.200000
  1
MODEL : KPP-40
 50
0.000000
 41
1.052632
 51
0.000000
  7
STANDARD
  0
TEXT
  8
0
 10
81.149254
 20
-81.680000
 40
3.200000
  1
MODEL : KPP-50
 50
0.000000
 41
1.052632
 51
0.000000
  7
STANDARD
  0
POINT
  8
0
 10
-103.806244
 20
44.500000
  0
POINT
  8
0
 10
-98.606247
 20
44.500000
  0
LINE
  8
0
 10
-103.806244
 20
45.148762
 11
-103.806244
 21
40.542389
  0
LINE
  8
0
 10
-98.606247
 20
44.500000
 11
-98.606247
 21
42.700001
  0
LINE
  8
0
 10
-99.011269
 20
42.294975
 11
-98.606239
 21
42.700001
  0
LINE
  8
0
 10
-99.011269
 20
41.870712
 11
-98.523399
 21
41.382843
  0
LINE
  8
0
 10
-98.806244
 20
41.099998
 11
-98.523399
 21
41.382843
  0
LINE
  8
0
  6
DASHED
 10
-100.538292
 20
42.100002
 11
-98.806244
 21
41.100002
  0
LINE
  8
0
  6
DASHED
 10
-107.074196
 20
42.099998
 11
-100.538292
 21
42.099998
  0
LINE
  8
0
  6
DASHED
 10
-99.306244
 20
43.099998
 11
-99.306244
 21
43.099998
  0
LINE
  8
0
  6
DASHED
 10
-100.806244
 20
42.599998
 11
-100.806244
 21
42.099998
  0
LINE
  8
0
  6
DASHED
 10
-100.106247
 20
44.500000
 11
-100.106247
 21
43.099998
  0
LINE
  8
0
 10
-98.806244
 20
41.099998
 11
-108.806244
 21
41.099998
  0
LINE
  8
0
 10
-98.606247
 20
44.500000
 11
-109.006241
 21
44.500000
  0
LINE
  8
0
 10
-109.006241
 20
44.500000
 11
-109.006241
 21
42.700001
  0
LINE
  8
0
 10
-108.601219
 20
42.294975
 11
-109.006241
 21
42.699997
  0
LINE
  8
0
 10
-108.601212
 20
41.870708
 11
-109.089081
 21
41.382839
  0
LINE
  8
0
 10
-108.806244
 20
41.100006
 11
-109.089088
 21
41.382847
  0
LINE
  8
0
  6
DASHED
 10
-107.074196
 20
42.100010
 11
-108.806252
 21
41.100010
  0
LINE
  8
0
  6
DASHED
 10
-99.306244
 20
43.099998
 11
-108.306244
 21
43.099998
  0
LINE
  8
0
  6
DASHED
 10
-99.806244
 20
42.599998
 11
-107.806244
 21
42.599998
  0
LINE
  8
0
  6
DASHED
 10
-108.306244
 20
43.099998
 11
-108.306244
 21
43.099998
  0
LINE
  8
0
  6
DASHED
 10
-106.806244
 20
42.599998
 11
-106.806244
 21
42.099998
  0
LINE
  8
0
  6
DASHED
 10
-107.506241
 20
44.500000
 11
-107.506241
 21
43.099998
  0
LINE
  8
0
 10
-109.006241
 20
42.700001
 11
-98.606247
 21
42.700001
  0
LINE
  8
0
 10
-99.290955
 20
42.082844
 11
-108.302094
 21
42.082844
  0
LINE
  8
0
 10
-98.523399
 20
41.382843
 11
-109.089088
 21
41.382843
  0
ARC
  8
0
 10
-98.799133
 20
42.082844
 40
0.300002
 50
135.000519
 51
224.999481
  0
ARC
  8
0
  6
DASHED
 10
-99.806244
 20
43.099998
 40
0.500000
 50
270.000000
 51
0.000000
  0
ARC
  8
0
 10
-108.813354
 20
42.082844
 40
0.300002
 50
315.000519
 51
44.999485
  0
ARC
  8
0
  6
DASHED
 10
-107.806244
 20
43.099998
 40
0.500000
 50
179.999557
 51
270.000000
  0
POINT
  8
0
  6
DASHED
 10
103.756256
 20
-30.150002
  0
POINT
  8
0
  6
DASHED
 10
120.006256
 20
-30.150002
  0
LINE
  8
0
 10
103.756256
 20
-27.450001
 11
103.756256
 21
-45.600002
  0
LINE
  8
0
 10
120.006256
 20
-30.150002
 11
120.006256
 21
-31.650002
  0
LINE
  8
0
 10
119.756256
 20
-31.900003
 11
120.006256
 21
-31.650002
  0
LINE
  8
0
 10
119.756256
 20
-31.900002
 11
119.756256
 21
-35.452740
  0
LINE
  8
0
 10
128.756256
 20
-42.150002
 11
129.156265
 21
-41.457180
  0
LINE
  8
0
  6
DASHED
 10
116.976990
 20
-37.150002
 11
128.756256
 21
-42.150002
  0
LINE
  8
0
 10
120.256256
 20
-36.318760
 11
129.156250
 21
-41.457180
  0
LINE
  8
0
  6
DASHED
 10
117.756256
 20
-33.650002
 11
117.756256
 21
-35.650002
  0
LINE
  8
0
  6
DASHED
 10
115.906258
 20
-30.150002
 11
115.906258
 21
-33.650002
  0
LINE
  8
0
  6
DASHED
 10
111.756256
 20
-35.650002
 11
111.756256
 21
-37.150002
  0
LINE
  8
0
  6
DASHED
 10
106.256256
 20
-37.150002
 11
106.256256
 21
-39.150002
  0
LINE
  8
0
  6
DASHED
 10
116.756256
 20
-37.150002
 11
116.756256
 21
-39.150002
  0
LINE
  8
0
  6
DASHED
 10
106.256256
 20
-39.150002
 11
116.756256
 21
-39.150002
  0
LINE
  8
0
  6
DASHED
 10
115.906258
 20
-33.143650
 11
115.906258
 21
-33.650002
  0
LINE
  8
0
 10
120.006256
 20
-30.150002
 11
87.506256
 21
-30.150002
  0
LINE
  8
0
 10
128.756256
 20
-42.150002
 11
78.756256
 21
-42.150002
  0
LINE
  8
0
  6
DASHED
 10
90.535515
 20
-37.150002
 11
78.756256
 21
-42.150002
  0
LINE
  8
0
  6
DASHED
 10
116.976990
 20
-37.150002
 11
90.535522
 21
-37.150002
  0
LINE
  8
0
  6
DASHED
 10
117.756256
 20
-33.650002
 11
89.756256
 21
-33.650002
  0
LINE
  8
0
  6
DASHED
 10
117.756256
 20
-35.650002
 11
89.756256
 21
-35.650002
  0
LINE
  8
0
  6
DASHED
 10
89.756256
 20
-33.650002
 11
89.756256
 21
-35.650002
  0
LINE
  8
0
  6
DASHED
 10
91.606255
 20
-30.150002
 11
91.606255
 21
-33.650002
  0
LINE
  8
0
  6
DASHED
 10
95.756256
 20
-35.650002
 11
95.756256
 21
-37.150002
  0
LINE
  8
0
  6
DASHED
 10
101.256256
 20
-37.150002
 11
101.256256
 21
-39.150002
  0
LINE
  8
0
  6
DASHED
 10
90.756256
 20
-37.150002
 11
90.756256
 21
-39.150002
  0
LINE
  8
0
  6
DASHED
 10
101.256256
 20
-39.150002
 11
90.756256
 21
-39.150002
  0
LINE
  8
0
  6
DASHED
 10
91.606255
 20
-33.143650
 11
91.606255
 21
-33.650002
  0
LINE
  8
0
 10
87.506256
 20
-30.150002
 11
87.506256
 21
-31.650002
  0
LINE
  8
0
 10
87.756256
 20
-31.900002
 11
87.506256
 21
-31.650002
  0
LINE
  8
0
 10
87.756256
 20
-31.900002
 11
87.756256
 21
-35.452740
  0
LINE
  8
0
 10
78.756248
 20
-42.150002
 11
78.356247
 21
-41.457180
  0
LINE
  8
0
 10
87.256256
 20
-36.318764
 11
78.356262
 21
-41.457184
  0
LINE
  8
0
 10
88.618759
 20
-36.030090
 11
118.835426
 21
-36.030090
  0
LINE
  8
0
 10
120.006256
 20
-31.650002
 11
87.506256
 21
-31.650002
  0
LINE
  8
0
 10
78.356255
 20
-41.457180
 11
129.156265
 21
-41.457180
  0
ARC
  8
0
 10
120.756256
 20
-35.452740
 40
1.000000
 50
180.000000
 51
239.999954
  0
ARC
  8
0
 10
86.756256
 20
-35.452740
 40
0.999999
 50
300.000031
 51
0.000000
  0
POINT
  8
0
 10
-34.618744
 20
44.500000
  0
POINT
  8
0
 10
-29.418743
 20
44.500000
  0
LINE
  8
0
 10
-34.618744
 20
45.709560
 11
-34.618744
 21
39.453335
  0
LINE
  8
0
  6
DASHED
 10
-30.582844
 20
42.099998
 11
-27.118744
 21
40.099998
  0
LINE
  8
0
 10
-29.272297
 20
42.819241
 11
-26.835899
 21
40.382843
  0
LINE
  8
0
 10
-27.118744
 20
40.099998
 11
-26.835899
 21
40.382843
  0
LINE
  8
0
 10
-29.418743
 20
44.500000
 11
-29.418743
 21
43.172791
  0
LINE
  8
0
  6
DASHED
 10
-33.618744
 20
41.099998
 11
-30.118744
 21
41.099998
  0
LINE
  8
0
  6
DASHED
 10
-30.118744
 20
43.099998
 11
-30.118744
 21
43.099998
  0
LINE
  8
0
  6
DASHED
 10
-31.618744
 20
42.599998
 11
-31.618744
 21
42.099998
  0
LINE
  8
0
  6
DASHED
 10
-33.618744
 20
42.099998
 11
-33.618744
 21
41.099998
  0
LINE
  8
0
  6
DASHED
 10
-30.118744
 20
41.832050
 11
-30.118744
 21
41.099998
  0
LINE
  8
0
  6
DASHED
 10
-30.918743
 20
44.500000
 11
-30.918743
 21
43.099998
  0
LINE
  8
0
 10
-29.418743
 20
44.500000
 11
-39.818745
 21
44.500000
  0
LINE
  8
0
 10
-27.118744
 20
40.099998
 11
-42.118744
 21
40.099998
  0
LINE
  8
0
  6
DASHED
 10
-38.654644
 20
42.099998
 11
-42.118744
 21
40.099998
  0
LINE
  8
0
 10
-39.965191
 20
42.819241
 11
-42.401588
 21
40.382843
  0
LINE
  8
0
 10
-42.118744
 20
40.099998
 11
-42.401588
 21
40.382843
  0
LINE
  8
0
 10
-39.818745
 20
44.500000
 11
-39.818745
 21
43.172791
  0
LINE
  8
0
  6
DASHED
 10
-30.118744
 20
43.099998
 11
-39.118744
 21
43.099998
  0
LINE
  8
0
  6
DASHED
 10
-30.618744
 20
42.599998
 11
-38.618744
 21
42.599998
  0
LINE
  8
0
  6
DASHED
 10
-30.582844
 20
42.099998
 11
-38.654644
 21
42.099998
  0
LINE
  8
0
  6
DASHED
 10
-35.618744
 20
41.099998
 11
-39.118744
 21
41.099998
  0
LINE
  8
0
  6
DASHED
 10
-39.118744
 20
43.099998
 11
-39.118744
 21
43.099998
  0
LINE
  8
0
  6
DASHED
 10
-37.618744
 20
42.599998
 11
-37.618744
 21
42.099998
  0
LINE
  8
0
  6
DASHED
 10
-35.618744
 20
42.099998
 11
-35.618744
 21
41.099998
  0
LINE
  8
0
  6
DASHED
 10
-39.118744
 20
41.832050
 11
-39.118744
 21
41.099998
  0
LINE
  8
0
  6
DASHED
 10
-38.318745
 20
44.500000
 11
-38.318745
 21
43.099998
  0
LINE
  8
0
 10
-39.646770
 20
42.965687
 11
-29.629721
 21
42.965687
  0
LINE
  8
0
 10
-26.835899
 20
40.382843
 11
-42.401588
 21
40.382843
  0
ARC
  8
0
 10
-28.918743
 20
43.172791
 40
0.500000
 50
179.999557
 51
224.999695
  0
ARC
  8
0
  6
DASHED
 10
-30.618744
 20
43.099998
 40
0.500000
 50
270.000000
 51
0.000000
  0
ARC
  8
0
 10
-40.318745
 20
43.172791
 40
0.499998
 50
315.000305
 51
0.000000
  0
ARC
  8
0
  6
DASHED
 10
-38.618744
 20
43.099998
 40
0.500000
 50
180.000000
 51
270.000000
  0
POINT
  8
0
  6
DASHED
 10
34.568756
 20
44.500000
  0
POINT
  8
0
  6
DASHED
 10
44.818756
 20
44.500000
  0
LINE
  8
0
 10
34.568756
 20
45.689636
 11
34.568756
 21
33.984810
  0
LINE
  8
0
 10
44.818756
 20
44.500000
 11
44.818756
 21
43.000000
  0
LINE
  8
0
 10
44.568756
 20
42.750000
 11
44.818756
 21
43.000000
  0
LINE
  8
0
 10
44.568756
 20
35.500000
 11
44.851601
 21
35.782841
  0
LINE
  8
0
  6
DASHED
 10
41.104652
 20
37.500000
 11
44.568756
 21
35.500000
  0
LINE
  8
0
 10
43.455154
 20
37.179291
 11
44.851601
 21
35.782841
  0
LINE
  8
0
  6
DASHED
 10
34.568756
 20
37.500000
 11
41.104652
 21
37.500000
  0
LINE
  8
0
  6
DASHED
 10
41.718758
 20
44.500000
 11
41.718758
 21
41.500000
  0
LINE
  8
0
  6
DASHED
 10
43.068756
 20
41.299999
 11
43.068756
 21
39.500000
  0
LINE
  8
0
 10
44.568756
 20
42.750000
 11
44.568756
 21
39.000000
  0
LINE
  8
0
  6
DASHED
 10
40.568756
 20
38.500000
 11
40.568756
 21
37.500000
  0
LINE
  8
0
 10
43.455154
 20
37.886395
 11
44.568760
 21
39.000000
  0
LINE
  8
0
 10
44.818756
 20
44.500000
 11
24.318756
 21
44.500000
  0
LINE
  8
0
 10
44.568756
 20
35.500000
 11
24.568756
 21
35.500000
  0
LINE
  8
0
 10
24.318756
 20
44.500000
 11
24.318756
 21
43.000000
  0
LINE
  8
0
 10
24.568756
 20
42.750000
 11
24.318756
 21
43.000000
  0
LINE
  8
0
 10
24.568756
 20
35.500000
 11
24.285915
 21
35.782845
  0
LINE
  8
0
  6
DASHED
 10
28.032860
 20
37.500000
 11
24.568756
 21
35.500000
  0
LINE
  8
0
 10
25.682362
 20
37.179291
 11
24.285915
 21
35.782845
  0
LINE
  8
0
  6
DASHED
 10
34.568756
 20
37.500000
 11
28.032858
 21
37.500000
  0
LINE
  8
0
  6
DASHED
 10
42.868755
 20
41.500000
 11
26.268757
 21
41.500000
  0
LINE
  8
0
  6
DASHED
 10
42.068756
 20
38.500000
 11
27.068756
 21
38.500000
  0
LINE
  8
0
  6
DASHED
 10
27.418756
 20
44.500000
 11
27.418756
 21
41.500000
  0
LINE
  8
0
  6
DASHED
 10
26.068756
 20
41.299999
 11
26.068756
 21
39.500000
  0
LINE
  8
0
 10
24.568756
 20
42.750000
 11
24.568756
 21
39.000000
  0
LINE
  8
0
  6
DASHED
 10
28.568756
 20
38.500000
 11
28.568756
 21
37.500000
  0
LINE
  8
0
 10
25.682360
 20
37.886398
 11
24.568756
 21
39.000000
  0
LINE
  8
0
 10
24.318756
 20
43.000000
 11
44.818756
 21
43.000000
  0
LINE
  8
0
 10
24.285912
 20
35.782845
 11
44.851601
 21
35.782845
  0
LINE
  8
0
 10
26.292847
 20
37.532845
 11
42.983025
 21
37.532845
  0
LINE
  8
0
 10
24.568756
 20
39.000000
 11
44.568756
 21
39.000000
  0
ARC
  8
0
  6
DASHED
 10
42.068756
 20
39.500000
 40
1.000000
 50
270.000000
 51
0.000000
  0
ARC
  8
0
  6
DASHED
 10
42.868755
 20
41.299999
 40
0.200001
 50
0.000000
 51
90.000000
  0
ARC
  8
0
 10
43.808708
 20
37.532845
 40
0.500001
 50
135.000000
 51
225.000000
  0
ARC
  8
0
  6
DASHED
 10
27.068756
 20
39.500000
 40
1.000000
 50
180.000000
 51
270.000000
  0
ARC
  8
0
  6
DASHED
 10
26.268757
 20
41.299999
 40
0.200001
 50
90.000000
 51
180.000000
  0
ARC
  8
0
 10
25.328806
 20
37.532845
 40
0.500001
 50
315.000000
 51
44.999691
  0
POINT
  8
0
 10
103.756256
 20
44.500000
  0
POINT
  8
0
 10
114.006256
 20
44.500000
  0
LINE
  8
0
 10
103.756256
 20
45.689636
 11
103.756256
 21
33.984810
  0
LINE
  8
0
 10
114.006256
 20
44.500000
 11
114.006256
 21
43.000000
  0
LINE
  8
0
 10
113.756256
 20
42.750000
 11
114.006256
 21
43.000000
  0
LINE
  8
0
  6
DASHED
 10
110.906258
 20
44.500000
 11
110.906258
 21
41.500000
  0
LINE
  8
0
  6
DASHED
 10
112.256256
 20
41.299999
 11
112.256256
 21
39.500000
  0
LINE
  8
0
 10
113.756256
 20
42.750000
 11
113.756256
 21
39.000000
  0
LINE
  8
0
  6
DASHED
 10
109.756256
 20
38.500000
 11
109.756256
 21
37.500000
  0
LINE
  8
0
 10
113.205994
 20
38.449730
 11
113.756256
 21
39.000000
  0
LINE
  8
0
 10
114.006256
 20
44.500000
 11
93.506256
 21
44.500000
  0
LINE
  8
0
 10
93.506256
 20
44.500000
 11
93.506256
 21
43.000000
  0
LINE
  8
0
 10
93.756256
 20
42.750000
 11
93.506256
 21
43.000000
  0
LINE
  8
0
  6
DASHED
 10
110.761299
 20
37.500000
 11
96.751213
 21
37.500000
  0
LINE
  8
0
  6
DASHED
 10
112.056259
 20
41.500000
 11
95.456253
 21
41.500000
  0
LINE
  8
0
  6
DASHED
 10
111.256256
 20
38.500000
 11
96.256256
 21
38.500000
  0
LINE
  8
0
  6
DASHED
 10
96.606255
 20
44.500000
 11
96.606255
 21
41.500000
  0
LINE
  8
0
  6
DASHED
 10
95.256256
 20
41.299999
 11
95.256256
 21
39.500000
  0
LINE
  8
0
 10
93.756256
 20
42.750000
 11
93.756256
 21
39.000000
  0
LINE
  8
0
  6
DASHED
 10
97.756256
 20
38.500000
 11
97.756256
 21
37.500000
  0
LINE
  8
0
 10
94.306526
 20
38.449734
 11
93.756256
 21
39.000000
  0
LINE
  8
0
 10
93.506256
 20
43.000000
 11
114.006256
 21
43.000000
  0
LINE
  8
0
 10
93.756256
 20
39.000000
 11
113.756256
 21
39.000000
  0
LINE
  8
0
 10
91.256256
 20
35.500000
 11
116.256256
 21
35.500000
  0
LINE
  8
0
 10
91.056259
 20
35.846413
 11
91.256256
 21
35.500000
  0
LINE
  8
0
  6
DASHED
 10
91.256256
 20
35.500000
 11
96.751213
 21
37.500000
  0
LINE
  8
0
 10
91.056252
 20
35.846409
 11
94.202972
 21
37.663166
  0
LINE
  8
0
 10
116.456261
 20
35.846409
 11
116.256256
 21
35.500000
  0
LINE
  8
0
  6
DASHED
 10
116.256256
 20
35.500000
 11
110.761299
 21
37.500000
  0
LINE
  8
0
 10
116.456261
 20
35.846409
 11
113.309540
 21
37.663166
  0
LINE
  8
0
 10
91.056259
 20
35.846409
 11
116.456261
 21
35.846409
  0
LINE
  8
0
 10
112.745232
 20
37.988972
 11
94.767281
 21
37.988972
  0
ARC
  8
0
  6
DASHED
 10
111.256256
 20
39.500000
 40
1.000000
 50
270.000000
 51
0.000000
  0
ARC
  8
0
  6
DASHED
 10
112.056259
 20
41.299999
 40
0.199997
 50
0.000000
 51
90.000000
  0
ARC
  8
0
  6
DASHED
 10
96.256256
 20
39.500000
 40
1.000000
 50
180.000000
 51
270.000000
  0
ARC
  8
0
  6
DASHED
 10
95.456253
 20
41.299999
 40
0.200001
 50
90.000000
 51
180.000000
  0
ARC
  8
0
 10
93.952972
 20
38.096180
 40
0.500001
 50
299.999939
 51
45.000000
  0
ARC
  8
0
 10
113.559540
 20
38.096180
 40
0.499998
 50
135.000305
 51
240.000076
  0
POINT
  8
0
 10
-103.806244
 20
-30.150002
  0
POINT
  8
0
 10
-93.556244
 20
-30.150002
  0
LINE
  8
0
 10
-103.806244
 20
-28.960365
 11
-103.806244
 21
-41.923004
  0
LINE
  8
0
 10
-93.556244
 20
-30.150002
 11
-93.556244
 21
-31.650002
  0
LINE
  8
0
 10
-93.806244
 20
-31.900003
 11
-93.556244
 21
-31.650003
  0
LINE
  8
0
  6
DASHED
 10
-96.656242
 20
-30.150002
 11
-96.656242
 21
-33.150002
  0
LINE
  8
0
  6
DASHED
 10
-95.306244
 20
-33.350002
 11
-95.306244
 21
-35.150002
  0
LINE
  8
0
 10
-93.806244
 20
-31.900002
 11
-93.806244
 21
-35.650002
  0
LINE
  8
0
  6
DASHED
 10
-97.806244
 20
-36.150002
 11
-97.806244
 21
-37.650002
  0
LINE
  8
0
 10
-94.572464
 20
-36.416229
 11
-93.806244
 21
-35.650002
  0
LINE
  8
0
 10
-93.556244
 20
-30.150002
 11
-114.056244
 21
-30.150002
  0
LINE
  8
0
 10
-114.056244
 20
-30.150002
 11
-114.056244
 21
-31.650002
  0
LINE
  8
0
 10
-113.806244
 20
-31.900002
 11
-114.056244
 21
-31.650002
  0
LINE
  8
0
  6
DASHED
 10
-95.506241
 20
-33.150002
 11
-112.106247
 21
-33.150002
  0
LINE
  8
0
  6
DASHED
 10
-96.306244
 20
-36.150002
 11
-111.306244
 21
-36.150002
  0
LINE
  8
0
  6
DASHED
 10
-110.956245
 20
-30.150002
 11
-110.956245
 21
-33.150002
  0
LINE
  8
0
  6
DASHED
 10
-112.306244
 20
-33.350002
 11
-112.306244
 21
-35.150002
  0
LINE
  8
0
 10
-113.806244
 20
-31.900002
 11
-113.806244
 21
-35.650002
  0
LINE
  8
0
  6
DASHED
 10
-109.806244
 20
-36.150002
 11
-109.806244
 21
-37.650002
  0
LINE
  8
0
 10
-113.040016
 20
-36.416225
 11
-113.806244
 21
-35.650002
  0
LINE
  8
0
 10
-114.056244
 20
-31.650002
 11
-93.556244
 21
-31.650002
  0
LINE
  8
0
 10
-113.806244
 20
-35.650002
 11
-93.806244
 21
-35.650002
  0
LINE
  8
0
 10
-88.806244
 20
-40.650002
 11
-118.806244
 21
-40.650002
  0
LINE
  8
0
  6
DASHED
 10
-97.048676
 20
-37.650002
 11
-110.563812
 21
-37.650002
  0
LINE
  8
0
 10
-119.033241
 20
-40.204498
 11
-118.806244
 21
-40.650002
  0
LINE
  8
0
  6
DASHED
 10
-118.806244
 20
-40.650002
 11
-110.563812
 21
-37.650002
  0
LINE
  8
0
 10
-119.033241
 20
-40.204498
 11
-113.166580
 21
-37.215286
  0
LINE
  8
0
 10
-88.579247
 20
-40.204498
 11
-94.445908
 21
-37.215286
  0
LINE
  8
0
 10
-88.579247
 20
-40.204498
 11
-88.806244
 21
-40.650002
  0
LINE
  8
0
  6
DASHED
 10
-88.806244
 20
-40.650002
 11
-97.048676
 21
-37.650002
  0
LINE
  8
0
  6
DASHED
 10
-95.306244
 20
-39.150002
 11
-102.306244
 21
-39.150002
  0
LINE
  8
0
  6
DASHED
 10
-105.306244
 20
-37.650002
 11
-105.306244
 21
-39.150002
  0
LINE
  8
0
  6
DASHED
 10
-102.306244
 20
-37.650002
 11
-102.306244
 21
-39.150002
  0
LINE
  8
0
  6
DASHED
 10
-112.306244
 20
-38.284195
 11
-112.306244
 21
-39.150002
  0
LINE
  8
0
  6
DASHED
 10
-95.306244
 20
-38.284195
 11
-95.306244
 21
-39.150002
  0
LINE
  8
0
  6
DASHED
 10
-105.306244
 20
-39.150002
 11
-112.306244
 21
-39.150002
  0
LINE
  8
0
 10
-112.553391
 20
-36.902851
 11
-95.059097
 21
-36.902851
  0
LINE
  8
0
 10
-119.033241
 20
-40.204498
 11
-88.579247
 21
-40.204498
  0
ARC
  8
0
  6
DASHED
 10
-96.306244
 20
-35.150002
 40
1.000000
 50
270.000000
 51
0.000000
  0
ARC
  8
0
  6
DASHED
 10
-95.506241
 20
-33.350002
 40
0.199997
 50
0.000000
 51
90.000000
  0
ARC
  8
0
  6
DASHED
 10
-111.306244
 20
-35.150002
 40
1.000000
 50
180.000000
 51
270.000000
  0
ARC
  8
0
  6
DASHED
 10
-112.106247
 20
-33.350002
 40
0.200001
 50
90.000000
 51
180.000000
  0
ARC
  8
0
 10
-113.393570
 20
-36.769779
 40
0.499997
 50
296.999451
 51
44.999691
  0
ARC
  8
0
 10
-94.218918
 20
-36.769783
 40
0.500001
 50
135.000000
 51
243.000565
  0
POINT
  8
0
 10
-34.618744
 20
-30.150002
  0
POINT
  8
0
 10
-24.368744
 20
-30.150002
  0
LINE
  8
0
 10
-34.618744
 20
-28.960365
 11
-34.618744
 21
-41.923004
  0
LINE
  8
0
 10
-24.368744
 20
-30.150002
 11
-24.368744
 21
-31.650002
  0
LINE
  8
0
 10
-24.618744
 20
-31.900003
 11
-24.368742
 21
-31.650003
  0
LINE
  8
0
  6
DASHED
 10
-27.468744
 20
-30.150002
 11
-27.468744
 21
-33.150002
  0
LINE
  8
0
  6
DASHED
 10
-26.118744
 20
-33.350002
 11
-26.118744
 21
-35.150002
  0
LINE
  8
0
 10
-24.618744
 20
-31.900002
 11
-24.618744
 21
-35.650002
  0
LINE
  8
0
  6
DASHED
 10
-28.618744
 20
-36.150002
 11
-28.618744
 21
-37.650002
  0
LINE
  8
0
 10
-25.103462
 20
-36.134724
 11
-24.618742
 21
-35.650002
  0
LINE
  8
0
 10
-24.368744
 20
-30.150002
 11
-44.868744
 21
-30.150002
  0
LINE
  8
0
 10
-44.868744
 20
-30.150002
 11
-44.868744
 21
-31.650002
  0
LINE
  8
0
 10
-44.618744
 20
-31.900002
 11
-44.868744
 21
-31.650002
  0
LINE
  8
0
  6
DASHED
 10
-26.318745
 20
-33.150002
 11
-42.918743
 21
-33.150002
  0
LINE
  8
0
  6
DASHED
 10
-27.118744
 20
-36.150002
 11
-42.118744
 21
-36.150002
  0
LINE
  8
0
  6
DASHED
 10
-41.768745
 20
-30.150002
 11
-41.768745
 21
-33.150002
  0
LINE
  8
0
  6
DASHED
 10
-43.118744
 20
-33.350002
 11
-43.118744
 21
-35.150002
  0
LINE
  8
0
 10
-44.618744
 20
-31.900002
 11
-44.618744
 21
-35.650002
  0
LINE
  8
0
  6
DASHED
 10
-40.618744
 20
-36.150002
 11
-40.618744
 21
-37.568584
  0
LINE
  8
0
 10
-44.134022
 20
-36.134720
 11
-44.618744
 21
-35.650002
  0
LINE
  8
0
 10
-44.868744
 20
-31.650002
 11
-24.368744
 21
-31.650002
  0
LINE
  8
0
 10
-44.618744
 20
-35.650002
 11
-24.618744
 21
-35.650002
  0
LINE
  8
0
 10
-17.118744
 20
-40.650002
 11
-52.118744
 21
-40.650002
  0
LINE
  8
0
  6
DASHED
 10
-25.618744
 20
-39.150002
 11
-33.118744
 21
-39.150002
  0
LINE
  8
0
  6
DASHED
 10
-36.118744
 20
-37.650002
 11
-36.118744
 21
-39.150002
  0
LINE
  8
0
  6
DASHED
 10
-33.118744
 20
-37.650002
 11
-33.118744
 21
-39.150002
  0
LINE
  8
0
  6
DASHED
 10
-43.618744
 20
-38.372433
 11
-43.618744
 21
-39.150002
  0
LINE
  8
0
  6
DASHED
 10
-25.618744
 20
-38.466179
 11
-25.618744
 21
-39.150002
  0
LINE
  8
0
  6
DASHED
 10
-36.118744
 20
-39.150002
 11
-43.618744
 21
-39.150002
  0
LINE
  8
0
 10
-52.298740
 20
-40.204498
 11
-16.886669
 21
-40.204498
  0
LINE
  8
0
  6
DASHED
 10
-52.118744
 20
-40.650002
 11
-40.618744
 21
-37.568588
  0
LINE
  8
0
 10
-52.306053
 20
-40.186409
 11
-52.118748
 21
-40.650002
  0
LINE
  8
0
 10
-52.306049
 20
-40.186409
 11
-44.300274
 21
-36.951866
  0
LINE
  8
0
 10
-16.931438
 20
-40.186409
 11
-17.118742
 21
-40.650002
  0
LINE
  8
0
 10
-16.931437
 20
-40.186409
 11
-24.937214
 21
-36.951866
  0
LINE
  8
0
  6
DASHED
 10
-17.118744
 20
-40.650002
 11
-28.618744
 21
-37.568588
  0
LINE
  8
0
  6
DASHED
 10
-40.618744
 20
-37.568584
 11
-28.618744
 21
-37.568584
  0
LINE
  8
0
  6
DASHED
 10
-40.922588
 20
-37.650002
 11
-36.118744
 21
-37.650002
  0
LINE
  8
0
  6
DASHED
 10
-33.118744
 20
-37.650002
 11
-28.314898
 21
-37.650002
  0
LINE
  8
0
 10
-43.599861
 20
-36.668884
 11
-25.693745
 21
-36.668884
  0
ARC
  8
0
  6
DASHED
 10
-27.118744
 20
-35.150002
 40
1.000000
 50
270.000000
 51
0.000000
  0
ARC
  8
0
  6
DASHED
 10
-26.318745
 20
-33.350002
 40
0.200001
 50
0.000000
 51
90.000000
  0
ARC
  8
0
  6
DASHED
 10
-42.118744
 20
-35.150002
 40
1.000000
 50
180.000000
 51
270.000000
  0
ARC
  8
0
  6
DASHED
 10
-42.918743
 20
-33.350002
 40
0.200001
 50
90.000000
 51
180.000000
  0
ARC
  8
0
 10
-44.487576
 20
-36.488274
 40
0.500000
 50
291.999786
 51
45.000309
  0
ARC
  8
0
 10
-24.749912
 20
-36.488274
 40
0.499999
 50
134.999847
 51
248.000198
  0
POINT
  8
0
 10
34.568756
 20
-30.150002
  0
POINT
  8
0
 10
50.818756
 20
-30.150002
  0
LINE
  8
0
 10
34.568756
 20
-27.763905
 11
34.568756
 21
-42.963905
  0
LINE
  8
0
 10
50.818756
 20
-30.150002
 11
50.818756
 21
-31.650002
  0
LINE
  8
0
 10
50.568756
 20
-31.900002
 11
50.818756
 21
-31.650003
  0
LINE
  8
0
 10
50.568756
 20
-31.900002
 11
50.568756
 21
-35.387260
  0
LINE
  8
0
 10
50.861656
 20
-36.094364
 11
54.993027
 21
-40.225739
  0
LINE
  8
0
 10
54.568764
 20
-40.650005
 11
54.993027
 21
-40.225739
  0
LINE
  8
0
  6
DASHED
 10
48.506577
 20
-37.150002
 11
54.568756
 21
-40.650002
  0
LINE
  8
0
  6
DASHED
 10
37.068756
 20
-38.650002
 11
47.568756
 21
-38.650002
  0
LINE
  8
0
  6
DASHED
 10
46.718758
 20
-30.150002
 11
46.718758
 21
-33.650002
  0
LINE
  8
0
  6
DASHED
 10
48.568756
 20
-33.650002
 11
48.568756
 21
-35.650002
  0
LINE
  8
0
  6
DASHED
 10
46.718758
 20
-33.143650
 11
46.718758
 21
-33.650002
  0
LINE
  8
0
  6
DASHED
 10
42.568756
 20
-35.650002
 11
42.568756
 21
-37.150002
  0
LINE
  8
0
  6
DASHED
 10
37.068756
 20
-37.150002
 11
37.068756
 21
-38.650002
  0
LINE
  8
0
  6
DASHED
 10
47.568756
 20
-37.150002
 11
47.568756
 21
-38.650002
  0
LINE
  8
0
 10
54.568756
 20
-40.650002
 11
14.568756
 21
-40.650002
  0
LINE
  8
0
 10
50.818756
 20
-30.150002
 11
18.318756
 21
-30.150002
  0
LINE
  8
0
 10
18.318756
 20
-30.150002
 11
18.318756
 21
-31.650002
  0
LINE
  8
0
 10
18.568756
 20
-31.899998
 11
18.318756
 21
-31.649998
  0
LINE
  8
0
 10
18.568756
 20
-31.900002
 11
18.568756
 21
-35.387260
  0
LINE
  8
0
 10
18.275858
 20
-36.094364
 11
14.144485
 21
-40.225739
  0
LINE
  8
0
 10
14.568752
 20
-40.650002
 11
14.144485
 21
-40.225739
  0
LINE
  8
0
  6
DASHED
 10
20.630939
 20
-37.150005
 11
14.568762
 21
-40.650005
  0
LINE
  8
0
  6
DASHED
 10
48.506577
 20
-37.150002
 11
20.630936
 21
-37.150002
  0
LINE
  8
0
  6
DASHED
 10
48.568756
 20
-33.650002
 11
20.568756
 21
-33.650002
  0
LINE
  8
0
  6
DASHED
 10
48.568756
 20
-35.650002
 11
20.568756
 21
-35.650002
  0
LINE
  8
0
  6
DASHED
 10
32.068756
 20
-38.650002
 11
21.568756
 21
-38.650002
  0
LINE
  8
0
  6
DASHED
 10
22.418755
 20
-30.150002
 11
22.418755
 21
-33.650002
  0
LINE
  8
0
  6
DASHED
 10
20.568756
 20
-33.650002
 11
20.568756
 21
-35.650002
  0
LINE
  8
0
  6
DASHED
 10
22.418755
 20
-33.143650
 11
22.418755
 21
-33.650002
  0
LINE
  8
0
  6
DASHED
 10
26.568756
 20
-35.650002
 11
26.568756
 21
-37.150002
  0
LINE
  8
0
  6
DASHED
 10
32.068756
 20
-37.150002
 11
32.068756
 21
-38.650002
  0
LINE
  8
0
  6
DASHED
 10
21.568756
 20
-37.150002
 11
21.568756
 21
-38.650002
  0
LINE
  8
0
 10
18.318756
 20
-31.650002
 11
50.818756
 21
-31.650002
  0
LINE
  8
0
 10
49.881256
 20
-35.801468
 11
19.256256
 21
-35.801468
  0
LINE
  8
0
 10
14.144487
 20
-40.225739
 11
54.993027
 21
-40.225739
  0
ARC
  8
0
 10
51.568756
 20
-35.387260
 40
1.000000
 50
180.000000
 51
225.000000
  0
ARC
  8
0
 10
17.568756
 20
-35.387260
 40
1.000000
 50
314.999908
 51
0.000000
  0
ENDSEC
  0
EOF
