  0
SECTION
  2
HEADER
  0
ENDSEC
  0
SECTION
  2
TABLES
  0
TABLE
  2
LTYPE
 70
     4
  0
LTYPE
  2
CONTINUOUS
 70
    64
  3
Solid line
 72
    65
 73
     0
 40
0.000000
  0
LTYPE
  2
DASHED
 70
    64
  3
__ __ __ __ __ __ __ __ __ __ __ __ __ __ __
 72
    65
 73
     2
 40
3.500000
 49
2.000000
 49
-1.500000
  0
LTYPE
  2
CENTER
 70
    64
  3
____ _ ____ _ ____ _ ____ _ ____ _ ____ _ ____
 72
    65
 73
     4
 40
17.500000
 49
13.000000
 49
-1.500000
 49
1.500000
 49
-1.500000
  0
LTYPE
  2
PHANTOM
 70
    64
  3
_____ _ _ _____ _ _ _____ _ _ _____ _ _ ____  
 72
    65
 73
     6
 40
15.500000
 49
8.000000
 49
-1.500000
 49
1.500000
 49
-1.500000
 49
1.500000
 49
-1.500000
  0
LTYPE
  2
DASHED1
 70
    64
  3
__ __ __ __ __ __ __ __ __ __ __ __ __ __ __
 72
    65
 73
     2
 40
1.500000
 49
1.000000
 49
-0.500000
  0
LTYPE
  2
DASHED2
 70
    64
  3
__ __ __ __ __ __ __ __ __ __ __ __ __ __ __
 72
    65
 73
     2
 40
3.500000
 49
2.500000
 49
-1.000000
  0
LTYPE
  2
DASHED3
 70
    64
  3
__ __ __ __ __ __ __ __ __ __ __ __ __ __ __
 72
    65
 73
     2
 40
6.000000
 49
4.000000
 49
-2.000000
  0
LTYPE
  2
DASHED4
 70
    64
  3
__ __ __ __ __ __ __ __ __ __ __ __ __ __ __
 72
    65
 73
     2
 40
12.000000
 49
10.000000
 49
-2.000000
  0
LTYPE
  2
DASHED5
 70
    64
  3
__ __ __ __ __ __ __ __ __ __ __ __ __ __ __
 72
    65
 73
     2
 40
17.000000
 49
15.000000
 49
-2.000000
  0
LTYPE
  2
DASHED6
 70
    64
  3
__ __ __ __ __ __ __ __ __ __ __ __ __ __ __
 72
    65
 73
     2
 40
29.000000
 49
27.000000
 49
-2.000000
  0
LTYPE
  2
PHANTOM1
 70
    64
  3
_____ _ _ _____ _ _ _____ _ _ _____ _ _ ____  
 72
    65
 73
     6
 40
31.000000
 49
25.000000
 49
-1.500000
 49
1.000000
 49
-1.000000
 49
1.000000
 49
-1.500000
  0
LTYPE
  2
PHANTOM2
 70
    64
  3
_____ _ _ _____ _ _ _____ _ _ _____ _ _ ____  
 72
    65
 73
     6
 40
36.000000
 49
27.000000
 49
-1.500000
 49
2.500000
 49
-1.000000
 49
2.500000
 49
-1.500000
  0
LTYPE
  2
PHANTOM3
 70
    64
  3
_____ _ _ _____ _ _ _____ _ _ _____ _ _ ____  
 72
    65
 73
     6
 40
78.000000
 49
64.000000
 49
-2.000000
 49
4.000000
 49
-2.000000
 49
4.000000
 49
-2.000000
  0
LTYPE
  2
CENTER1
 70
    64
  3
____ _ ____ _ ____ _ ____ _ ____ _ ____ _ ____
 72
    65
 73
     4
 40
19.000000
 49
14.000000
 49
-1.000000
 49
3.000000
 49
-1.000000
  0
LTYPE
  2
CENTER2
 70
    64
  3
____ _ ____ _ ____ _ ____ _ ____ _ ____ _ ____
 72
    65
 73
     4
 40
28.500000
 49
25.000000
 49
-1.000000
 49
1.500000
 49
-1.000000
  0
LTYPE
  2
CENTER3
 70
    64
  3
____ _ ____ _ ____ _ ____ _ ____ _ ____ _ ____
 72
    65
 73
     4
 40
31.500000
 49
27.000000
 49
-1.000000
 49
2.500000
 49
-1.000000
  0
LTYPE
  2
CENTER4
 70
    64
  3
____ _ ____ _ ____ _ ____ _ ____ _ ____ _ ____
 72
    65
 73
     4
 40
50.000000
 49
45.000000
 49
-1.000000
 49
3.000000
 49
-1.000000
  0
LTYPE
  2
CENTER5
 70
    64
  3
____ _ ____ _ ____ _ ____ _ ____ _ ____ _ ____
 72
    65
 73
     4
 40
100.000000
 49
92.000000
 49
-2.000000
 49
4.000000
 49
-2.000000
  0
LTYPE
  2
SBK1
 70
    64
  3
______ _ _ _ ______ _ _ _ ______ _ _ _ _____  
 72
    65
 73
     8
 40
60.500000
 49
45.000000
 49
-2.000000
 49
2.500000
 49
-2.000000
 49
2.500000
 49
-2.000000
 49
2.500000
 49
-2.000000
  0
LTYPE
  2
SBK2
 70
    64
  3
______ _ _ _ ______ _ _ _ ______ _ _ _ _____  
 72
    65
 73
     8
 40
84.000000
 49
64.000000
 49
-2.000000
 49
4.000000
 49
-2.000000
 49
4.000000
 49
-2.000000
 49
4.000000
 49
-2.000000
  0
LTYPE
  2
STCH
 70
    64
  3
__ __ __ __ __ __ __ __ __ __ __ __ __ __ __
 72
    65
 73
     2
 40
3.000000
 49
1.000000
 49
-2.000000
  0
LTYPE
  2
MTCH
 70
    64
  3
_____ _ _ _____ _ _ _____ _ _ _____ _ _ ____  
 72
    65
 73
     6
 40
80.000000
 49
66.000000
 49
-2.000000
 49
4.000000
 49
-2.000000
 49
4.000000
 49
-2.000000
  0
ENDTAB
  0
TABLE
  2
LAYER
 70
     1
  0
LAYER
  2
0
 70
     0
 62
     7
  6
CONTINUOUS
  0
ENDTAB
  0
TABLE
  2
STYLE
 70
     1
  0
STYLE
  2
STANDARD
 70
     0
 40
0.000000
 41
1.000000
 50
0.000000
 71
     0
 42
0.200000
  3
txt
  4
BIGFONT
  0
ENDTAB
  0
TABLE
  2
VIEW
 70
     0
  0
ENDTAB
  0
ENDSEC
  0
SECTION
  2
BLOCKS
  0
ENDSEC
  0
SECTION
  2
ENTITIES
  0
LINE
  8
0
 10
423.799988
 20
399.750000
 11
423.799988
 21
377.250000
  0
LINE
  8
0
 10
423.800018
 20
377.250000
 11
573.800049
 21
377.250000
  0
LINE
  8
0
 10
344.390015
 20
-370.250000
 11
573.800049
 21
-370.250000
  0
LINE
  8
0
 10
573.799988
 20
399.750000
 11
573.799988
 21
-400.250000
  0
LINE
  8
0
 10
-573.250000
 20
399.750000
 11
-573.250000
 21
-400.250000
  0
LINE
  8
0
 10
-573.250000
 20
399.750000
 11
573.799988
 21
399.750000
  0
LINE
  8
0
 10
-573.250000
 20
-400.250000
 11
573.799988
 21
-400.250000
  0
LINE
  8
0
 10
594.500000
 20
420.500000
 11
594.500000
 21
-420.500000
  0
LINE
  8
0
 10
-594.500000
 20
420.500000
 11
-594.500000
 21
-420.500000
  0
LINE
  8
0
 10
-594.500000
 20
-420.500000
 11
594.500000
 21
-420.500000
  0
LINE
  8
0
 10
-594.500000
 20
420.500000
 11
594.500000
 21
420.500000
  0
LINE
  8
0
 10
-423.250000
 20
399.750000
 11
-423.250000
 21
377.250000
  0
LINE
  8
0
 10
-423.250031
 20
377.250000
 11
-573.250000
 21
377.250000
  0
LINE
  8
0
 10
-573.250000
 20
-0.250000
 11
573.799988
 21
-0.250000
  0
LINE
  8
0
 10
-343.839996
 20
399.750000
 11
-343.839996
 21
-400.250000
  0
LINE
  8
0
 10
-114.429993
 20
399.750000
 11
-114.429993
 21
-400.250000
  0
LINE
  8
0
 10
114.980011
 20
399.750000
 11
114.980011
 21
-400.250000
  0
LINE
  8
0
 10
344.390015
 20
399.750000
 11
344.390015
 21
-400.250000
  0
LINE
  8
0
 10
-573.250000
 20
-382.250000
 11
344.390015
 21
-382.250000
  0
LINE
  8
0
 10
-573.250000
 20
17.750000
 11
573.799988
 21
17.750000
  0
LINE
  8
0
 10
344.390015
 20
-352.250000
 11
573.800049
 21
-352.250000
  0
TEXT
  8
0
 10
-554.655090
 20
377.562317
 40
10.000000
  1
VACUUM PAD
 50
0.000000
 41
1.052632
 51
0.000000
  7
STANDARD
  0
TEXT
  8
0
 10
422.621857
 20
380.500000
 40
10.000000
  1
DATE: MAY ,1992
 50
0.000000
 41
1.052632
 51
0.000000
  7
STANDARD
  0
TEXT
  8
0
 10
381.703400
 20
-393.250000
 40
10.000000
  1
ＫＯＧＡＮＥＩ，ＣＯＲＰ．
 50
0.000000
 41
0.902367
 51
15.000000
  7
STANDARD
  0
TEXT
  8
0
 10
392.916901
 20
0.250000
 40
10.000000
  1
MODEL:KPPS-30
 50
0.000000
 41
1.052632
 51
0.000000
  7
STANDARD
  0
TEXT
  8
0
 10
-524.723083
 20
0.250000
 40
10.000000
  1
MODEL:KPPS-10
 50
0.000000
 41
1.052632
 51
0.000000
  7
STANDARD
  0
TEXT
  8
0
 10
-295.313110
 20
0.250000
 40
10.000000
  1
MODEL:KPPS-15
 50
0.000000
 41
1.052632
 51
0.000000
  7
STANDARD
  0
TEXT
  8
0
 10
-65.903099
 20
0.250000
 40
10.000000
  1
MODEL:KPPS-20
 50
0.000000
 41
1.052632
 51
0.000000
  7
STANDARD
  0
TEXT
  8
0
 10
163.506866
 20
0.250000
 40
10.000000
  1
MODEL:KPPS-25
 50
0.000000
 41
1.052632
 51
0.000000
  7
STANDARD
  0
TEXT
  8
0
 10
-524.723083
 20
-399.750000
 40
10.000000
  1
MODEL:KPPS-35
 50
0.000000
 41
1.052632
 51
0.000000
  7
STANDARD
  0
TEXT
  8
0
 10
-295.313110
 20
-399.750000
 40
10.000000
  1
MODEL:KPPS-40
 50
0.000000
 41
1.052632
 51
0.000000
  7
STANDARD
  0
TEXT
  8
0
 10
-65.903099
 20
-399.750000
 40
10.000000
  1
MODEL:KPPS-50
 50
0.000000
 41
1.052632
 51
0.000000
  7
STANDARD
  0
TEXT
  8
0
 10
163.506866
 20
-399.750000
 40
10.000000
  1
MODEL:KPPS-60
 50
0.000000
 41
1.052632
 51
0.000000
  7
STANDARD
  0
TEXT
  8
0
 10
392.916870
 20
-369.750000
 40
10.000000
  1
MODEL:KPPS-80
 50
0.000000
 41
1.052632
 51
0.000000
  7
STANDARD
  0
TEXT
  8
0
 10
163.511871
 20
-328.250000
 40
10.000000
  1
S=10,30,50,70
 50
0.000000
 41
1.052632
 51
0.000000
  7
STANDARD
  0
TEXT
  8
0
 10
-160.026016
 20
142.521103
 40
10.000000
  1
S=5
 50
90.000000
 41
1.052632
 51
0.000000
  7
STANDARD
  0
TEXT
  8
0
 10
392.916901
 20
298.350006
 40
10.000000
  1
S=10,20,30,50
 50
0.000000
 41
1.052632
 51
0.000000
  7
STANDARD
  0
TEXT
  8
0
 10
-389.440979
 20
142.521103
 40
10.000000
  1
S=5
 50
90.000000
 41
1.052632
 51
0.000000
  7
STANDARD
  0
TEXT
  8
0
 10
525.590576
 20
134.215790
 40
10.000000
  1
S=10
 50
90.000000
 41
1.052632
 51
0.000000
  7
STANDARD
  0
TEXT
  8
0
 10
66.770538
 20
-220.784210
 40
10.000000
  1
S=10
 50
90.000000
 41
1.052632
 51
0.000000
  7
STANDARD
  0
TEXT
  8
0
 10
296.180542
 20
134.215790
 40
10.000000
  1
S=10
 50
90.000000
 41
1.052632
 51
0.000000
  7
STANDARD
  0
TEXT
  8
0
 10
66.770546
 20
134.215790
 40
10.000000
  1
S=10
 50
90.000000
 41
1.052632
 51
0.000000
  7
STANDARD
  0
TEXT
  8
0
 10
533.390503
 20
-230.784210
 40
10.000000
  1
S=10
 50
90.000000
 41
1.052632
 51
0.000000
  7
STANDARD
  0
TEXT
  8
0
 10
-392.054443
 20
-220.784210
 40
10.000000
  1
S=10
 50
90.000000
 41
1.052632
 51
0.000000
  7
STANDARD
  0
TEXT
  8
0
 10
-162.639465
 20
-220.784210
 40
10.000000
  1
S=10
 50
90.000000
 41
1.052632
 51
0.000000
  7
STANDARD
  0
TEXT
  8
0
 10
66.770538
 20
-220.784210
 40
10.000000
  1
S=10
 50
90.000000
 41
1.052632
 51
0.000000
  7
STANDARD
  0
TEXT
  8
0
 10
303.980530
 20
-230.784210
 40
10.000000
  1
S=10
 50
90.000000
 41
1.052632
 51
0.000000
  7
STANDARD
  0
TEXT
  8
0
 10
-519.723083
 20
298.350006
 40
10.000000
  1
S=5,10,20,30
 50
0.000000
 41
1.052632
 51
0.000000
  7
STANDARD
  0
TEXT
  8
0
 10
-290.313110
 20
298.350006
 40
10.000000
  1
S=5,10,20,30
 50
0.000000
 41
1.052632
 51
0.000000
  7
STANDARD
  0
TEXT
  8
0
 10
-65.903099
 20
298.350006
 40
10.000000
  1
S=10,20,30,50
 50
0.000000
 41
1.052632
 51
0.000000
  7
STANDARD
  0
TEXT
  8
0
 10
163.506866
 20
298.350006
 40
10.000000
  1
S=10,20,30,50
 50
0.000000
 41
1.052632
 51
0.000000
  7
STANDARD
  0
TEXT
  8
0
 10
-524.715881
 20
-307.483459
 40
10.000000
  1
S=10,20,30,50
 50
0.000000
 41
1.052632
 51
0.000000
  7
STANDARD
  0
TEXT
  8
0
 10
-295.308136
 20
-307.483459
 40
10.000000
  1
S=10,20,30,50
 50
0.000000
 41
1.052632
 51
0.000000
  7
STANDARD
  0
TEXT
  8
0
 10
-65.998131
 20
-307.483459
 40
10.000000
  1
S=10,20,30,50
 50
0.000000
 41
1.052632
 51
0.000000
  7
STANDARD
  0
TEXT
  8
0
 10
392.921875
 20
-344.950012
 40
10.000000
  1
S=10,30,50,70
 50
0.000000
 41
1.052632
 51
0.000000
  7
STANDARD
  0
POINT
  8
0
 10
-458.544983
 20
67.875000
  0
POINT
  8
0
 10
-451.544983
 20
67.875000
  0
LINE
  8
0
 10
-458.544983
 20
56.524994
 11
-458.544983
 21
82.824997
  0
LINE
  8
0
 10
-466.034973
 20
63.974998
 11
-466.034973
 21
71.775002
  0
LINE
  8
0
 10
-465.544983
 20
71.775002
 11
-466.034973
 21
71.775002
  0
LINE
  8
0
 10
-475.544983
 20
65.926987
 11
-475.544983
 21
69.823013
  0
LINE
  8
0
 10
-468.544983
 20
64.375000
 11
-468.544983
 21
71.375000
  0
LINE
  8
0
 10
-466.034973
 20
63.974998
 11
-465.544983
 21
63.974998
  0
LINE
  8
0
 10
-470.544983
 20
65.525002
 11
-470.544983
 21
70.224998
  0
LINE
  8
0
 10
-473.044983
 20
65.525002
 11
-473.044983
 21
70.224998
  0
LINE
  8
0
 10
-470.544983
 20
65.524963
 11
-473.044983
 21
65.743690
  0
LINE
  8
0
 10
-473.044983
 20
65.524986
 11
-475.362427
 21
65.727737
  0
LINE
  8
0
 10
-475.362396
 20
70.022240
 11
-473.044983
 21
70.224991
  0
LINE
  8
0
 10
-473.044983
 20
70.006256
 11
-470.544983
 21
70.224976
  0
LINE
  8
0
 10
-470.444977
 20
65.743721
 11
-468.744995
 21
65.743721
  0
LINE
  8
0
 10
-470.444977
 20
70.006279
 11
-468.744995
 21
70.006279
  0
LINE
  8
0
 10
-470.544983
 20
70.133919
 11
-470.544983
 21
70.197952
  0
LINE
  8
0
 10
-479.264465
 20
67.875000
 11
-445.579498
 21
67.875000
  0
LINE
  8
0
 10
-465.544983
 20
63.833549
 11
-465.544983
 21
71.916451
  0
LINE
  8
0
 10
-451.544983
 20
63.833549
 11
-451.544983
 21
71.916451
  0
LINE
  8
0
 10
-465.544983
 20
71.916451
 11
-458.544983
 21
75.957901
  0
LINE
  8
0
 10
-451.544983
 20
71.916451
 11
-458.544983
 21
75.957901
  0
LINE
  8
0
 10
-458.544983
 20
59.792091
 11
-465.544983
 21
63.833542
  0
LINE
  8
0
 10
-458.544983
 20
59.792088
 11
-451.544983
 21
63.833538
  0
LINE
  8
0
 10
-468.544983
 20
64.375000
 11
-466.034973
 21
64.375000
  0
LINE
  8
0
 10
-468.544983
 20
71.375000
 11
-466.034973
 21
71.375000
  0
LINE
  8
0
 10
-468.544983
 20
67.874985
 11
-466.034973
 21
67.874985
  0
ARC
  8
0
 10
-475.344971
 20
65.926987
 40
0.200012
 50
180.000000
 51
264.992767
  0
ARC
  8
0
 10
-475.344971
 20
69.823013
 40
0.200005
 50
95.007042
 51
180.000000
  0
ARC
  8
0
 10
-468.744995
 20
65.543724
 40
0.200012
 50
0.000000
 51
90.000000
  0
ARC
  8
0
 10
-468.744995
 20
70.206284
 40
0.199997
 50
270.000000
 51
0.000000
  0
ARC
  8
0
 10
-470.444977
 20
70.106277
 40
0.100006
 50
180.000000
 51
270.000000
  0
ARC
  8
0
 10
-470.444977
 20
65.643723
 40
0.099998
 50
90.000000
 51
180.000000
  0
CIRCLE
  8
0
 10
-458.544983
 20
67.875000
 40
7.000000
  0
CIRCLE
  8
0
 10
-458.544983
 20
67.875000
 40
5.282850
  0
CIRCLE
  8
0
 10
-458.544983
 20
67.875000
 40
6.000000
  0
ARC
  8
0
 10
-471.016113
 20
66.125000
 40
4.981135
 50
339.431580
 51
20.568411
  0
ARC
  8
0
 10
-471.016113
 20
69.625000
 40
4.981135
 50
339.431580
 51
20.568411
  0
ARC
  8
0
 10
-463.706177
 20
69.625000
 40
4.838799
 50
158.797821
 51
201.202179
  0
ARC
  8
0
 10
-463.706177
 20
66.125000
 40
4.838799
 50
158.797821
 51
201.202179
  0
POINT
  8
0
 10
-229.130005
 20
204.750000
  0
POINT
  8
0
 10
-219.330002
 20
204.750000
  0
LINE
  8
0
 10
-236.130005
 20
170.350006
 11
-222.130005
 21
170.350006
  0
LINE
  8
0
 10
-236.130005
 20
183.350006
 11
-222.130005
 21
183.350006
  0
LINE
  8
0
 10
-236.130005
 20
170.350006
 11
-236.130005
 21
183.350006
  0
LINE
  8
0
 10
-222.130005
 20
170.350006
 11
-222.130005
 21
183.350006
  0
LINE
  8
0
 10
-229.130005
 20
170.956024
 11
-229.130005
 21
182.743988
  0
LINE
  8
0
 10
-233.630005
 20
223.350006
 11
-224.630005
 21
223.350006
  0
LINE
  8
0
 10
-233.029999
 20
223.350006
 11
-233.029999
 21
223.850006
  0
LINE
  8
0
 10
-232.630005
 20
226.350006
 11
-225.630005
 21
226.350006
  0
LINE
  8
0
 10
-232.630005
 20
223.850006
 11
-225.630005
 21
223.850006
  0
LINE
  8
0
 10
-227.109283
 20
224.167542
 11
-227.109283
 21
226.032455
  0
LINE
  8
0
 10
-231.150726
 20
224.167542
 11
-231.150726
 21
226.032471
  0
LINE
  8
0
 10
-233.179993
 20
224.167542
 11
-232.629990
 21
223.850006
  0
LINE
  8
0
 10
-233.180008
 20
224.167542
 11
-233.180008
 21
226.032471
  0
LINE
  8
0
 10
-233.180038
 20
226.032501
 11
-232.630035
 21
226.350052
  0
LINE
  8
0
 10
-225.079987
 20
226.032471
 11
-225.629990
 21
226.350006
  0
LINE
  8
0
 10
-225.080002
 20
224.167542
 11
-225.080002
 21
226.032455
  0
LINE
  8
0
 10
-225.230011
 20
223.350006
 11
-225.230011
 21
223.850006
  0
LINE
  8
0
 10
-233.029999
 20
223.850006
 11
-225.230011
 21
223.850006
  0
LINE
  8
0
 10
-225.080048
 20
224.167587
 11
-225.630051
 21
223.850052
  0
LINE
  8
0
 10
-253.330017
 20
178.850006
 11
-234.430023
 21
178.850006
  0
LINE
  8
0
 10
-232.630005
 20
167.949997
 11
-225.630005
 21
167.949997
  0
LINE
  8
0
 10
-225.080002
 20
168.267548
 11
-225.080002
 21
170.032455
  0
LINE
  8
0
 10
-233.180008
 20
168.267548
 11
-233.180008
 21
170.032455
  0
LINE
  8
0
 10
-232.629990
 20
170.349976
 11
-233.179993
 21
170.032425
  0
LINE
  8
0
 10
-225.629990
 20
170.350021
 11
-225.079987
 21
170.032486
  0
LINE
  8
0
 10
-232.630005
 20
167.949982
 11
-233.180008
 21
168.267532
  0
LINE
  8
0
 10
-225.630005
 20
167.950012
 11
-225.080002
 21
168.267563
  0
LINE
  8
0
 10
-227.109283
 20
168.267548
 11
-227.109283
 21
170.032455
  0
LINE
  8
0
 10
-231.150696
 20
170.032455
 11
-231.150696
 21
168.267548
  0
LINE
  8
0
 10
-232.630005
 20
168.100006
 11
-225.630005
 21
168.100006
  0
LINE
  8
0
 10
-234.130005
 20
166.899994
 11
-224.130005
 21
166.899994
  0
LINE
  8
0
 10
-235.130005
 20
166.250000
 11
-223.130005
 21
166.250000
  0
LINE
  8
0
 10
-235.130005
 20
160.250000
 11
-223.130005
 21
160.250000
  0
LINE
  8
0
 10
-223.130005
 20
160.250000
 11
-223.130005
 21
166.250000
  0
LINE
  8
0
 10
-235.130005
 20
160.250000
 11
-235.130005
 21
166.250000
  0
LINE
  8
0
 10
-224.130005
 20
166.250000
 11
-224.130005
 21
166.899994
  0
LINE
  8
0
 10
-234.130005
 20
166.250000
 11
-234.130005
 21
166.899994
  0
LINE
  8
0
 10
-232.630005
 20
166.899994
 11
-232.630005
 21
168.100006
  0
LINE
  8
0
 10
-225.630005
 20
166.899994
 11
-225.630005
 21
168.100006
  0
LINE
  8
0
 10
-231.050751
 20
167.850006
 11
-227.209290
 21
167.850006
  0
LINE
  8
0
 10
-227.209274
 20
167.849976
 11
-227.109268
 21
167.949982
  0
LINE
  8
0
 10
-227.209274
 20
167.850006
 11
-227.209274
 21
167.949997
  0
LINE
  8
0
 10
-231.050735
 20
167.850006
 11
-231.150726
 21
167.950012
  0
LINE
  8
0
 10
-231.050735
 20
167.850006
 11
-231.050735
 21
167.949997
  0
LINE
  8
0
 10
-230.630005
 20
168.100006
 11
-230.630005
 21
167.850006
  0
LINE
  8
0
 10
-227.630005
 20
168.100006
 11
-227.630005
 21
167.850006
  0
LINE
  8
0
 10
-229.130005
 20
149.839050
 11
-229.130005
 21
229.883240
  0
LINE
  8
0
 10
-236.620010
 20
174.949997
 11
-236.620010
 21
182.750000
  0
LINE
  8
0
 10
-236.130005
 20
182.750000
 11
-236.620010
 21
182.750000
  0
LINE
  8
0
 10
-236.937546
 20
174.799988
 11
-238.802460
 21
174.799988
  0
LINE
  8
0
 10
-236.937546
 20
182.899994
 11
-238.802475
 21
182.899994
  0
LINE
  8
0
 10
-238.802567
 20
174.799927
 11
-239.130081
 21
175.367187
  0
LINE
  8
0
 10
-238.802490
 20
182.900009
 11
-239.130020
 21
182.332703
  0
LINE
  8
0
 10
-236.937546
 20
176.829285
 11
-238.802460
 21
176.829285
  0
LINE
  8
0
 10
-236.937561
 20
180.870728
 11
-238.802475
 21
180.870728
  0
LINE
  8
0
 10
-236.937576
 20
174.800003
 11
-236.620041
 21
175.350006
  0
LINE
  8
0
 10
-236.937637
 20
182.899933
 11
-236.620087
 21
182.349930
  0
LINE
  8
0
 10
-246.130005
 20
176.901978
 11
-246.130005
 21
180.798004
  0
LINE
  8
0
 10
-239.130005
 20
175.367233
 11
-239.130005
 21
181.861313
  0
LINE
  8
0
 10
-236.620010
 20
174.949997
 11
-236.130005
 21
174.949997
  0
LINE
  8
0
 10
-241.130005
 20
176.500000
 11
-241.130005
 21
181.199997
  0
LINE
  8
0
 10
-243.630005
 20
176.500000
 11
-243.630005
 21
181.199997
  0
LINE
  8
0
 10
-241.130020
 20
176.499969
 11
-243.630020
 21
176.718689
  0
LINE
  8
0
 10
-243.630005
 20
176.499969
 11
-245.947449
 21
176.702713
  0
LINE
  8
0
 10
-245.947433
 20
180.997238
 11
-243.630005
 21
181.199982
  0
LINE
  8
0
 10
-243.630005
 20
180.981247
 11
-241.130005
 21
181.199966
  0
LINE
  8
0
 10
-241.030014
 20
176.718719
 11
-239.330017
 21
176.718719
  0
LINE
  8
0
 10
-241.030014
 20
180.981277
 11
-239.330017
 21
180.981277
  0
LINE
  8
0
 10
-241.130005
 20
181.108917
 11
-241.130005
 21
181.172943
  0
LINE
  8
0
 10
-239.130005
 20
181.181274
 11
-239.130005
 21
182.332703
  0
LINE
  8
0
 10
-235.330017
 20
194.750000
 11
-222.930008
 21
194.750000
  0
LINE
  8
0
 10
-235.330002
 20
214.750000
 11
-222.930008
 21
214.750000
  0
LINE
  8
0
 10
-236.130005
 20
195.550003
 11
-222.130005
 21
195.550003
  0
LINE
  8
0
 10
-236.130005
 20
213.949997
 11
-222.130005
 21
213.949997
  0
LINE
  8
0
  6
PHANTOM
 10
-222.130005
 20
190.550003
 11
-222.130005
 21
194.750000
  0
LINE
  8
0
  6
PHANTOM
 10
-236.130005
 20
190.550003
 11
-236.130005
 21
194.750000
  0
LINE
  8
0
 10
-236.129990
 20
213.949997
 11
-235.329987
 21
214.749985
  0
LINE
  8
0
 10
-222.130020
 20
213.949982
 11
-222.930023
 21
214.749985
  0
LINE
  8
0
  6
PHANTOM
 10
-222.880005
 20
189.750000
 11
-222.880005
 21
194.750000
  0
LINE
  8
0
  6
PHANTOM
 10
-235.380005
 20
189.750000
 11
-235.380005
 21
194.750000
  0
LINE
  8
0
 10
-233.630005
 20
183.250000
 11
-233.630005
 21
183.590210
  0
LINE
  8
0
 10
-224.630005
 20
184.176453
 11
-224.630005
 21
192.609528
  0
LINE
  8
0
 10
-235.130005
 20
215.449997
 11
-223.130005
 21
215.449997
  0
LINE
  8
0
 10
-235.130005
 20
216.350006
 11
-223.130005
 21
216.350006
  0
LINE
  8
0
 10
-233.630005
 20
216.350006
 11
-233.630005
 21
223.350006
  0
LINE
  8
0
 10
-224.630005
 20
216.350006
 11
-224.630005
 21
223.350006
  0
LINE
  8
0
 10
-223.130005
 20
214.750000
 11
-223.130005
 21
216.350006
  0
LINE
  8
0
 10
-235.130005
 20
214.750000
 11
-235.130005
 21
216.350006
  0
LINE
  8
0
 10
-234.380005
 20
180.227783
 11
-234.380005
 21
197.017029
  0
LINE
  8
0
 10
-223.880005
 20
180.153748
 11
-223.880005
 21
196.967041
  0
LINE
  8
0
 10
-223.880020
 20
183.249710
 11
-234.380020
 21
183.616394
  0
LINE
  8
0
 10
-234.380005
 20
183.250000
 11
-223.880005
 21
183.250000
  0
LINE
  8
0
 10
-223.880005
 20
184.150269
 11
-234.348602
 21
184.515839
  0
LINE
  8
0
 10
-223.880005
 20
192.583344
 11
-234.380005
 21
192.950012
  0
LINE
  8
0
 10
-223.880005
 20
193.483917
 11
-234.380005
 21
193.850586
  0
LINE
  8
0
 10
-234.380005
 20
193.850006
 11
-223.880005
 21
193.850006
  0
LINE
  8
0
 10
-233.630005
 20
184.490753
 11
-233.630005
 21
192.923813
  0
LINE
  8
0
 10
-224.630005
 20
193.510071
 11
-224.630005
 21
193.850006
  0
LINE
  8
0
 10
-237.629990
 20
209.750000
 11
-220.630020
 21
209.750000
  0
LINE
  8
0
 10
-237.630005
 20
204.750000
 11
-220.630005
 21
204.750000
  0
LINE
  8
0
 10
-219.330002
 20
205.500549
 11
-219.330002
 21
208.999435
  0
LINE
  8
0
 10
-238.930008
 20
205.500549
 11
-238.930008
 21
208.999435
  0
LINE
  8
0
 10
-220.630020
 20
204.750015
 11
-219.330017
 21
205.500580
  0
LINE
  8
0
 10
-237.630005
 20
204.750000
 11
-238.930008
 21
205.500549
  0
LINE
  8
0
 10
-237.630005
 20
209.749985
 11
-238.930008
 21
208.999435
  0
LINE
  8
0
 10
-220.630035
 20
209.749939
 11
-219.330032
 21
208.999390
  0
LINE
  8
0
 10
-224.222488
 20
205.500549
 11
-224.222488
 21
208.999451
  0
LINE
  8
0
 10
-234.037857
 20
205.500549
 11
-234.037857
 21
208.999451
  0
LINE
  8
0
 10
-237.629990
 20
204.750000
 11
-220.630020
 21
204.750000
  0
LINE
  8
0
 10
-237.630005
 20
199.750000
 11
-220.630005
 21
199.750000
  0
LINE
  8
0
 10
-219.330002
 20
200.500549
 11
-219.330002
 21
203.999435
  0
LINE
  8
0
 10
-238.930008
 20
200.500549
 11
-238.930008
 21
203.999435
  0
LINE
  8
0
 10
-220.630020
 20
199.750015
 11
-219.330017
 21
200.500580
  0
LINE
  8
0
 10
-237.630005
 20
199.750000
 11
-238.930008
 21
200.500549
  0
LINE
  8
0
 10
-237.630005
 20
204.750015
 11
-238.930008
 21
203.999451
  0
LINE
  8
0
 10
-220.630020
 20
204.749969
 11
-219.330017
 21
203.999405
  0
LINE
  8
0
 10
-224.222488
 20
200.500549
 11
-224.222488
 21
203.999451
  0
LINE
  8
0
 10
-234.037842
 20
200.500549
 11
-234.037842
 21
203.999451
  0
LINE
  8
0
 10
-222.880005
 20
209.750000
 11
-222.880005
 21
214.699997
  0
LINE
  8
0
 10
-222.130005
 20
209.750000
 11
-222.130005
 21
213.949997
  0
LINE
  8
0
 10
-235.380005
 20
209.750000
 11
-235.380005
 21
214.699997
  0
LINE
  8
0
 10
-236.130005
 20
209.750000
 11
-236.130005
 21
213.949997
  0
LINE
  8
0
  6
PHANTOM
 10
-223.430008
 20
183.593536
 11
-223.430008
 21
192.948395
  0
LINE
  8
0
  6
PHANTOM
 10
-234.830002
 20
184.109680
 11
-234.830002
 21
193.399994
  0
LINE
  8
0
  6
PHANTOM
 10
-233.930008
 20
184.045166
 11
-233.930008
 21
193.399994
  0
LINE
  8
0
  6
PHANTOM
 10
-224.330002
 20
183.722580
 11
-224.330002
 21
193.012909
  0
LINE
  8
0
 10
-222.130005
 20
195.550003
 11
-222.130005
 21
199.750000
  0
LINE
  8
0
 10
-222.930023
 20
194.750000
 11
-222.130020
 21
195.550003
  0
LINE
  8
0
 10
-222.880005
 20
194.750000
 11
-222.880005
 21
199.750000
  0
LINE
  8
0
 10
-235.380005
 20
194.799988
 11
-235.380005
 21
199.750000
  0
LINE
  8
0
 10
-236.130005
 20
195.549988
 11
-236.130005
 21
199.750000
  0
LINE
  8
0
 10
-235.330017
 20
194.750000
 11
-236.130020
 21
195.550003
  0
LINE
  8
0
 10
-223.783554
 20
158.569214
 11
-221.347168
 21
156.132828
  0
LINE
  8
0
 10
-221.629990
 20
155.849976
 11
-221.347137
 21
156.132812
  0
LINE
  8
0
 10
-223.930008
 20
160.250000
 11
-223.930008
 21
158.922791
  0
LINE
  8
0
  6
DASHED
 10
-224.630005
 20
158.850006
 11
-224.630005
 21
158.850006
  0
LINE
  8
0
 10
-221.630005
 20
155.850006
 11
-236.630005
 21
155.850006
  0
LINE
  8
0
 10
-234.476440
 20
158.569229
 11
-236.912842
 21
156.132843
  0
LINE
  8
0
 10
-236.629990
 20
155.850021
 11
-236.912827
 21
156.132858
  0
LINE
  8
0
 10
-234.330002
 20
160.250000
 11
-234.330002
 21
158.922791
  0
LINE
  8
0
  6
DASHED
 10
-233.630005
 20
158.850006
 11
-233.630005
 21
158.850006
  0
LINE
  8
0
 10
-234.158020
 20
158.715683
 11
-224.140991
 21
158.715683
  0
LINE
  8
0
 10
-221.347168
 20
156.132843
 11
-236.912842
 21
156.132843
  0
LINE
  8
0
  6
PHANTOM
 10
-236.130005
 20
190.550003
 11
-222.130005
 21
190.550003
  0
LINE
  8
0
  6
PHANTOM
 10
-235.330017
 20
189.750000
 11
-222.930008
 21
189.750000
  0
LINE
  8
0
  6
PHANTOM
 10
-222.130020
 20
190.550003
 11
-222.930008
 21
189.750000
  0
LINE
  8
0
  6
PHANTOM
 10
-235.380005
 20
189.750000
 11
-236.130005
 21
190.550003
  0
ARC
  8
0
 10
-232.630005
 20
180.760010
 40
10.410002
 50
250.353561
 51
289.646362
  0
ARC
  8
0
 10
-225.630005
 20
180.760010
 40
10.410002
 50
250.353561
 51
289.646362
  0
ARC
  8
0
 10
-225.630005
 20
172.940002
 40
10.409987
 50
70.353523
 51
109.646446
  0
ARC
  8
0
 10
-232.630005
 20
172.940002
 40
10.409987
 50
70.353523
 51
109.646446
  0
ARC
  8
0
 10
-232.165375
 20
225.629791
 40
1.779791
 50
235.243805
 51
270.000000
  0
ARC
  8
0
 10
-226.094635
 20
225.629761
 40
1.779755
 50
269.999512
 51
304.756775
  0
ARC
  8
0
 10
-229.130005
 20
230.438385
 40
6.588394
 50
269.999878
 51
287.861053
  0
ARC
  8
0
 10
-229.130005
 20
230.438385
 40
6.588388
 50
252.138824
 51
269.999878
  0
ARC
  8
0
 10
-232.165375
 20
225.629791
 40
1.779800
 50
270.000000
 51
304.756592
  0
ARC
  8
0
 10
-232.165375
 20
224.570221
 40
1.779787
 50
55.243114
 51
89.999512
  0
ARC
  8
0
 10
-232.165375
 20
224.570221
 40
1.779785
 50
89.999512
 51
124.756477
  0
ARC
  8
0
 10
-229.130005
 20
219.761627
 40
6.588379
 50
90.000000
 51
107.861099
  0
ARC
  8
0
 10
-229.130005
 20
219.761627
 40
6.588369
 50
72.138901
 51
90.000000
  0
ARC
  8
0
 10
-226.094635
 20
224.570221
 40
1.779785
 50
90.000000
 51
124.756882
  0
ARC
  8
0
 10
-226.094635
 20
224.570221
 40
1.779778
 50
55.243519
 51
90.000000
  0
ARC
  8
0
 10
-226.094635
 20
225.629761
 40
1.779774
 50
235.242828
 51
269.999512
  0
ARC
  8
0
 10
-226.094650
 20
168.570190
 40
1.779803
 50
55.244080
 51
124.755920
  0
ARC
  8
0
 10
-229.130005
 20
163.761627
 40
6.588369
 50
72.138901
 51
107.861099
  0
ARC
  8
0
 10
-232.165375
 20
168.570190
 40
1.779803
 50
55.244080
 51
124.755920
  0
ARC
  8
0
 10
-226.094650
 20
169.729797
 40
1.779791
 50
235.243805
 51
304.756195
  0
ARC
  8
0
 10
-229.130005
 20
174.538391
 40
6.588388
 50
252.138824
 51
287.861053
  0
ARC
  8
0
 10
-232.165375
 20
169.729797
 40
1.779791
 50
235.243805
 51
304.756195
  0
ARC
  8
0
 10
-241.030014
 20
176.618713
 40
0.100006
 50
90.000000
 51
180.000000
  0
ARC
  8
0
 10
-237.340240
 20
181.885361
 40
1.779785
 50
180.000000
 51
214.756485
  0
ARC
  8
0
 10
-232.531631
 20
178.849991
 40
6.588379
 50
180.000000
 51
197.861053
  0
ARC
  8
0
 10
-237.340240
 20
175.814636
 40
1.779785
 50
180.000000
 51
214.756485
  0
ARC
  8
0
 10
-232.531631
 20
178.849991
 40
6.588388
 50
162.138824
 51
180.000000
  0
ARC
  8
0
 10
-237.340240
 20
175.814636
 40
1.779778
 50
145.243515
 51
180.000000
  0
ARC
  8
0
 10
-237.340240
 20
181.885361
 40
1.779778
 50
145.243515
 51
180.000000
  0
ARC
  8
0
 10
-238.399780
 20
181.885361
 40
1.779766
 50
325.243225
 51
0.000000
  0
ARC
  8
0
 10
-243.208389
 20
178.849991
 40
6.588379
 50
0.000000
 51
17.861097
  0
ARC
  8
0
 10
-243.208389
 20
178.849991
 40
6.588369
 50
342.138916
 51
0.000000
  0
ARC
  8
0
 10
-238.399796
 20
175.814636
 40
1.779785
 50
0.000000
 51
34.756203
  0
ARC
  8
0
 10
-245.930008
 20
176.901978
 40
0.199997
 50
180.000000
 51
264.997131
  0
ARC
  8
0
 10
-245.930008
 20
180.798004
 40
0.200011
 50
95.002495
 51
180.000000
  0
ARC
  8
0
 10
-239.330017
 20
176.518723
 40
0.199997
 50
0.000000
 51
90.000000
  0
ARC
  8
0
 10
-239.330017
 20
181.181274
 40
0.199997
 50
270.000000
 51
0.000000
  0
ARC
  8
0
 10
-241.030014
 20
181.081268
 40
0.100006
 50
180.000000
 51
270.000000
  0
CIRCLE
  8
0
 10
-223.880005
 20
183.699997
 40
0.450000
  0
CIRCLE
  8
0
 10
-234.380005
 20
183.799988
 40
0.450000
  0
CIRCLE
  8
0
 10
-234.380005
 20
184.066406
 40
0.450000
  0
CIRCLE
  8
0
 10
-223.880005
 20
194.299988
 40
0.450000
  0
CIRCLE
  8
0
 10
-234.380005
 20
194.299988
 40
0.450000
  0
CIRCLE
  8
0
 10
-223.880005
 20
183.799988
 40
0.450000
  0
CIRCLE
  8
0
 10
-223.880005
 20
193.033600
 40
0.450000
  0
CIRCLE
  8
0
 10
-234.380005
 20
193.399994
 40
0.450000
  0
ARC
  8
0
 10
-221.776276
 20
209.111740
 40
4.361743
 50
235.886047
 51
304.114288
  0
ARC
  8
0
 10
-229.130005
 20
221.168915
 40
16.418921
 50
252.608978
 51
287.391022
  0
ARC
  8
0
 10
-236.483734
 20
209.111755
 40
4.361773
 50
235.885818
 51
304.114014
  0
ARC
  8
0
 10
-221.776276
 20
205.388260
 40
4.361761
 50
55.885708
 51
124.113960
  0
ARC
  8
0
 10
-229.130005
 20
193.331085
 40
16.418905
 50
72.608963
 51
107.390968
  0
ARC
  8
0
 10
-236.483734
 20
205.388245
 40
4.361752
 50
55.885876
 51
124.114014
  0
ARC
  8
0
 10
-236.483734
 20
200.388245
 40
4.361752
 50
55.885876
 51
124.114014
  0
ARC
  8
0
 10
-229.130005
 20
188.331085
 40
16.418905
 50
72.608963
 51
107.390968
  0
ARC
  8
0
 10
-229.130005
 20
216.168915
 40
16.418921
 50
252.608978
 51
287.391022
  0
ARC
  8
0
 10
-221.776276
 20
200.388260
 40
4.361761
 50
55.885708
 51
124.113960
  0
ARC
  8
0
 10
-236.483734
 20
204.111755
 40
4.361773
 50
235.885818
 51
304.114014
  0
ARC
  8
0
 10
-221.776276
 20
204.111740
 40
4.361743
 50
235.886047
 51
304.114288
  0
ARC
  8
0
 10
-223.430008
 20
158.922791
 40
0.500000
 50
180.000000
 51
225.000000
  0
ARC
  8
0
 10
-234.830002
 20
158.922791
 40
0.499990
 50
315.000000
 51
0.000000
  0
POINT
  8
0
 10
-229.130005
 20
82.875000
  0
POINT
  8
0
 10
-221.347153
 20
82.875000
  0
LINE
  8
0
 10
-229.130005
 20
71.524994
 11
-229.130005
 21
97.824997
  0
LINE
  8
0
 10
-236.620010
 20
78.974998
 11
-236.620010
 21
80.760139
  0
LINE
  8
0
 10
-236.130005
 20
86.775002
 11
-236.620010
 21
86.775002
  0
LINE
  8
0
 10
-246.130005
 20
80.926987
 11
-246.130005
 21
84.823013
  0
LINE
  8
0
 10
-239.130005
 20
79.375000
 11
-239.130005
 21
86.375000
  0
LINE
  8
0
 10
-236.620010
 20
78.974998
 11
-236.130005
 21
78.974998
  0
LINE
  8
0
 10
-241.130005
 20
80.525002
 11
-241.130005
 21
85.224998
  0
LINE
  8
0
 10
-243.630005
 20
80.525002
 11
-243.630005
 21
85.224998
  0
LINE
  8
0
 10
-241.130005
 20
80.524963
 11
-243.630020
 21
80.743690
  0
LINE
  8
0
 10
-243.630005
 20
80.524986
 11
-245.947433
 21
80.727737
  0
LINE
  8
0
 10
-245.947433
 20
85.022240
 11
-243.630005
 21
85.224991
  0
LINE
  8
0
 10
-243.630005
 20
85.006256
 11
-241.130005
 21
85.224976
  0
LINE
  8
0
 10
-241.029999
 20
80.743721
 11
-239.330002
 21
80.743721
  0
LINE
  8
0
 10
-241.029999
 20
85.006279
 11
-239.330002
 21
85.006279
  0
LINE
  8
0
 10
-241.130005
 20
85.133919
 11
-241.130005
 21
85.197952
  0
LINE
  8
0
 10
-249.849472
 20
82.875000
 11
-216.164520
 21
82.875000
  0
LINE
  8
0
 10
-236.130005
 20
78.833549
 11
-236.130005
 21
79.473129
  0
LINE
  8
0
 10
-222.130005
 20
78.833549
 11
-222.130005
 21
79.473129
  0
LINE
  8
0
 10
-236.130005
 20
86.916451
 11
-235.576111
 21
87.236237
  0
LINE
  8
0
 10
-222.130005
 20
86.916451
 11
-222.683899
 21
87.236237
  0
LINE
  8
0
 10
-229.130005
 20
74.792091
 11
-229.683914
 21
75.111885
  0
LINE
  8
0
 10
-229.129990
 20
74.792084
 11
-228.576080
 21
75.111885
  0
LINE
  8
0
 10
-239.130005
 20
79.375000
 11
-236.620010
 21
79.375000
  0
LINE
  8
0
 10
-239.130005
 20
86.375000
 11
-236.620010
 21
86.375000
  0
LINE
  8
0
 10
-239.130005
 20
82.874985
 11
-236.620010
 21
82.874985
  0
LINE
  8
0
 10
-229.683899
 20
90.638115
 11
-229.130005
 21
90.957901
  0
LINE
  8
0
 10
-228.576111
 20
90.638115
 11
-229.130005
 21
90.957901
  0
LINE
  8
0
 10
-222.130005
 20
86.276871
 11
-222.130005
 21
86.916451
  0
LINE
  8
0
 10
-222.683914
 20
78.513733
 11
-222.129990
 21
78.833534
  0
LINE
  8
0
 10
-235.576111
 20
78.513748
 11
-236.130005
 21
78.833542
  0
LINE
  8
0
 10
-236.130005
 20
86.276871
 11
-236.130005
 21
86.916451
  0
LINE
  8
0
 10
-236.620010
 20
84.989861
 11
-236.620010
 21
86.775002
  0
ARC
  8
0
 10
-245.930008
 20
80.926987
 40
0.199997
 50
180.000000
 51
265.001465
  0
ARC
  8
0
 10
-245.930008
 20
84.823013
 40
0.200002
 50
94.998329
 51
180.000000
  0
ARC
  8
0
 10
-239.330002
 20
80.543724
 40
0.199997
 50
0.000000
 51
90.000000
  0
ARC
  8
0
 10
-239.330002
 20
85.206284
 40
0.199997
 50
270.000000
 51
0.000000
  0
ARC
  8
0
 10
-241.029999
 20
85.106277
 40
0.100006
 50
180.000000
 51
270.000000
  0
ARC
  8
0
 10
-241.029999
 20
80.643723
 40
0.099998
 50
90.000000
 51
180.000000
  0
ARC
  8
0
 10
-241.601135
 20
81.125000
 40
4.981121
 50
339.431519
 51
356.241272
  0
ARC
  8
0
 10
-241.601135
 20
84.625000
 40
4.981128
 50
3.758723
 51
20.568474
  0
ARC
  8
0
 10
-234.291199
 20
84.625000
 40
4.838799
 50
158.797821
 51
201.202179
  0
ARC
  8
0
 10
-234.291199
 20
81.125000
 40
4.838799
 50
158.797821
 51
201.202179
  0
CIRCLE
  8
0
 10
-229.130005
 20
82.875000
 40
7.782850
  0
POINT
  8
0
 10
0.279999
 20
204.750000
  0
POINT
  8
0
 10
10.079998
 20
204.750000
  0
LINE
  8
0
 10
-9.720009
 20
139.349991
 11
10.279991
 21
139.349991
  0
LINE
  8
0
 10
-9.720009
 20
142.849991
 11
10.279991
 21
142.849991
  0
LINE
  8
0
 10
10.279999
 20
142.849991
 11
10.279999
 21
144.849991
  0
LINE
  8
0
 10
-9.720001
 20
142.849991
 11
-9.720001
 21
144.849991
  0
LINE
  8
0
 10
-8.606442
 20
141.736374
 11
-9.720041
 21
142.849976
  0
LINE
  8
0
 10
9.166391
 20
141.736374
 11
10.279997
 21
142.849976
  0
LINE
  8
0
 10
10.280007
 20
139.349976
 11
10.562857
 21
139.632828
  0
LINE
  8
0
 10
-9.720020
 20
139.349976
 11
-10.002864
 21
139.632828
  0
LINE
  8
0
 10
10.562819
 20
139.632828
 11
9.166370
 21
141.029282
  0
LINE
  8
0
 10
-10.002848
 20
139.632812
 11
-8.606400
 21
141.029266
  0
LINE
  8
0
 10
-8.459961
 20
141.382828
 11
9.019939
 21
141.382828
  0
LINE
  8
0
 10
-10.120010
 20
148.349991
 11
10.679993
 21
148.349991
  0
LINE
  8
0
 10
-11.120010
 20
144.849991
 11
11.679993
 21
144.849991
  0
LINE
  8
0
 10
11.680000
 20
144.849991
 11
11.680000
 21
147.349991
  0
LINE
  8
0
 10
-11.120003
 20
144.849991
 11
-11.120003
 21
147.349991
  0
LINE
  8
0
 10
-6.720009
 20
159.850006
 11
7.279991
 21
159.850006
  0
LINE
  8
0
 10
-6.720009
 20
174.350006
 11
7.279991
 21
174.350006
  0
LINE
  8
0
 10
7.279999
 20
159.850006
 11
7.279999
 21
174.350006
  0
LINE
  8
0
 10
-6.720001
 20
159.850006
 11
-6.720001
 21
174.350006
  0
LINE
  8
0
 10
0.279999
 20
161.037811
 11
0.279999
 21
173.162170
  0
LINE
  8
0
 10
-6.720001
 20
161.350006
 11
-6.720001
 21
174.350006
  0
LINE
  8
0
 10
-9.720001
 20
172.181274
 11
-9.720001
 21
173.332703
  0
LINE
  8
0
 10
-7.210007
 20
165.949997
 11
-6.720009
 21
165.949997
  0
LINE
  8
0
 10
-7.527542
 20
165.799988
 11
-9.392464
 21
165.799988
  0
LINE
  8
0
 10
-9.392585
 20
165.799927
 11
-9.720096
 21
166.367187
  0
LINE
  8
0
 10
-9.720001
 20
166.367233
 11
-9.720001
 21
172.861313
  0
LINE
  8
0
 10
-9.392480
 20
173.899979
 11
-9.720011
 21
173.332687
  0
LINE
  8
0
 10
-7.527542
 20
173.899994
 11
-9.392471
 21
173.899994
  0
LINE
  8
0
 10
-7.527656
 20
173.899933
 11
-7.210112
 21
173.349945
  0
LINE
  8
0
 10
-7.527557
 20
171.870728
 11
-9.392471
 21
171.870728
  0
LINE
  8
0
 10
-7.527542
 20
167.829285
 11
-9.392464
 21
167.829285
  0
LINE
  8
0
 10
-7.527575
 20
165.800018
 11
-7.210033
 21
166.350006
  0
LINE
  8
0
 10
-7.209999
 20
165.949997
 11
-7.209999
 21
173.750000
  0
LINE
  8
0
 10
-6.720009
 20
173.750000
 11
-7.210007
 21
173.750000
  0
LINE
  8
0
 10
-6.420013
 20
151.849991
 11
6.979992
 21
151.849991
  0
LINE
  8
0
 10
-6.919998
 20
148.349991
 11
-6.919998
 21
151.349991
  0
LINE
  8
0
 10
7.480000
 20
148.349991
 11
7.480000
 21
151.349991
  0
LINE
  8
0
 10
7.479992
 20
151.349991
 11
6.979992
 21
151.849991
  0
LINE
  8
0
 10
-6.920020
 20
151.350006
 11
-6.420019
 21
151.850006
  0
LINE
  8
0
 10
-6.920013
 20
151.349991
 11
7.479992
 21
151.349991
  0
LINE
  8
0
 10
-2.220009
 20
155.849991
 11
2.779991
 21
155.849991
  0
LINE
  8
0
 10
-4.720009
 20
156.250000
 11
5.279991
 21
156.250000
  0
LINE
  8
0
 10
-5.470001
 20
156.682999
 11
-5.470001
 21
159.416992
  0
LINE
  8
0
 10
6.029999
 20
156.682999
 11
6.029999
 21
159.416992
  0
LINE
  8
0
 10
-2.220026
 20
155.849976
 11
-2.620029
 21
156.249969
  0
LINE
  8
0
 10
2.779999
 20
155.849991
 11
3.179997
 21
156.249985
  0
LINE
  8
0
 10
-4.720010
 20
156.250000
 11
-5.470009
 21
156.683014
  0
LINE
  8
0
 10
5.280001
 20
156.249969
 11
6.030004
 21
156.682983
  0
LINE
  8
0
 10
5.279975
 20
159.849976
 11
6.029972
 21
159.416962
  0
LINE
  8
0
 10
-4.720009
 20
159.850006
 11
5.279991
 21
159.850006
  0
LINE
  8
0
 10
-4.719993
 20
159.849976
 11
-5.469988
 21
159.416962
  0
LINE
  8
0
 10
-2.606712
 20
156.682999
 11
-2.606712
 21
159.416992
  0
LINE
  8
0
 10
3.166752
 20
159.416992
 11
3.166752
 21
156.682999
  0
LINE
  8
0
 10
2.779999
 20
155.849991
 11
2.779999
 21
156.250000
  0
LINE
  8
0
 10
-2.220001
 20
155.849991
 11
-2.220001
 21
156.250000
  0
LINE
  8
0
 10
-16.720001
 20
167.901978
 11
-16.720001
 21
171.798004
  0
LINE
  8
0
 10
-11.720001
 20
167.500000
 11
-11.720001
 21
172.199997
  0
LINE
  8
0
 10
-14.220001
 20
167.500000
 11
-14.220001
 21
172.199997
  0
LINE
  8
0
 10
-11.720008
 20
167.499969
 11
-14.220010
 21
167.718689
  0
LINE
  8
0
 10
-14.220015
 20
167.499969
 11
-16.537441
 21
167.702728
  0
LINE
  8
0
 10
-16.537441
 20
171.997238
 11
-14.220000
 21
172.199982
  0
LINE
  8
0
 10
-14.220002
 20
171.981262
 11
-11.720015
 21
172.199982
  0
LINE
  8
0
 10
-11.620010
 20
167.718719
 11
-9.920013
 21
167.718719
  0
LINE
  8
0
 10
-11.620010
 20
171.981277
 11
-9.920013
 21
171.981277
  0
LINE
  8
0
 10
-11.720001
 20
172.108917
 11
-11.720001
 21
172.172943
  0
LINE
  8
0
 10
0.279999
 20
136.368027
 11
0.279999
 21
229.190323
  0
LINE
  8
0
 10
-1.919998
 20
151.849991
 11
-1.919998
 21
155.849991
  0
LINE
  8
0
 10
2.480000
 20
151.849991
 11
2.480000
 21
155.849991
  0
LINE
  8
0
 10
10.562832
 20
139.632828
 11
-10.002853
 21
139.632828
  0
LINE
  8
0
 10
-4.220001
 20
223.350006
 11
4.779999
 21
223.350006
  0
LINE
  8
0
 10
-3.620003
 20
223.350006
 11
-3.620003
 21
223.850006
  0
LINE
  8
0
 10
-3.220001
 20
226.350006
 11
3.779999
 21
226.350006
  0
LINE
  8
0
 10
-3.220001
 20
223.850006
 11
3.779999
 21
223.850006
  0
LINE
  8
0
 10
2.300724
 20
224.167542
 11
2.300724
 21
226.032455
  0
LINE
  8
0
 10
-1.740723
 20
224.167542
 11
-1.740723
 21
226.032471
  0
LINE
  8
0
 10
-3.769989
 20
224.167526
 11
-3.219996
 21
223.849991
  0
LINE
  8
0
 10
-3.769997
 20
224.167542
 11
-3.769997
 21
226.032471
  0
LINE
  8
0
 10
-3.770027
 20
226.032501
 11
-3.220029
 21
226.350037
  0
LINE
  8
0
 10
4.330006
 20
226.032471
 11
3.780005
 21
226.350006
  0
LINE
  8
0
 10
4.329998
 20
224.167542
 11
4.329998
 21
226.032455
  0
LINE
  8
0
 10
4.180000
 20
223.350006
 11
4.180000
 21
223.850006
  0
LINE
  8
0
 10
-3.620003
 20
223.850006
 11
4.180000
 21
223.850006
  0
LINE
  8
0
 10
4.329965
 20
224.167603
 11
3.779964
 21
223.850052
  0
LINE
  8
0
 10
-5.919998
 20
194.750000
 11
6.480000
 21
194.750000
  0
LINE
  8
0
 10
-5.919998
 20
214.750000
 11
6.479996
 21
214.750000
  0
LINE
  8
0
 10
-6.720001
 20
195.550003
 11
7.279999
 21
195.550003
  0
LINE
  8
0
 10
-6.720001
 20
213.949997
 11
7.279999
 21
213.949997
  0
LINE
  8
0
  6
PHANTOM
 10
7.279999
 20
185.550003
 11
7.279999
 21
189.750000
  0
LINE
  8
0
  6
PHANTOM
 10
-6.720001
 20
185.549988
 11
-6.720001
 21
189.750000
  0
LINE
  8
0
 10
-6.719988
 20
213.949982
 11
-5.919985
 21
214.749985
  0
LINE
  8
0
 10
7.279995
 20
213.949982
 11
6.479988
 21
214.749985
  0
LINE
  8
0
  6
PHANTOM
 10
6.479999
 20
184.750000
 11
7.279997
 21
185.550003
  0
LINE
  8
0
  6
PHANTOM
 10
-5.920000
 20
184.750000
 11
-6.720001
 21
185.550003
  0
LINE
  8
0
  6
PHANTOM
 10
6.529999
 20
184.750000
 11
6.529999
 21
189.750000
  0
LINE
  8
0
  6
PHANTOM
 10
-5.970001
 20
184.799988
 11
-5.970001
 21
189.750000
  0
LINE
  8
0
 10
-4.220001
 20
175.250000
 11
-4.220001
 21
175.590210
  0
LINE
  8
0
 10
4.779999
 20
176.176453
 11
4.779999
 21
192.609528
  0
LINE
  8
0
 10
-5.720001
 20
215.449997
 11
6.279999
 21
215.449997
  0
LINE
  8
0
 10
-5.720001
 20
216.350006
 11
6.279999
 21
216.350006
  0
LINE
  8
0
 10
-4.220001
 20
216.350006
 11
-4.220001
 21
223.350006
  0
LINE
  8
0
 10
4.779999
 20
216.350006
 11
4.779999
 21
223.350006
  0
LINE
  8
0
 10
6.279999
 20
214.750000
 11
6.279999
 21
216.350006
  0
LINE
  8
0
 10
-5.720001
 20
214.750000
 11
-5.720001
 21
216.350006
  0
LINE
  8
0
 10
5.529997
 20
175.249710
 11
-4.970001
 21
175.616379
  0
LINE
  8
0
 10
-4.970009
 20
175.250000
 11
5.529991
 21
175.250000
  0
LINE
  8
0
 10
5.529994
 20
176.150269
 11
-4.938597
 21
176.515839
  0
LINE
  8
0
 10
5.530000
 20
192.583359
 11
-4.970002
 21
192.950027
  0
LINE
  8
0
 10
5.529995
 20
193.483887
 11
-4.970006
 21
193.850555
  0
LINE
  8
0
 10
-4.970001
 20
193.850006
 11
5.529999
 21
193.850006
  0
LINE
  8
0
 10
-4.220001
 20
176.490753
 11
-4.220001
 21
192.923813
  0
LINE
  8
0
 10
4.779999
 20
193.510071
 11
4.779999
 21
193.850006
  0
LINE
  8
0
 10
-8.219986
 20
209.750000
 11
8.779984
 21
209.750000
  0
LINE
  8
0
 10
-8.220001
 20
204.750000
 11
8.779991
 21
204.750000
  0
LINE
  8
0
 10
10.079998
 20
205.500549
 11
10.079998
 21
208.999435
  0
LINE
  8
0
 10
-9.519997
 20
205.500549
 11
-9.519997
 21
208.999435
  0
LINE
  8
0
 10
8.779986
 20
204.750031
 11
10.079989
 21
205.500580
  0
LINE
  8
0
 10
-8.219995
 20
204.750000
 11
-9.519998
 21
205.500565
  0
LINE
  8
0
 10
-8.219998
 20
209.750000
 11
-9.520000
 21
208.999435
  0
LINE
  8
0
 10
8.779983
 20
209.749985
 11
10.079988
 21
208.999420
  0
LINE
  8
0
 10
5.187519
 20
205.500549
 11
5.187519
 21
208.999451
  0
LINE
  8
0
 10
-4.627846
 20
205.500549
 11
-4.627846
 21
208.999451
  0
LINE
  8
0
 10
-8.219986
 20
204.750000
 11
8.779984
 21
204.750000
  0
LINE
  8
0
 10
-8.220001
 20
199.750000
 11
8.779991
 21
199.750000
  0
LINE
  8
0
 10
10.079998
 20
200.500549
 11
10.079998
 21
203.999435
  0
LINE
  8
0
 10
-9.519997
 20
200.500549
 11
-9.519997
 21
203.999435
  0
LINE
  8
0
 10
8.779984
 20
199.750015
 11
10.079989
 21
200.500580
  0
LINE
  8
0
 10
-8.220001
 20
199.750000
 11
-9.520003
 21
200.500565
  0
LINE
  8
0
 10
-8.220001
 20
204.750000
 11
-9.520004
 21
203.999451
  0
LINE
  8
0
 10
8.779986
 20
204.749969
 11
10.079989
 21
203.999420
  0
LINE
  8
0
 10
5.187515
 20
200.500549
 11
5.187515
 21
203.999451
  0
LINE
  8
0
 10
-4.627823
 20
200.500549
 11
-4.627823
 21
203.999451
  0
LINE
  8
0
 10
6.529999
 20
209.750000
 11
6.529999
 21
214.699997
  0
LINE
  8
0
 10
7.279999
 20
209.750000
 11
7.279999
 21
213.949997
  0
LINE
  8
0
 10
-5.970001
 20
209.750000
 11
-5.970001
 21
214.699997
  0
LINE
  8
0
 10
-6.720001
 20
209.750000
 11
-6.720001
 21
213.949997
  0
LINE
  8
0
  6
PHANTOM
 10
5.980000
 20
175.593536
 11
5.980000
 21
192.948395
  0
LINE
  8
0
  6
PHANTOM
 10
-5.419998
 20
176.109680
 11
-5.419998
 21
193.399994
  0
LINE
  8
0
  6
PHANTOM
 10
-4.519997
 20
176.045166
 11
-4.519997
 21
193.399994
  0
LINE
  8
0
  6
PHANTOM
 10
5.079998
 20
175.722580
 11
5.079998
 21
193.012909
  0
LINE
  8
0
  6
PHANTOM
 10
-5.920006
 20
184.750000
 11
6.479996
 21
184.750000
  0
LINE
  8
0
  6
PHANTOM
 10
-6.720001
 20
185.550003
 11
7.279995
 21
185.550003
  0
LINE
  8
0
 10
7.279999
 20
195.550003
 11
7.279999
 21
199.750000
  0
LINE
  8
0
 10
6.479991
 20
194.750015
 11
7.279989
 21
195.550018
  0
LINE
  8
0
 10
6.529999
 20
194.750000
 11
6.529999
 21
199.750000
  0
LINE
  8
0
 10
-5.970001
 20
194.799988
 11
-5.970001
 21
199.750000
  0
LINE
  8
0
 10
-6.720001
 20
195.549988
 11
-6.720001
 21
199.750000
  0
LINE
  8
0
 10
-5.919998
 20
194.750000
 11
-6.720000
 21
195.550003
  0
LINE
  8
0
 10
5.530003
 20
173.630386
 11
5.530003
 21
196.217545
  0
LINE
  8
0
 10
-4.970001
 20
173.566528
 11
-4.970001
 21
196.345276
  0
LINE
  8
0
 10
-27.164198
 20
169.849976
 11
-2.519657
 21
169.849976
  0
ARC
  8
0
 10
-8.959961
 20
141.382843
 40
0.499994
 50
315.000549
 51
45.000694
  0
ARC
  8
0
 10
9.519939
 20
141.382828
 40
0.500006
 50
134.999374
 51
224.999374
  0
ARC
  8
0
 10
10.679993
 20
147.349991
 40
1.000000
 50
0.000000
 51
90.000000
  0
ARC
  8
0
 10
-10.120010
 20
147.349991
 40
1.000000
 50
90.000000
 51
180.000000
  0
ARC
  8
0
 10
3.779991
 20
165.600403
 40
5.750411
 50
232.507919
 51
307.492096
  0
ARC
  8
0
 10
-3.220009
 20
165.600403
 40
5.750411
 50
232.507919
 51
307.492096
  0
ARC
  8
0
 10
-3.220009
 20
168.599579
 40
5.750427
 50
89.999992
 51
127.492004
  0
ARC
  8
0
 10
3.779991
 20
168.599579
 40
5.750427
 50
89.999992
 51
127.492004
  0
ARC
  8
0
 10
3.779991
 20
168.599579
 40
5.750425
 50
52.507992
 51
89.999992
  0
ARC
  8
0
 10
-3.220009
 20
168.599579
 40
5.750425
 50
52.507992
 51
89.999992
  0
ARC
  8
0
 10
-7.930229
 20
166.814636
 40
1.779787
 50
180.000000
 51
214.756317
  0
ARC
  8
0
 10
-9.920006
 20
167.518723
 40
0.200000
 50
0.000000
 51
90.000000
  0
ARC
  8
0
 10
-9.920006
 20
172.181274
 40
0.199997
 50
270.000000
 51
0.000000
  0
ARC
  8
0
 10
-13.798386
 20
169.849991
 40
6.588380
 50
0.000000
 51
17.861197
  0
ARC
  8
0
 10
-7.930229
 20
166.814636
 40
1.779784
 50
145.243652
 51
180.000000
  0
ARC
  8
0
 10
-3.121628
 20
169.849991
 40
6.588381
 50
180.000000
 51
197.861069
  0
ARC
  8
0
 10
-3.121628
 20
169.849991
 40
6.588382
 50
162.138794
 51
180.000000
  0
ARC
  8
0
 10
-7.930244
 20
172.885361
 40
1.779770
 50
180.000000
 51
214.756714
  0
ARC
  8
0
 10
-7.930244
 20
172.885361
 40
1.779767
 50
145.243271
 51
180.000000
  0
ARC
  8
0
 10
-8.989777
 20
172.885361
 40
1.779767
 50
325.243286
 51
0.000000
  0
ARC
  8
0
 10
-8.989792
 20
166.814636
 40
1.779787
 50
0.000000
 51
34.756313
  0
ARC
  8
0
 10
-13.798386
 20
169.849991
 40
6.588379
 50
342.138947
 51
0.000000
  0
ARC
  8
0
 10
-4.038383
 20
158.832977
 40
2.583000
 50
236.341034
 51
303.658997
  0
ARC
  8
0
 10
0.279995
 20
166.089020
 40
9.839016
 50
252.938522
 51
287.061523
  0
ARC
  8
0
 10
4.598370
 20
158.832962
 40
2.582987
 50
236.340866
 51
303.659119
  0
ARC
  8
0
 10
4.598370
 20
157.267029
 40
2.583000
 50
56.341042
 51
123.658913
  0
ARC
  8
0
 10
0.279991
 20
150.010971
 40
9.839033
 50
72.938499
 51
107.061440
  0
ARC
  8
0
 10
-4.038383
 20
157.267029
 40
2.583001
 50
56.340992
 51
123.658943
  0
ARC
  8
0
 10
-11.620010
 20
172.081268
 40
0.100000
 50
180.000000
 51
270.000000
  0
ARC
  8
0
 10
-11.620010
 20
167.618713
 40
0.100006
 50
90.000000
 51
180.000000
  0
ARC
  8
0
 10
-16.520004
 20
167.901978
 40
0.200001
 50
180.000000
 51
265.000397
  0
ARC
  8
0
 10
-16.520004
 20
171.798004
 40
0.200010
 50
94.999229
 51
180.000000
  0
ARC
  8
0
 10
-2.755363
 20
225.629791
 40
1.779793
 50
235.243668
 51
269.999969
  0
ARC
  8
0
 10
3.315361
 20
225.629761
 40
1.779755
 50
269.999969
 51
304.756836
  0
ARC
  8
0
 10
0.279995
 20
230.438370
 40
6.588379
 50
269.999969
 51
287.861145
  0
ARC
  8
0
 10
0.279995
 20
230.438370
 40
6.588369
 50
252.138885
 51
269.999969
  0
ARC
  8
0
 10
-2.755363
 20
225.629791
 40
1.779800
 50
269.999969
 51
304.756287
  0
ARC
  8
0
 10
-2.755363
 20
224.570221
 40
1.779781
 50
55.243404
 51
89.999992
  0
ARC
  8
0
 10
-2.755363
 20
224.570221
 40
1.779785
 50
89.999992
 51
124.756584
  0
ARC
  8
0
 10
0.279995
 20
219.761627
 40
6.588379
 50
89.999992
 51
107.861084
  0
ARC
  8
0
 10
0.279995
 20
219.761627
 40
6.588372
 50
72.138817
 51
89.999992
  0
ARC
  8
0
 10
3.315361
 20
224.570221
 40
1.779785
 50
89.999992
 51
124.756561
  0
ARC
  8
0
 10
3.315361
 20
224.570221
 40
1.779780
 50
55.243431
 51
89.999992
  0
ARC
  8
0
 10
3.315361
 20
225.629761
 40
1.779767
 50
235.243164
 51
269.999969
  0
CIRCLE
  8
0
 10
5.529991
 20
175.699997
 40
0.450000
  0
CIRCLE
  8
0
 10
-4.970009
 20
174.799988
 40
0.450000
  0
CIRCLE
  8
0
 10
-4.970009
 20
176.066406
 40
0.450000
  0
CIRCLE
  8
0
 10
5.529999
 20
194.299988
 40
0.450000
  0
CIRCLE
  8
0
 10
-4.970001
 20
194.299988
 40
0.450000
  0
CIRCLE
  8
0
 10
5.529991
 20
174.799988
 40
0.450000
  0
CIRCLE
  8
0
 10
5.529999
 20
193.033600
 40
0.450000
  0
CIRCLE
  8
0
 10
-4.970001
 20
193.399994
 40
0.450000
  0
ARC
  8
0
 10
7.633736
 20
209.111740
 40
4.361752
 50
235.885880
 51
304.114136
  0
ARC
  8
0
 10
0.280003
 20
221.168915
 40
16.418919
 50
252.608994
 51
287.391022
  0
ARC
  8
0
 10
-7.073738
 20
209.111755
 40
4.361766
 50
235.885956
 51
304.114014
  0
ARC
  8
0
 10
7.633736
 20
205.388260
 40
4.361754
 50
55.885834
 51
124.114113
  0
ARC
  8
0
 10
0.279999
 20
193.331085
 40
16.418907
 50
72.608948
 51
107.390976
  0
ARC
  8
0
 10
-7.073738
 20
205.388245
 40
4.361754
 50
55.885830
 51
124.114014
  0
ARC
  8
0
 10
-7.073738
 20
200.388245
 40
4.361754
 50
55.885830
 51
124.114014
  0
ARC
  8
0
 10
0.279999
 20
188.331085
 40
16.418907
 50
72.608948
 51
107.390976
  0
ARC
  8
0
 10
0.280003
 20
216.168915
 40
16.418919
 50
252.608994
 51
287.391022
  0
ARC
  8
0
 10
7.633736
 20
200.388260
 40
4.361754
 50
55.885834
 51
124.114113
  0
ARC
  8
0
 10
-7.073738
 20
204.111755
 40
4.361766
 50
235.885956
 51
304.114014
  0
ARC
  8
0
 10
7.633736
 20
204.111740
 40
4.361752
 50
235.885880
 51
304.114136
  0
POINT
  8
0
 10
0.279999
 20
82.875000
  0
POINT
  8
0
 10
11.679998
 20
82.875000
  0
LINE
  8
0
 10
0.279999
 20
70.424995
 11
0.279999
 21
98.925003
  0
LINE
  8
0
 10
-18.948158
 20
82.875000
 11
12.793777
 21
82.875000
  0
LINE
  8
0
 10
-16.720001
 20
80.926987
 11
-16.720001
 21
84.823013
  0
LINE
  8
0
 10
-11.720001
 20
80.525002
 11
-11.720001
 21
85.224998
  0
LINE
  8
0
 10
-14.220001
 20
80.525002
 11
-14.220001
 21
85.224998
  0
LINE
  8
0
 10
-11.720002
 20
80.524963
 11
-14.220005
 21
80.743683
  0
LINE
  8
0
 10
-14.219999
 20
80.524971
 11
-16.537426
 21
80.727722
  0
LINE
  8
0
 10
-16.537439
 20
85.022224
 11
-14.220005
 21
85.224976
  0
LINE
  8
0
 10
-14.220001
 20
85.006264
 11
-11.720007
 21
85.224983
  0
LINE
  8
0
 10
-11.620003
 20
80.743721
 11
-10.919003
 21
80.743721
  0
LINE
  8
0
 10
-11.620003
 20
85.006279
 11
-10.919003
 21
85.006279
  0
LINE
  8
0
 10
-11.720001
 20
85.133919
 11
-11.720001
 21
85.197952
  0
ARC
  8
0
 10
-11.620003
 20
80.643723
 40
0.099998
 50
90.000000
 51
180.000000
  0
ARC
  8
0
 10
-16.520004
 20
80.926987
 40
0.200001
 50
180.000000
 51
265.000397
  0
ARC
  8
0
 10
-16.520004
 20
84.823013
 40
0.200003
 50
94.999420
 51
180.000000
  0
ARC
  8
0
 10
-11.620003
 20
85.106277
 40
0.100000
 50
180.000000
 51
270.000000
  0
CIRCLE
  8
0
 10
0.279999
 20
82.875000
 40
10.282845
  0
CIRCLE
  8
0
 10
0.279999
 20
82.875000
 40
11.400000
  0
POINT
  8
0
 10
229.690002
 20
204.750000
  0
POINT
  8
0
 10
239.490005
 20
204.750000
  0
LINE
  8
0
 10
219.289993
 20
151.850006
 11
240.089996
 21
151.850006
  0
LINE
  8
0
 10
218.289993
 20
148.350006
 11
241.089996
 21
148.350006
  0
LINE
  8
0
 10
241.089996
 20
148.350006
 11
241.089996
 21
150.850006
  0
LINE
  8
0
 10
218.290009
 20
148.350006
 11
218.290009
 21
150.850006
  0
LINE
  8
0
 10
222.690002
 20
159.850006
 11
236.690002
 21
159.850006
  0
LINE
  8
0
 10
222.690002
 20
174.350006
 11
236.690002
 21
174.350006
  0
LINE
  8
0
 10
236.690002
 20
159.850006
 11
236.690002
 21
174.350006
  0
LINE
  8
0
 10
222.690002
 20
159.850006
 11
222.690002
 21
174.350006
  0
LINE
  8
0
 10
229.690002
 20
161.037811
 11
229.690002
 21
173.162170
  0
LINE
  8
0
 10
222.690002
 20
161.350006
 11
222.690002
 21
174.350006
  0
LINE
  8
0
 10
219.690002
 20
172.181274
 11
219.690002
 21
173.332703
  0
LINE
  8
0
 10
222.199997
 20
165.949997
 11
222.690002
 21
165.949997
  0
LINE
  8
0
 10
221.882462
 20
165.799988
 11
220.017548
 21
165.799988
  0
LINE
  8
0
 10
220.017426
 20
165.799927
 11
219.689911
 21
166.367187
  0
LINE
  8
0
 10
219.690002
 20
166.367233
 11
219.690002
 21
172.861313
  0
LINE
  8
0
 10
220.017517
 20
173.899994
 11
219.689987
 21
173.332687
  0
LINE
  8
0
 10
221.882462
 20
173.899994
 11
220.017532
 21
173.899994
  0
LINE
  8
0
 10
221.882355
 20
173.899948
 11
222.199890
 21
173.349945
  0
LINE
  8
0
 10
221.882446
 20
171.870728
 11
220.017532
 21
171.870728
  0
LINE
  8
0
 10
221.882462
 20
167.829285
 11
220.017548
 21
167.829285
  0
LINE
  8
0
 10
221.882431
 20
165.800018
 11
222.199966
 21
166.350006
  0
LINE
  8
0
 10
222.200012
 20
165.949997
 11
222.200012
 21
173.750000
  0
LINE
  8
0
 10
222.690002
 20
173.750000
 11
222.199997
 21
173.750000
  0
LINE
  8
0
 10
222.989990
 20
155.350006
 11
236.389999
 21
155.350006
  0
LINE
  8
0
 10
222.490005
 20
151.850006
 11
222.490005
 21
154.850006
  0
LINE
  8
0
 10
236.889999
 20
151.850006
 11
236.889999
 21
154.850006
  0
LINE
  8
0
 10
236.889999
 20
154.849991
 11
236.389999
 21
155.349991
  0
LINE
  8
0
 10
222.489990
 20
154.850006
 11
222.989990
 21
155.350006
  0
LINE
  8
0
 10
222.489990
 20
154.850006
 11
236.889999
 21
154.850006
  0
LINE
  8
0
 10
227.190002
 20
155.850006
 11
232.190002
 21
155.850006
  0
LINE
  8
0
 10
224.690002
 20
156.250000
 11
234.690002
 21
156.250000
  0
LINE
  8
0
 10
223.940002
 20
156.683014
 11
223.940002
 21
159.416992
  0
LINE
  8
0
 10
235.440002
 20
156.683014
 11
235.440002
 21
159.416992
  0
LINE
  8
0
 10
227.189987
 20
155.849991
 11
226.789978
 21
156.249985
  0
LINE
  8
0
 10
232.190002
 20
155.849991
 11
232.589996
 21
156.249985
  0
LINE
  8
0
 10
224.689987
 20
156.250000
 11
223.939987
 21
156.683014
  0
LINE
  8
0
 10
234.690002
 20
156.249969
 11
235.440002
 21
156.682983
  0
LINE
  8
0
 10
234.689972
 20
159.849976
 11
235.439972
 21
159.416962
  0
LINE
  8
0
 10
224.690002
 20
159.850006
 11
234.690002
 21
159.850006
  0
LINE
  8
0
 10
224.690002
 20
159.849976
 11
223.940018
 21
159.416977
  0
LINE
  8
0
 10
226.803284
 20
156.683014
 11
226.803284
 21
159.416992
  0
LINE
  8
0
 10
232.576752
 20
159.416992
 11
232.576752
 21
156.683014
  0
LINE
  8
0
 10
232.190002
 20
155.850006
 11
232.190002
 21
156.250000
  0
LINE
  8
0
 10
227.190002
 20
155.850006
 11
227.190002
 21
156.250000
  0
LINE
  8
0
 10
206.892639
 20
169.850006
 11
224.389984
 21
169.850006
  0
LINE
  8
0
 10
212.690002
 20
167.901978
 11
212.690002
 21
171.798004
  0
LINE
  8
0
 10
217.690002
 20
167.500000
 11
217.690002
 21
172.199997
  0
LINE
  8
0
 10
215.190002
 20
167.500000
 11
215.190002
 21
172.199997
  0
LINE
  8
0
 10
217.690002
 20
167.499969
 11
215.189987
 21
167.718689
  0
LINE
  8
0
 10
215.189987
 20
167.499985
 11
212.872559
 21
167.702728
  0
LINE
  8
0
 10
212.872559
 20
171.997253
 11
215.190002
 21
172.199997
  0
LINE
  8
0
 10
215.190002
 20
171.981262
 11
217.689987
 21
172.199982
  0
LINE
  8
0
 10
217.789993
 20
167.718719
 11
219.489990
 21
167.718719
  0
LINE
  8
0
 10
217.789993
 20
171.981277
 11
219.489990
 21
171.981277
  0
LINE
  8
0
 10
217.690002
 20
172.108917
 11
217.690002
 21
172.172943
  0
LINE
  8
0
 10
229.690002
 20
119.865463
 11
229.690002
 21
234.490326
  0
LINE
  8
0
 10
227.490005
 20
155.350006
 11
227.490005
 21
155.850006
  0
LINE
  8
0
 10
231.889999
 20
155.350006
 11
231.889999
 21
155.850006
  0
LINE
  8
0
 10
225.190002
 20
223.350006
 11
234.190002
 21
223.350006
  0
LINE
  8
0
 10
225.790009
 20
223.350006
 11
225.790009
 21
223.850006
  0
LINE
  8
0
 10
226.190002
 20
226.350006
 11
233.190002
 21
226.350006
  0
LINE
  8
0
 10
226.190002
 20
223.850006
 11
233.190002
 21
223.850006
  0
LINE
  8
0
 10
231.710724
 20
224.167542
 11
231.710724
 21
226.032455
  0
LINE
  8
0
 10
227.669281
 20
224.167542
 11
227.669281
 21
226.032471
  0
LINE
  8
0
 10
225.640015
 20
224.167542
 11
226.190002
 21
223.849991
  0
LINE
  8
0
 10
225.640015
 20
224.167542
 11
225.640015
 21
226.032471
  0
LINE
  8
0
 10
225.639984
 20
226.032501
 11
226.189987
 21
226.350037
  0
LINE
  8
0
 10
233.740021
 20
226.032471
 11
233.190018
 21
226.350006
  0
LINE
  8
0
 10
233.740005
 20
224.167542
 11
233.740005
 21
226.032455
  0
LINE
  8
0
 10
233.589996
 20
223.350006
 11
233.589996
 21
223.850006
  0
LINE
  8
0
 10
225.790009
 20
223.850006
 11
233.589996
 21
223.850006
  0
LINE
  8
0
 10
233.739975
 20
224.167587
 11
233.189972
 21
223.850037
  0
LINE
  8
0
 10
223.490005
 20
194.750000
 11
235.889999
 21
194.750000
  0
LINE
  8
0
 10
223.490005
 20
214.750000
 11
235.889999
 21
214.750000
  0
LINE
  8
0
 10
222.690002
 20
195.550003
 11
236.690002
 21
195.550003
  0
LINE
  8
0
 10
222.690002
 20
213.949997
 11
236.690002
 21
213.949997
  0
LINE
  8
0
  6
PHANTOM
 10
236.690002
 20
185.550003
 11
236.690002
 21
189.750000
  0
LINE
  8
0
  6
PHANTOM
 10
222.690002
 20
185.549988
 11
222.690002
 21
189.750000
  0
LINE
  8
0
 10
222.690018
 20
213.949982
 11
223.490021
 21
214.749985
  0
LINE
  8
0
 10
236.690002
 20
213.949982
 11
235.889984
 21
214.749985
  0
LINE
  8
0
  6
PHANTOM
 10
235.889999
 20
184.750000
 11
236.690002
 21
185.550003
  0
LINE
  8
0
  6
PHANTOM
 10
223.490005
 20
184.750000
 11
222.690002
 21
185.550003
  0
LINE
  8
0
  6
PHANTOM
 10
235.940002
 20
184.750000
 11
235.940002
 21
189.750000
  0
LINE
  8
0
  6
PHANTOM
 10
223.440002
 20
184.799988
 11
223.440002
 21
189.750000
  0
LINE
  8
0
 10
225.190002
 20
175.250000
 11
225.190002
 21
175.590210
  0
LINE
  8
0
 10
234.190002
 20
174.350006
 11
234.190002
 21
194.409531
  0
LINE
  8
0
 10
223.690002
 20
215.449997
 11
235.690002
 21
215.449997
  0
LINE
  8
0
 10
223.690002
 20
216.350006
 11
235.690002
 21
216.350006
  0
LINE
  8
0
 10
225.190002
 20
216.350006
 11
225.190002
 21
223.350006
  0
LINE
  8
0
 10
234.190002
 20
216.350006
 11
234.190002
 21
223.350006
  0
LINE
  8
0
 10
235.690002
 20
214.750000
 11
235.690002
 21
216.350006
  0
LINE
  8
0
 10
223.690002
 20
214.750000
 11
223.690002
 21
216.350006
  0
LINE
  8
0
 10
234.940002
 20
175.249710
 11
224.440002
 21
175.616379
  0
LINE
  8
0
 10
224.440002
 20
175.250000
 11
234.940002
 21
175.250000
  0
LINE
  8
0
 10
234.940002
 20
176.150253
 11
224.471405
 21
176.515823
  0
LINE
  8
0
 10
234.940002
 20
192.583359
 11
224.440002
 21
192.950027
  0
LINE
  8
0
 10
234.940002
 20
193.483887
 11
224.440002
 21
193.850555
  0
LINE
  8
0
 10
224.440002
 20
193.850006
 11
234.940002
 21
193.850006
  0
LINE
  8
0
 10
225.190002
 20
174.350006
 11
225.190002
 21
194.723816
  0
LINE
  8
0
 10
234.190002
 20
193.510071
 11
234.190002
 21
193.850006
  0
LINE
  8
0
 10
221.190018
 20
209.750000
 11
238.189987
 21
209.750000
  0
LINE
  8
0
 10
221.190002
 20
204.750000
 11
238.190002
 21
204.750000
  0
LINE
  8
0
 10
239.490005
 20
205.500565
 11
239.490005
 21
208.999435
  0
LINE
  8
0
 10
219.890015
 20
205.500565
 11
219.890015
 21
208.999435
  0
LINE
  8
0
 10
238.189987
 20
204.750031
 11
239.489990
 21
205.500580
  0
LINE
  8
0
 10
221.190002
 20
204.750000
 11
219.889999
 21
205.500565
  0
LINE
  8
0
 10
221.190002
 20
209.750000
 11
219.889999
 21
208.999435
  0
LINE
  8
0
 10
238.189987
 20
209.749969
 11
239.489990
 21
208.999420
  0
LINE
  8
0
 10
234.597519
 20
205.500565
 11
234.597519
 21
208.999451
  0
LINE
  8
0
 10
224.782166
 20
205.500565
 11
224.782166
 21
208.999451
  0
LINE
  8
0
 10
221.190018
 20
204.750000
 11
238.189987
 21
204.750000
  0
LINE
  8
0
 10
221.190002
 20
199.750000
 11
238.190002
 21
199.750000
  0
LINE
  8
0
 10
239.490005
 20
200.500549
 11
239.490005
 21
203.999435
  0
LINE
  8
0
 10
219.890015
 20
200.500549
 11
219.890015
 21
203.999435
  0
LINE
  8
0
 10
238.189987
 20
199.750015
 11
239.489990
 21
200.500580
  0
LINE
  8
0
 10
221.190002
 20
199.750000
 11
219.889999
 21
200.500565
  0
LINE
  8
0
 10
221.190002
 20
204.750000
 11
219.889999
 21
203.999451
  0
LINE
  8
0
 10
238.189987
 20
204.749969
 11
239.489990
 21
203.999420
  0
LINE
  8
0
 10
234.597519
 20
200.500549
 11
234.597519
 21
203.999451
  0
LINE
  8
0
 10
224.782181
 20
200.500549
 11
224.782181
 21
203.999451
  0
LINE
  8
0
 10
235.940002
 20
209.750000
 11
235.940002
 21
214.699997
  0
LINE
  8
0
 10
236.690002
 20
209.750000
 11
236.690002
 21
213.949997
  0
LINE
  8
0
 10
223.440002
 20
209.750000
 11
223.440002
 21
214.699997
  0
LINE
  8
0
 10
222.690002
 20
209.750000
 11
222.690002
 21
213.949997
  0
LINE
  8
0
  6
PHANTOM
 10
235.389999
 20
174.350006
 11
235.389999
 21
194.748383
  0
LINE
  8
0
  6
PHANTOM
 10
223.990005
 20
174.350006
 11
223.990005
 21
195.199997
  0
LINE
  8
0
  6
PHANTOM
 10
224.890015
 20
174.350006
 11
224.890015
 21
195.199997
  0
LINE
  8
0
  6
PHANTOM
 10
234.490005
 20
174.350006
 11
234.490005
 21
194.812912
  0
LINE
  8
0
  6
PHANTOM
 10
223.489990
 20
184.750000
 11
235.889999
 21
184.750000
  0
LINE
  8
0
 10
236.690002
 20
195.550003
 11
236.690002
 21
199.750000
  0
LINE
  8
0
 10
235.889999
 20
194.750015
 11
236.689987
 21
195.550018
  0
LINE
  8
0
 10
235.940002
 20
194.750000
 11
235.940002
 21
199.750000
  0
LINE
  8
0
 10
223.440002
 20
194.799988
 11
223.440002
 21
199.750000
  0
LINE
  8
0
 10
222.690002
 20
195.549988
 11
222.690002
 21
199.750000
  0
LINE
  8
0
 10
223.490005
 20
194.750000
 11
222.690002
 21
195.550003
  0
LINE
  8
0
 10
234.940002
 20
174.350006
 11
234.940002
 21
198.017548
  0
LINE
  8
0
 10
224.440002
 20
174.350006
 11
224.440002
 21
198.145264
  0
LINE
  8
0
 10
239.940002
 20
148.350006
 11
239.940002
 21
146.850006
  0
LINE
  8
0
 10
239.690002
 20
146.599976
 11
239.940002
 21
146.849976
  0
LINE
  8
0
 10
239.690002
 20
146.600006
 11
239.690002
 21
142.850006
  0
LINE
  8
0
 10
239.139740
 20
142.299713
 11
239.690018
 21
142.849976
  0
LINE
  8
0
 10
219.440002
 20
148.350006
 11
219.440002
 21
146.850006
  0
LINE
  8
0
 10
219.690002
 20
146.600006
 11
219.440002
 21
146.850006
  0
LINE
  8
0
 10
219.690002
 20
146.600006
 11
219.690002
 21
142.850006
  0
LINE
  8
0
 10
220.240280
 20
142.299744
 11
219.690002
 21
142.850006
  0
LINE
  8
0
 10
219.440002
 20
146.850006
 11
239.940002
 21
146.850006
  0
LINE
  8
0
 10
219.690002
 20
142.850006
 11
239.690002
 21
142.850006
  0
LINE
  8
0
 10
217.190002
 20
139.350006
 11
242.190002
 21
139.350006
  0
LINE
  8
0
 10
216.989990
 20
139.696411
 11
217.189987
 21
139.349991
  0
LINE
  8
0
 10
216.990005
 20
139.696381
 11
220.136719
 21
141.513153
  0
LINE
  8
0
 10
242.390030
 20
139.696396
 11
242.190033
 21
139.349976
  0
LINE
  8
0
 10
242.389999
 20
139.696365
 11
239.243271
 21
141.513123
  0
LINE
  8
0
 10
216.990005
 20
139.696411
 11
242.390015
 21
139.696411
  0
LINE
  8
0
 10
238.678986
 20
141.838959
 11
220.701019
 21
141.838959
  0
ARC
  8
0
 10
240.089996
 20
150.850006
 40
1.000000
 50
0.000000
 51
90.000000
  0
ARC
  8
0
 10
219.289993
 20
150.850006
 40
1.000000
 50
90.000000
 51
180.000000
  0
ARC
  8
0
 10
233.190002
 20
165.600403
 40
5.750412
 50
232.507904
 51
307.491974
  0
ARC
  8
0
 10
226.190002
 20
165.600403
 40
5.750412
 50
232.507904
 51
307.491974
  0
ARC
  8
0
 10
226.190002
 20
168.599579
 40
5.750427
 50
90.000000
 51
127.492004
  0
ARC
  8
0
 10
233.190002
 20
168.599579
 40
5.750427
 50
90.000000
 51
127.492004
  0
ARC
  8
0
 10
233.190002
 20
168.599579
 40
5.750424
 50
52.507996
 51
90.000000
  0
ARC
  8
0
 10
226.190002
 20
168.599579
 40
5.750424
 50
52.507996
 51
90.000000
  0
ARC
  8
0
 10
221.479767
 20
166.814636
 40
1.779785
 50
180.000000
 51
214.756485
  0
ARC
  8
0
 10
219.489990
 20
167.518723
 40
0.200012
 50
0.000000
 51
90.000000
  0
ARC
  8
0
 10
219.489990
 20
172.181274
 40
0.199997
 50
270.000000
 51
0.000000
  0
ARC
  8
0
 10
215.611618
 20
169.849991
 40
6.588379
 50
0.000000
 51
17.861183
  0
ARC
  8
0
 10
221.479767
 20
166.814636
 40
1.779778
 50
145.243515
 51
180.000000
  0
ARC
  8
0
 10
226.288376
 20
169.849991
 40
6.588379
 50
180.000000
 51
197.861053
  0
ARC
  8
0
 10
226.288376
 20
169.849991
 40
6.588388
 50
162.138824
 51
180.000000
  0
ARC
  8
0
 10
221.479767
 20
172.885361
 40
1.779785
 50
180.000000
 51
214.756485
  0
ARC
  8
0
 10
221.479767
 20
172.885361
 40
1.779778
 50
145.243515
 51
180.000000
  0
ARC
  8
0
 10
220.420227
 20
172.885361
 40
1.779766
 50
325.243225
 51
0.000000
  0
ARC
  8
0
 10
220.420212
 20
166.814636
 40
1.779785
 50
0.000000
 51
34.756203
  0
ARC
  8
0
 10
215.611618
 20
169.849991
 40
6.588383
 50
342.138947
 51
0.000000
  0
ARC
  8
0
 10
225.371613
 20
158.832977
 40
2.582993
 50
236.341293
 51
303.659271
  0
ARC
  8
0
 10
229.690002
 20
166.089020
 40
9.839018
 50
252.938492
 51
287.061493
  0
ARC
  8
0
 10
234.008377
 20
158.832962
 40
2.582988
 50
236.340820
 51
303.659180
  0
ARC
  8
0
 10
234.008377
 20
157.267029
 40
2.583001
 50
56.341003
 51
123.658997
  0
ARC
  8
0
 10
229.690002
 20
150.010971
 40
9.839018
 50
72.938492
 51
107.061478
  0
ARC
  8
0
 10
225.371613
 20
157.267029
 40
2.583009
 50
56.340725
 51
123.658714
  0
ARC
  8
0
 10
217.789993
 20
172.081268
 40
0.100006
 50
180.000000
 51
270.000000
  0
ARC
  8
0
 10
217.789993
 20
167.618713
 40
0.100006
 50
90.000000
 51
180.000000
  0
ARC
  8
0
 10
212.889999
 20
167.901978
 40
0.199997
 50
180.000000
 51
265.001465
  0
ARC
  8
0
 10
212.889999
 20
171.798004
 40
0.200010
 50
94.998138
 51
180.000000
  0
ARC
  8
0
 10
226.654633
 20
225.629791
 40
1.779791
 50
235.243805
 51
270.000000
  0
ARC
  8
0
 10
232.725372
 20
225.629761
 40
1.779755
 50
269.999512
 51
304.756775
  0
ARC
  8
0
 10
229.690002
 20
230.438370
 40
6.588379
 50
269.999878
 51
287.861084
  0
ARC
  8
0
 10
229.690002
 20
230.438370
 40
6.588369
 50
252.138901
 51
269.999878
  0
ARC
  8
0
 10
226.654633
 20
225.629791
 40
1.779800
 50
270.000000
 51
304.756592
  0
ARC
  8
0
 10
226.654633
 20
224.570221
 40
1.779787
 50
55.243114
 51
89.999512
  0
ARC
  8
0
 10
226.654633
 20
224.570221
 40
1.779785
 50
89.999512
 51
124.756477
  0
ARC
  8
0
 10
229.690002
 20
219.761612
 40
6.588394
 50
90.000000
 51
107.861053
  0
ARC
  8
0
 10
229.690002
 20
219.761612
 40
6.588383
 50
72.138947
 51
90.000000
  0
ARC
  8
0
 10
232.725372
 20
224.570221
 40
1.779785
 50
90.000000
 51
124.756882
  0
ARC
  8
0
 10
232.725372
 20
224.570221
 40
1.779778
 50
55.243519
 51
90.000000
  0
ARC
  8
0
 10
232.725372
 20
225.629761
 40
1.779774
 50
235.242828
 51
269.999512
  0
CIRCLE
  8
0
 10
234.940002
 20
175.699997
 40
0.450000
  0
CIRCLE
  8
0
 10
224.440002
 20
174.799988
 40
0.450000
  0
CIRCLE
  8
0
 10
224.440002
 20
176.066406
 40
0.450000
  0
CIRCLE
  8
0
 10
234.940002
 20
194.299988
 40
0.450000
  0
CIRCLE
  8
0
 10
224.440002
 20
194.299988
 40
0.450000
  0
CIRCLE
  8
0
 10
234.940002
 20
174.799988
 40
0.450000
  0
CIRCLE
  8
0
 10
234.940002
 20
193.033600
 40
0.450000
  0
CIRCLE
  8
0
 10
224.440002
 20
193.399994
 40
0.450000
  0
ARC
  8
0
 10
237.043732
 20
209.111740
 40
4.361743
 50
235.886047
 51
304.114288
  0
ARC
  8
0
 10
229.690002
 20
221.168915
 40
16.418917
 50
252.609039
 51
287.391022
  0
ARC
  8
0
 10
222.336273
 20
209.111755
 40
4.361773
 50
235.885818
 51
304.114014
  0
ARC
  8
0
 10
237.043732
 20
205.388260
 40
4.361761
 50
55.885708
 51
124.113960
  0
ARC
  8
0
 10
229.690002
 20
193.331085
 40
16.418905
 50
72.608963
 51
107.390968
  0
ARC
  8
0
 10
222.336273
 20
205.388260
 40
4.361739
 50
55.885761
 51
124.114128
  0
ARC
  8
0
 10
222.336273
 20
200.388245
 40
4.361752
 50
55.885876
 51
124.114014
  0
ARC
  8
0
 10
229.690002
 20
188.331085
 40
16.418905
 50
72.608963
 51
107.390968
  0
ARC
  8
0
 10
229.690002
 20
216.168915
 40
16.418917
 50
252.609039
 51
287.391022
  0
ARC
  8
0
 10
237.043732
 20
200.388260
 40
4.361761
 50
55.885708
 51
124.113960
  0
ARC
  8
0
 10
222.336273
 20
204.111755
 40
4.361773
 50
235.885818
 51
304.114014
  0
ARC
  8
0
 10
237.043732
 20
204.111740
 40
4.361743
 50
235.886047
 51
304.114288
  0
ARC
  8
0
 10
219.886719
 20
141.946167
 40
0.500001
 50
299.999939
 51
45.001236
  0
ARC
  8
0
 10
239.493286
 20
141.946167
 40
0.500001
 50
134.998764
 51
240.000076
  0
POINT
  8
0
 10
229.690002
 20
82.875000
  0
POINT
  8
0
 10
242.389999
 20
82.875000
  0
LINE
  8
0
 10
229.690002
 20
68.588463
 11
229.690002
 21
98.925003
  0
LINE
  8
0
 10
210.461853
 20
82.875000
 11
244.202087
 21
82.875000
  0
LINE
  8
0
 10
212.690002
 20
80.926987
 11
212.690002
 21
84.823013
  0
LINE
  8
0
 10
215.190002
 20
80.525002
 11
215.190002
 21
85.224998
  0
LINE
  8
0
 10
217.201355
 20
80.567711
 11
215.190002
 21
80.743683
  0
LINE
  8
0
 10
215.190002
 20
80.524971
 11
212.872574
 21
80.727722
  0
LINE
  8
0
 10
212.872559
 20
85.022224
 11
215.190002
 21
85.224976
  0
LINE
  8
0
 10
215.190002
 20
85.006264
 11
217.201340
 21
85.182236
  0
ARC
  8
0
 10
212.889999
 20
80.926987
 40
0.199997
 50
180.000000
 51
265.001465
  0
ARC
  8
0
 10
212.889999
 20
84.823013
 40
0.200002
 50
94.998329
 51
180.000000
  0
CIRCLE
  8
0
 10
229.690002
 20
82.875000
 40
12.700000
  0
POINT
  8
0
 10
459.100006
 20
204.750000
  0
POINT
  8
0
 10
468.899994
 20
204.750000
  0
LINE
  8
0
 10
448.700012
 20
151.850006
 11
469.500000
 21
151.850006
  0
LINE
  8
0
 10
447.700012
 20
148.350006
 11
470.500000
 21
148.350006
  0
LINE
  8
0
 10
470.500000
 20
148.350006
 11
470.500000
 21
150.850006
  0
LINE
  8
0
 10
447.700012
 20
148.350006
 11
447.700012
 21
150.850006
  0
LINE
  8
0
 10
452.100006
 20
159.850006
 11
466.100006
 21
159.850006
  0
LINE
  8
0
 10
452.100006
 20
174.350006
 11
466.100006
 21
174.350006
  0
LINE
  8
0
 10
466.100006
 20
159.850006
 11
466.100006
 21
174.350006
  0
LINE
  8
0
 10
452.100006
 20
159.850006
 11
452.100006
 21
174.350006
  0
LINE
  8
0
 10
459.100006
 20
161.037811
 11
459.100006
 21
173.162170
  0
LINE
  8
0
 10
452.100006
 20
161.350006
 11
452.100006
 21
174.350006
  0
LINE
  8
0
 10
449.100006
 20
172.181274
 11
449.100006
 21
173.332703
  0
LINE
  8
0
 10
451.609985
 20
165.949997
 11
452.100006
 21
165.949997
  0
LINE
  8
0
 10
451.292480
 20
165.799988
 11
449.427551
 21
165.799988
  0
LINE
  8
0
 10
449.427429
 20
165.799911
 11
449.099915
 21
166.367172
  0
LINE
  8
0
 10
449.100006
 20
166.367233
 11
449.100006
 21
172.861313
  0
LINE
  8
0
 10
449.427521
 20
173.899994
 11
449.100006
 21
173.332687
  0
LINE
  8
0
 10
451.292480
 20
173.899994
 11
449.427551
 21
173.899994
  0
LINE
  8
0
 10
451.292358
 20
173.899948
 11
451.609894
 21
173.349945
  0
LINE
  8
0
 10
451.292450
 20
171.870728
 11
449.427551
 21
171.870728
  0
LINE
  8
0
 10
451.292480
 20
167.829285
 11
449.427551
 21
167.829285
  0
LINE
  8
0
 10
451.292450
 20
165.800018
 11
451.609985
 21
166.350006
  0
LINE
  8
0
 10
451.610016
 20
165.949997
 11
451.610016
 21
173.750000
  0
LINE
  8
0
 10
452.100006
 20
173.750000
 11
451.609985
 21
173.750000
  0
LINE
  8
0
 10
452.399994
 20
155.350006
 11
465.799988
 21
155.350006
  0
LINE
  8
0
 10
451.900024
 20
151.850006
 11
451.900024
 21
154.850006
  0
LINE
  8
0
 10
466.300018
 20
151.850006
 11
466.300018
 21
154.850006
  0
LINE
  8
0
 10
466.299988
 20
154.849991
 11
465.799988
 21
155.349991
  0
LINE
  8
0
 10
451.899994
 20
154.850006
 11
452.399994
 21
155.350006
  0
LINE
  8
0
 10
451.899994
 20
154.850006
 11
466.299988
 21
154.850006
  0
LINE
  8
0
 10
456.600006
 20
155.850006
 11
461.600006
 21
155.850006
  0
LINE
  8
0
 10
454.100006
 20
156.250000
 11
464.100006
 21
156.250000
  0
LINE
  8
0
 10
453.350006
 20
156.683014
 11
453.350006
 21
159.416992
  0
LINE
  8
0
 10
464.850006
 20
156.683014
 11
464.850006
 21
159.416992
  0
LINE
  8
0
 10
456.600006
 20
155.849991
 11
456.199982
 21
156.250000
  0
LINE
  8
0
 10
461.600006
 20
155.849991
 11
462.000000
 21
156.249985
  0
LINE
  8
0
 10
454.100006
 20
156.250000
 11
453.350006
 21
156.683014
  0
LINE
  8
0
 10
464.100006
 20
156.249969
 11
464.850006
 21
156.682983
  0
LINE
  8
0
 10
464.099976
 20
159.849991
 11
464.849976
 21
159.416977
  0
LINE
  8
0
 10
454.100006
 20
159.850006
 11
464.100006
 21
159.850006
  0
LINE
  8
0
 10
454.100006
 20
159.849976
 11
453.350006
 21
159.416962
  0
LINE
  8
0
 10
456.213287
 20
156.683014
 11
456.213287
 21
159.416992
  0
LINE
  8
0
 10
461.986755
 20
159.416992
 11
461.986755
 21
156.683014
  0
LINE
  8
0
 10
461.600006
 20
155.850006
 11
461.600006
 21
156.250000
  0
LINE
  8
0
 10
456.600006
 20
155.850006
 11
456.600006
 21
156.250000
  0
LINE
  8
0
 10
436.302643
 20
169.850006
 11
453.799988
 21
169.850006
  0
LINE
  8
0
 10
442.100006
 20
167.901978
 11
442.100006
 21
171.798004
  0
LINE
  8
0
 10
447.100006
 20
167.500000
 11
447.100006
 21
172.199997
  0
LINE
  8
0
 10
444.600006
 20
167.500000
 11
444.600006
 21
172.199997
  0
LINE
  8
0
 10
447.100006
 20
167.499969
 11
444.600006
 21
167.718689
  0
LINE
  8
0
 10
444.600006
 20
167.499985
 11
442.282562
 21
167.702728
  0
LINE
  8
0
 10
442.282562
 20
171.997238
 11
444.600006
 21
172.199982
  0
LINE
  8
0
 10
444.600006
 20
171.981262
 11
447.100006
 21
172.199982
  0
LINE
  8
0
 10
447.200012
 20
167.718719
 11
448.899994
 21
167.718719
  0
LINE
  8
0
 10
447.200012
 20
171.981277
 11
448.899994
 21
171.981277
  0
LINE
  8
0
 10
447.100006
 20
172.108917
 11
447.100006
 21
172.172943
  0
LINE
  8
0
 10
459.100006
 20
136.321960
 11
459.100006
 21
229.190323
  0
LINE
  8
0
 10
456.900024
 20
155.350006
 11
456.900024
 21
155.850006
  0
LINE
  8
0
 10
461.300018
 20
155.350006
 11
461.300018
 21
155.850006
  0
LINE
  8
0
 10
454.600006
 20
223.350006
 11
463.600006
 21
223.350006
  0
LINE
  8
0
 10
455.200012
 20
223.350006
 11
455.200012
 21
223.850006
  0
LINE
  8
0
 10
455.600006
 20
226.350006
 11
462.600006
 21
226.350006
  0
LINE
  8
0
 10
455.600006
 20
223.850006
 11
462.600006
 21
223.850006
  0
LINE
  8
0
 10
461.120728
 20
224.167542
 11
461.120728
 21
226.032455
  0
LINE
  8
0
 10
457.079285
 20
224.167542
 11
457.079285
 21
226.032471
  0
LINE
  8
0
 10
455.050018
 20
224.167542
 11
455.600006
 21
223.849991
  0
LINE
  8
0
 10
455.050018
 20
224.167542
 11
455.050018
 21
226.032471
  0
LINE
  8
0
 10
455.049988
 20
226.032501
 11
455.599976
 21
226.350052
  0
LINE
  8
0
 10
463.150024
 20
226.032471
 11
462.600037
 21
226.350021
  0
LINE
  8
0
 10
463.149994
 20
224.167542
 11
463.149994
 21
226.032455
  0
LINE
  8
0
 10
463.000000
 20
223.350006
 11
463.000000
 21
223.850006
  0
LINE
  8
0
 10
455.200012
 20
223.850006
 11
463.000000
 21
223.850006
  0
LINE
  8
0
 10
463.149963
 20
224.167603
 11
462.599976
 21
223.850052
  0
LINE
  8
0
 10
452.900024
 20
194.750000
 11
465.300018
 21
194.750000
  0
LINE
  8
0
 10
452.900024
 20
214.750000
 11
465.299988
 21
214.750000
  0
LINE
  8
0
 10
452.100006
 20
195.550003
 11
466.100006
 21
195.550003
  0
LINE
  8
0
 10
452.100006
 20
213.949997
 11
466.100006
 21
213.949997
  0
LINE
  8
0
  6
PHANTOM
 10
466.100006
 20
185.550003
 11
466.100006
 21
189.750000
  0
LINE
  8
0
  6
PHANTOM
 10
452.100006
 20
185.549988
 11
452.100006
 21
189.750000
  0
LINE
  8
0
 10
452.100006
 20
213.949982
 11
452.900024
 21
214.749985
  0
LINE
  8
0
 10
466.100006
 20
213.949982
 11
465.299988
 21
214.749985
  0
LINE
  8
0
  6
PHANTOM
 10
465.300018
 20
184.750000
 11
466.100006
 21
185.550003
  0
LINE
  8
0
  6
PHANTOM
 10
452.899994
 20
184.750000
 11
452.100006
 21
185.550003
  0
LINE
  8
0
  6
PHANTOM
 10
465.350006
 20
184.750000
 11
465.350006
 21
189.750000
  0
LINE
  8
0
  6
PHANTOM
 10
452.850006
 20
184.799988
 11
452.850006
 21
189.750000
  0
LINE
  8
0
 10
454.600006
 20
175.250000
 11
454.600006
 21
175.590210
  0
LINE
  8
0
 10
463.600006
 20
176.176453
 11
463.600006
 21
192.609528
  0
LINE
  8
0
 10
453.100006
 20
215.449997
 11
465.100006
 21
215.449997
  0
LINE
  8
0
 10
453.100006
 20
216.350006
 11
465.100006
 21
216.350006
  0
LINE
  8
0
 10
454.600006
 20
216.350006
 11
454.600006
 21
223.350006
  0
LINE
  8
0
 10
463.600006
 20
216.350006
 11
463.600006
 21
223.350006
  0
LINE
  8
0
 10
465.100006
 20
214.750000
 11
465.100006
 21
216.350006
  0
LINE
  8
0
 10
453.100006
 20
214.750000
 11
453.100006
 21
216.350006
  0
LINE
  8
0
 10
464.350006
 20
175.249710
 11
453.850006
 21
175.616379
  0
LINE
  8
0
 10
453.850006
 20
175.250000
 11
464.350006
 21
175.250000
  0
LINE
  8
0
 10
464.350006
 20
176.150253
 11
453.881409
 21
176.515823
  0
LINE
  8
0
 10
464.350006
 20
192.583359
 11
453.850006
 21
192.950027
  0
LINE
  8
0
 10
464.350006
 20
193.483902
 11
453.850006
 21
193.850571
  0
LINE
  8
0
 10
453.850006
 20
193.850006
 11
464.350006
 21
193.850006
  0
LINE
  8
0
 10
454.600006
 20
176.490753
 11
454.600006
 21
192.923813
  0
LINE
  8
0
 10
463.600006
 20
193.510071
 11
463.600006
 21
193.850006
  0
LINE
  8
0
 10
450.600037
 20
209.750000
 11
467.599976
 21
209.750000
  0
LINE
  8
0
 10
450.600006
 20
204.750000
 11
467.600006
 21
204.750000
  0
LINE
  8
0
 10
468.899994
 20
205.500549
 11
468.899994
 21
208.999435
  0
LINE
  8
0
 10
449.300018
 20
205.500549
 11
449.300018
 21
208.999435
  0
LINE
  8
0
 10
467.600006
 20
204.750031
 11
468.899994
 21
205.500580
  0
LINE
  8
0
 10
450.600006
 20
204.750000
 11
449.300018
 21
205.500565
  0
LINE
  8
0
 10
450.600006
 20
209.750000
 11
449.300018
 21
208.999435
  0
LINE
  8
0
 10
467.600006
 20
209.749969
 11
468.899994
 21
208.999420
  0
LINE
  8
0
 10
464.007538
 20
205.500549
 11
464.007538
 21
208.999451
  0
LINE
  8
0
 10
454.192169
 20
205.500549
 11
454.192169
 21
208.999451
  0
LINE
  8
0
 10
450.600037
 20
204.750000
 11
467.599976
 21
204.750000
  0
LINE
  8
0
 10
450.600006
 20
199.750000
 11
467.600006
 21
199.750000
  0
LINE
  8
0
 10
468.899994
 20
200.500549
 11
468.899994
 21
203.999435
  0
LINE
  8
0
 10
449.300018
 20
200.500549
 11
449.300018
 21
203.999435
  0
LINE
  8
0
 10
467.599976
 20
199.750015
 11
468.899994
 21
200.500580
  0
LINE
  8
0
 10
450.600006
 20
199.750000
 11
449.300018
 21
200.500565
  0
LINE
  8
0
 10
450.600006
 20
204.750000
 11
449.299988
 21
203.999451
  0
LINE
  8
0
 10
467.600006
 20
204.749969
 11
468.899994
 21
203.999420
  0
LINE
  8
0
 10
464.007507
 20
200.500549
 11
464.007507
 21
203.999451
  0
LINE
  8
0
 10
454.192200
 20
200.500549
 11
454.192200
 21
203.999451
  0
LINE
  8
0
 10
465.350006
 20
209.750000
 11
465.350006
 21
214.699997
  0
LINE
  8
0
 10
466.100006
 20
209.750000
 11
466.100006
 21
213.949997
  0
LINE
  8
0
 10
452.850006
 20
209.750000
 11
452.850006
 21
214.699997
  0
LINE
  8
0
 10
452.100006
 20
209.750000
 11
452.100006
 21
213.949997
  0
LINE
  8
0
  6
PHANTOM
 10
464.800018
 20
175.593536
 11
464.800018
 21
192.948395
  0
LINE
  8
0
  6
PHANTOM
 10
453.400024
 20
176.109680
 11
453.400024
 21
193.399994
  0
LINE
  8
0
  6
PHANTOM
 10
454.300018
 20
176.045166
 11
454.300018
 21
193.399994
  0
LINE
  8
0
  6
PHANTOM
 10
463.899994
 20
175.722580
 11
463.899994
 21
193.012909
  0
LINE
  8
0
  6
PHANTOM
 10
452.899994
 20
184.750000
 11
465.299988
 21
184.750000
  0
LINE
  8
0
  6
PHANTOM
 10
452.100006
 20
185.550003
 11
466.100006
 21
185.550003
  0
LINE
  8
0
 10
466.100006
 20
195.550003
 11
466.100006
 21
199.750000
  0
LINE
  8
0
 10
465.299988
 20
194.750015
 11
466.099976
 21
195.550018
  0
LINE
  8
0
 10
465.350006
 20
194.750000
 11
465.350006
 21
199.750000
  0
LINE
  8
0
 10
452.850006
 20
194.799988
 11
452.850006
 21
199.750000
  0
LINE
  8
0
 10
452.100006
 20
195.549988
 11
452.100006
 21
199.750000
  0
LINE
  8
0
 10
452.899994
 20
194.750015
 11
452.100006
 21
195.550003
  0
LINE
  8
0
 10
464.350006
 20
173.630386
 11
464.350006
 21
196.217545
  0
LINE
  8
0
 10
453.850006
 20
173.566528
 11
453.850006
 21
196.345276
  0
LINE
  8
0
 10
469.350006
 20
148.350006
 11
469.350006
 21
146.850006
  0
LINE
  8
0
 10
469.100006
 20
146.599991
 11
469.350006
 21
146.849991
  0
LINE
  8
0
 10
469.100006
 20
146.600006
 11
469.100006
 21
142.850006
  0
LINE
  8
0
 10
468.333801
 20
142.083755
 11
469.100006
 21
142.849991
  0
LINE
  8
0
 10
448.850006
 20
148.350006
 11
448.850006
 21
146.850006
  0
LINE
  8
0
 10
449.100006
 20
146.599991
 11
448.850006
 21
146.849991
  0
LINE
  8
0
 10
449.100006
 20
146.600006
 11
449.100006
 21
142.850006
  0
LINE
  8
0
 10
449.866241
 20
142.083771
 11
449.100006
 21
142.849991
  0
LINE
  8
0
 10
448.850006
 20
146.850006
 11
469.350006
 21
146.850006
  0
LINE
  8
0
 10
449.100006
 20
142.850006
 11
469.100006
 21
142.850006
  0
LINE
  8
0
 10
474.100006
 20
137.849991
 11
444.100006
 21
137.849991
  0
LINE
  8
0
 10
443.873016
 20
138.295502
 11
444.100006
 21
137.849991
  0
LINE
  8
0
 10
443.873016
 20
138.295502
 11
449.739685
 21
141.284714
  0
LINE
  8
0
 10
474.326996
 20
138.295471
 11
468.460327
 21
141.284698
  0
LINE
  8
0
 10
474.326996
 20
138.295502
 11
474.100006
 21
137.849991
  0
LINE
  8
0
 10
450.352844
 20
141.597137
 11
467.847168
 21
141.597137
  0
LINE
  8
0
 10
443.873016
 20
138.295502
 11
474.326996
 21
138.295502
  0
ARC
  8
0
 10
469.500000
 20
150.850006
 40
1.000000
 50
0.000000
 51
90.000000
  0
ARC
  8
0
 10
448.700012
 20
150.850006
 40
1.000000
 50
90.000000
 51
180.000000
  0
ARC
  8
0
 10
462.600006
 20
165.600403
 40
5.750412
 50
232.507904
 51
307.492096
  0
ARC
  8
0
 10
455.600006
 20
165.600403
 40
5.750412
 50
232.507904
 51
307.492096
  0
ARC
  8
0
 10
455.600006
 20
168.599579
 40
5.750427
 50
90.000000
 51
127.492004
  0
ARC
  8
0
 10
462.600006
 20
168.599579
 40
5.750427
 50
90.000000
 51
127.492004
  0
ARC
  8
0
 10
462.600006
 20
168.599579
 40
5.750424
 50
52.507996
 51
90.000000
  0
ARC
  8
0
 10
455.600006
 20
168.599579
 40
5.750424
 50
52.507996
 51
90.000000
  0
ARC
  8
0
 10
450.889771
 20
166.814636
 40
1.779785
 50
180.000000
 51
214.756195
  0
ARC
  8
0
 10
448.899994
 20
167.518723
 40
0.200012
 50
0.000000
 51
90.000000
  0
ARC
  8
0
 10
448.899994
 20
172.181274
 40
0.199997
 50
270.000000
 51
0.000000
  0
ARC
  8
0
 10
445.021606
 20
169.849991
 40
6.588409
 50
0.000000
 51
17.861183
  0
ARC
  8
0
 10
450.889771
 20
166.814636
 40
1.779766
 50
145.243240
 51
180.000000
  0
ARC
  8
0
 10
455.698364
 20
169.849991
 40
6.588379
 50
180.000000
 51
197.861145
  0
ARC
  8
0
 10
455.698364
 20
169.849991
 40
6.588359
 50
162.138733
 51
180.000000
  0
ARC
  8
0
 10
450.889771
 20
172.885361
 40
1.779785
 50
180.000000
 51
214.756760
  0
ARC
  8
0
 10
450.889771
 20
172.885361
 40
1.779766
 50
145.243240
 51
180.000000
  0
ARC
  8
0
 10
449.830231
 20
172.885361
 40
1.779766
 50
325.243225
 51
0.000000
  0
ARC
  8
0
 10
449.830200
 20
166.814636
 40
1.779816
 50
0.000000
 51
34.756203
  0
ARC
  8
0
 10
445.021606
 20
169.849991
 40
6.588383
 50
342.138947
 51
0.000000
  0
ARC
  8
0
 10
454.781616
 20
158.832977
 40
2.582993
 50
236.341293
 51
303.659271
  0
ARC
  8
0
 10
459.100006
 20
166.089020
 40
9.839018
 50
252.938492
 51
287.061493
  0
ARC
  8
0
 10
463.418365
 20
158.832962
 40
2.582980
 50
236.341095
 51
303.659454
  0
ARC
  8
0
 10
463.418365
 20
157.267029
 40
2.583009
 50
56.340725
 51
123.658714
  0
ARC
  8
0
 10
459.100006
 20
150.010971
 40
9.839018
 50
72.938492
 51
107.061478
  0
ARC
  8
0
 10
454.781616
 20
157.267029
 40
2.583009
 50
56.340725
 51
123.658714
  0
ARC
  8
0
 10
447.200012
 20
172.081268
 40
0.100006
 50
180.000000
 51
270.000000
  0
ARC
  8
0
 10
447.200012
 20
167.618713
 40
0.100006
 50
90.000000
 51
180.000000
  0
ARC
  8
0
 10
442.299988
 20
167.901978
 40
0.199982
 50
180.000000
 51
265.001465
  0
ARC
  8
0
 10
442.299988
 20
171.798004
 40
0.200010
 50
94.998138
 51
180.000000
  0
ARC
  8
0
 10
456.064636
 20
225.629791
 40
1.779782
 50
235.244202
 51
270.000000
  0
ARC
  8
0
 10
462.135376
 20
225.629761
 40
1.779755
 50
270.000000
 51
304.756348
  0
ARC
  8
0
 10
459.100006
 20
230.438370
 40
6.588379
 50
270.000000
 51
287.861084
  0
ARC
  8
0
 10
459.100006
 20
230.438370
 40
6.588369
 50
252.138901
 51
270.000000
  0
ARC
  8
0
 10
456.064636
 20
225.629791
 40
1.779800
 50
270.000000
 51
304.756592
  0
ARC
  8
0
 10
456.064636
 20
224.570221
 40
1.779787
 50
55.243114
 51
90.000000
  0
ARC
  8
0
 10
456.064636
 20
224.570221
 40
1.779785
 50
90.000000
 51
124.756081
  0
ARC
  8
0
 10
459.100006
 20
219.761627
 40
6.588379
 50
90.000000
 51
107.861099
  0
ARC
  8
0
 10
459.100006
 20
219.761627
 40
6.588369
 50
72.138901
 51
90.000000
  0
ARC
  8
0
 10
462.135376
 20
224.570221
 40
1.779785
 50
90.000000
 51
124.756882
  0
ARC
  8
0
 10
462.135376
 20
224.570221
 40
1.779769
 50
55.243923
 51
90.000000
  0
ARC
  8
0
 10
462.135376
 20
225.629761
 40
1.779774
 50
235.242828
 51
270.000000
  0
CIRCLE
  8
0
 10
464.350006
 20
175.699997
 40
0.450000
  0
CIRCLE
  8
0
 10
453.850006
 20
174.799988
 40
0.450000
  0
CIRCLE
  8
0
 10
453.850006
 20
176.066406
 40
0.450000
  0
CIRCLE
  8
0
 10
464.350006
 20
194.299988
 40
0.450000
  0
CIRCLE
  8
0
 10
453.850006
 20
194.299988
 40
0.450000
  0
CIRCLE
  8
0
 10
464.350006
 20
174.799988
 40
0.450000
  0
CIRCLE
  8
0
 10
464.350006
 20
193.033600
 40
0.450000
  0
CIRCLE
  8
0
 10
453.850006
 20
193.399994
 40
0.450000
  0
ARC
  8
0
 10
466.453735
 20
209.111740
 40
4.361752
 50
235.885880
 51
304.114136
  0
ARC
  8
0
 10
459.100006
 20
221.168915
 40
16.418921
 50
252.608978
 51
287.391022
  0
ARC
  8
0
 10
451.746277
 20
209.111755
 40
4.361764
 50
235.885986
 51
304.114014
  0
ARC
  8
0
 10
466.453735
 20
205.388260
 40
4.361752
 50
55.885876
 51
124.114128
  0
ARC
  8
0
 10
459.100006
 20
193.331085
 40
16.418905
 50
72.608963
 51
107.391014
  0
ARC
  8
0
 10
451.746277
 20
205.388245
 40
4.361752
 50
55.885876
 51
124.114014
  0
ARC
  8
0
 10
451.746277
 20
200.388245
 40
4.361752
 50
55.885876
 51
124.114014
  0
ARC
  8
0
 10
459.100006
 20
188.331085
 40
16.418905
 50
72.608963
 51
107.391014
  0
ARC
  8
0
 10
459.100006
 20
216.168915
 40
16.418921
 50
252.608978
 51
287.391022
  0
ARC
  8
0
 10
466.453735
 20
200.388260
 40
4.361752
 50
55.885876
 51
124.114128
  0
ARC
  8
0
 10
451.746277
 20
204.111755
 40
4.361764
 50
235.885986
 51
304.114014
  0
ARC
  8
0
 10
466.453735
 20
204.111740
 40
4.361752
 50
235.885880
 51
304.114136
  0
ARC
  8
0
 10
449.512695
 20
141.730209
 40
0.499991
 50
296.999847
 51
45.001236
  0
ARC
  8
0
 10
468.687317
 20
141.730209
 40
0.500001
 50
134.998764
 51
243.000168
  0
POINT
  8
0
 10
459.100006
 20
82.875000
  0
POINT
  8
0
 10
474.326996
 20
82.875000
  0
LINE
  8
0
 10
459.100006
 20
65.759415
 11
459.100006
 21
99.865463
  0
LINE
  8
0
 10
439.871857
 20
82.875000
 11
476.259277
 21
82.875000
  0
LINE
  8
0
 10
442.100006
 20
80.926987
 11
442.100006
 21
84.823013
  0
LINE
  8
0
 10
444.047974
 20
80.573265
 11
442.282593
 21
80.727722
  0
LINE
  8
0
 10
442.282562
 20
85.022224
 11
444.047974
 21
85.176674
  0
ARC
  8
0
 10
442.299988
 20
80.926987
 40
0.199982
 50
180.000000
 51
265.001465
  0
ARC
  8
0
 10
442.299988
 20
84.823013
 40
0.200002
 50
94.998329
 51
180.000000
  0
CIRCLE
  8
0
 10
459.100006
 20
82.875000
 40
15.227000
  0
POINT
  8
0
 10
-458.544983
 20
-150.250000
  0
POINT
  8
0
 10
-448.744995
 20
-150.250000
  0
LINE
  8
0
 10
-468.945007
 20
-203.149994
 11
-448.144989
 21
-203.150009
  0
LINE
  8
0
 10
-469.945007
 20
-206.649994
 11
-447.144989
 21
-206.650009
  0
LINE
  8
0
 10
-447.144989
 20
-206.650009
 11
-447.144989
 21
-204.150009
  0
LINE
  8
0
 10
-469.945007
 20
-206.649994
 11
-469.945007
 21
-204.149994
  0
LINE
  8
0
 10
-465.545013
 20
-195.149994
 11
-451.545013
 21
-195.149994
  0
LINE
  8
0
 10
-465.544983
 20
-180.649994
 11
-451.544983
 21
-180.649994
  0
LINE
  8
0
 10
-451.544983
 20
-195.149994
 11
-451.544983
 21
-180.649994
  0
LINE
  8
0
 10
-465.544983
 20
-195.149994
 11
-465.544983
 21
-180.649994
  0
LINE
  8
0
 10
-458.544983
 20
-193.962189
 11
-458.544983
 21
-181.837814
  0
LINE
  8
0
 10
-465.544983
 20
-193.649994
 11
-465.544983
 21
-180.649994
  0
LINE
  8
0
 10
-468.544983
 20
-182.818710
 11
-468.544983
 21
-181.667297
  0
LINE
  8
0
 10
-466.035004
 20
-189.050003
 11
-465.544983
 21
-189.050003
  0
LINE
  8
0
 10
-466.352539
 20
-189.200012
 11
-468.217468
 21
-189.200012
  0
LINE
  8
0
 10
-468.217590
 20
-189.200104
 11
-468.545105
 21
-188.632828
  0
LINE
  8
0
 10
-468.544983
 20
-188.632767
 11
-468.544983
 21
-182.138687
  0
LINE
  8
0
 10
-468.217468
 20
-181.100006
 11
-468.545013
 21
-181.667297
  0
LINE
  8
0
 10
-466.352539
 20
-181.099991
 11
-468.217468
 21
-181.099991
  0
LINE
  8
0
 10
-466.352661
 20
-181.100067
 11
-466.035126
 21
-181.650070
  0
LINE
  8
0
 10
-466.352539
 20
-183.129272
 11
-468.217468
 21
-183.129272
  0
LINE
  8
0
 10
-466.352539
 20
-187.170715
 11
-468.217468
 21
-187.170715
  0
LINE
  8
0
 10
-466.352570
 20
-189.199982
 11
-466.035034
 21
-188.649994
  0
LINE
  8
0
 10
-466.034973
 20
-189.050003
 11
-466.034973
 21
-181.250000
  0
LINE
  8
0
 10
-465.544983
 20
-181.250000
 11
-466.035004
 21
-181.250000
  0
LINE
  8
0
 10
-465.244995
 20
-199.649994
 11
-451.845001
 21
-199.649994
  0
LINE
  8
0
 10
-465.744995
 20
-203.149994
 11
-465.744995
 21
-200.149994
  0
LINE
  8
0
 10
-451.345001
 20
-203.149994
 11
-451.345001
 21
-200.149994
  0
LINE
  8
0
 10
-451.345001
 20
-200.150009
 11
-451.845001
 21
-199.650009
  0
LINE
  8
0
 10
-465.744995
 20
-200.149994
 11
-465.244995
 21
-199.649994
  0
LINE
  8
0
 10
-465.744995
 20
-200.149994
 11
-451.345001
 21
-200.149994
  0
LINE
  8
0
 10
-461.045013
 20
-199.149994
 11
-456.045013
 21
-199.149994
  0
LINE
  8
0
 10
-463.545013
 20
-198.750000
 11
-453.545013
 21
-198.750000
  0
LINE
  8
0
 10
-464.294983
 20
-198.316986
 11
-464.294983
 21
-195.583008
  0
LINE
  8
0
 10
-452.794983
 20
-198.316986
 11
-452.794983
 21
-195.583008
  0
LINE
  8
0
 10
-461.045013
 20
-199.150009
 11
-461.445007
 21
-198.750000
  0
LINE
  8
0
 10
-456.044983
 20
-199.150009
 11
-455.644989
 21
-198.750015
  0
LINE
  8
0
 10
-463.544983
 20
-198.750000
 11
-464.294983
 21
-198.316986
  0
LINE
  8
0
 10
-453.544983
 20
-198.750015
 11
-452.794983
 21
-198.317001
  0
LINE
  8
0
 10
-453.545013
 20
-195.150009
 11
-452.795013
 21
-195.583023
  0
LINE
  8
0
 10
-463.545013
 20
-195.149994
 11
-453.545013
 21
-195.149994
  0
LINE
  8
0
 10
-463.544983
 20
-195.150009
 11
-464.294983
 21
-195.583008
  0
LINE
  8
0
 10
-461.431702
 20
-198.316986
 11
-461.431702
 21
-195.583008
  0
LINE
  8
0
 10
-455.658234
 20
-195.583008
 11
-455.658234
 21
-198.316986
  0
LINE
  8
0
 10
-456.044983
 20
-199.149994
 11
-456.044983
 21
-198.750000
  0
LINE
  8
0
 10
-461.044983
 20
-199.149994
 11
-461.044983
 21
-198.750000
  0
LINE
  8
0
 10
-481.342346
 20
-185.149994
 11
-463.845001
 21
-185.149994
  0
LINE
  8
0
 10
-475.544983
 20
-187.098007
 11
-475.544983
 21
-183.201981
  0
LINE
  8
0
 10
-470.544983
 20
-187.500000
 11
-470.544983
 21
-182.800003
  0
LINE
  8
0
 10
-473.044983
 20
-187.500000
 11
-473.044983
 21
-182.800003
  0
LINE
  8
0
 10
-470.545013
 20
-187.500031
 11
-473.045013
 21
-187.281311
  0
LINE
  8
0
 10
-473.045013
 20
-187.500000
 11
-475.362427
 21
-187.297256
  0
LINE
  8
0
 10
-475.362427
 20
-183.002762
 11
-473.044983
 21
-182.800003
  0
LINE
  8
0
 10
-473.044983
 20
-183.018723
 11
-470.545013
 21
-182.800003
  0
LINE
  8
0
 10
-470.445007
 20
-187.281281
 11
-468.744995
 21
-187.281281
  0
LINE
  8
0
 10
-470.445007
 20
-183.018723
 11
-468.744995
 21
-183.018723
  0
LINE
  8
0
 10
-470.544983
 20
-182.891083
 11
-470.544983
 21
-182.827042
  0
LINE
  8
0
 10
-458.544983
 20
-218.678040
 11
-458.544983
 21
-125.809669
  0
LINE
  8
0
 10
-460.744995
 20
-199.649994
 11
-460.744995
 21
-199.149994
  0
LINE
  8
0
 10
-456.345001
 20
-199.649994
 11
-456.345001
 21
-199.149994
  0
LINE
  8
0
 10
-463.044983
 20
-131.649994
 11
-454.044983
 21
-131.649994
  0
LINE
  8
0
 10
-462.444977
 20
-131.649994
 11
-462.444977
 21
-131.149994
  0
LINE
  8
0
 10
-462.044983
 20
-128.649994
 11
-455.044983
 21
-128.649994
  0
LINE
  8
0
 10
-462.044983
 20
-131.149994
 11
-455.044983
 21
-131.149994
  0
LINE
  8
0
 10
-456.524261
 20
-130.832458
 11
-456.524261
 21
-128.967545
  0
LINE
  8
0
 10
-460.565704
 20
-130.832458
 11
-460.565704
 21
-128.967529
  0
LINE
  8
0
 10
-462.594971
 20
-130.832474
 11
-462.044983
 21
-131.150009
  0
LINE
  8
0
 10
-462.594971
 20
-130.832458
 11
-462.594971
 21
-128.967529
  0
LINE
  8
0
 10
-462.595001
 20
-128.967468
 11
-462.045013
 21
-128.649933
  0
LINE
  8
0
 10
-454.494965
 20
-128.967529
 11
-455.044983
 21
-128.649994
  0
LINE
  8
0
 10
-454.494995
 20
-130.832458
 11
-454.494965
 21
-128.967545
  0
LINE
  8
0
 10
-454.644989
 20
-131.649994
 11
-454.644989
 21
-131.149994
  0
LINE
  8
0
 10
-462.444977
 20
-131.149994
 11
-454.644989
 21
-131.149994
  0
LINE
  8
0
 10
-454.495026
 20
-130.832397
 11
-455.045013
 21
-131.149933
  0
LINE
  8
0
 10
-464.744995
 20
-160.250000
 11
-452.344971
 21
-160.250000
  0
LINE
  8
0
 10
-464.744965
 20
-140.250000
 11
-452.344971
 21
-140.250000
  0
LINE
  8
0
 10
-465.544983
 20
-159.449997
 11
-451.544983
 21
-159.449997
  0
LINE
  8
0
 10
-465.544983
 20
-141.050003
 11
-451.544983
 21
-141.050003
  0
LINE
  8
0
  6
PHANTOM
 10
-451.544983
 20
-169.449997
 11
-451.544983
 21
-165.250000
  0
LINE
  8
0
  6
PHANTOM
 10
-465.544983
 20
-169.449997
 11
-465.544983
 21
-165.250000
  0
LINE
  8
0
 10
-465.544952
 20
-141.050018
 11
-464.744965
 21
-140.250015
  0
LINE
  8
0
 10
-451.544983
 20
-141.050018
 11
-452.345001
 21
-140.250015
  0
LINE
  8
0
  6
PHANTOM
 10
-452.345001
 20
-170.250000
 11
-451.544983
 21
-169.449997
  0
LINE
  8
0
  6
PHANTOM
 10
-464.744995
 20
-170.250000
 11
-465.544983
 21
-169.449997
  0
LINE
  8
0
  6
PHANTOM
 10
-452.294983
 20
-170.250000
 11
-452.294983
 21
-165.250000
  0
LINE
  8
0
  6
PHANTOM
 10
-464.794983
 20
-170.199997
 11
-464.794983
 21
-165.250000
  0
LINE
  8
0
 10
-463.044983
 20
-179.750000
 11
-463.044983
 21
-179.409790
  0
LINE
  8
0
 10
-454.044983
 20
-178.823532
 11
-454.044983
 21
-162.390472
  0
LINE
  8
0
 10
-464.544983
 20
-139.550003
 11
-452.544983
 21
-139.550003
  0
LINE
  8
0
 10
-464.544983
 20
-138.649994
 11
-452.544983
 21
-138.649994
  0
LINE
  8
0
 10
-463.044983
 20
-138.649994
 11
-463.044983
 21
-131.649994
  0
LINE
  8
0
 10
-454.044983
 20
-138.649994
 11
-454.044983
 21
-131.649994
  0
LINE
  8
0
 10
-452.544983
 20
-140.250000
 11
-452.544983
 21
-138.649994
  0
LINE
  8
0
 10
-464.544983
 20
-140.250000
 11
-464.544983
 21
-138.649994
  0
LINE
  8
0
 10
-453.294983
 20
-179.750290
 11
-463.794983
 21
-179.383606
  0
LINE
  8
0
 10
-463.794983
 20
-179.750000
 11
-453.294983
 21
-179.750000
  0
LINE
  8
0
 10
-453.294983
 20
-178.849747
 11
-463.763580
 21
-178.484177
  0
LINE
  8
0
 10
-453.294983
 20
-162.416641
 11
-463.794983
 21
-162.049957
  0
LINE
  8
0
 10
-453.294983
 20
-161.516113
 11
-463.794983
 21
-161.149429
  0
LINE
  8
0
 10
-463.794983
 20
-161.149994
 11
-453.294983
 21
-161.149994
  0
LINE
  8
0
 10
-463.044983
 20
-178.509247
 11
-463.044983
 21
-162.076187
  0
LINE
  8
0
 10
-454.044983
 20
-161.489929
 11
-454.044983
 21
-161.149994
  0
LINE
  8
0
 10
-467.044952
 20
-145.250000
 11
-450.044983
 21
-145.250000
  0
LINE
  8
0
 10
-467.044983
 20
-150.250000
 11
-450.044983
 21
-150.250000
  0
LINE
  8
0
 10
-448.744995
 20
-149.499451
 11
-448.744995
 21
-146.000565
  0
LINE
  8
0
 10
-468.344971
 20
-149.499435
 11
-468.344971
 21
-146.000565
  0
LINE
  8
0
 10
-450.045013
 20
-150.249954
 11
-448.744995
 21
-149.499405
  0
LINE
  8
0
 10
-467.044983
 20
-150.249985
 11
-468.344971
 21
-149.499435
  0
LINE
  8
0
 10
-467.044983
 20
-145.250000
 11
-468.344971
 21
-146.000549
  0
LINE
  8
0
 10
-450.045013
 20
-145.250031
 11
-448.744995
 21
-146.000595
  0
LINE
  8
0
 10
-453.637451
 20
-149.499435
 11
-453.637451
 21
-146.000549
  0
LINE
  8
0
 10
-463.452820
 20
-149.499435
 11
-463.452820
 21
-146.000549
  0
LINE
  8
0
 10
-467.044983
 20
-150.250000
 11
-450.044983
 21
-150.250000
  0
LINE
  8
0
 10
-467.044983
 20
-155.250000
 11
-450.044983
 21
-155.250000
  0
LINE
  8
0
 10
-448.744995
 20
-154.499451
 11
-448.744995
 21
-151.000565
  0
LINE
  8
0
 10
-468.344971
 20
-154.499435
 11
-468.344971
 21
-151.000565
  0
LINE
  8
0
 10
-450.045013
 20
-155.249969
 11
-448.744995
 21
-154.499420
  0
LINE
  8
0
 10
-467.044983
 20
-155.250000
 11
-468.344971
 21
-154.499435
  0
LINE
  8
0
 10
-467.044983
 20
-150.250000
 11
-468.345001
 21
-151.000549
  0
LINE
  8
0
 10
-450.044983
 20
-150.250031
 11
-448.744995
 21
-151.000595
  0
LINE
  8
0
 10
-453.637482
 20
-154.499435
 11
-453.637451
 21
-151.000549
  0
LINE
  8
0
 10
-463.452820
 20
-154.499435
 11
-463.452820
 21
-151.000549
  0
LINE
  8
0
 10
-452.294983
 20
-145.250000
 11
-452.294983
 21
-140.300003
  0
LINE
  8
0
 10
-451.544983
 20
-145.250000
 11
-451.544983
 21
-141.050003
  0
LINE
  8
0
 10
-464.794983
 20
-145.250000
 11
-464.794983
 21
-140.300003
  0
LINE
  8
0
 10
-465.544983
 20
-145.250000
 11
-465.544983
 21
-141.050003
  0
LINE
  8
0
  6
PHANTOM
 10
-452.845001
 20
-179.406464
 11
-452.844971
 21
-162.051605
  0
LINE
  8
0
  6
PHANTOM
 10
-464.244995
 20
-178.890320
 11
-464.244995
 21
-161.599991
  0
LINE
  8
0
  6
PHANTOM
 10
-463.344971
 20
-178.954834
 11
-463.344971
 21
-161.599991
  0
LINE
  8
0
  6
PHANTOM
 10
-453.744995
 20
-179.277420
 11
-453.744995
 21
-161.987091
  0
LINE
  8
0
  6
PHANTOM
 10
-464.744995
 20
-170.250000
 11
-452.345001
 21
-170.250000
  0
LINE
  8
0
  6
PHANTOM
 10
-465.544983
 20
-169.449997
 11
-451.544983
 21
-169.449997
  0
LINE
  8
0
 10
-451.544983
 20
-159.449997
 11
-451.544983
 21
-155.250000
  0
LINE
  8
0
 10
-452.345001
 20
-160.249969
 11
-451.545013
 21
-159.449982
  0
LINE
  8
0
 10
-452.294983
 20
-160.250000
 11
-452.294983
 21
-155.250000
  0
LINE
  8
0
 10
-464.794983
 20
-160.199997
 11
-464.794983
 21
-155.250000
  0
LINE
  8
0
 10
-465.544983
 20
-159.449997
 11
-465.544983
 21
-155.250000
  0
LINE
  8
0
 10
-464.744965
 20
-160.250000
 11
-465.544983
 21
-159.449997
  0
LINE
  8
0
 10
-453.294983
 20
-181.369614
 11
-453.294983
 21
-158.782455
  0
LINE
  8
0
 10
-463.794983
 20
-181.433472
 11
-463.794983
 21
-158.654724
  0
LINE
  8
0
 10
-448.294983
 20
-206.650009
 11
-448.294983
 21
-208.150009
  0
LINE
  8
0
 10
-448.544983
 20
-208.399994
 11
-448.294983
 21
-208.149994
  0
LINE
  8
0
 10
-448.544983
 20
-208.400009
 11
-448.544983
 21
-212.150009
  0
LINE
  8
0
 10
-449.029694
 20
-212.634735
 11
-448.544983
 21
-212.150009
  0
LINE
  8
0
 10
-468.794983
 20
-206.649994
 11
-468.794983
 21
-208.149994
  0
LINE
  8
0
 10
-468.544983
 20
-208.399994
 11
-468.794983
 21
-208.149994
  0
LINE
  8
0
 10
-468.544983
 20
-208.399994
 11
-468.544983
 21
-212.149994
  0
LINE
  8
0
 10
-468.060272
 20
-212.634720
 11
-468.544983
 21
-212.149994
  0
LINE
  8
0
 10
-468.794983
 20
-208.149994
 11
-448.294983
 21
-208.150009
  0
LINE
  8
0
 10
-468.544983
 20
-212.149994
 11
-448.544983
 21
-212.150009
  0
LINE
  8
0
 10
-441.044983
 20
-217.149994
 11
-476.044983
 21
-217.149994
  0
LINE
  8
0
 10
-476.224976
 20
-216.704498
 11
-440.812927
 21
-216.704498
  0
LINE
  8
0
 10
-476.232330
 20
-216.686417
 11
-476.045013
 21
-217.150009
  0
LINE
  8
0
 10
-476.232300
 20
-216.686417
 11
-468.226532
 21
-213.451874
  0
LINE
  8
0
 10
-440.857697
 20
-216.686401
 11
-441.044983
 21
-217.149994
  0
LINE
  8
0
 10
-440.857697
 20
-216.686432
 11
-448.863464
 21
-213.451874
  0
LINE
  8
0
 10
-467.526123
 20
-213.168884
 11
-449.619995
 21
-213.168884
  0
ARC
  8
0
 10
-448.144989
 20
-204.150009
 40
1.000000
 50
0.000000
 51
90.000000
  0
ARC
  8
0
 10
-468.945007
 20
-204.149994
 40
1.000000
 50
90.000000
 51
180.000000
  0
ARC
  8
0
 10
-455.044983
 20
-189.399597
 40
5.750412
 50
232.507904
 51
307.491852
  0
ARC
  8
0
 10
-462.044983
 20
-189.399597
 40
5.750412
 50
232.507904
 51
307.491852
  0
ARC
  8
0
 10
-462.044983
 20
-186.400421
 40
5.750427
 50
90.000000
 51
127.492004
  0
ARC
  8
0
 10
-455.044983
 20
-186.400421
 40
5.750427
 50
90.000000
 51
127.492004
  0
ARC
  8
0
 10
-455.044983
 20
-186.400421
 40
5.750412
 50
52.507900
 51
90.000000
  0
ARC
  8
0
 10
-462.044983
 20
-186.400421
 40
5.750424
 50
52.507996
 51
90.000000
  0
ARC
  8
0
 10
-466.755219
 20
-188.185364
 40
1.779785
 50
180.000000
 51
214.756195
  0
ARC
  8
0
 10
-468.744995
 20
-187.481277
 40
0.200012
 50
0.000000
 51
90.000000
  0
ARC
  8
0
 10
-468.744995
 20
-182.818710
 40
0.199997
 50
270.000000
 51
0.000000
  0
ARC
  8
0
 10
-472.623383
 20
-185.150009
 40
6.588379
 50
0.000000
 51
17.861183
  0
ARC
  8
0
 10
-466.755219
 20
-188.185364
 40
1.779791
 50
145.243805
 51
180.000000
  0
ARC
  8
0
 10
-461.946625
 20
-185.150009
 40
6.588379
 50
179.999863
 51
197.861053
  0
ARC
  8
0
 10
-461.946625
 20
-185.150009
 40
6.588388
 50
162.138824
 51
179.999863
  0
ARC
  8
0
 10
-466.755219
 20
-182.114639
 40
1.779785
 50
180.000000
 51
214.756195
  0
ARC
  8
0
 10
-466.755219
 20
-182.114639
 40
1.779791
 50
145.243805
 51
180.000000
  0
ARC
  8
0
 10
-467.814758
 20
-182.114639
 40
1.779766
 50
325.243225
 51
0.000000
  0
ARC
  8
0
 10
-467.814789
 20
-188.185364
 40
1.779785
 50
0.000000
 51
34.756203
  0
ARC
  8
0
 10
-472.623383
 20
-185.150009
 40
6.588383
 50
342.138947
 51
0.000000
  0
ARC
  8
0
 10
-462.863373
 20
-196.167023
 40
2.583009
 50
236.340729
 51
303.658722
  0
ARC
  8
0
 10
-458.544983
 20
-188.910980
 40
9.839018
 50
252.938492
 51
287.061493
  0
ARC
  8
0
 10
-454.226624
 20
-196.167038
 40
2.582980
 50
236.341095
 51
303.658905
  0
ARC
  8
0
 10
-454.226624
 20
-197.732971
 40
2.583009
 50
56.340725
 51
123.658714
  0
ARC
  8
0
 10
-458.545013
 20
-204.989029
 40
9.839026
 50
72.938324
 51
107.061310
  0
ARC
  8
0
 10
-462.863373
 20
-197.732971
 40
2.582993
 50
56.341286
 51
123.658714
  0
ARC
  8
0
 10
-470.445007
 20
-182.918716
 40
0.100006
 50
180.000000
 51
270.000000
  0
ARC
  8
0
 10
-470.445007
 20
-187.381271
 40
0.099991
 50
90.000000
 51
180.000000
  0
ARC
  8
0
 10
-475.345001
 20
-187.098007
 40
0.199982
 50
180.000000
 51
265.001465
  0
ARC
  8
0
 10
-475.345001
 20
-183.201981
 40
0.199995
 50
94.998520
 51
180.000000
  0
ARC
  8
0
 10
-461.580353
 20
-129.370209
 40
1.779782
 50
235.244202
 51
270.000000
  0
ARC
  8
0
 10
-455.509613
 20
-129.370224
 40
1.779770
 50
270.000000
 51
304.756073
  0
ARC
  8
0
 10
-458.544983
 20
-124.561623
 40
6.588371
 50
270.000000
 51
287.861084
  0
ARC
  8
0
 10
-458.544983
 20
-124.561623
 40
6.588376
 50
252.138916
 51
270.000000
  0
ARC
  8
0
 10
-461.580353
 20
-129.370209
 40
1.779785
 50
270.000000
 51
304.756592
  0
ARC
  8
0
 10
-461.580353
 20
-130.429779
 40
1.779787
 50
55.243114
 51
90.000000
  0
ARC
  8
0
 10
-461.580353
 20
-130.429779
 40
1.779785
 50
90.000000
 51
124.756081
  0
ARC
  8
0
 10
-458.544983
 20
-135.238373
 40
6.588379
 50
90.000000
 51
107.861053
  0
ARC
  8
0
 10
-458.544983
 20
-135.238373
 40
6.588369
 50
72.138901
 51
90.000000
  0
ARC
  8
0
 10
-455.509613
 20
-130.429764
 40
1.779770
 50
90.000000
 51
124.757164
  0
ARC
  8
0
 10
-455.509613
 20
-130.429764
 40
1.779757
 50
55.243641
 51
90.000000
  0
ARC
  8
0
 10
-455.509613
 20
-129.370224
 40
1.779787
 50
235.243118
 51
270.000000
  0
CIRCLE
  8
0
 10
-453.294983
 20
-179.300003
 40
0.450000
  0
CIRCLE
  8
0
 10
-463.794983
 20
-180.199997
 40
0.450000
  0
CIRCLE
  8
0
 10
-463.794983
 20
-178.933594
 40
0.450000
  0
CIRCLE
  8
0
 10
-453.294983
 20
-160.699997
 40
0.450000
  0
CIRCLE
  8
0
 10
-463.794983
 20
-160.699997
 40
0.450000
  0
CIRCLE
  8
0
 10
-453.294983
 20
-180.200012
 40
0.450000
  0
CIRCLE
  8
0
 10
-453.294983
 20
-161.966385
 40
0.450000
  0
CIRCLE
  8
0
 10
-463.794983
 20
-161.599991
 40
0.450000
  0
ARC
  8
0
 10
-451.191254
 20
-145.888260
 40
4.361752
 50
235.885880
 51
304.114136
  0
ARC
  8
0
 10
-458.544983
 20
-133.831085
 40
16.418905
 50
252.608963
 51
287.391022
  0
ARC
  8
0
 10
-465.898712
 20
-145.888245
 40
4.361752
 50
235.885880
 51
304.114136
  0
ARC
  8
0
 10
-451.191254
 20
-149.611740
 40
4.361752
 50
55.885876
 51
124.114128
  0
ARC
  8
0
 10
-458.544983
 20
-161.668915
 40
16.418905
 50
72.608963
 51
107.391014
  0
ARC
  8
0
 10
-465.898712
 20
-149.611740
 40
4.361752
 50
55.885876
 51
124.114128
  0
ARC
  8
0
 10
-465.898712
 20
-154.611740
 40
4.361752
 50
55.885876
 51
124.114128
  0
ARC
  8
0
 10
-458.544983
 20
-166.668915
 40
16.418905
 50
72.608963
 51
107.391014
  0
ARC
  8
0
 10
-458.544983
 20
-138.831085
 40
16.418905
 50
252.608963
 51
287.391022
  0
ARC
  8
0
 10
-451.191254
 20
-154.611740
 40
4.361752
 50
55.885876
 51
124.114128
  0
ARC
  8
0
 10
-465.898712
 20
-150.888245
 40
4.361752
 50
235.885880
 51
304.114136
  0
ARC
  8
0
 10
-451.191254
 20
-150.888260
 40
4.361752
 50
235.885880
 51
304.114136
  0
ARC
  8
0
 10
-468.413818
 20
-212.988266
 40
0.500008
 50
291.997528
 51
45.000000
  0
ARC
  8
0
 10
-448.676178
 20
-212.988281
 40
0.500001
 50
134.998764
 51
248.001831
  0
POINT
  8
0
 10
-229.130005
 20
-150.250000
  0
POINT
  8
0
 10
-219.330002
 20
-150.250000
  0
LINE
  8
0
 10
-236.130005
 20
-180.649994
 11
-222.130005
 21
-180.649994
  0
LINE
  8
0
 10
-222.130005
 20
-205.149994
 11
-222.130005
 21
-180.649994
  0
LINE
  8
0
 10
-236.130005
 20
-205.149994
 11
-236.130005
 21
-180.649994
  0
LINE
  8
0
 10
-229.130005
 20
-203.962189
 11
-229.130005
 21
-181.837830
  0
LINE
  8
0
 10
-236.130005
 20
-193.649994
 11
-236.130005
 21
-180.649994
  0
LINE
  8
0
 10
-239.130005
 20
-182.818726
 11
-239.130005
 21
-181.667297
  0
LINE
  8
0
 10
-236.620010
 20
-189.050003
 11
-236.130005
 21
-189.050003
  0
LINE
  8
0
 10
-236.937546
 20
-189.200012
 11
-238.802460
 21
-189.200012
  0
LINE
  8
0
 10
-238.802567
 20
-189.200073
 11
-239.130066
 21
-188.632812
  0
LINE
  8
0
 10
-239.130005
 20
-188.632767
 11
-239.130005
 21
-182.138687
  0
LINE
  8
0
 10
-238.802490
 20
-181.099991
 11
-239.130020
 21
-181.667297
  0
LINE
  8
0
 10
-236.937546
 20
-181.100006
 11
-238.802475
 21
-181.100006
  0
LINE
  8
0
 10
-236.937622
 20
-181.100067
 11
-236.620087
 21
-181.650070
  0
LINE
  8
0
 10
-236.937561
 20
-183.129272
 11
-238.802475
 21
-183.129272
  0
LINE
  8
0
 10
-236.937546
 20
-187.170715
 11
-238.802460
 21
-187.170715
  0
LINE
  8
0
 10
-236.937592
 20
-189.199982
 11
-236.620056
 21
-188.649994
  0
LINE
  8
0
 10
-236.620010
 20
-189.050003
 11
-236.620010
 21
-181.250000
  0
LINE
  8
0
 10
-236.130005
 20
-181.250000
 11
-236.620010
 21
-181.250000
  0
LINE
  8
0
 10
-255.392487
 20
-185.149994
 11
-234.430008
 21
-185.149994
  0
LINE
  8
0
 10
-246.130005
 20
-187.098022
 11
-246.130005
 21
-183.201996
  0
LINE
  8
0
 10
-241.130005
 20
-187.500000
 11
-241.130005
 21
-182.800003
  0
LINE
  8
0
 10
-243.630005
 20
-187.500000
 11
-243.630005
 21
-182.800003
  0
LINE
  8
0
 10
-241.130005
 20
-187.500000
 11
-243.630020
 21
-187.281265
  0
LINE
  8
0
 10
-243.630005
 20
-187.500000
 11
-245.947449
 21
-187.297256
  0
LINE
  8
0
 10
-245.947449
 20
-183.002731
 11
-243.630020
 21
-182.799973
  0
LINE
  8
0
 10
-243.630005
 20
-183.018723
 11
-241.130020
 21
-182.800003
  0
LINE
  8
0
 10
-241.030014
 20
-187.281281
 11
-239.330017
 21
-187.281281
  0
LINE
  8
0
 10
-241.030014
 20
-183.018723
 11
-239.330017
 21
-183.018723
  0
LINE
  8
0
 10
-241.130005
 20
-182.891083
 11
-241.130005
 21
-182.827057
  0
LINE
  8
0
 10
-236.130020
 20
-205.149994
 11
-222.130020
 21
-205.149994
  0
LINE
  8
0
 10
-235.130020
 20
-210.149994
 11
-223.130020
 21
-210.149994
  0
LINE
  8
0
 10
-222.180008
 20
-209.601532
 11
-222.180008
 21
-205.698486
  0
LINE
  8
0
 10
-236.080002
 20
-209.601517
 11
-236.080002
 21
-205.698486
  0
LINE
  8
0
 10
-222.180008
 20
-209.601532
 11
-223.130005
 21
-210.150024
  0
LINE
  8
0
 10
-236.080017
 20
-209.601517
 11
-235.130020
 21
-210.150009
  0
LINE
  8
0
 10
-232.594116
 20
-209.601517
 11
-232.594116
 21
-205.698486
  0
LINE
  8
0
 10
-222.180008
 20
-205.698471
 11
-223.130005
 21
-205.149994
  0
LINE
  8
0
 10
-235.130020
 20
-205.149994
 11
-223.130020
 21
-205.149994
  0
LINE
  8
0
 10
-236.080017
 20
-205.698486
 11
-235.130005
 21
-205.149994
  0
LINE
  8
0
 10
-225.665894
 20
-209.601532
 11
-225.665894
 21
-205.698486
  0
LINE
  8
0
 10
-249.130020
 20
-231.649994
 11
-209.130020
 21
-231.649994
  0
LINE
  8
0
 10
-249.129974
 20
-231.649994
 11
-249.515656
 21
-231.190369
  0
LINE
  8
0
 10
-245.487228
 20
-227.810104
 11
-249.515686
 21
-231.190369
  0
LINE
  8
0
 10
-245.130005
 20
-227.044037
 11
-245.130005
 21
-225.649994
  0
LINE
  8
0
 10
-240.330017
 20
-215.649994
 11
-217.930008
 21
-215.649994
  0
LINE
  8
0
 10
-241.330002
 20
-219.149994
 11
-241.330002
 21
-216.649994
  0
LINE
  8
0
 10
-241.330017
 20
-216.649994
 11
-240.330032
 21
-215.649994
  0
LINE
  8
0
 10
-245.630020
 20
-219.149994
 11
-212.630020
 21
-219.149994
  0
LINE
  8
0
 10
-247.130005
 20
-225.649994
 11
-247.130005
 21
-220.649994
  0
LINE
  8
0
 10
-247.130020
 20
-225.649994
 11
-211.130020
 21
-225.649994
  0
LINE
  8
0
 10
-245.130020
 20
-227.510345
 11
-213.130020
 21
-227.510345
  0
LINE
  8
0
 10
-232.130020
 20
-211.149994
 11
-226.130020
 21
-211.149994
  0
LINE
  8
0
 10
-232.130005
 20
-215.649994
 11
-232.130005
 21
-211.149994
  0
LINE
  8
0
 10
-209.130005
 20
-231.650024
 11
-208.744339
 21
-231.190399
  0
LINE
  8
0
 10
-212.772751
 20
-227.810013
 11
-208.744293
 21
-231.190308
  0
LINE
  8
0
 10
-213.130005
 20
-227.044037
 11
-213.130005
 21
-225.649994
  0
LINE
  8
0
 10
-211.130005
 20
-225.649994
 11
-211.130005
 21
-220.649994
  0
LINE
  8
0
 10
-216.930008
 20
-219.149994
 11
-216.930008
 21
-216.649994
  0
LINE
  8
0
 10
-216.930023
 20
-216.650024
 11
-217.930023
 21
-215.650024
  0
LINE
  8
0
 10
-226.130005
 20
-215.649994
 11
-226.130005
 21
-211.149994
  0
LINE
  8
0
 10
-232.130035
 20
-211.149994
 11
-233.130035
 21
-210.150009
  0
LINE
  8
0
 10
-232.630005
 20
-210.649994
 11
-232.630005
 21
-210.149994
  0
LINE
  8
0
 10
-225.630005
 20
-210.649994
 11
-225.630005
 21
-210.149994
  0
LINE
  8
0
 10
-226.130020
 20
-211.150009
 11
-225.130020
 21
-210.150009
  0
LINE
  8
0
 10
-208.744354
 20
-231.190369
 11
-249.515686
 21
-231.190369
  0
LINE
  8
0
 10
-229.130005
 20
-236.850006
 11
-229.130005
 21
-125.809669
  0
LINE
  8
0
 10
-233.630005
 20
-131.649994
 11
-224.630005
 21
-131.649994
  0
LINE
  8
0
 10
-233.029999
 20
-131.649994
 11
-233.029999
 21
-131.149994
  0
LINE
  8
0
 10
-232.630005
 20
-128.649994
 11
-225.630005
 21
-128.649994
  0
LINE
  8
0
 10
-232.630005
 20
-131.149994
 11
-225.630005
 21
-131.149994
  0
LINE
  8
0
 10
-227.109283
 20
-130.832458
 11
-227.109283
 21
-128.967529
  0
LINE
  8
0
 10
-231.150726
 20
-130.832458
 11
-231.150726
 21
-128.967529
  0
LINE
  8
0
 10
-233.179977
 20
-130.832443
 11
-232.629990
 21
-131.149979
  0
LINE
  8
0
 10
-233.180008
 20
-130.832458
 11
-233.180008
 21
-128.967529
  0
LINE
  8
0
 10
-233.180038
 20
-128.967468
 11
-232.630035
 21
-128.649933
  0
LINE
  8
0
 10
-225.080002
 20
-128.967499
 11
-225.630005
 21
-128.649963
  0
LINE
  8
0
 10
-225.080002
 20
-130.832458
 11
-225.080002
 21
-128.967529
  0
LINE
  8
0
 10
-225.230011
 20
-131.649994
 11
-225.230011
 21
-131.149994
  0
LINE
  8
0
 10
-233.030014
 20
-131.149994
 11
-225.230011
 21
-131.149994
  0
LINE
  8
0
 10
-225.080063
 20
-130.832367
 11
-225.630066
 21
-131.149918
  0
LINE
  8
0
 10
-235.330002
 20
-160.250000
 11
-222.930008
 21
-160.250000
  0
LINE
  8
0
 10
-235.330002
 20
-140.250000
 11
-222.930008
 21
-140.250000
  0
LINE
  8
0
 10
-236.130005
 20
-159.449997
 11
-222.130005
 21
-159.449997
  0
LINE
  8
0
 10
-236.130005
 20
-141.049988
 11
-222.130005
 21
-141.049988
  0
LINE
  8
0
  6
PHANTOM
 10
-222.130005
 20
-169.449997
 11
-222.130005
 21
-165.250000
  0
LINE
  8
0
  6
PHANTOM
 10
-236.130005
 20
-169.450012
 11
-236.130005
 21
-165.250000
  0
LINE
  8
0
 10
-236.129974
 20
-141.050034
 11
-235.329971
 21
-140.250031
  0
LINE
  8
0
 10
-222.130020
 20
-141.050018
 11
-222.930023
 21
-140.250015
  0
LINE
  8
0
  6
PHANTOM
 10
-222.930008
 20
-170.250000
 11
-222.130020
 21
-169.449997
  0
LINE
  8
0
  6
PHANTOM
 10
-235.330002
 20
-170.250000
 11
-236.130005
 21
-169.449997
  0
LINE
  8
0
  6
PHANTOM
 10
-222.880005
 20
-170.250000
 11
-222.880005
 21
-165.250000
  0
LINE
  8
0
  6
PHANTOM
 10
-235.380005
 20
-170.200012
 11
-235.380005
 21
-165.250000
  0
LINE
  8
0
 10
-233.630005
 20
-179.750000
 11
-233.630005
 21
-179.409790
  0
LINE
  8
0
 10
-224.630005
 20
-178.823547
 11
-224.630005
 21
-162.390472
  0
LINE
  8
0
 10
-235.130005
 20
-139.549988
 11
-223.130005
 21
-139.549988
  0
LINE
  8
0
 10
-235.130005
 20
-138.649994
 11
-223.130005
 21
-138.649994
  0
LINE
  8
0
 10
-233.630005
 20
-138.649994
 11
-233.630005
 21
-131.649994
  0
LINE
  8
0
 10
-224.630005
 20
-138.649994
 11
-224.630005
 21
-131.649994
  0
LINE
  8
0
 10
-223.130005
 20
-140.250000
 11
-223.130005
 21
-138.649994
  0
LINE
  8
0
 10
-235.130005
 20
-140.250000
 11
-235.130005
 21
-138.649994
  0
LINE
  8
0
 10
-223.880005
 20
-179.750275
 11
-234.380005
 21
-179.383606
  0
LINE
  8
0
 10
-234.380005
 20
-179.750000
 11
-223.880005
 21
-179.750000
  0
LINE
  8
0
 10
-223.880005
 20
-178.849731
 11
-234.348602
 21
-178.484161
  0
LINE
  8
0
 10
-223.880005
 20
-162.416626
 11
-234.380005
 21
-162.049957
  0
LINE
  8
0
 10
-223.880005
 20
-161.516083
 11
-234.380005
 21
-161.149414
  0
LINE
  8
0
 10
-234.380005
 20
-161.149994
 11
-223.880005
 21
-161.149994
  0
LINE
  8
0
 10
-233.630005
 20
-178.509247
 11
-233.630005
 21
-162.076187
  0
LINE
  8
0
 10
-224.630005
 20
-161.489929
 11
-224.630005
 21
-161.149994
  0
LINE
  8
0
 10
-237.629990
 20
-145.250000
 11
-220.630020
 21
-145.250000
  0
LINE
  8
0
 10
-237.630005
 20
-150.250000
 11
-220.630005
 21
-150.250000
  0
LINE
  8
0
 10
-219.330002
 20
-149.499451
 11
-219.330002
 21
-146.000549
  0
LINE
  8
0
 10
-238.930008
 20
-149.499451
 11
-238.930008
 21
-146.000549
  0
LINE
  8
0
 10
-220.630035
 20
-150.249969
 11
-219.330032
 21
-149.499405
  0
LINE
  8
0
 10
-237.629990
 20
-150.249969
 11
-238.929993
 21
-149.499420
  0
LINE
  8
0
 10
-237.629990
 20
-145.250031
 11
-238.929993
 21
-146.000580
  0
LINE
  8
0
 10
-220.630051
 20
-145.250015
 11
-219.330048
 21
-146.000580
  0
LINE
  8
0
 10
-224.222473
 20
-149.499420
 11
-224.222473
 21
-146.000549
  0
LINE
  8
0
 10
-234.037933
 20
-149.499435
 11
-234.037933
 21
-146.000549
  0
LINE
  8
0
 10
-237.629990
 20
-150.250000
 11
-220.630020
 21
-150.250000
  0
LINE
  8
0
 10
-237.630005
 20
-155.250000
 11
-220.630005
 21
-155.250000
  0
LINE
  8
0
 10
-219.330002
 20
-154.499451
 11
-219.330002
 21
-151.000565
  0
LINE
  8
0
 10
-238.930008
 20
-154.499451
 11
-238.930008
 21
-151.000565
  0
LINE
  8
0
 10
-220.630005
 20
-155.249985
 11
-219.330002
 21
-154.499420
  0
LINE
  8
0
 10
-237.629990
 20
-155.249985
 11
-238.929993
 21
-154.499435
  0
LINE
  8
0
 10
-237.630005
 20
-150.250015
 11
-238.930008
 21
-151.000580
  0
LINE
  8
0
 10
-220.630020
 20
-150.250031
 11
-219.330017
 21
-151.000595
  0
LINE
  8
0
 10
-224.222473
 20
-154.499420
 11
-224.222473
 21
-151.000549
  0
LINE
  8
0
 10
-234.037903
 20
-154.499435
 11
-234.037903
 21
-151.000549
  0
LINE
  8
0
 10
-222.880005
 20
-145.250000
 11
-222.880005
 21
-140.299988
  0
LINE
  8
0
 10
-222.130005
 20
-145.250000
 11
-222.130005
 21
-141.049988
  0
LINE
  8
0
 10
-235.380005
 20
-145.250000
 11
-235.380005
 21
-140.299988
  0
LINE
  8
0
 10
-236.130005
 20
-145.250000
 11
-236.130005
 21
-141.049988
  0
LINE
  8
0
  6
PHANTOM
 10
-223.430008
 20
-179.406464
 11
-223.430008
 21
-162.051605
  0
LINE
  8
0
  6
PHANTOM
 10
-234.830002
 20
-178.890320
 11
-234.830002
 21
-161.600006
  0
LINE
  8
0
  6
PHANTOM
 10
-233.930008
 20
-178.954834
 11
-233.930008
 21
-161.600006
  0
LINE
  8
0
  6
PHANTOM
 10
-224.330002
 20
-179.277420
 11
-224.330002
 21
-161.987091
  0
LINE
  8
0
  6
PHANTOM
 10
-235.330017
 20
-170.250000
 11
-222.930008
 21
-170.250000
  0
LINE
  8
0
  6
PHANTOM
 10
-236.130005
 20
-169.449997
 11
-222.130005
 21
-169.449997
  0
LINE
  8
0
 10
-222.130005
 20
-159.449997
 11
-222.130005
 21
-155.250000
  0
LINE
  8
0
 10
-222.930023
 20
-160.249969
 11
-222.130020
 21
-159.449966
  0
LINE
  8
0
 10
-222.880005
 20
-160.250000
 11
-222.880005
 21
-155.250000
  0
LINE
  8
0
 10
-235.380005
 20
-160.200012
 11
-235.380005
 21
-155.250000
  0
LINE
  8
0
 10
-236.130005
 20
-159.450012
 11
-236.130005
 21
-155.250000
  0
LINE
  8
0
 10
-235.330017
 20
-160.250000
 11
-236.130020
 21
-159.450012
  0
LINE
  8
0
 10
-223.880005
 20
-181.616608
 11
-223.880005
 21
-159.645279
  0
LINE
  8
0
 10
-234.380005
 20
-181.926147
 11
-234.380005
 21
-159.707184
  0
ARC
  8
0
 10
-232.630005
 20
-186.400421
 40
5.750427
 50
90.000000
 51
127.492004
  0
ARC
  8
0
 10
-225.630005
 20
-186.400421
 40
5.750427
 50
90.000000
 51
127.492004
  0
ARC
  8
0
 10
-225.630005
 20
-186.400421
 40
5.750424
 50
52.507996
 51
90.000000
  0
ARC
  8
0
 10
-232.630005
 20
-186.400421
 40
5.750424
 50
52.507996
 51
90.000000
  0
ARC
  8
0
 10
-237.340240
 20
-188.185364
 40
1.779785
 50
180.000000
 51
214.756485
  0
ARC
  8
0
 10
-239.330017
 20
-187.481277
 40
0.199997
 50
0.000000
 51
90.000000
  0
ARC
  8
0
 10
-239.330017
 20
-182.818726
 40
0.199997
 50
270.000000
 51
0.000000
  0
ARC
  8
0
 10
-243.208389
 20
-185.150009
 40
6.588379
 50
0.000000
 51
17.861223
  0
ARC
  8
0
 10
-237.340240
 20
-188.185364
 40
1.779778
 50
145.243515
 51
180.000000
  0
ARC
  8
0
 10
-232.531631
 20
-185.150009
 40
6.588379
 50
180.000000
 51
197.861053
  0
ARC
  8
0
 10
-232.531631
 20
-185.150009
 40
6.588388
 50
162.138824
 51
180.000000
  0
ARC
  8
0
 10
-237.340240
 20
-182.114639
 40
1.779770
 50
180.000000
 51
214.756485
  0
ARC
  8
0
 10
-237.340240
 20
-182.114639
 40
1.779778
 50
145.243515
 51
180.000000
  0
ARC
  8
0
 10
-238.399780
 20
-182.114639
 40
1.779766
 50
325.243225
 51
0.000000
  0
ARC
  8
0
 10
-238.399796
 20
-188.185364
 40
1.779785
 50
0.000000
 51
34.756203
  0
ARC
  8
0
 10
-243.208389
 20
-185.150009
 40
6.588369
 50
342.138916
 51
0.000000
  0
ARC
  8
0
 10
-241.030014
 20
-182.918732
 40
0.100006
 50
180.000000
 51
270.000000
  0
ARC
  8
0
 10
-241.030014
 20
-187.381287
 40
0.100006
 50
90.000000
 51
180.000000
  0
ARC
  8
0
 10
-245.930008
 20
-187.098022
 40
0.199997
 50
180.000000
 51
264.997131
  0
ARC
  8
0
 10
-245.930008
 20
-183.201996
 40
0.200011
 50
95.002495
 51
180.000000
  0
ARC
  8
0
 10
-225.630020
 20
-199.399597
 40
5.750397
 50
270.000000
 51
307.492096
  0
ARC
  8
0
 10
-225.630020
 20
-199.399597
 40
5.750412
 50
232.507904
 51
270.000000
  0
ARC
  8
0
 10
-232.630020
 20
-199.399597
 40
5.750397
 50
270.000000
 51
307.492096
  0
ARC
  8
0
 10
-232.630020
 20
-199.399597
 40
5.750412
 50
232.507904
 51
270.000000
  0
ARC
  8
0
 10
-234.337067
 20
-207.106537
 40
3.043485
 50
235.062500
 51
304.937500
  0
ARC
  8
0
 10
-229.130020
 20
-198.936478
 40
11.213519
 50
252.005753
 51
287.994232
  0
ARC
  8
0
 10
-223.922958
 20
-207.106522
 40
3.043498
 50
235.062668
 51
304.937317
  0
ARC
  8
0
 10
-223.922958
 20
-208.193481
 40
3.043498
 50
55.062672
 51
124.937332
  0
ARC
  8
0
 10
-229.130020
 20
-216.363525
 40
11.213524
 50
72.005684
 51
107.994164
  0
ARC
  8
0
 10
-234.337067
 20
-208.193481
 40
3.043498
 50
55.062672
 51
124.937332
  0
ARC
  8
0
 10
-246.130020
 20
-227.044037
 40
1.000009
 50
309.999908
 51
0.000000
  0
ARC
  8
0
 10
-245.630020
 20
-220.649994
 40
1.500000
 50
90.000000
 51
180.000000
  0
ARC
  8
0
 10
-212.130020
 20
-227.044037
 40
1.000000
 50
180.000000
 51
230.000778
  0
ARC
  8
0
 10
-212.630020
 20
-220.649994
 40
1.500000
 50
0.000000
 51
89.999420
  0
ARC
  8
0
 10
-232.165375
 20
-129.370209
 40
1.779791
 50
235.243805
 51
270.000000
  0
ARC
  8
0
 10
-226.094635
 20
-129.370239
 40
1.779755
 50
269.999512
 51
304.756775
  0
ARC
  8
0
 10
-229.130005
 20
-124.561623
 40
6.588387
 50
269.999878
 51
287.861084
  0
ARC
  8
0
 10
-229.130005
 20
-124.561623
 40
6.588381
 50
252.138794
 51
269.999878
  0
ARC
  8
0
 10
-232.165375
 20
-129.370209
 40
1.779800
 50
270.000000
 51
304.756592
  0
ARC
  8
0
 10
-232.165375
 20
-130.429779
 40
1.779787
 50
55.243114
 51
90.000000
  0
ARC
  8
0
 10
-232.165375
 20
-130.429779
 40
1.779785
 50
90.000000
 51
124.756477
  0
ARC
  8
0
 10
-229.130020
 20
-135.238373
 40
6.588379
 50
89.999870
 51
107.860970
  0
ARC
  8
0
 10
-229.130020
 20
-135.238373
 40
6.588373
 50
72.138779
 51
89.999870
  0
ARC
  8
0
 10
-226.094650
 20
-130.429779
 40
1.779785
 50
89.999512
 51
124.756477
  0
ARC
  8
0
 10
-226.094650
 20
-130.429779
 40
1.779787
 50
55.243114
 51
89.999512
  0
ARC
  8
0
 10
-226.094635
 20
-129.370239
 40
1.779774
 50
235.242828
 51
269.999512
  0
CIRCLE
  8
0
 10
-223.880005
 20
-179.300003
 40
0.450000
  0
CIRCLE
  8
0
 10
-234.380005
 20
-180.200012
 40
0.450000
  0
CIRCLE
  8
0
 10
-234.380005
 20
-178.933594
 40
0.450000
  0
CIRCLE
  8
0
 10
-223.880005
 20
-160.700012
 40
0.450000
  0
CIRCLE
  8
0
 10
-234.380005
 20
-160.700012
 40
0.450000
  0
CIRCLE
  8
0
 10
-223.880005
 20
-180.200012
 40
0.450000
  0
CIRCLE
  8
0
 10
-223.880005
 20
-161.966400
 40
0.450000
  0
CIRCLE
  8
0
 10
-234.380005
 20
-161.600006
 40
0.450000
  0
ARC
  8
0
 10
-221.776276
 20
-145.888245
 40
4.361752
 50
235.885880
 51
304.114288
  0
ARC
  8
0
 10
-229.130005
 20
-133.831085
 40
16.418921
 50
252.608978
 51
287.391022
  0
ARC
  8
0
 10
-236.483749
 20
-145.888245
 40
4.361764
 50
235.885986
 51
304.114166
  0
ARC
  8
0
 10
-221.776276
 20
-149.611740
 40
4.361761
 50
55.885708
 51
124.114128
  0
ARC
  8
0
 10
-229.130005
 20
-161.668915
 40
16.418905
 50
72.608963
 51
107.390968
  0
ARC
  8
0
 10
-236.483749
 20
-149.611755
 40
4.361761
 50
55.885708
 51
124.114014
  0
ARC
  8
0
 10
-236.483749
 20
-154.611755
 40
4.361761
 50
55.885708
 51
124.114014
  0
ARC
  8
0
 10
-229.130005
 20
-166.668915
 40
16.418905
 50
72.608963
 51
107.390968
  0
ARC
  8
0
 10
-229.130005
 20
-138.831085
 40
16.418921
 50
252.608978
 51
287.391022
  0
ARC
  8
0
 10
-221.776276
 20
-154.611740
 40
4.361761
 50
55.885708
 51
124.114128
  0
ARC
  8
0
 10
-236.483749
 20
-150.888245
 40
4.361764
 50
235.885986
 51
304.114014
  0
ARC
  8
0
 10
-221.776276
 20
-150.888260
 40
4.361752
 50
235.885880
 51
304.114136
  0
POINT
  8
0
 10
0.279999
 20
-150.250000
  0
POINT
  8
0
 10
10.079998
 20
-150.250000
  0
LINE
  8
0
 10
-6.720008
 20
-180.649994
 11
7.279992
 21
-180.649994
  0
LINE
  8
0
 10
7.279999
 20
-205.149994
 11
7.279999
 21
-180.649994
  0
LINE
  8
0
 10
-6.720001
 20
-205.149994
 11
-6.720001
 21
-180.649994
  0
LINE
  8
0
 10
0.279999
 20
-203.962189
 11
0.279999
 21
-181.837830
  0
LINE
  8
0
 10
-6.720001
 20
-193.649994
 11
-6.720001
 21
-180.649994
  0
LINE
  8
0
 10
-9.720001
 20
-182.818726
 11
-9.720001
 21
-181.667297
  0
LINE
  8
0
 10
-7.210011
 20
-189.050003
 11
-6.720009
 21
-189.050003
  0
LINE
  8
0
 10
-7.527542
 20
-189.200012
 11
-9.392464
 21
-189.200012
  0
LINE
  8
0
 10
-9.392564
 20
-189.200073
 11
-9.720071
 21
-188.632812
  0
LINE
  8
0
 10
-9.720001
 20
-188.632767
 11
-9.720001
 21
-182.138687
  0
LINE
  8
0
 10
-9.392494
 20
-181.099991
 11
-9.720024
 21
-181.667297
  0
LINE
  8
0
 10
-7.527545
 20
-181.100006
 11
-9.392467
 21
-181.100006
  0
LINE
  8
0
 10
-7.527634
 20
-181.100067
 11
-7.210090
 21
-181.650070
  0
LINE
  8
0
 10
-7.527553
 20
-183.129272
 11
-9.392467
 21
-183.129272
  0
LINE
  8
0
 10
-7.527542
 20
-187.170715
 11
-9.392464
 21
-187.170715
  0
LINE
  8
0
 10
-7.527588
 20
-189.199982
 11
-7.210047
 21
-188.649994
  0
LINE
  8
0
 10
-7.210003
 20
-189.050003
 11
-7.210003
 21
-181.250000
  0
LINE
  8
0
 10
-6.720008
 20
-181.250000
 11
-7.210010
 21
-181.250000
  0
LINE
  8
0
 10
-25.982475
 20
-185.149994
 11
-5.020011
 21
-185.149994
  0
LINE
  8
0
 10
-16.720001
 20
-187.098022
 11
-16.720001
 21
-183.201996
  0
LINE
  8
0
 10
-11.720001
 20
-187.500000
 11
-11.720001
 21
-182.800003
  0
LINE
  8
0
 10
-14.220001
 20
-187.500000
 11
-14.220001
 21
-182.800003
  0
LINE
  8
0
 10
-11.720010
 20
-187.500000
 11
-14.220012
 21
-187.281281
  0
LINE
  8
0
 10
-14.220011
 20
-187.500015
 11
-16.537443
 21
-187.297272
  0
LINE
  8
0
 10
-16.537441
 20
-183.002731
 11
-14.220015
 21
-182.799988
  0
LINE
  8
0
 10
-14.220008
 20
-183.018723
 11
-11.720015
 21
-182.800003
  0
LINE
  8
0
 10
-11.620010
 20
-187.281281
 11
-9.920010
 21
-187.281281
  0
LINE
  8
0
 10
-11.620009
 20
-183.018723
 11
-9.920009
 21
-183.018723
  0
LINE
  8
0
 10
-11.720001
 20
-182.891083
 11
-11.720001
 21
-182.827057
  0
LINE
  8
0
 10
-6.720010
 20
-205.149994
 11
7.279990
 21
-205.149994
  0
LINE
  8
0
 10
-5.720010
 20
-210.149994
 11
6.279990
 21
-210.149994
  0
LINE
  8
0
 10
7.230000
 20
-209.601532
 11
7.230000
 21
-205.698486
  0
LINE
  8
0
 10
-6.670002
 20
-209.601517
 11
-6.670002
 21
-205.698486
  0
LINE
  8
0
 10
7.230000
 20
-209.601532
 11
6.279999
 21
-210.150024
  0
LINE
  8
0
 10
-6.670014
 20
-209.601517
 11
-5.720014
 21
-210.150009
  0
LINE
  8
0
 10
-3.184105
 20
-209.601517
 11
-3.184105
 21
-205.698486
  0
LINE
  8
0
 10
7.230003
 20
-205.698471
 11
6.280006
 21
-205.149994
  0
LINE
  8
0
 10
-5.720010
 20
-205.149994
 11
6.279990
 21
-205.149994
  0
LINE
  8
0
 10
-6.670008
 20
-205.698471
 11
-5.720011
 21
-205.149994
  0
LINE
  8
0
 10
3.744102
 20
-209.601532
 11
3.744102
 21
-205.698486
  0
LINE
  8
0
 10
-10.920012
 20
-211.149994
 11
11.479992
 21
-211.149994
  0
LINE
  8
0
 10
-11.920002
 20
-214.649994
 11
-11.920002
 21
-212.149994
  0
LINE
  8
0
 10
-11.920023
 20
-212.149994
 11
-10.920028
 21
-211.149994
  0
LINE
  8
0
 10
-16.220011
 20
-214.649994
 11
16.779989
 21
-214.649994
  0
LINE
  8
0
 10
-17.720001
 20
-221.149994
 11
-17.720001
 21
-216.149994
  0
LINE
  8
0
 10
-17.720011
 20
-221.149994
 11
18.279989
 21
-221.149994
  0
LINE
  8
0
 10
-2.720011
 20
-211.149994
 11
3.279989
 21
-211.149994
  0
LINE
  8
0
 10
-2.720001
 20
-211.149994
 11
-2.720001
 21
-211.149994
  0
LINE
  8
0
 10
18.279999
 20
-221.149994
 11
18.279999
 21
-216.149994
  0
LINE
  8
0
 10
12.480000
 20
-214.649994
 11
12.480000
 21
-212.149994
  0
LINE
  8
0
 10
12.479979
 20
-212.150024
 11
11.479977
 21
-211.150024
  0
LINE
  8
0
 10
3.279999
 20
-211.149994
 11
3.279999
 21
-211.149994
  0
LINE
  8
0
 10
-2.720028
 20
-211.149994
 11
-3.720024
 21
-210.149994
  0
LINE
  8
0
 10
-3.220001
 20
-210.649994
 11
-3.220001
 21
-210.149994
  0
LINE
  8
0
 10
3.779999
 20
-210.649994
 11
3.779999
 21
-210.149994
  0
LINE
  8
0
 10
3.279989
 20
-211.150024
 11
4.279991
 21
-210.150024
  0
LINE
  8
0
 10
0.279999
 20
-237.347351
 11
0.279999
 21
-125.809669
  0
LINE
  8
0
 10
-4.220001
 20
-131.649994
 11
4.779999
 21
-131.649994
  0
LINE
  8
0
 10
-3.620003
 20
-131.649994
 11
-3.620003
 21
-131.149994
  0
LINE
  8
0
 10
-3.220001
 20
-128.649994
 11
3.779999
 21
-128.649994
  0
LINE
  8
0
 10
-3.220001
 20
-131.149994
 11
3.779999
 21
-131.149994
  0
LINE
  8
0
 10
2.300724
 20
-130.832458
 11
2.300724
 21
-128.967529
  0
LINE
  8
0
 10
-1.740726
 20
-130.832458
 11
-1.740726
 21
-128.967529
  0
LINE
  8
0
 10
-3.769973
 20
-130.832428
 11
-3.219979
 21
-131.149979
  0
LINE
  8
0
 10
-3.770000
 20
-130.832458
 11
-3.770000
 21
-128.967529
  0
LINE
  8
0
 10
-3.770033
 20
-128.967484
 11
-3.220033
 21
-128.649933
  0
LINE
  8
0
 10
4.330004
 20
-128.967499
 11
3.780004
 21
-128.649963
  0
LINE
  8
0
 10
4.329998
 20
-130.832458
 11
4.329998
 21
-128.967529
  0
LINE
  8
0
 10
4.180000
 20
-131.649994
 11
4.180000
 21
-131.149994
  0
LINE
  8
0
 10
-3.620003
 20
-131.149994
 11
4.180000
 21
-131.149994
  0
LINE
  8
0
 10
4.329943
 20
-130.832382
 11
3.779944
 21
-131.149918
  0
LINE
  8
0
 10
-5.920004
 20
-160.250000
 11
6.479997
 21
-160.250000
  0
LINE
  8
0
 10
-5.919999
 20
-140.250000
 11
6.479995
 21
-140.250000
  0
LINE
  8
0
 10
-6.720004
 20
-159.449997
 11
7.279996
 21
-159.449997
  0
LINE
  8
0
 10
-6.720002
 20
-141.049988
 11
7.279998
 21
-141.049988
  0
LINE
  8
0
  6
PHANTOM
 10
7.279999
 20
-169.449997
 11
7.279999
 21
-165.250000
  0
LINE
  8
0
  6
PHANTOM
 10
-6.720001
 20
-169.450012
 11
-6.720001
 21
-165.250000
  0
LINE
  8
0
 10
-6.719972
 20
-141.050034
 11
-5.919971
 21
-140.250031
  0
LINE
  8
0
 10
7.279979
 20
-141.050018
 11
6.479973
 21
-140.250015
  0
LINE
  8
0
  6
PHANTOM
 10
6.479994
 20
-170.250000
 11
7.279990
 21
-169.449997
  0
LINE
  8
0
  6
PHANTOM
 10
-5.920005
 20
-170.250000
 11
-6.720007
 21
-169.449997
  0
LINE
  8
0
  6
PHANTOM
 10
6.529999
 20
-170.250000
 11
6.529999
 21
-165.250000
  0
LINE
  8
0
  6
PHANTOM
 10
-5.970001
 20
-170.200012
 11
-5.970001
 21
-165.250000
  0
LINE
  8
0
 10
-4.220001
 20
-179.750000
 11
-4.220001
 21
-179.409790
  0
LINE
  8
0
 10
4.779999
 20
-178.823547
 11
4.779999
 21
-162.390472
  0
LINE
  8
0
 10
-5.720002
 20
-139.549988
 11
6.279998
 21
-139.549988
  0
LINE
  8
0
 10
-5.720002
 20
-138.649994
 11
6.279998
 21
-138.649994
  0
LINE
  8
0
 10
-4.220001
 20
-138.649994
 11
-4.220001
 21
-131.649994
  0
LINE
  8
0
 10
4.779999
 20
-138.649994
 11
4.779999
 21
-131.649994
  0
LINE
  8
0
 10
6.279999
 20
-140.250000
 11
6.279999
 21
-138.649994
  0
LINE
  8
0
 10
-5.720001
 20
-140.250000
 11
-5.720001
 21
-138.649994
  0
LINE
  8
0
 10
5.529993
 20
-179.750275
 11
-4.970009
 21
-179.383606
  0
LINE
  8
0
 10
-4.970008
 20
-179.750000
 11
5.529992
 21
-179.750000
  0
LINE
  8
0
 10
5.529992
 20
-178.849731
 11
-4.938603
 21
-178.484161
  0
LINE
  8
0
 10
5.529996
 20
-162.416626
 11
-4.970005
 21
-162.049957
  0
LINE
  8
0
 10
5.529999
 20
-161.516083
 11
-4.970002
 21
-161.149414
  0
LINE
  8
0
 10
-4.970004
 20
-161.149994
 11
5.529996
 21
-161.149994
  0
LINE
  8
0
 10
-4.220001
 20
-178.509247
 11
-4.220001
 21
-162.076187
  0
LINE
  8
0
 10
4.779999
 20
-161.489929
 11
4.779999
 21
-161.149994
  0
LINE
  8
0
 10
-8.219983
 20
-145.250000
 11
8.779984
 21
-145.250000
  0
LINE
  8
0
 10
-8.219999
 20
-150.250000
 11
8.779991
 21
-150.250000
  0
LINE
  8
0
 10
10.079998
 20
-149.499451
 11
10.079998
 21
-146.000549
  0
LINE
  8
0
 10
-9.520000
 20
-149.499451
 11
-9.520000
 21
-146.000549
  0
LINE
  8
0
 10
8.779975
 20
-150.249969
 11
10.079978
 21
-149.499420
  0
LINE
  8
0
 10
-8.219983
 20
-150.249969
 11
-9.519986
 21
-149.499420
  0
LINE
  8
0
 10
-8.219988
 20
-145.250031
 11
-9.519991
 21
-146.000580
  0
LINE
  8
0
 10
8.779956
 20
-145.250015
 11
10.079959
 21
-146.000580
  0
LINE
  8
0
 10
5.187527
 20
-149.499420
 11
5.187527
 21
-146.000549
  0
LINE
  8
0
 10
-4.627930
 20
-149.499435
 11
-4.627930
 21
-146.000549
  0
LINE
  8
0
 10
-8.219984
 20
-150.250000
 11
8.779984
 21
-150.250000
  0
LINE
  8
0
 10
-8.219999
 20
-155.250000
 11
8.779991
 21
-155.250000
  0
LINE
  8
0
 10
10.079998
 20
-154.499451
 11
10.079998
 21
-151.000565
  0
LINE
  8
0
 10
-9.520000
 20
-154.499451
 11
-9.520000
 21
-151.000565
  0
LINE
  8
0
 10
8.779998
 20
-155.249985
 11
10.080000
 21
-154.499420
  0
LINE
  8
0
 10
-8.219984
 20
-155.250000
 11
-9.519987
 21
-154.499435
  0
LINE
  8
0
 10
-8.219993
 20
-150.250015
 11
-9.519996
 21
-151.000580
  0
LINE
  8
0
 10
8.779984
 20
-150.250031
 11
10.079988
 21
-151.000595
  0
LINE
  8
0
 10
5.187527
 20
-154.499420
 11
5.187527
 21
-151.000549
  0
LINE
  8
0
 10
-4.627907
 20
-154.499435
 11
-4.627907
 21
-151.000549
  0
LINE
  8
0
 10
6.529999
 20
-145.250000
 11
6.529999
 21
-140.299988
  0
LINE
  8
0
 10
7.279999
 20
-145.250000
 11
7.279999
 21
-141.049988
  0
LINE
  8
0
 10
-5.970001
 20
-145.250000
 11
-5.970001
 21
-140.299988
  0
LINE
  8
0
 10
-6.720001
 20
-145.250000
 11
-6.720001
 21
-141.049988
  0
LINE
  8
0
  6
PHANTOM
 10
5.980000
 20
-179.406464
 11
5.980000
 21
-162.051605
  0
LINE
  8
0
  6
PHANTOM
 10
-5.420002
 20
-178.890320
 11
-5.420002
 21
-161.600006
  0
LINE
  8
0
  6
PHANTOM
 10
-4.520000
 20
-178.954834
 11
-4.520000
 21
-161.600006
  0
LINE
  8
0
  6
PHANTOM
 10
5.079998
 20
-179.277420
 11
5.079998
 21
-161.987091
  0
LINE
  8
0
  6
PHANTOM
 10
-5.920007
 20
-170.250000
 11
6.479995
 21
-170.250000
  0
LINE
  8
0
  6
PHANTOM
 10
-6.720006
 20
-169.449997
 11
7.279994
 21
-169.449997
  0
LINE
  8
0
 10
7.279999
 20
-159.449997
 11
7.279999
 21
-155.250000
  0
LINE
  8
0
 10
6.479984
 20
-160.249985
 11
7.279982
 21
-159.449982
  0
LINE
  8
0
 10
6.529999
 20
-160.250000
 11
6.529999
 21
-155.250000
  0
LINE
  8
0
 10
-5.970001
 20
-160.200012
 11
-5.970001
 21
-155.250000
  0
LINE
  8
0
 10
-6.720001
 20
-159.450012
 11
-6.720001
 21
-155.250000
  0
LINE
  8
0
 10
-5.920009
 20
-160.250000
 11
-6.720011
 21
-159.450012
  0
LINE
  8
0
 10
5.529999
 20
-181.616608
 11
5.529999
 21
-159.645279
  0
LINE
  8
0
 10
-4.970001
 20
-181.926147
 11
-4.970001
 21
-159.707184
  0
LINE
  8
0
 10
16.529999
 20
-221.149994
 11
16.529999
 21
-222.649994
  0
LINE
  8
0
 10
16.280008
 20
-222.900009
 11
16.530008
 21
-222.650009
  0
LINE
  8
0
 10
16.279999
 20
-222.899994
 11
16.279999
 21
-226.452728
  0
LINE
  8
0
 10
25.280008
 20
-233.150024
 11
25.680012
 21
-232.457184
  0
LINE
  8
0
 10
16.779995
 20
-227.318771
 11
25.679993
 21
-232.457184
  0
LINE
  8
0
 10
25.279999
 20
-233.149994
 11
-24.720001
 21
-233.149994
  0
LINE
  8
0
 10
-15.970001
 20
-221.149994
 11
-15.970001
 21
-222.649994
  0
LINE
  8
0
 10
-15.720007
 20
-222.900009
 11
-15.970015
 21
-222.650009
  0
LINE
  8
0
 10
-15.720001
 20
-222.899994
 11
-15.720001
 21
-226.452728
  0
LINE
  8
0
 10
-24.720016
 20
-233.150009
 11
-25.120018
 21
-232.457184
  0
LINE
  8
0
 10
-16.220011
 20
-227.318741
 11
-25.120012
 21
-232.457153
  0
LINE
  8
0
 10
-14.857502
 20
-227.030090
 11
15.359166
 21
-227.030090
  0
LINE
  8
0
 10
16.529999
 20
-222.649994
 11
-15.970001
 21
-222.649994
  0
LINE
  8
0
 10
-25.120001
 20
-232.457184
 11
25.680002
 21
-232.457184
  0
ARC
  8
0
 10
-3.220009
 20
-186.400421
 40
5.750427
 50
89.999992
 51
127.491997
  0
ARC
  8
0
 10
3.779991
 20
-186.400421
 40
5.750427
 50
89.999992
 51
127.492004
  0
ARC
  8
0
 10
3.779991
 20
-186.400421
 40
5.750425
 50
52.507988
 51
89.999992
  0
ARC
  8
0
 10
-3.220009
 20
-186.400421
 40
5.750425
 50
52.507992
 51
89.999992
  0
ARC
  8
0
 10
-7.930229
 20
-188.185364
 40
1.779787
 50
180.000000
 51
214.756317
  0
ARC
  8
0
 10
-9.920010
 20
-187.481277
 40
0.200000
 50
0.000000
 51
90.000000
  0
ARC
  8
0
 10
-9.920009
 20
-182.818726
 40
0.199997
 50
270.000000
 51
0.000000
  0
ARC
  8
0
 10
-13.798389
 20
-185.150009
 40
6.588380
 50
0.000000
 51
17.861197
  0
ARC
  8
0
 10
-7.930229
 20
-188.185364
 40
1.779784
 50
145.243652
 51
180.000000
  0
ARC
  8
0
 10
-3.121631
 20
-185.150009
 40
6.588380
 50
180.000000
 51
197.861069
  0
ARC
  8
0
 10
-3.121631
 20
-185.150009
 40
6.588382
 50
162.138794
 51
180.000000
  0
ARC
  8
0
 10
-7.930243
 20
-182.114639
 40
1.779770
 50
180.000000
 51
214.756714
  0
ARC
  8
0
 10
-7.930243
 20
-182.114639
 40
1.779767
 50
145.243271
 51
180.000000
  0
ARC
  8
0
 10
-8.989776
 20
-182.114639
 40
1.779767
 50
325.243286
 51
0.000000
  0
ARC
  8
0
 10
-8.989792
 20
-188.185364
 40
1.779787
 50
0.000000
 51
34.756313
  0
ARC
  8
0
 10
-13.798389
 20
-185.150009
 40
6.588379
 50
342.138947
 51
0.000000
  0
ARC
  8
0
 10
-11.620009
 20
-182.918732
 40
0.100000
 50
180.000000
 51
270.000000
  0
ARC
  8
0
 10
-11.620010
 20
-187.381287
 40
0.100006
 50
90.000000
 51
180.000000
  0
ARC
  8
0
 10
-16.520008
 20
-187.098022
 40
0.200001
 50
180.000000
 51
265.000397
  0
ARC
  8
0
 10
-16.520008
 20
-183.201996
 40
0.200010
 50
94.999229
 51
180.000000
  0
ARC
  8
0
 10
3.779990
 20
-199.399597
 40
5.750397
 50
269.999969
 51
307.492096
  0
ARC
  8
0
 10
3.779990
 20
-199.399597
 40
5.750412
 50
232.507904
 51
269.999969
  0
ARC
  8
0
 10
-3.220010
 20
-199.399597
 40
5.750397
 50
269.999969
 51
307.492096
  0
ARC
  8
0
 10
-3.220010
 20
-199.399597
 40
5.750413
 50
232.507889
 51
269.999969
  0
ARC
  8
0
 10
-4.927061
 20
-207.106537
 40
3.043484
 50
235.062515
 51
304.937439
  0
ARC
  8
0
 10
0.279990
 20
-198.936478
 40
11.213520
 50
252.005737
 51
287.994232
  0
ARC
  8
0
 10
5.487040
 20
-207.106522
 40
3.043496
 50
235.062714
 51
304.937317
  0
ARC
  8
0
 10
5.487040
 20
-208.193481
 40
3.043498
 50
55.062672
 51
124.937263
  0
ARC
  8
0
 10
0.279989
 20
-216.363525
 40
11.213522
 50
72.005722
 51
107.994217
  0
ARC
  8
0
 10
-4.927061
 20
-208.193481
 40
3.043495
 50
55.062729
 51
124.937294
  0
ARC
  8
0
 10
-16.220011
 20
-216.149994
 40
1.500000
 50
90.000000
 51
180.000000
  0
ARC
  8
0
 10
16.779989
 20
-216.149994
 40
1.500000
 50
0.000000
 51
89.999924
  0
ARC
  8
0
 10
-2.755363
 20
-129.370209
 40
1.779793
 50
235.243668
 51
269.999969
  0
ARC
  8
0
 10
3.315361
 20
-129.370239
 40
1.779755
 50
269.999969
 51
304.756836
  0
ARC
  8
0
 10
0.279991
 20
-124.561623
 40
6.588387
 50
269.999969
 51
287.861145
  0
ARC
  8
0
 10
0.279991
 20
-124.561623
 40
6.588377
 50
252.138901
 51
269.999969
  0
ARC
  8
0
 10
-2.755363
 20
-129.370209
 40
1.779800
 50
269.999969
 51
304.756287
  0
ARC
  8
0
 10
-2.755364
 20
-130.429779
 40
1.779781
 50
55.243404
 51
89.999992
  0
ARC
  8
0
 10
-2.755364
 20
-130.429779
 40
1.779785
 50
89.999992
 51
124.756592
  0
ARC
  8
0
 10
0.279991
 20
-135.238373
 40
6.588379
 50
89.999992
 51
107.861084
  0
ARC
  8
0
 10
0.279991
 20
-135.238373
 40
6.588372
 50
72.138817
 51
89.999992
  0
ARC
  8
0
 10
3.315361
 20
-130.429779
 40
1.779785
 50
89.999992
 51
124.756561
  0
ARC
  8
0
 10
3.315361
 20
-130.429779
 40
1.779780
 50
55.243439
 51
89.999992
  0
ARC
  8
0
 10
3.315361
 20
-129.370239
 40
1.779767
 50
235.243164
 51
269.999969
  0
CIRCLE
  8
0
 10
5.529992
 20
-179.300003
 40
0.450000
  0
CIRCLE
  8
0
 10
-4.970008
 20
-180.200012
 40
0.450000
  0
CIRCLE
  8
0
 10
-4.970008
 20
-178.933594
 40
0.450000
  0
CIRCLE
  8
0
 10
5.529996
 20
-160.700012
 40
0.450000
  0
CIRCLE
  8
0
 10
-4.970004
 20
-160.700012
 40
0.450000
  0
CIRCLE
  8
0
 10
5.529992
 20
-180.200012
 40
0.450000
  0
CIRCLE
  8
0
 10
5.529996
 20
-161.966400
 40
0.450000
  0
CIRCLE
  8
0
 10
-4.970004
 20
-161.600006
 40
0.450000
  0
ARC
  8
0
 10
7.633734
 20
-145.888245
 40
4.361752
 50
235.885880
 51
304.114136
  0
ARC
  8
0
 10
0.279998
 20
-133.831085
 40
16.418919
 50
252.608994
 51
287.391022
  0
ARC
  8
0
 10
-7.073740
 20
-145.888245
 40
4.361766
 50
235.885956
 51
304.114014
  0
ARC
  8
0
 10
7.633734
 20
-149.611740
 40
4.361754
 50
55.885830
 51
124.114113
  0
ARC
  8
0
 10
0.279996
 20
-161.668915
 40
16.418907
 50
72.608948
 51
107.390976
  0
ARC
  8
0
 10
-7.073740
 20
-149.611755
 40
4.361754
 50
55.885830
 51
124.114021
  0
ARC
  8
0
 10
-7.073740
 20
-154.611755
 40
4.361754
 50
55.885830
 51
124.114014
  0
ARC
  8
0
 10
0.279996
 20
-166.668915
 40
16.418907
 50
72.608948
 51
107.390976
  0
ARC
  8
0
 10
0.279998
 20
-138.831085
 40
16.418919
 50
252.608994
 51
287.391022
  0
ARC
  8
0
 10
7.633734
 20
-154.611740
 40
4.361754
 50
55.885834
 51
124.114113
  0
ARC
  8
0
 10
-7.073740
 20
-150.888245
 40
4.361766
 50
235.885956
 51
304.114014
  0
ARC
  8
0
 10
7.633734
 20
-150.888260
 40
4.361752
 50
235.885880
 51
304.114136
  0
ARC
  8
0
 10
17.279999
 20
-226.452728
 40
1.000000
 50
180.000000
 51
240.000076
  0
ARC
  8
0
 10
-16.720001
 20
-226.452728
 40
1.000002
 50
299.999939
 51
0.000000
  0
POINT
  8
0
 10
229.690002
 20
-150.250000
  0
POINT
  8
0
 10
250.389999
 20
-150.250000
  0
LINE
  8
0
 10
229.690002
 20
-265.549988
 11
229.690002
 21
-118.638763
  0
LINE
  8
0
 10
199.689987
 20
-262.250000
 11
259.690002
 21
-262.250000
  0
LINE
  8
0
 10
199.689957
 20
-262.250061
 11
199.124268
 21
-261.684357
  0
LINE
  8
0
 10
259.690033
 20
-262.250031
 11
260.255707
 21
-261.684357
  0
LINE
  8
0
 10
260.255676
 20
-261.684326
 11
257.087769
 21
-258.516418
  0
LINE
  8
0
 10
199.124313
 20
-261.684326
 11
202.292206
 21
-258.516449
  0
LINE
  8
0
 10
206.489990
 20
-237.250000
 11
252.889999
 21
-237.250000
  0
LINE
  8
0
 10
253.889999
 20
-245.250000
 11
253.889999
 21
-238.250000
  0
LINE
  8
0
 10
205.490005
 20
-245.250000
 11
205.490005
 21
-238.250000
  0
LINE
  8
0
 10
253.889984
 20
-238.250015
 11
252.889984
 21
-237.250031
  0
LINE
  8
0
 10
206.489990
 20
-237.250000
 11
205.489990
 21
-238.250000
  0
LINE
  8
0
 10
199.189987
 20
-245.250000
 11
260.190002
 21
-245.250000
  0
LINE
  8
0
 10
197.690002
 20
-253.250000
 11
197.690002
 21
-246.750000
  0
LINE
  8
0
 10
261.690002
 20
-253.250000
 11
261.690002
 21
-246.750000
  0
LINE
  8
0
 10
197.689987
 20
-253.250000
 11
261.690002
 21
-253.250000
  0
LINE
  8
0
 10
259.940002
 20
-254.250000
 11
259.940002
 21
-253.250000
  0
LINE
  8
0
 10
199.440002
 20
-254.250000
 11
199.440002
 21
-253.250000
  0
LINE
  8
0
 10
202.292160
 20
-257.102234
 11
199.439957
 21
-254.250031
  0
LINE
  8
0
 10
257.087799
 20
-257.102234
 11
259.940002
 21
-254.250031
  0
LINE
  8
0
 10
260.255676
 20
-261.684326
 11
199.124298
 21
-261.684326
  0
LINE
  8
0
 10
256.794891
 20
-257.809326
 11
202.585083
 21
-257.809326
  0
LINE
  8
0
 10
218.689987
 20
-224.250000
 11
240.689987
 21
-224.250000
  0
LINE
  8
0
 10
221.189987
 20
-231.250000
 11
238.189987
 21
-231.250000
  0
LINE
  8
0
 10
239.490005
 20
-230.499435
 11
239.490005
 21
-225.000565
  0
LINE
  8
0
 10
219.889999
 20
-230.499435
 11
219.889999
 21
-225.000565
  0
LINE
  8
0
 10
221.190002
 20
-231.250000
 11
219.889999
 21
-230.499451
  0
LINE
  8
0
 10
238.190018
 20
-231.250046
 11
239.490021
 21
-230.499481
  0
LINE
  8
0
 10
238.189987
 20
-224.250000
 11
239.489990
 21
-225.000565
  0
LINE
  8
0
 10
221.189987
 20
-224.250000
 11
238.189987
 21
-224.250000
  0
LINE
  8
0
 10
221.190002
 20
-224.250015
 11
219.890015
 21
-225.000565
  0
LINE
  8
0
 10
234.597473
 20
-225.000549
 11
234.597473
 21
-230.499435
  0
LINE
  8
0
 10
224.782547
 20
-230.499435
 11
224.782547
 21
-225.000549
  0
LINE
  8
0
 10
259.940002
 20
-254.250000
 11
199.439987
 21
-254.250000
  0
LINE
  8
0
 10
224.690002
 20
-237.250000
 11
224.690002
 21
-231.250000
  0
LINE
  8
0
 10
234.690002
 20
-237.250000
 11
234.690002
 21
-231.250000
  0
LINE
  8
0
 10
218.689987
 20
-189.250000
 11
240.690002
 21
-189.250000
  0
LINE
  8
0
 10
221.190002
 20
-124.250000
 11
238.190002
 21
-124.250000
  0
LINE
  8
0
 10
211.023331
 20
-198.250000
 11
244.689987
 21
-198.250000
  0
LINE
  8
0
 10
224.690002
 20
-123.449997
 11
234.690002
 21
-123.449997
  0
LINE
  8
0
 10
234.690002
 20
-123.449959
 11
233.823990
 21
-122.949959
  0
LINE
  8
0
 10
224.689972
 20
-123.449921
 11
225.555984
 21
-122.949928
  0
LINE
  8
0
 10
224.717926
 20
-124.250000
 11
224.690002
 21
-123.449997
  0
LINE
  8
0
 10
234.662064
 20
-124.250000
 11
234.690002
 21
-123.449997
  0
LINE
  8
0
 10
218.690002
 20
-224.250000
 11
218.690002
 21
-189.250000
  0
LINE
  8
0
 10
240.690002
 20
-224.250000
 11
240.690002
 21
-189.250000
  0
LINE
  8
0
  6
DASHED
 10
234.498749
 20
-129.726486
 11
234.690002
 21
-124.250000
  0
LINE
  8
0
  6
DASHED
 10
233.745590
 20
-129.803650
 11
233.939529
 21
-124.249985
  0
LINE
  8
0
  6
DASHED
 10
224.877975
 20
-129.633347
 11
224.689987
 21
-124.250015
  0
LINE
  8
0
  6
DASHED
 10
225.631851
 20
-129.731384
 11
225.440430
 21
-124.250008
  0
LINE
  8
0
 10
229.690002
 20
-223.248291
 11
229.690002
 21
-190.251709
  0
LINE
  8
0
  6
DASHED
 10
231.526566
 20
-193.569992
 11
240.689987
 21
-193.250000
  0
LINE
  8
0
  6
DASHED
 10
231.552734
 20
-194.319534
 11
240.690002
 21
-194.000458
  0
LINE
  8
0
  6
DASHED
 10
231.552734
 20
-202.180450
 11
240.690002
 21
-202.499527
  0
LINE
  8
0
  6
DASHED
 10
231.526566
 20
-202.929993
 11
240.689987
 21
-203.249985
  0
LINE
  8
0
 10
215.690002
 20
-130.250000
 11
243.690002
 21
-130.250000
  0
LINE
  8
0
 10
220.690002
 20
-187.850006
 11
220.690002
 21
-187.186920
  0
LINE
  8
0
 10
238.690002
 20
-182.414642
 11
238.690002
 21
-174.713928
  0
LINE
  8
0
  6
PHANTOM
 10
215.690002
 20
-180.250000
 11
243.690002
 21
-180.250000
  0
LINE
  8
0
  6
PHANTOM
 10
244.690002
 20
-179.250000
 11
244.690002
 21
-170.250000
  0
LINE
  8
0
  6
PHANTOM
 10
214.690002
 20
-179.250000
 11
214.690002
 21
-170.250000
  0
LINE
  8
0
  6
PHANTOM
 10
243.690002
 20
-180.250000
 11
244.690002
 21
-179.250000
  0
LINE
  8
0
  6
PHANTOM
 10
215.690002
 20
-180.250000
 11
214.690002
 21
-179.250000
  0
LINE
  8
0
 10
214.690002
 20
-131.250015
 11
215.690002
 21
-130.250015
  0
LINE
  8
0
 10
243.689987
 20
-130.250015
 11
244.689987
 21
-131.250000
  0
LINE
  8
0
  6
PHANTOM
 10
214.690002
 20
-179.250000
 11
244.690002
 21
-179.250000
  0
LINE
  8
0
 10
214.690002
 20
-131.250000
 11
244.690002
 21
-131.250000
  0
LINE
  8
0
  6
PHANTOM
 10
243.940002
 20
-180.000000
 11
243.940002
 21
-170.250000
  0
LINE
  8
0
  6
PHANTOM
 10
215.440002
 20
-180.000000
 11
215.440002
 21
-170.250000
  0
LINE
  8
0
 10
215.690002
 20
-127.250000
 11
243.690002
 21
-127.250000
  0
LINE
  8
0
 10
243.690002
 20
-130.250000
 11
243.690002
 21
-127.250000
  0
LINE
  8
0
 10
215.690002
 20
-130.250000
 11
215.690002
 21
-127.250000
  0
LINE
  8
0
 10
219.690002
 20
-126.100006
 11
239.690002
 21
-126.100006
  0
LINE
  8
0
 10
219.690002
 20
-127.250000
 11
219.690002
 21
-126.100006
  0
LINE
  8
0
 10
239.690002
 20
-127.250000
 11
239.690002
 21
-126.100006
  0
LINE
  8
0
 10
221.190002
 20
-126.100006
 11
221.190002
 21
-124.250000
  0
LINE
  8
0
 10
238.190002
 20
-126.100006
 11
238.190002
 21
-124.250000
  0
LINE
  8
0
 10
216.690002
 20
-171.250000
 11
242.690002
 21
-171.250000
  0
LINE
  8
0
 10
216.690002
 20
-171.250000
 11
216.690002
 21
-170.250000
  0
LINE
  8
0
 10
242.690002
 20
-171.250000
 11
242.690002
 21
-170.250000
  0
LINE
  8
0
 10
219.690002
 20
-191.625000
 11
219.690002
 21
-167.208344
  0
LINE
  8
0
 10
239.690002
 20
-191.625000
 11
239.690002
 21
-168.041672
  0
LINE
  8
0
 10
219.690002
 20
-187.850006
 11
239.690002
 21
-187.850006
  0
LINE
  8
0
 10
219.690002
 20
-172.649994
 11
239.690002
 21
-172.649994
  0
LINE
  8
0
 10
239.690002
 20
-182.449585
 11
219.690002
 21
-181.751160
  0
LINE
  8
0
 10
239.689987
 20
-187.850464
 11
219.689987
 21
-187.152039
  0
LINE
  8
0
 10
239.690002
 20
-174.748840
 11
219.690002
 21
-174.050415
  0
LINE
  8
0
 10
239.690002
 20
-173.347977
 11
219.690002
 21
-172.649567
  0
LINE
  8
0
 10
220.690002
 20
-181.786072
 11
220.690002
 21
-174.085342
  0
LINE
  8
0
 10
238.690002
 20
-173.313065
 11
238.690002
 21
-172.649994
  0
LINE
  8
0
  6
PHANTOM
 10
240.389999
 20
-187.149994
 11
240.389999
 21
-174.048843
  0
LINE
  8
0
  6
PHANTOM
 10
238.990005
 20
-187.149994
 11
238.990005
 21
-174.048843
  0
LINE
  8
0
  6
PHANTOM
 10
220.389999
 20
-186.452011
 11
220.389999
 21
-173.350006
  0
LINE
  8
0
  6
PHANTOM
 10
218.990005
 20
-186.452011
 11
218.990005
 21
-173.350006
  0
LINE
  8
0
 10
211.690002
 20
-150.250000
 11
247.690002
 21
-150.250000
  0
LINE
  8
0
 10
250.389999
 20
-148.691147
 11
250.389999
 21
-141.808853
  0
LINE
  8
0
 10
208.990005
 20
-148.691162
 11
208.990005
 21
-141.808838
  0
LINE
  8
0
 10
247.690002
 20
-150.249985
 11
250.390015
 21
-148.691147
  0
LINE
  8
0
 10
211.690002
 20
-150.250000
 11
208.990005
 21
-148.691162
  0
LINE
  8
0
 10
247.689987
 20
-140.250031
 11
250.389984
 21
-141.808868
  0
LINE
  8
0
 10
211.690002
 20
-140.250000
 11
247.690002
 21
-140.250000
  0
LINE
  8
0
 10
211.689972
 20
-140.249954
 11
208.989975
 21
-141.808807
  0
LINE
  8
0
 10
240.082245
 20
-148.750000
 11
240.082245
 21
-141.750015
  0
LINE
  8
0
 10
219.297134
 20
-141.750000
 11
219.297134
 21
-148.750000
  0
LINE
  8
0
 10
211.690002
 20
-160.250000
 11
247.690002
 21
-160.250000
  0
LINE
  8
0
 10
250.389999
 20
-158.691147
 11
250.389999
 21
-151.808853
  0
LINE
  8
0
 10
208.990005
 20
-158.691162
 11
208.990005
 21
-151.808838
  0
LINE
  8
0
 10
247.690002
 20
-160.249985
 11
250.389999
 21
-158.691147
  0
LINE
  8
0
 10
211.690002
 20
-160.250000
 11
208.990005
 21
-158.691162
  0
LINE
  8
0
 10
247.689987
 20
-150.250031
 11
250.389999
 21
-151.808868
  0
LINE
  8
0
 10
211.690002
 20
-150.250000
 11
247.690002
 21
-150.250000
  0
LINE
  8
0
 10
211.689987
 20
-150.249969
 11
208.989975
 21
-151.808823
  0
LINE
  8
0
 10
240.082260
 20
-158.750000
 11
240.082260
 21
-151.750015
  0
LINE
  8
0
 10
219.297180
 20
-151.750000
 11
219.297180
 21
-158.750000
  0
LINE
  8
0
 10
243.940002
 20
-140.250000
 11
243.940002
 21
-130.500000
  0
LINE
  8
0
 10
244.690002
 20
-140.250000
 11
244.690002
 21
-131.250000
  0
LINE
  8
0
 10
215.440002
 20
-140.250000
 11
215.440002
 21
-130.500000
  0
LINE
  8
0
 10
214.690002
 20
-140.250000
 11
214.690002
 21
-131.250000
  0
LINE
  8
0
 10
243.690002
 20
-170.250000
 11
244.690002
 21
-169.250000
  0
LINE
  8
0
 10
243.940002
 20
-170.000000
 11
243.940002
 21
-160.250000
  0
LINE
  8
0
 10
244.690002
 20
-169.250000
 11
244.690002
 21
-160.250000
  0
LINE
  8
0
 10
214.690002
 20
-169.250000
 11
244.690002
 21
-169.250000
  0
LINE
  8
0
 10
215.690002
 20
-170.250000
 11
243.690002
 21
-170.250000
  0
LINE
  8
0
 10
215.690002
 20
-170.250000
 11
214.690002
 21
-169.250000
  0
LINE
  8
0
 10
215.440002
 20
-170.000000
 11
215.440002
 21
-160.250000
  0
LINE
  8
0
 10
214.690002
 20
-169.250000
 11
214.690002
 21
-160.250000
  0
LINE
  8
0
 10
225.556000
 20
-122.949928
 11
233.823929
 21
-122.949928
  0
ARC
  8
0
 10
260.190002
 20
-246.750000
 40
1.500000
 50
0.000000
 51
90.000000
  0
ARC
  8
0
 10
199.189987
 20
-246.750000
 40
1.500000
 50
90.000000
 51
180.000000
  0
ARC
  8
0
 10
257.794891
 20
-257.809326
 40
1.000023
 50
135.000000
 51
224.998764
  0
ARC
  8
0
 10
201.585083
 20
-257.809326
 40
0.999990
 50
315.000610
 51
45.000618
  0
ARC
  8
0
 10
222.336258
 20
-226.888260
 40
4.361752
 50
235.885880
 51
304.114136
  0
ARC
  8
0
 10
229.689987
 20
-214.831085
 40
16.418917
 50
252.609039
 51
287.391022
  0
ARC
  8
0
 10
237.043732
 20
-226.888260
 40
4.361752
 50
235.885880
 51
304.114136
  0
ARC
  8
0
 10
237.043732
 20
-228.611740
 40
4.361752
 50
55.885876
 51
124.114128
  0
ARC
  8
0
 10
229.689987
 20
-240.668915
 40
16.418924
 50
72.608932
 51
107.390968
  0
ARC
  8
0
 10
222.336258
 20
-228.611740
 40
4.361752
 50
55.885876
 51
124.114128
  0
ARC
  8
0
 10
224.189987
 20
-204.850006
 40
15.600006
 50
90.000000
 51
110.644165
  0
ARC
  8
0
 10
235.189987
 20
-204.850006
 40
15.600006
 50
90.000000
 51
110.644218
  0
ARC
  8
0
 10
235.189987
 20
-208.649994
 40
15.600003
 50
249.355835
 51
290.644226
  0
ARC
  8
0
 10
224.189987
 20
-208.649994
 40
15.600003
 50
249.355835
 51
290.644226
  0
ARC
  8
0
 10
235.189987
 20
-204.850006
 40
15.600015
 50
69.355736
 51
90.000000
  0
ARC
  8
0
 10
224.189987
 20
-204.850006
 40
15.600009
 50
69.355782
 51
90.000000
  0
CIRCLE
  8
0
 10
239.690002
 20
-187.149994
 40
0.700000
  0
CIRCLE
  8
0
 10
219.690002
 20
-188.550003
 40
0.700000
  0
CIRCLE
  8
0
 10
239.690002
 20
-171.949997
 40
0.700000
  0
CIRCLE
  8
0
 10
219.690002
 20
-173.350006
 40
0.700000
  0
CIRCLE
  8
0
 10
239.690002
 20
-174.048843
 40
0.700000
  0
CIRCLE
  8
0
 10
219.690002
 20
-171.949997
 40
0.700000
  0
CIRCLE
  8
0
 10
239.690002
 20
-188.550003
 40
0.700000
  0
CIRCLE
  8
0
 10
219.690002
 20
-186.452011
 40
0.700000
  0
ARC
  8
0
 10
214.194809
 20
-140.823074
 40
9.427380
 50
237.229019
 51
302.771057
  0
ARC
  8
0
 10
229.689987
 20
-113.500107
 40
36.749905
 50
253.573593
 51
286.426453
  0
ARC
  8
0
 10
245.185196
 20
-140.823120
 40
9.427341
 50
237.228867
 51
303.510986
  0
ARC
  8
0
 10
245.185196
 20
-149.676880
 40
9.427334
 50
56.488998
 51
122.771133
  0
ARC
  8
0
 10
229.689987
 20
-176.999893
 40
36.749901
 50
73.573509
 51
106.426392
  0
ARC
  8
0
 10
214.194809
 20
-149.676926
 40
9.427387
 50
57.228939
 51
122.770981
  0
ARC
  8
0
 10
214.194809
 20
-159.676926
 40
9.427387
 50
57.228939
 51
122.770981
  0
ARC
  8
0
 10
245.185196
 20
-159.676880
 40
9.427334
 50
56.488998
 51
122.771133
  0
ARC
  8
0
 10
229.689987
 20
-123.500107
 40
36.749905
 50
253.573593
 51
286.426453
  0
ARC
  8
0
 10
229.689987
 20
-186.999893
 40
36.749901
 50
73.573509
 51
106.426392
  0
ARC
  8
0
 10
245.185196
 20
-150.823120
 40
9.427341
 50
237.228867
 51
303.510986
  0
ARC
  8
0
 10
214.194809
 20
-150.823074
 40
9.427380
 50
237.229019
 51
302.771057
  0
POINT
  8
0
 10
459.100006
 20
-150.250000
  0
POINT
  8
0
 10
479.800018
 20
-150.250000
  0
LINE
  8
0
 10
459.100006
 20
-304.430725
 11
459.100006
 21
-112.638763
  0
LINE
  8
0
 10
435.899994
 20
-229.949997
 11
482.299988
 21
-229.949997
  0
LINE
  8
0
 10
483.300018
 20
-237.949997
 11
483.300018
 21
-230.949997
  0
LINE
  8
0
 10
434.899994
 20
-237.949997
 11
434.899994
 21
-230.949997
  0
LINE
  8
0
 10
483.299988
 20
-230.950012
 11
482.299988
 21
-229.950027
  0
LINE
  8
0
 10
435.899994
 20
-229.949997
 11
434.899994
 21
-230.950012
  0
LINE
  8
0
 10
428.600006
 20
-237.949997
 11
489.600006
 21
-237.949997
  0
LINE
  8
0
 10
427.100006
 20
-245.949997
 11
427.100006
 21
-239.449997
  0
LINE
  8
0
 10
491.100006
 20
-245.949997
 11
491.100006
 21
-239.449997
  0
LINE
  8
0
 10
427.100006
 20
-245.949997
 11
491.100006
 21
-245.949997
  0
LINE
  8
0
 10
448.100006
 20
-222.949997
 11
470.100006
 21
-222.949997
  0
LINE
  8
0
 10
450.600006
 20
-229.949997
 11
467.600006
 21
-229.949997
  0
LINE
  8
0
 10
468.899994
 20
-229.199432
 11
468.899994
 21
-223.700562
  0
LINE
  8
0
 10
449.300018
 20
-229.199432
 11
449.300018
 21
-223.700562
  0
LINE
  8
0
 10
450.600006
 20
-229.950012
 11
449.299988
 21
-229.199448
  0
LINE
  8
0
 10
467.600006
 20
-229.950043
 11
468.900024
 21
-229.199493
  0
LINE
  8
0
 10
467.600006
 20
-222.950012
 11
468.899994
 21
-223.700562
  0
LINE
  8
0
 10
450.600006
 20
-222.949997
 11
467.600006
 21
-222.949997
  0
LINE
  8
0
 10
450.600006
 20
-222.950012
 11
449.300018
 21
-223.700577
  0
LINE
  8
0
 10
464.007477
 20
-223.700546
 11
464.007477
 21
-229.199432
  0
LINE
  8
0
 10
454.192566
 20
-229.199432
 11
454.192566
 21
-223.700546
  0
LINE
  8
0
 10
454.100006
 20
-229.949997
 11
454.100006
 21
-223.949997
  0
LINE
  8
0
 10
464.100006
 20
-229.949997
 11
464.100006
 21
-223.949997
  0
LINE
  8
0
 10
448.100006
 20
-187.949997
 11
470.100006
 21
-187.949997
  0
LINE
  8
0
 10
450.600006
 20
-124.250000
 11
467.600006
 21
-124.250000
  0
LINE
  8
0
 10
440.433319
 20
-196.949997
 11
474.100006
 21
-196.949997
  0
LINE
  8
0
 10
454.966034
 20
-122.949997
 11
463.233978
 21
-122.949997
  0
LINE
  8
0
 10
454.100006
 20
-123.449997
 11
464.100006
 21
-123.449997
  0
LINE
  8
0
 10
464.100006
 20
-123.449982
 11
463.233978
 21
-122.949982
  0
LINE
  8
0
 10
454.099976
 20
-123.449905
 11
454.965973
 21
-122.949913
  0
LINE
  8
0
 10
454.127930
 20
-124.250000
 11
454.100006
 21
-123.449997
  0
LINE
  8
0
 10
464.072083
 20
-124.250000
 11
464.100006
 21
-123.449997
  0
LINE
  8
0
 10
448.100006
 20
-222.949997
 11
448.100006
 21
-187.949997
  0
LINE
  8
0
 10
470.100006
 20
-222.949997
 11
470.100006
 21
-187.949997
  0
LINE
  8
0
  6
DASHED
 10
463.908752
 20
-129.726486
 11
464.100006
 21
-124.249992
  0
LINE
  8
0
  6
DASHED
 10
463.155609
 20
-129.803665
 11
463.349548
 21
-124.249992
  0
LINE
  8
0
  6
DASHED
 10
454.287994
 20
-129.633331
 11
454.100006
 21
-124.250008
  0
LINE
  8
0
  6
DASHED
 10
455.041840
 20
-129.731400
 11
454.850433
 21
-124.250015
  0
LINE
  8
0
 10
459.100006
 20
-221.948288
 11
459.100006
 21
-188.951706
  0
LINE
  8
0
  6
DASHED
 10
460.936554
 20
-192.270004
 11
470.100006
 21
-191.950012
  0
LINE
  8
0
  6
DASHED
 10
460.962738
 20
-193.019531
 11
470.100006
 21
-192.700455
  0
LINE
  8
0
  6
DASHED
 10
460.962738
 20
-200.880432
 11
470.100006
 21
-201.199524
  0
LINE
  8
0
  6
DASHED
 10
460.936554
 20
-201.629990
 11
470.100006
 21
-201.949982
  0
LINE
  8
0
 10
445.100006
 20
-130.250000
 11
473.100006
 21
-130.250000
  0
LINE
  8
0
 10
450.100006
 20
-186.550003
 11
450.100006
 21
-185.886932
  0
LINE
  8
0
 10
468.100006
 20
-185.114655
 11
468.100006
 21
-174.713928
  0
LINE
  8
0
  6
PHANTOM
 10
445.100006
 20
-180.250000
 11
473.100006
 21
-180.250000
  0
LINE
  8
0
  6
PHANTOM
 10
474.100006
 20
-179.250000
 11
474.100006
 21
-170.250000
  0
LINE
  8
0
  6
PHANTOM
 10
444.100006
 20
-179.250000
 11
444.100006
 21
-170.250000
  0
LINE
  8
0
  6
PHANTOM
 10
473.100006
 20
-180.250000
 11
474.100006
 21
-179.250000
  0
LINE
  8
0
  6
PHANTOM
 10
445.100006
 20
-180.250000
 11
444.100006
 21
-179.250000
  0
LINE
  8
0
 10
444.100006
 20
-131.250000
 11
445.100006
 21
-130.250015
  0
LINE
  8
0
 10
473.100006
 20
-130.250015
 11
474.099976
 21
-131.250015
  0
LINE
  8
0
  6
PHANTOM
 10
444.100006
 20
-179.250000
 11
474.100006
 21
-179.250000
  0
LINE
  8
0
 10
444.100006
 20
-131.250000
 11
474.100006
 21
-131.250000
  0
LINE
  8
0
  6
PHANTOM
 10
473.350006
 20
-180.000000
 11
473.350006
 21
-170.250000
  0
LINE
  8
0
  6
PHANTOM
 10
444.850006
 20
-180.000000
 11
444.850006
 21
-170.250000
  0
LINE
  8
0
 10
445.100006
 20
-127.250000
 11
473.100006
 21
-127.250000
  0
LINE
  8
0
 10
473.100006
 20
-130.250000
 11
473.100006
 21
-127.250000
  0
LINE
  8
0
 10
445.100006
 20
-130.250000
 11
445.100006
 21
-127.250000
  0
LINE
  8
0
 10
449.100006
 20
-126.100006
 11
469.100006
 21
-126.100006
  0
LINE
  8
0
 10
449.100006
 20
-127.250000
 11
449.100006
 21
-126.100006
  0
LINE
  8
0
 10
469.100006
 20
-127.250000
 11
469.100006
 21
-126.100006
  0
LINE
  8
0
 10
450.600006
 20
-126.100006
 11
450.600006
 21
-124.250000
  0
LINE
  8
0
 10
467.600006
 20
-126.100006
 11
467.600006
 21
-124.250000
  0
LINE
  8
0
 10
446.100006
 20
-171.250000
 11
472.100006
 21
-171.250000
  0
LINE
  8
0
 10
446.100006
 20
-171.250000
 11
446.100006
 21
-170.250000
  0
LINE
  8
0
 10
472.100006
 20
-171.250000
 11
472.100006
 21
-170.250000
  0
LINE
  8
0
 10
449.100006
 20
-190.324997
 11
449.100006
 21
-167.208344
  0
LINE
  8
0
 10
469.100006
 20
-190.324997
 11
469.100006
 21
-168.041672
  0
LINE
  8
0
 10
449.100006
 20
-186.550003
 11
469.100006
 21
-186.550003
  0
LINE
  8
0
 10
449.100006
 20
-172.649994
 11
469.100006
 21
-172.649994
  0
LINE
  8
0
 10
469.100006
 20
-185.149582
 11
449.100006
 21
-184.451157
  0
LINE
  8
0
 10
469.100006
 20
-186.550446
 11
449.100006
 21
-185.852036
  0
LINE
  8
0
 10
469.100006
 20
-174.748840
 11
449.100006
 21
-174.050415
  0
LINE
  8
0
 10
469.100006
 20
-173.347992
 11
449.100006
 21
-172.649567
  0
LINE
  8
0
 10
450.100006
 20
-184.486069
 11
450.100006
 21
-174.085342
  0
LINE
  8
0
 10
468.100006
 20
-173.313065
 11
468.100006
 21
-172.649994
  0
LINE
  8
0
  6
PHANTOM
 10
469.800018
 20
-185.849991
 11
469.800018
 21
-174.048843
  0
LINE
  8
0
  6
PHANTOM
 10
468.399994
 20
-185.849991
 11
468.399994
 21
-174.048843
  0
LINE
  8
0
  6
PHANTOM
 10
449.800018
 20
-185.152008
 11
449.800018
 21
-173.350006
  0
LINE
  8
0
  6
PHANTOM
 10
448.399994
 20
-185.152008
 11
448.399994
 21
-173.350006
  0
LINE
  8
0
 10
441.100006
 20
-150.250000
 11
477.100006
 21
-150.250000
  0
LINE
  8
0
 10
479.800018
 20
-148.691147
 11
479.800018
 21
-141.808853
  0
LINE
  8
0
 10
438.399994
 20
-148.691162
 11
438.399994
 21
-141.808838
  0
LINE
  8
0
 10
477.100006
 20
-150.249969
 11
479.799988
 21
-148.691132
  0
LINE
  8
0
 10
441.100006
 20
-150.250000
 11
438.399994
 21
-148.691162
  0
LINE
  8
0
 10
477.099976
 20
-140.250031
 11
479.799988
 21
-141.808884
  0
LINE
  8
0
 10
441.100006
 20
-140.250000
 11
477.100006
 21
-140.250000
  0
LINE
  8
0
 10
441.099976
 20
-140.249954
 11
438.399994
 21
-141.808807
  0
LINE
  8
0
 10
469.492249
 20
-148.750000
 11
469.492249
 21
-141.750015
  0
LINE
  8
0
 10
448.707153
 20
-141.750000
 11
448.707153
 21
-148.750000
  0
LINE
  8
0
 10
441.100006
 20
-160.250000
 11
477.100006
 21
-160.250000
  0
LINE
  8
0
 10
479.800018
 20
-158.691147
 11
479.800018
 21
-151.808853
  0
LINE
  8
0
 10
438.399994
 20
-158.691162
 11
438.399994
 21
-151.808838
  0
LINE
  8
0
 10
477.100006
 20
-160.249985
 11
479.800018
 21
-158.691147
  0
LINE
  8
0
 10
441.100006
 20
-160.250000
 11
438.399994
 21
-158.691162
  0
LINE
  8
0
 10
477.099976
 20
-150.250031
 11
479.799988
 21
-151.808884
  0
LINE
  8
0
 10
441.100006
 20
-150.250000
 11
477.100006
 21
-150.250000
  0
LINE
  8
0
 10
441.099976
 20
-150.249969
 11
438.399994
 21
-151.808807
  0
LINE
  8
0
 10
469.492249
 20
-158.750000
 11
469.492249
 21
-151.750015
  0
LINE
  8
0
 10
448.707184
 20
-151.750000
 11
448.707184
 21
-158.750000
  0
LINE
  8
0
 10
473.350006
 20
-140.250000
 11
473.350006
 21
-130.500000
  0
LINE
  8
0
 10
474.100006
 20
-140.250000
 11
474.100006
 21
-131.250000
  0
LINE
  8
0
 10
444.850006
 20
-140.250000
 11
444.850006
 21
-130.500000
  0
LINE
  8
0
 10
444.100006
 20
-140.250000
 11
444.100006
 21
-131.250000
  0
LINE
  8
0
 10
473.100006
 20
-170.250000
 11
474.100006
 21
-169.250000
  0
LINE
  8
0
 10
473.350006
 20
-170.000000
 11
473.350006
 21
-160.250000
  0
LINE
  8
0
 10
474.100006
 20
-169.250000
 11
474.100006
 21
-160.250000
  0
LINE
  8
0
 10
444.100006
 20
-169.250000
 11
474.100006
 21
-169.250000
  0
LINE
  8
0
 10
445.100006
 20
-170.250000
 11
473.100006
 21
-170.250000
  0
LINE
  8
0
 10
445.100006
 20
-170.250000
 11
444.100006
 21
-169.250000
  0
LINE
  8
0
 10
444.850006
 20
-170.000000
 11
444.850006
 21
-160.250000
  0
LINE
  8
0
 10
444.100006
 20
-169.250000
 11
444.100006
 21
-160.250000
  0
LINE
  8
0
 10
489.350006
 20
-245.949997
 11
489.350006
 21
-247.449997
  0
LINE
  8
0
 10
489.100037
 20
-247.700012
 11
489.350037
 21
-247.450012
  0
LINE
  8
0
 10
490.805695
 20
-257.165649
 11
499.674408
 21
-263.375610
  0
LINE
  8
0
 10
489.100006
 20
-247.699997
 11
489.100006
 21
-253.889038
  0
LINE
  8
0
 10
499.100037
 20
-263.950012
 11
499.674438
 21
-263.375610
  0
LINE
  8
0
  6
DASHED
 10
459.100006
 20
-255.949997
 11
483.399109
 21
-255.949997
  0
LINE
  8
0
 10
499.100006
 20
-263.950012
 11
419.100006
 21
-263.950012
  0
LINE
  8
0
 10
428.850006
 20
-245.949997
 11
428.850006
 21
-247.449997
  0
LINE
  8
0
 10
429.100006
 20
-247.699982
 11
428.850006
 21
-247.449982
  0
LINE
  8
0
 10
427.394318
 20
-257.165680
 11
418.525604
 21
-263.375610
  0
LINE
  8
0
 10
429.100006
 20
-247.699997
 11
429.100006
 21
-253.889038
  0
LINE
  8
0
 10
419.100037
 20
-263.949951
 11
418.525635
 21
-263.375549
  0
LINE
  8
0
 10
428.850006
 20
-247.449997
 11
489.350006
 21
-247.449997
  0
LINE
  8
0
 10
487.613342
 20
-255.971298
 11
430.773346
 21
-255.971298
  0
LINE
  8
0
 10
418.525574
 20
-263.375580
 11
499.674408
 21
-263.375580
  0
ARC
  8
0
 10
489.600006
 20
-239.449997
 40
1.500000
 50
0.000000
 51
90.000000
  0
ARC
  8
0
 10
428.600006
 20
-239.449997
 40
1.500000
 50
90.000000
 51
180.000000
  0
ARC
  8
0
 10
451.746246
 20
-225.588257
 40
4.361752
 50
235.885880
 51
304.114136
  0
ARC
  8
0
 10
459.100006
 20
-213.531082
 40
16.418921
 50
252.608978
 51
287.391022
  0
ARC
  8
0
 10
466.453735
 20
-225.588257
 40
4.361752
 50
235.885880
 51
304.114136
  0
ARC
  8
0
 10
466.453735
 20
-227.311737
 40
4.361752
 50
55.885876
 51
124.114128
  0
ARC
  8
0
 10
459.100006
 20
-239.368912
 40
16.418905
 50
72.608963
 51
107.391014
  0
ARC
  8
0
 10
451.746246
 20
-227.311737
 40
4.361752
 50
55.885876
 51
124.114128
  0
ARC
  8
0
 10
453.600006
 20
-203.550003
 40
15.600006
 50
90.000000
 51
110.644218
  0
ARC
  8
0
 10
464.600006
 20
-203.550003
 40
15.600006
 50
90.000000
 51
110.644218
  0
ARC
  8
0
 10
464.600006
 20
-207.350006
 40
15.600009
 50
249.355789
 51
290.644104
  0
ARC
  8
0
 10
453.600006
 20
-207.350006
 40
15.600009
 50
249.355789
 51
290.644104
  0
ARC
  8
0
 10
464.600006
 20
-203.550003
 40
15.599995
 50
69.355766
 51
90.000000
  0
ARC
  8
0
 10
453.600006
 20
-203.550003
 40
15.599995
 50
69.355766
 51
90.000000
  0
CIRCLE
  8
0
 10
469.100006
 20
-185.849991
 40
0.700000
  0
CIRCLE
  8
0
 10
449.100006
 20
-187.250000
 40
0.700000
  0
CIRCLE
  8
0
 10
469.100006
 20
-171.949997
 40
0.700000
  0
CIRCLE
  8
0
 10
449.100006
 20
-173.350006
 40
0.700000
  0
CIRCLE
  8
0
 10
469.100006
 20
-174.048843
 40
0.700000
  0
CIRCLE
  8
0
 10
449.100006
 20
-171.949997
 40
0.700000
  0
CIRCLE
  8
0
 10
469.100006
 20
-187.250000
 40
0.700000
  0
CIRCLE
  8
0
 10
449.100006
 20
-185.152008
 40
0.700000
  0
ARC
  8
0
 10
443.604828
 20
-140.823074
 40
9.427396
 50
237.228867
 51
302.770996
  0
ARC
  8
0
 10
459.100006
 20
-113.500107
 40
36.749905
 50
253.573593
 51
286.426453
  0
ARC
  8
0
 10
474.595184
 20
-140.823120
 40
9.427341
 50
237.228867
 51
303.511169
  0
ARC
  8
0
 10
474.595184
 20
-149.676880
 40
9.427351
 50
56.488846
 51
122.771133
  0
ARC
  8
0
 10
459.099976
 20
-176.999893
 40
36.749905
 50
73.573486
 51
106.426369
  0
ARC
  8
0
 10
443.604828
 20
-149.676926
 40
9.427380
 50
57.229019
 51
122.771141
  0
ARC
  8
0
 10
443.604828
 20
-159.676926
 40
9.427380
 50
57.229019
 51
122.771141
  0
ARC
  8
0
 10
474.595184
 20
-159.676880
 40
9.427351
 50
56.488846
 51
122.771133
  0
ARC
  8
0
 10
459.100006
 20
-123.500107
 40
36.749912
 50
253.573547
 51
286.426422
  0
ARC
  8
0
 10
459.099976
 20
-186.999893
 40
36.749905
 50
73.573486
 51
106.426369
  0
ARC
  8
0
 10
474.595184
 20
-150.823120
 40
9.427341
 50
237.228867
 51
303.511169
  0
ARC
  8
0
 10
443.604828
 20
-150.823074
 40
9.427396
 50
237.228867
 51
302.770996
  0
ARC
  8
0
 10
493.100006
 20
-253.889038
 40
4.000000
 50
180.000000
 51
234.999954
  0
ARC
  8
0
 10
425.100006
 20
-253.889038
 40
4.000006
 50
305.000031
 51
0.000000
  0
POINT
  8
0
 10
-458.544983
 20
204.750000
  0
POINT
  8
0
 10
-448.744995
 20
204.750000
  0
LINE
  8
0
 10
-463.544983
 20
156.850006
 11
-453.544983
 21
156.850006
  0
LINE
  8
0
 10
-453.544983
 20
156.849976
 11
-453.262146
 21
157.132812
  0
LINE
  8
0
 10
-463.545013
 20
156.849976
 11
-463.827850
 21
157.132812
  0
LINE
  8
0
 10
-463.827850
 20
157.132843
 11
-463.339966
 21
157.620712
  0
LINE
  8
0
 10
-453.262177
 20
157.132812
 11
-453.750031
 21
157.620682
  0
LINE
  8
0
 10
-453.344971
 20
158.449997
 11
-453.344971
 21
159.000000
  0
LINE
  8
0
 10
-463.744995
 20
158.449997
 11
-463.744995
 21
159.000000
  0
LINE
  8
0
 10
-453.750000
 20
158.044968
 11
-453.344971
 21
158.449997
  0
LINE
  8
0
 10
-463.339966
 20
158.044952
 11
-463.744995
 21
158.449982
  0
LINE
  8
0
 10
-465.544983
 20
170.350006
 11
-451.544983
 21
170.350006
  0
LINE
  8
0
 10
-465.544983
 20
183.350006
 11
-451.544983
 21
183.350006
  0
LINE
  8
0
 10
-465.544983
 20
170.350006
 11
-465.544983
 21
183.350006
  0
LINE
  8
0
 10
-451.544983
 20
170.350006
 11
-451.544983
 21
183.350006
  0
LINE
  8
0
 10
-458.544983
 20
170.956024
 11
-458.544983
 21
182.743988
  0
LINE
  8
0
 10
-463.044983
 20
223.350006
 11
-454.044983
 21
223.350006
  0
LINE
  8
0
 10
-462.444977
 20
223.350006
 11
-462.444977
 21
223.850006
  0
LINE
  8
0
 10
-462.044983
 20
226.350006
 11
-455.044983
 21
226.350006
  0
LINE
  8
0
 10
-462.044983
 20
223.850006
 11
-455.044983
 21
223.850006
  0
LINE
  8
0
 10
-456.524261
 20
224.167542
 11
-456.524261
 21
226.032455
  0
LINE
  8
0
 10
-460.565704
 20
224.167542
 11
-460.565704
 21
226.032471
  0
LINE
  8
0
 10
-462.594971
 20
224.167542
 11
-462.044983
 21
223.849991
  0
LINE
  8
0
 10
-462.594971
 20
224.167542
 11
-462.594971
 21
226.032471
  0
LINE
  8
0
 10
-462.595001
 20
226.032486
 11
-462.045013
 21
226.350021
  0
LINE
  8
0
 10
-454.494965
 20
226.032455
 11
-455.044983
 21
226.350006
  0
LINE
  8
0
 10
-454.494995
 20
224.167542
 11
-454.494995
 21
226.032455
  0
LINE
  8
0
 10
-454.644989
 20
223.350006
 11
-454.644989
 21
223.850006
  0
LINE
  8
0
 10
-462.444977
 20
223.850006
 11
-454.644989
 21
223.850006
  0
LINE
  8
0
 10
-454.494995
 20
224.167557
 11
-455.045013
 21
223.850021
  0
LINE
  8
0
 10
-482.744995
 20
178.850006
 11
-463.845001
 21
178.850006
  0
LINE
  8
0
 10
-462.044983
 20
167.949997
 11
-455.044983
 21
167.949997
  0
LINE
  8
0
 10
-454.494995
 20
168.267548
 11
-454.494995
 21
170.032455
  0
LINE
  8
0
 10
-462.594971
 20
168.267548
 11
-462.594971
 21
170.032455
  0
LINE
  8
0
 10
-462.044983
 20
170.349976
 11
-462.594971
 21
170.032440
  0
LINE
  8
0
 10
-455.044983
 20
170.350021
 11
-454.494965
 21
170.032471
  0
LINE
  8
0
 10
-462.044983
 20
167.949997
 11
-462.595001
 21
168.267548
  0
LINE
  8
0
 10
-455.044983
 20
167.950012
 11
-454.494995
 21
168.267548
  0
LINE
  8
0
 10
-456.524261
 20
168.267548
 11
-456.524261
 21
170.032455
  0
LINE
  8
0
 10
-460.565674
 20
170.032455
 11
-460.565674
 21
168.267548
  0
LINE
  8
0
 10
-462.044983
 20
166.850006
 11
-455.044983
 21
166.850006
  0
LINE
  8
0
 10
-463.544983
 20
165.649994
 11
-453.544983
 21
165.649994
  0
LINE
  8
0
 10
-464.544983
 20
165.000000
 11
-452.544983
 21
165.000000
  0
LINE
  8
0
 10
-464.544983
 20
159.000000
 11
-452.544983
 21
159.000000
  0
LINE
  8
0
 10
-452.544983
 20
159.000000
 11
-452.544983
 21
165.000000
  0
LINE
  8
0
 10
-464.544983
 20
159.000000
 11
-464.544983
 21
165.000000
  0
LINE
  8
0
 10
-453.544983
 20
165.000000
 11
-453.544983
 21
165.649994
  0
LINE
  8
0
 10
-463.544983
 20
165.000000
 11
-463.544983
 21
165.649994
  0
LINE
  8
0
 10
-462.044983
 20
165.649994
 11
-462.044983
 21
166.850006
  0
LINE
  8
0
 10
-455.044983
 20
165.649994
 11
-455.044983
 21
166.850006
  0
LINE
  8
0
 10
-460.465729
 20
167.850006
 11
-456.624268
 21
167.850006
  0
LINE
  8
0
 10
-456.624268
 20
167.849991
 11
-456.524261
 21
167.949982
  0
LINE
  8
0
 10
-456.624268
 20
167.850006
 11
-456.624268
 21
167.949997
  0
LINE
  8
0
 10
-460.465729
 20
167.850006
 11
-460.565704
 21
167.949997
  0
LINE
  8
0
 10
-460.465698
 20
167.850006
 11
-460.465698
 21
167.949997
  0
LINE
  8
0
 10
-460.044983
 20
166.850006
 11
-460.044983
 21
167.850006
  0
LINE
  8
0
 10
-457.044983
 20
166.850006
 11
-457.044983
 21
167.850006
  0
LINE
  8
0
 10
-463.252106
 20
157.832840
 11
-453.837891
 21
157.832840
  0
LINE
  8
0
 10
-458.544983
 20
153.650879
 11
-458.544983
 21
230.866669
  0
LINE
  8
0
 10
-466.034973
 20
174.949997
 11
-466.034973
 21
182.750000
  0
LINE
  8
0
 10
-465.544983
 20
182.750000
 11
-466.035004
 21
182.750000
  0
LINE
  8
0
 10
-466.352539
 20
174.799988
 11
-468.217438
 21
174.799988
  0
LINE
  8
0
 10
-466.352539
 20
182.899994
 11
-468.217438
 21
182.899994
  0
LINE
  8
0
 10
-468.217529
 20
174.799942
 11
-468.545044
 21
175.367203
  0
LINE
  8
0
 10
-468.217468
 20
182.899994
 11
-468.544983
 21
182.332703
  0
LINE
  8
0
 10
-466.352539
 20
176.829285
 11
-468.217438
 21
176.829285
  0
LINE
  8
0
 10
-466.352539
 20
180.870728
 11
-468.217438
 21
180.870728
  0
LINE
  8
0
 10
-466.352570
 20
174.800003
 11
-466.035004
 21
175.349991
  0
LINE
  8
0
 10
-466.352600
 20
182.899948
 11
-466.035065
 21
182.349945
  0
LINE
  8
0
 10
-475.544983
 20
176.901978
 11
-475.544983
 21
180.798004
  0
LINE
  8
0
 10
-468.544983
 20
175.367233
 11
-468.544983
 21
181.861313
  0
LINE
  8
0
 10
-466.035004
 20
174.949997
 11
-465.544983
 21
174.949997
  0
LINE
  8
0
 10
-470.544983
 20
176.500000
 11
-470.544983
 21
181.199997
  0
LINE
  8
0
 10
-473.044983
 20
176.500000
 11
-473.044983
 21
181.199997
  0
LINE
  8
0
 10
-470.544983
 20
176.499985
 11
-473.044983
 21
176.718704
  0
LINE
  8
0
 10
-473.044983
 20
176.499985
 11
-475.362427
 21
176.702728
  0
LINE
  8
0
 10
-475.362427
 20
180.997238
 11
-473.044983
 21
181.199982
  0
LINE
  8
0
 10
-473.044983
 20
180.981262
 11
-470.544983
 21
181.199982
  0
LINE
  8
0
 10
-470.445007
 20
176.718719
 11
-468.744995
 21
176.718719
  0
LINE
  8
0
 10
-470.444977
 20
180.981277
 11
-468.744995
 21
180.981277
  0
LINE
  8
0
 10
-470.544983
 20
181.108917
 11
-470.544983
 21
181.172943
  0
LINE
  8
0
 10
-468.544983
 20
181.181274
 11
-468.544983
 21
182.332703
  0
LINE
  8
0
 10
-453.262146
 20
157.132843
 11
-463.827850
 21
157.132843
  0
LINE
  8
0
 10
-464.744995
 20
194.750000
 11
-452.344971
 21
194.750000
  0
LINE
  8
0
 10
-464.744965
 20
214.750000
 11
-452.345001
 21
214.750000
  0
LINE
  8
0
 10
-465.544983
 20
195.550003
 11
-451.544983
 21
195.550003
  0
LINE
  8
0
 10
-465.544983
 20
213.949997
 11
-451.544983
 21
213.949997
  0
LINE
  8
0
  6
PHANTOM
 10
-451.544983
 20
190.550003
 11
-451.544983
 21
194.750000
  0
LINE
  8
0
  6
PHANTOM
 10
-465.544983
 20
190.549988
 11
-465.544983
 21
194.750000
  0
LINE
  8
0
 10
-465.544983
 20
213.949997
 11
-464.744965
 21
214.750000
  0
LINE
  8
0
 10
-451.544983
 20
213.949982
 11
-452.345001
 21
214.750000
  0
LINE
  8
0
  6
PHANTOM
 10
-452.345001
 20
189.750000
 11
-451.544983
 21
190.550003
  0
LINE
  8
0
  6
PHANTOM
 10
-464.744995
 20
189.750000
 11
-465.544983
 21
190.549988
  0
LINE
  8
0
  6
PHANTOM
 10
-452.294983
 20
189.750000
 11
-452.294983
 21
194.750000
  0
LINE
  8
0
  6
PHANTOM
 10
-464.794983
 20
189.799988
 11
-464.794983
 21
194.750000
  0
LINE
  8
0
 10
-463.044983
 20
184.250000
 11
-463.044983
 21
184.590210
  0
LINE
  8
0
 10
-454.044983
 20
185.176453
 11
-454.044983
 21
192.609528
  0
LINE
  8
0
 10
-464.544983
 20
215.449997
 11
-452.544983
 21
215.449997
  0
LINE
  8
0
 10
-464.544983
 20
216.350006
 11
-452.544983
 21
216.350006
  0
LINE
  8
0
 10
-463.044983
 20
216.350006
 11
-463.044983
 21
223.350006
  0
LINE
  8
0
 10
-454.044983
 20
216.350006
 11
-454.044983
 21
223.350006
  0
LINE
  8
0
 10
-452.544983
 20
214.750000
 11
-452.544983
 21
216.350006
  0
LINE
  8
0
 10
-464.544983
 20
214.750000
 11
-464.544983
 21
216.350006
  0
LINE
  8
0
 10
-463.794983
 20
180.227783
 11
-463.794983
 21
197.017029
  0
LINE
  8
0
 10
-453.294983
 20
180.153748
 11
-453.294983
 21
196.967041
  0
LINE
  8
0
 10
-453.294983
 20
184.249725
 11
-463.794983
 21
184.616394
  0
LINE
  8
0
 10
-463.794983
 20
184.250000
 11
-453.294983
 21
184.250000
  0
LINE
  8
0
 10
-453.294983
 20
185.150269
 11
-463.763580
 21
185.515839
  0
LINE
  8
0
 10
-453.294983
 20
192.583344
 11
-463.794983
 21
192.950012
  0
LINE
  8
0
 10
-453.294983
 20
193.483887
 11
-463.794983
 21
193.850555
  0
LINE
  8
0
 10
-463.794983
 20
193.850006
 11
-453.294983
 21
193.850006
  0
LINE
  8
0
 10
-463.044983
 20
185.490753
 11
-463.044983
 21
192.923813
  0
LINE
  8
0
 10
-454.044983
 20
193.510071
 11
-454.044983
 21
193.850006
  0
LINE
  8
0
 10
-467.044952
 20
209.750000
 11
-450.044983
 21
209.750000
  0
LINE
  8
0
 10
-467.044983
 20
204.750000
 11
-450.044983
 21
204.750000
  0
LINE
  8
0
 10
-448.744995
 20
205.500549
 11
-448.744995
 21
208.999435
  0
LINE
  8
0
 10
-468.344971
 20
205.500549
 11
-468.344971
 21
208.999435
  0
LINE
  8
0
 10
-450.044983
 20
204.750015
 11
-448.744995
 21
205.500580
  0
LINE
  8
0
 10
-467.044983
 20
204.750000
 11
-468.344971
 21
205.500565
  0
LINE
  8
0
 10
-467.044983
 20
209.749985
 11
-468.344971
 21
208.999435
  0
LINE
  8
0
 10
-450.044983
 20
209.749985
 11
-448.744995
 21
208.999435
  0
LINE
  8
0
 10
-453.637451
 20
205.500549
 11
-453.637451
 21
208.999451
  0
LINE
  8
0
 10
-463.452850
 20
205.500549
 11
-463.452850
 21
208.999451
  0
LINE
  8
0
 10
-467.044952
 20
204.750000
 11
-450.044983
 21
204.750000
  0
LINE
  8
0
 10
-467.044983
 20
199.750000
 11
-450.044983
 21
199.750000
  0
LINE
  8
0
 10
-448.744995
 20
200.500549
 11
-448.744995
 21
203.999435
  0
LINE
  8
0
 10
-468.344971
 20
200.500549
 11
-468.344971
 21
203.999435
  0
LINE
  8
0
 10
-450.044983
 20
199.750015
 11
-448.744995
 21
200.500565
  0
LINE
  8
0
 10
-467.044983
 20
199.750000
 11
-468.344971
 21
200.500565
  0
LINE
  8
0
 10
-467.044983
 20
204.749985
 11
-468.344971
 21
203.999435
  0
LINE
  8
0
 10
-450.044983
 20
204.749985
 11
-448.744995
 21
203.999435
  0
LINE
  8
0
 10
-453.637451
 20
200.500549
 11
-453.637451
 21
203.999451
  0
LINE
  8
0
 10
-463.452820
 20
200.500549
 11
-463.452820
 21
203.999451
  0
LINE
  8
0
 10
-452.294983
 20
209.750000
 11
-452.294983
 21
214.699997
  0
LINE
  8
0
 10
-451.544983
 20
209.750000
 11
-451.544983
 21
213.949997
  0
LINE
  8
0
 10
-464.794983
 20
209.750000
 11
-464.794983
 21
214.699997
  0
LINE
  8
0
 10
-465.544983
 20
209.750000
 11
-465.544983
 21
213.949997
  0
LINE
  8
0
  6
PHANTOM
 10
-452.844971
 20
184.593536
 11
-452.844971
 21
192.948395
  0
LINE
  8
0
  6
PHANTOM
 10
-464.244995
 20
185.109680
 11
-464.244995
 21
193.399994
  0
LINE
  8
0
  6
PHANTOM
 10
-463.344971
 20
185.045166
 11
-463.344971
 21
193.399994
  0
LINE
  8
0
  6
PHANTOM
 10
-453.744995
 20
184.722580
 11
-453.744995
 21
193.012909
  0
LINE
  8
0
  6
PHANTOM
 10
-464.744995
 20
189.750000
 11
-452.345001
 21
189.750000
  0
LINE
  8
0
  6
PHANTOM
 10
-465.544983
 20
190.550003
 11
-451.544983
 21
190.550003
  0
LINE
  8
0
 10
-451.544983
 20
195.550003
 11
-451.544983
 21
199.750000
  0
LINE
  8
0
 10
-452.344971
 20
194.750000
 11
-451.544983
 21
195.550003
  0
LINE
  8
0
 10
-452.294983
 20
194.750000
 11
-452.294983
 21
199.750000
  0
LINE
  8
0
 10
-464.794983
 20
194.799988
 11
-464.794983
 21
199.750000
  0
LINE
  8
0
 10
-465.544983
 20
195.549988
 11
-465.544983
 21
199.750000
  0
LINE
  8
0
 10
-464.744995
 20
194.750000
 11
-465.544983
 21
195.550003
  0
ARC
  8
0
 10
-453.537872
 20
157.832840
 40
0.300015
 50
135.004120
 51
224.995880
  0
ARC
  8
0
 10
-462.044983
 20
180.760010
 40
10.410002
 50
250.353561
 51
289.646454
  0
ARC
  8
0
 10
-455.044983
 20
180.760010
 40
10.410002
 50
250.353561
 51
289.646454
  0
ARC
  8
0
 10
-455.044983
 20
172.940002
 40
10.409987
 50
70.353523
 51
109.646446
  0
ARC
  8
0
 10
-462.044983
 20
172.940002
 40
10.409987
 50
70.353523
 51
109.646446
  0
ARC
  8
0
 10
-461.580353
 20
225.629791
 40
1.779782
 50
235.244202
 51
270.000000
  0
ARC
  8
0
 10
-455.509613
 20
225.629761
 40
1.779755
 50
270.000000
 51
304.756348
  0
ARC
  8
0
 10
-458.544983
 20
230.438385
 40
6.588394
 50
270.000000
 51
287.861053
  0
ARC
  8
0
 10
-458.544983
 20
230.438385
 40
6.588383
 50
252.138947
 51
270.000000
  0
ARC
  8
0
 10
-461.580353
 20
225.629791
 40
1.779800
 50
270.000000
 51
304.756592
  0
ARC
  8
0
 10
-461.580353
 20
224.570221
 40
1.779787
 50
55.243114
 51
90.000000
  0
ARC
  8
0
 10
-461.580353
 20
224.570221
 40
1.779785
 50
90.000000
 51
124.756081
  0
ARC
  8
0
 10
-458.544983
 20
219.761627
 40
6.588379
 50
90.000000
 51
107.861099
  0
ARC
  8
0
 10
-458.544983
 20
219.761627
 40
6.588369
 50
72.138901
 51
90.000000
  0
ARC
  8
0
 10
-455.509613
 20
224.570221
 40
1.779785
 50
90.000000
 51
124.756882
  0
ARC
  8
0
 10
-455.509613
 20
224.570221
 40
1.779769
 50
55.243923
 51
90.000000
  0
ARC
  8
0
 10
-455.509613
 20
225.629761
 40
1.779774
 50
235.242828
 51
270.000000
  0
ARC
  8
0
 10
-455.509644
 20
168.570190
 40
1.779812
 50
55.243675
 51
124.755516
  0
ARC
  8
0
 10
-458.544983
 20
163.761627
 40
6.588369
 50
72.138901
 51
107.861099
  0
ARC
  8
0
 10
-461.580353
 20
168.570190
 40
1.779812
 50
55.243675
 51
124.756325
  0
ARC
  8
0
 10
-455.509644
 20
169.729797
 40
1.779782
 50
235.244202
 51
304.756592
  0
ARC
  8
0
 10
-458.544983
 20
174.538391
 40
6.588383
 50
252.138947
 51
287.861053
  0
ARC
  8
0
 10
-461.580353
 20
169.729797
 40
1.779799
 50
235.243393
 51
304.756592
  0
ARC
  8
0
 10
-463.552094
 20
157.832840
 40
0.299994
 50
315.000000
 51
45.000000
  0
ARC
  8
0
 10
-470.445007
 20
176.618713
 40
0.100006
 50
90.000000
 51
180.000000
  0
ARC
  8
0
 10
-466.755219
 20
181.885361
 40
1.779785
 50
180.000000
 51
214.756760
  0
ARC
  8
0
 10
-461.946625
 20
178.849991
 40
6.588379
 50
180.000000
 51
197.861053
  0
ARC
  8
0
 10
-466.755219
 20
175.814636
 40
1.779785
 50
180.000000
 51
214.756195
  0
ARC
  8
0
 10
-461.946625
 20
178.849991
 40
6.588359
 50
162.138733
 51
180.000000
  0
ARC
  8
0
 10
-466.755219
 20
175.814636
 40
1.779791
 50
145.243805
 51
180.000000
  0
ARC
  8
0
 10
-466.755219
 20
181.885361
 40
1.779766
 50
145.243240
 51
180.000000
  0
ARC
  8
0
 10
-467.814758
 20
181.885361
 40
1.779766
 50
325.243225
 51
0.000000
  0
ARC
  8
0
 10
-472.623383
 20
178.849991
 40
6.588379
 50
0.000000
 51
17.861057
  0
ARC
  8
0
 10
-472.623383
 20
178.849991
 40
6.588383
 50
342.138947
 51
0.000000
  0
ARC
  8
0
 10
-467.814758
 20
175.814636
 40
1.779785
 50
0.000000
 51
34.756760
  0
ARC
  8
0
 10
-475.345001
 20
176.901978
 40
0.199982
 50
180.000000
 51
265.001465
  0
ARC
  8
0
 10
-475.345001
 20
180.798004
 40
0.200010
 50
94.998138
 51
180.000000
  0
ARC
  8
0
 10
-468.744995
 20
176.518723
 40
0.200012
 50
0.000000
 51
90.000000
  0
ARC
  8
0
 10
-468.744995
 20
181.181274
 40
0.199997
 50
270.000000
 51
0.000000
  0
ARC
  8
0
 10
-470.444977
 20
181.081268
 40
0.100006
 50
180.000000
 51
270.000000
  0
CIRCLE
  8
0
 10
-453.294983
 20
184.699997
 40
0.450000
  0
CIRCLE
  8
0
 10
-463.794983
 20
183.799988
 40
0.450000
  0
CIRCLE
  8
0
 10
-463.794983
 20
185.066406
 40
0.450000
  0
CIRCLE
  8
0
 10
-453.294983
 20
194.299988
 40
0.450000
  0
CIRCLE
  8
0
 10
-463.794983
 20
194.299988
 40
0.450000
  0
CIRCLE
  8
0
 10
-453.294983
 20
183.799988
 40
0.450000
  0
CIRCLE
  8
0
 10
-453.294983
 20
193.033600
 40
0.450000
  0
CIRCLE
  8
0
 10
-463.794983
 20
193.399994
 40
0.450000
  0
ARC
  8
0
 10
-451.191254
 20
209.111740
 40
4.361752
 50
235.885880
 51
304.114136
  0
ARC
  8
0
 10
-458.544983
 20
221.168915
 40
16.418921
 50
252.608978
 51
287.391022
  0
ARC
  8
0
 10
-465.898712
 20
209.111755
 40
4.361764
 50
235.885986
 51
304.114014
  0
ARC
  8
0
 10
-451.191254
 20
205.388260
 40
4.361752
 50
55.885876
 51
124.114128
  0
ARC
  8
0
 10
-458.544983
 20
193.331085
 40
16.418905
 50
72.608963
 51
107.391014
  0
ARC
  8
0
 10
-465.898712
 20
205.388245
 40
4.361752
 50
55.885876
 51
124.114014
  0
ARC
  8
0
 10
-465.898712
 20
200.388245
 40
4.361752
 50
55.885876
 51
124.114014
  0
ARC
  8
0
 10
-458.544983
 20
188.331085
 40
16.418905
 50
72.608963
 51
107.391014
  0
ARC
  8
0
 10
-458.544983
 20
216.168915
 40
16.418921
 50
252.608978
 51
287.391022
  0
ARC
  8
0
 10
-451.191254
 20
200.388260
 40
4.361752
 50
55.885876
 51
124.114128
  0
ARC
  8
0
 10
-465.898712
 20
204.111755
 40
4.361764
 50
235.885986
 51
304.114014
  0
ARC
  8
0
 10
-451.191254
 20
204.111740
 40
4.361752
 50
235.885880
 51
304.114136
  0
TEXT
  8
0
 10
-180.213455
 20
132.520660
 40
10.000000
  1
STROK
 50
90.000000
 41
1.052632
 51
0.000000
  7
STANDARD
  0
LINE
  8
0
 10
-179.213455
 20
189.750000
 11
-179.213455
 21
135.127808
  0
LINE
  8
0
 10
-179.213455
 20
189.750000
 11
-179.213455
 21
194.750000
  0
LINE
  8
0
 10
-179.213455
 20
189.750000
 11
-178.436996
 21
186.852219
  0
LINE
  8
0
 10
-179.213455
 20
189.750000
 11
-179.989914
 21
186.852219
  0
LINE
  8
0
 10
-179.213455
 20
189.750000
 11
-179.213455
 21
183.750000
  0
LINE
  8
0
 10
-179.213455
 20
194.750000
 11
-179.989914
 21
197.647781
  0
LINE
  8
0
 10
-179.213455
 20
194.750000
 11
-178.436996
 21
197.647781
  0
LINE
  8
0
 10
-179.213455
 20
194.750000
 11
-179.213455
 21
200.750000
  0
LINE
  8
0
 10
-222.930008
 20
189.750000
 11
-177.713455
 21
189.750000
  0
LINE
  8
0
 10
-222.930038
 20
194.750000
 11
-177.713455
 21
194.750000
  0
TEXT
  8
0
 10
-409.628418
 20
132.520660
 40
10.000000
  1
STROK
 50
90.000000
 41
1.052632
 51
0.000000
  7
STANDARD
  0
LINE
  8
0
 10
-408.628418
 20
189.750000
 11
-408.628418
 21
135.127808
  0
LINE
  8
0
 10
-408.628418
 20
189.750000
 11
-408.628418
 21
194.750000
  0
LINE
  8
0
 10
-408.628418
 20
189.750000
 11
-407.851959
 21
186.852219
  0
LINE
  8
0
 10
-408.628418
 20
189.750000
 11
-409.404877
 21
186.852219
  0
LINE
  8
0
 10
-408.628418
 20
189.750000
 11
-408.628418
 21
183.750000
  0
LINE
  8
0
 10
-408.628418
 20
194.750000
 11
-409.404877
 21
197.647781
  0
LINE
  8
0
 10
-408.628418
 20
194.750000
 11
-407.851959
 21
197.647781
  0
LINE
  8
0
 10
-408.628418
 20
194.750000
 11
-408.628418
 21
200.750000
  0
LINE
  8
0
 10
-452.344971
 20
189.750000
 11
-407.128418
 21
189.750000
  0
LINE
  8
0
 10
-452.345001
 20
194.750000
 11
-407.128418
 21
194.750000
  0
TEXT
  8
0
 10
504.254333
 20
129.828140
 40
10.000000
  1
STROK
 50
89.900002
 41
1.052632
 51
0.000000
  7
STANDARD
  0
LINE
  8
0
 10
505.300049
 20
184.750000
 11
505.300049
 21
132.433502
  0
LINE
  8
0
 10
505.300049
 20
194.750000
 11
505.300049
 21
184.750000
  0
LINE
  8
0
 10
505.300049
 20
194.750000
 11
504.523590
 21
197.647781
  0
LINE
  8
0
 10
505.300049
 20
194.750000
 11
506.076508
 21
197.647781
  0
LINE
  8
0
 10
505.300049
 20
194.750000
 11
505.300049
 21
200.750000
  0
LINE
  8
0
 10
505.300049
 20
184.750000
 11
506.076508
 21
181.852219
  0
LINE
  8
0
 10
505.300049
 20
184.750000
 11
504.523590
 21
181.852219
  0
LINE
  8
0
 10
505.300049
 20
184.750000
 11
505.300049
 21
178.750000
  0
LINE
  8
0
 10
465.300018
 20
194.750000
 11
506.800049
 21
194.750000
  0
LINE
  8
0
 10
465.300018
 20
184.750000
 11
506.800049
 21
184.750000
  0
TEXT
  8
0
 10
512.054260
 20
-235.171860
 40
10.000000
  1
STROK
 50
89.900002
 41
1.052632
 51
0.000000
  7
STANDARD
  0
LINE
  8
0
 10
513.099976
 20
-180.250000
 11
513.099976
 21
-232.566498
  0
LINE
  8
0
 10
513.099976
 20
-170.250000
 11
513.099976
 21
-180.250000
  0
LINE
  8
0
 10
513.099976
 20
-170.250000
 11
512.323547
 21
-167.352219
  0
LINE
  8
0
 10
513.099976
 20
-170.250000
 11
513.876404
 21
-167.352219
  0
LINE
  8
0
 10
513.099976
 20
-170.250000
 11
513.099976
 21
-164.250000
  0
LINE
  8
0
 10
513.099976
 20
-180.250000
 11
513.876404
 21
-183.147781
  0
LINE
  8
0
 10
513.099976
 20
-180.250000
 11
512.323547
 21
-183.147781
  0
LINE
  8
0
 10
513.099976
 20
-180.250000
 11
513.099976
 21
-186.250000
  0
LINE
  8
0
 10
473.100006
 20
-170.250000
 11
514.599976
 21
-170.250000
  0
LINE
  8
0
 10
473.100006
 20
-180.250000
 11
514.599976
 21
-180.250000
  0
TEXT
  8
0
 10
274.844299
 20
129.828140
 40
10.000000
  1
STROK
 50
89.900002
 41
1.052632
 51
0.000000
  7
STANDARD
  0
LINE
  8
0
 10
275.890015
 20
184.750000
 11
275.890015
 21
132.433502
  0
LINE
  8
0
 10
275.890015
 20
194.750000
 11
275.890015
 21
184.750000
  0
LINE
  8
0
 10
275.890015
 20
194.750000
 11
275.113556
 21
197.647781
  0
LINE
  8
0
 10
275.890015
 20
194.750000
 11
276.666473
 21
197.647781
  0
LINE
  8
0
 10
275.890015
 20
194.750000
 11
275.890015
 21
200.750000
  0
LINE
  8
0
 10
275.890015
 20
184.750000
 11
276.666473
 21
181.852219
  0
LINE
  8
0
 10
275.890015
 20
184.750000
 11
275.113556
 21
181.852219
  0
LINE
  8
0
 10
275.890015
 20
184.750000
 11
275.890015
 21
178.750000
  0
LINE
  8
0
 10
235.889999
 20
194.750000
 11
277.390015
 21
194.750000
  0
LINE
  8
0
 10
235.889999
 20
184.750000
 11
277.390015
 21
184.750000
  0
TEXT
  8
0
 10
45.434299
 20
129.828140
 40
10.000000
  1
STROK
 50
89.900002
 41
1.052632
 51
0.000000
  7
STANDARD
  0
LINE
  8
0
 10
46.479996
 20
184.750000
 11
46.479996
 21
132.433502
  0
LINE
  8
0
 10
46.479996
 20
194.750000
 11
46.479996
 21
184.750000
  0
LINE
  8
0
 10
46.479996
 20
194.750000
 11
45.703537
 21
197.647781
  0
LINE
  8
0
 10
46.479996
 20
194.750000
 11
47.256454
 21
197.647781
  0
LINE
  8
0
 10
46.479996
 20
194.750000
 11
46.479996
 21
200.750000
  0
LINE
  8
0
 10
46.479996
 20
184.750000
 11
47.256454
 21
181.852219
  0
LINE
  8
0
 10
46.479996
 20
184.750000
 11
45.703537
 21
181.852219
  0
LINE
  8
0
 10
46.479996
 20
184.750000
 11
46.479996
 21
178.750000
  0
LINE
  8
0
 10
6.480000
 20
194.750000
 11
47.979996
 21
194.750000
  0
LINE
  8
0
 10
6.479996
 20
184.750000
 11
47.979996
 21
184.750000
  0
TEXT
  8
0
 10
-413.390686
 20
-225.171860
 40
10.000000
  1
STROK
 50
89.900002
 41
1.052632
 51
0.000000
  7
STANDARD
  0
LINE
  8
0
 10
-412.344971
 20
-170.250000
 11
-412.344971
 21
-222.566498
  0
LINE
  8
0
 10
-412.344971
 20
-160.250000
 11
-412.344971
 21
-170.250000
  0
LINE
  8
0
 10
-412.344971
 20
-160.250000
 11
-413.121429
 21
-157.352219
  0
LINE
  8
0
 10
-412.344971
 20
-160.250000
 11
-411.568512
 21
-157.352219
  0
LINE
  8
0
 10
-412.344971
 20
-160.250000
 11
-412.344971
 21
-154.250000
  0
LINE
  8
0
 10
-412.344971
 20
-170.250000
 11
-411.568512
 21
-173.147781
  0
LINE
  8
0
 10
-412.344971
 20
-170.250000
 11
-413.121429
 21
-173.147781
  0
LINE
  8
0
 10
-412.344971
 20
-170.250000
 11
-412.344971
 21
-176.250000
  0
LINE
  8
0
 10
-452.344971
 20
-160.250000
 11
-410.844971
 21
-160.250000
  0
LINE
  8
0
 10
-452.344971
 20
-170.250000
 11
-410.844971
 21
-170.250000
  0
TEXT
  8
0
 10
-183.975693
 20
-225.171860
 40
10.000000
  1
STROK
 50
89.900002
 41
1.052632
 51
0.000000
  7
STANDARD
  0
LINE
  8
0
 10
-182.930008
 20
-170.250000
 11
-182.930008
 21
-222.566498
  0
LINE
  8
0
 10
-182.930008
 20
-160.250000
 11
-182.930008
 21
-170.250000
  0
LINE
  8
0
 10
-182.930008
 20
-160.250000
 11
-183.706467
 21
-157.352219
  0
LINE
  8
0
 10
-182.930008
 20
-160.250000
 11
-182.153549
 21
-157.352219
  0
LINE
  8
0
 10
-182.930008
 20
-160.250000
 11
-182.930008
 21
-154.250000
  0
LINE
  8
0
 10
-182.930008
 20
-170.250000
 11
-182.153549
 21
-173.147781
  0
LINE
  8
0
 10
-182.930008
 20
-170.250000
 11
-183.706467
 21
-173.147781
  0
LINE
  8
0
 10
-182.930008
 20
-170.250000
 11
-182.930008
 21
-176.250000
  0
LINE
  8
0
 10
-222.930008
 20
-160.250000
 11
-181.430008
 21
-160.250000
  0
LINE
  8
0
 10
-222.930008
 20
-170.250000
 11
-181.430008
 21
-170.250000
  0
TEXT
  8
0
 10
45.434299
 20
-225.171860
 40
10.000000
  1
STROK
 50
89.900002
 41
1.052632
 51
0.000000
  7
STANDARD
  0
LINE
  8
0
 10
46.479996
 20
-170.250000
 11
46.479996
 21
-222.566498
  0
LINE
  8
0
 10
46.479996
 20
-160.250000
 11
46.479996
 21
-170.250000
  0
LINE
  8
0
 10
46.479996
 20
-160.250000
 11
45.703537
 21
-157.352219
  0
LINE
  8
0
 10
46.479996
 20
-160.250000
 11
47.256454
 21
-157.352219
  0
LINE
  8
0
 10
46.479996
 20
-160.250000
 11
46.479996
 21
-154.250000
  0
LINE
  8
0
 10
46.479996
 20
-170.250000
 11
47.256454
 21
-173.147781
  0
LINE
  8
0
 10
46.479996
 20
-170.250000
 11
45.703537
 21
-173.147781
  0
LINE
  8
0
 10
46.479996
 20
-170.250000
 11
46.479996
 21
-176.250000
  0
LINE
  8
0
 10
6.479996
 20
-160.250000
 11
47.979996
 21
-160.250000
  0
LINE
  8
0
 10
6.479996
 20
-170.250000
 11
47.979996
 21
-170.250000
  0
TEXT
  8
0
 10
282.644287
 20
-235.171860
 40
10.000000
  1
STROK
 50
89.900002
 41
1.052632
 51
0.000000
  7
STANDARD
  0
LINE
  8
0
 10
283.690002
 20
-180.250000
 11
283.690002
 21
-232.566498
  0
LINE
  8
0
 10
283.690002
 20
-170.250000
 11
283.690002
 21
-180.250000
  0
LINE
  8
0
 10
283.690002
 20
-170.250000
 11
282.913544
 21
-167.352219
  0
LINE
  8
0
 10
283.690002
 20
-170.250000
 11
284.466461
 21
-167.352219
  0
LINE
  8
0
 10
283.690002
 20
-170.250000
 11
283.690002
 21
-164.250000
  0
LINE
  8
0
 10
283.690002
 20
-180.250000
 11
284.466461
 21
-183.147781
  0
LINE
  8
0
 10
283.690002
 20
-180.250000
 11
282.913544
 21
-183.147781
  0
LINE
  8
0
 10
283.690002
 20
-180.250000
 11
283.690002
 21
-186.250000
  0
LINE
  8
0
 10
243.690002
 20
-170.250000
 11
285.190002
 21
-170.250000
  0
LINE
  8
0
 10
243.690002
 20
-180.250000
 11
285.190002
 21
-180.250000
  0
ENDSEC
  0
EOF
