  0
SECTION
  2
HEADER
  0
ENDSEC
  0
SECTION
  2
TABLES
  0
TABLE
  2
LTYPE
 70
     4
  0
LTYPE
  2
CONTINUOUS
 70
    64
  3
Solid line
 72
    65
 73
     0
 40
0.000000
  0
LTYPE
  2
DASHED
 70
    64
  3
__ __ __ __ __ __ __ __ __ __ __ __ __ __ __
 72
    65
 73
     2
 40
3.500000
 49
2.000000
 49
-1.500000
  0
LTYPE
  2
CENTER
 70
    64
  3
____ _ ____ _ ____ _ ____ _ ____ _ ____ _ ____
 72
    65
 73
     4
 40
17.500000
 49
13.000000
 49
-1.500000
 49
1.500000
 49
-1.500000
  0
LTYPE
  2
PHANTOM
 70
    64
  3
_____ _ _ _____ _ _ _____ _ _ _____ _ _ ____  
 72
    65
 73
     6
 40
15.500000
 49
8.000000
 49
-1.500000
 49
1.500000
 49
-1.500000
 49
1.500000
 49
-1.500000
  0
LTYPE
  2
DASHED1
 70
    64
  3
__ __ __ __ __ __ __ __ __ __ __ __ __ __ __
 72
    65
 73
     2
 40
1.500000
 49
1.000000
 49
-0.500000
  0
LTYPE
  2
DASHED2
 70
    64
  3
__ __ __ __ __ __ __ __ __ __ __ __ __ __ __
 72
    65
 73
     2
 40
3.500000
 49
2.500000
 49
-1.000000
  0
LTYPE
  2
DASHED3
 70
    64
  3
__ __ __ __ __ __ __ __ __ __ __ __ __ __ __
 72
    65
 73
     2
 40
6.000000
 49
4.000000
 49
-2.000000
  0
LTYPE
  2
DASHED4
 70
    64
  3
__ __ __ __ __ __ __ __ __ __ __ __ __ __ __
 72
    65
 73
     2
 40
12.000000
 49
10.000000
 49
-2.000000
  0
LTYPE
  2
DASHED5
 70
    64
  3
__ __ __ __ __ __ __ __ __ __ __ __ __ __ __
 72
    65
 73
     2
 40
17.000000
 49
15.000000
 49
-2.000000
  0
LTYPE
  2
DASHED6
 70
    64
  3
__ __ __ __ __ __ __ __ __ __ __ __ __ __ __
 72
    65
 73
     2
 40
29.000000
 49
27.000000
 49
-2.000000
  0
LTYPE
  2
PHANTOM1
 70
    64
  3
_____ _ _ _____ _ _ _____ _ _ _____ _ _ ____  
 72
    65
 73
     6
 40
31.000000
 49
25.000000
 49
-1.500000
 49
1.000000
 49
-1.000000
 49
1.000000
 49
-1.500000
  0
LTYPE
  2
PHANTOM2
 70
    64
  3
_____ _ _ _____ _ _ _____ _ _ _____ _ _ ____  
 72
    65
 73
     6
 40
36.000000
 49
27.000000
 49
-1.500000
 49
2.500000
 49
-1.000000
 49
2.500000
 49
-1.500000
  0
LTYPE
  2
PHANTOM3
 70
    64
  3
_____ _ _ _____ _ _ _____ _ _ _____ _ _ ____  
 72
    65
 73
     6
 40
78.000000
 49
64.000000
 49
-2.000000
 49
4.000000
 49
-2.000000
 49
4.000000
 49
-2.000000
  0
LTYPE
  2
CENTER1
 70
    64
  3
____ _ ____ _ ____ _ ____ _ ____ _ ____ _ ____
 72
    65
 73
     4
 40
19.000000
 49
14.000000
 49
-1.000000
 49
3.000000
 49
-1.000000
  0
LTYPE
  2
CENTER2
 70
    64
  3
____ _ ____ _ ____ _ ____ _ ____ _ ____ _ ____
 72
    65
 73
     4
 40
28.500000
 49
25.000000
 49
-1.000000
 49
1.500000
 49
-1.000000
  0
LTYPE
  2
CENTER3
 70
    64
  3
____ _ ____ _ ____ _ ____ _ ____ _ ____ _ ____
 72
    65
 73
     4
 40
31.500000
 49
27.000000
 49
-1.000000
 49
2.500000
 49
-1.000000
  0
LTYPE
  2
CENTER4
 70
    64
  3
____ _ ____ _ ____ _ ____ _ ____ _ ____ _ ____
 72
    65
 73
     4
 40
50.000000
 49
45.000000
 49
-1.000000
 49
3.000000
 49
-1.000000
  0
LTYPE
  2
CENTER5
 70
    64
  3
____ _ ____ _ ____ _ ____ _ ____ _ ____ _ ____
 72
    65
 73
     4
 40
100.000000
 49
92.000000
 49
-2.000000
 49
4.000000
 49
-2.000000
  0
LTYPE
  2
SBK1
 70
    64
  3
______ _ _ _ ______ _ _ _ ______ _ _ _ _____  
 72
    65
 73
     8
 40
60.500000
 49
45.000000
 49
-2.000000
 49
2.500000
 49
-2.000000
 49
2.500000
 49
-2.000000
 49
2.500000
 49
-2.000000
  0
LTYPE
  2
SBK2
 70
    64
  3
______ _ _ _ ______ _ _ _ ______ _ _ _ _____  
 72
    65
 73
     8
 40
84.000000
 49
64.000000
 49
-2.000000
 49
4.000000
 49
-2.000000
 49
4.000000
 49
-2.000000
 49
4.000000
 49
-2.000000
  0
LTYPE
  2
STCH
 70
    64
  3
__ __ __ __ __ __ __ __ __ __ __ __ __ __ __
 72
    65
 73
     2
 40
3.000000
 49
1.000000
 49
-2.000000
  0
LTYPE
  2
MTCH
 70
    64
  3
_____ _ _ _____ _ _ _____ _ _ _____ _ _ ____  
 72
    65
 73
     6
 40
80.000000
 49
66.000000
 49
-2.000000
 49
4.000000
 49
-2.000000
 49
4.000000
 49
-2.000000
  0
ENDTAB
  0
TABLE
  2
LAYER
 70
     1
  0
LAYER
  2
0
 70
     0
 62
     7
  6
CONTINUOUS
  0
ENDTAB
  0
TABLE
  2
STYLE
 70
     1
  0
STYLE
  2
STANDARD
 70
     0
 40
0.000000
 41
1.000000
 50
0.000000
 71
     0
 42
0.200000
  3
txt
  4
BIGFONT
  0
ENDTAB
  0
TABLE
  2
VIEW
 70
     0
  0
ENDTAB
  0
ENDSEC
  0
SECTION
  2
BLOCKS
  0
ENDSEC
  0
SECTION
  2
ENTITIES
  0
LINE
  8
0
 10
-299.250000
 20
276.250000
 11
-299.250000
 21
261.250000
  0
LINE
  8
0
 10
-299.250000
 20
261.250000
 11
-399.250000
 21
261.250000
  0
LINE
  8
0
 10
299.799988
 20
276.250000
 11
299.799988
 21
261.250000
  0
LINE
  8
0
 10
299.799988
 20
-256.750000
 11
299.799988
 21
-276.750000
  0
LINE
  8
0
 10
299.799988
 20
261.250000
 11
399.799988
 21
261.250000
  0
LINE
  8
0
 10
299.799988
 20
-256.750000
 11
399.799988
 21
-256.750000
  0
LINE
  8
0
 10
-420.500000
 20
297.000000
 11
420.500000
 21
297.000000
  0
LINE
  8
0
 10
-420.500000
 20
-297.000000
 11
420.500000
 21
-297.000000
  0
LINE
  8
0
 10
420.500000
 20
297.000000
 11
420.500000
 21
-297.000000
  0
LINE
  8
0
 10
-420.500000
 20
297.000000
 11
-420.500000
 21
-297.000000
  0
LINE
  8
0
 10
399.799988
 20
276.250000
 11
399.799988
 21
-276.750000
  0
LINE
  8
0
 10
-399.250000
 20
276.250000
 11
-399.250000
 21
-276.750000
  0
LINE
  8
0
 10
-399.250000
 20
276.250000
 11
399.799988
 21
276.250000
  0
LINE
  8
0
 10
-399.250000
 20
-276.750000
 11
399.799988
 21
-276.750000
  0
LINE
  8
0
 10
-239.440002
 20
-276.750000
 11
-239.440002
 21
276.250000
  0
LINE
  8
0
 10
-79.630005
 20
276.250000
 11
-79.630005
 21
-276.750000
  0
LINE
  8
0
 10
80.179993
 20
-276.750000
 11
80.179993
 21
276.250000
  0
LINE
  8
0
 10
239.989990
 20
276.250000
 11
239.989990
 21
-276.750000
  0
LINE
  8
0
 10
-399.250000
 20
95.916672
 11
399.799988
 21
95.916672
  0
LINE
  8
0
 10
-399.250000
 20
107.916672
 11
399.799988
 21
107.916672
  0
LINE
  8
0
 10
-399.250000
 20
-86.416656
 11
399.799988
 21
-86.416656
  0
LINE
  8
0
 10
-399.250000
 20
-98.416656
 11
399.799988
 21
-98.416656
  0
LINE
  8
0
 10
-399.250000
 20
-264.750000
 11
239.989990
 21
-264.750000
  0
TEXT
  8
0
 10
-379.856873
 20
264.350006
 40
6.000000
  1
VACUUM PAD
 50
0.000000
 41
1.052632
 51
0.000000
  7
STANDARD
  0
TEXT
  8
0
 10
304.193115
 20
264.350006
 40
6.000000
  1
DATE: JUN ,1992
 50
0.000000
 41
1.052632
 51
0.000000
  7
STANDARD
  0
TEXT
  8
0
 10
295.700867
 20
-272.049988
 40
7.000000
  1
ＫＯＧＡＮＥＩ，ＣＯＲＰ．
 50
0.000000
 41
0.902367
 51
15.000000
  7
STANDARD
  0
TEXT
  8
0
 10
-355.951874
 20
97.516670
 40
6.000000
  1
MODEL:KPVS-2
 50
0.000000
 41
1.052632
 51
0.000000
  7
STANDARD
  0
TEXT
  8
0
 10
-202.141876
 20
97.516670
 40
6.000000
  1
MODEL:KPVS-3.5
 50
0.000000
 41
1.052632
 51
0.000000
  7
STANDARD
  0
TEXT
  8
0
 10
-42.331882
 20
97.516670
 40
6.000000
  1
MODEL:KPVS-2X4
 50
0.000000
 41
1.052632
 51
0.000000
  7
STANDARD
  0
TEXT
  8
0
 10
111.478111
 20
97.516670
 40
6.000000
  1
MODEL:KPVS-3.5X7
 50
0.000000
 41
1.052632
 51
0.000000
  7
STANDARD
  0
TEXT
  8
0
 10
283.288116
 20
97.516670
 40
6.000000
  1
MODEL:KPVS-6
 50
0.000000
 41
1.052632
 51
0.000000
  7
STANDARD
  0
TEXT
  8
0
 10
-355.951874
 20
-96.816658
 40
6.000000
  1
MODEL:KPVS-8
 50
0.000000
 41
1.052632
 51
0.000000
  7
STANDARD
  0
TEXT
  8
0
 10
-199.141876
 20
-96.816658
 40
6.000000
  1
MODEL:KPVS-10
 50
0.000000
 41
1.052632
 51
0.000000
  7
STANDARD
  0
TEXT
  8
0
 10
-39.331886
 20
-96.816658
 40
6.000000
  1
MODEL:KPVS-15
 50
0.000000
 41
1.052632
 51
0.000000
  7
STANDARD
  0
TEXT
  8
0
 10
120.478111
 20
-96.816658
 40
6.000000
  1
MODEL:KPVS-20
 50
0.000000
 41
1.052632
 51
0.000000
  7
STANDARD
  0
TEXT
  8
0
 10
280.288116
 20
-96.816658
 40
6.000000
  1
MODEL:KPVS-25
 50
0.000000
 41
1.052632
 51
0.000000
  7
STANDARD
  0
TEXT
  8
0
 10
-358.951874
 20
-275.149994
 40
6.000000
  1
MODEL:KPVS-30
 50
0.000000
 41
1.052632
 51
0.000000
  7
STANDARD
  0
TEXT
  8
0
 10
-199.141876
 20
-275.149994
 40
6.000000
  1
MODEL:KPVS-35
 50
0.000000
 41
1.052632
 51
0.000000
  7
STANDARD
  0
TEXT
  8
0
 10
-39.331886
 20
-275.149994
 40
6.000000
  1
MODEL:KPVS-40
 50
0.000000
 41
1.052632
 51
0.000000
  7
STANDARD
  0
TEXT
  8
0
 10
120.478111
 20
-275.149994
 40
6.000000
  1
MODEL:KPVS-50
 50
0.000000
 41
1.052632
 51
0.000000
  7
STANDARD
  0
POINT
  8
0
 10
-294.345001
 20
163.000000
  0
POINT
  8
0
 10
-339.345001
 20
163.000000
  0
LINE
  8
0
 10
-339.345001
 20
183.277878
 11
-339.345001
 21
147.478455
  0
LINE
  8
0
 10
-338.244995
 20
181.500000
 11
-340.445007
 21
181.500000
  0
LINE
  8
0
 10
-337.845001
 20
181.000000
 11
-340.845001
 21
181.000000
  0
LINE
  8
0
 10
-337.845001
 20
179.500000
 11
-340.845001
 21
179.500000
  0
LINE
  8
0
 10
-337.845001
 20
178.000000
 11
-340.845001
 21
178.000000
  0
LINE
  8
0
 10
-337.845001
 20
176.500000
 11
-340.845001
 21
176.500000
  0
LINE
  8
0
 10
-337.845001
 20
176.500000
 11
-337.845001
 21
173.500000
  0
LINE
  8
0
 10
-340.845001
 20
176.500000
 11
-340.845001
 21
173.500000
  0
LINE
  8
0
 10
-337.845001
 20
179.500000
 11
-338.390961
 21
181.000000
  0
LINE
  8
0
 10
-337.845001
 20
178.000000
 11
-338.390961
 21
179.500000
  0
LINE
  8
0
 10
-337.845001
 20
176.500000
 11
-338.390961
 21
178.000000
  0
LINE
  8
0
 10
-340.845001
 20
179.500000
 11
-340.299042
 21
181.000000
  0
LINE
  8
0
 10
-340.845001
 20
178.000000
 11
-340.299042
 21
179.500000
  0
LINE
  8
0
 10
-340.845001
 20
176.500000
 11
-340.299042
 21
178.000000
  0
LINE
  8
0
 10
-341.845001
 20
172.500000
 11
-341.845001
 21
168.500000
  0
LINE
  8
0
 10
-344.345001
 20
161.000000
 11
-294.345001
 21
161.000000
  0
LINE
  8
0
 10
-344.345001
 20
163.000000
 11
-294.345001
 21
163.000000
  0
LINE
  8
0
 10
-344.345001
 20
163.000000
 11
-344.345001
 21
161.000000
  0
LINE
  8
0
 10
-294.345001
 20
163.000000
 11
-294.345001
 21
161.000000
  0
LINE
  8
0
 10
-336.345001
 20
168.500000
 11
-342.345001
 21
168.500000
  0
LINE
  8
0
 10
-337.845001
 20
173.500000
 11
-340.845001
 21
173.500000
  0
LINE
  8
0
 10
-336.345001
 20
155.500000
 11
-342.345001
 21
155.500000
  0
LINE
  8
0
 10
-343.345001
 20
163.000000
 11
-335.345001
 21
163.000000
  0
LINE
  8
0
 10
-343.963806
 20
165.774780
 11
-343.963806
 21
163.225220
  0
LINE
  8
0
 10
-341.654388
 20
165.774780
 11
-341.654388
 21
163.225220
  0
LINE
  8
0
 10
-337.035614
 20
165.774780
 11
-337.035614
 21
163.225220
  0
LINE
  8
0
 10
-334.726196
 20
165.774780
 11
-334.726196
 21
163.225220
  0
LINE
  8
0
 10
-343.345001
 20
166.000000
 11
-335.345001
 21
166.000000
  0
LINE
  8
0
 10
-335.345001
 20
166.000000
 11
-334.726196
 21
165.774780
  0
LINE
  8
0
 10
-343.345001
 20
163.000000
 11
-343.963806
 21
163.225235
  0
LINE
  8
0
 10
-343.345001
 20
166.000000
 11
-343.963806
 21
165.774780
  0
LINE
  8
0
 10
-335.345001
 20
163.000000
 11
-334.726196
 21
163.225235
  0
LINE
  8
0
 10
-336.845001
 20
172.500000
 11
-336.845001
 21
172.500000
  0
LINE
  8
0
 10
-336.845001
 20
172.500000
 11
-337.845001
 21
173.500000
  0
LINE
  8
0
 10
-340.845001
 20
173.500000
 11
-341.845001
 21
172.500000
  0
LINE
  8
0
 10
-336.845001
 20
172.500000
 11
-336.845001
 21
168.500000
  0
LINE
  8
0
 10
-336.345001
 20
168.500000
 11
-336.345001
 21
166.000000
  0
LINE
  8
0
 10
-342.345001
 20
168.500000
 11
-342.345001
 21
166.000000
  0
LINE
  8
0
 10
-341.970001
 20
168.500000
 11
-341.970001
 21
166.000000
  0
LINE
  8
0
 10
-336.720001
 20
168.500000
 11
-336.720001
 21
166.000000
  0
LINE
  8
0
 10
-341.970001
 20
161.000000
 11
-341.970001
 21
155.500000
  0
LINE
  8
0
 10
-342.345001
 20
161.000000
 11
-342.345001
 21
155.500000
  0
LINE
  8
0
 10
-336.720001
 20
161.000000
 11
-336.720001
 21
155.500000
  0
LINE
  8
0
 10
-336.345001
 20
161.000000
 11
-336.345001
 21
155.500000
  0
LINE
  8
0
 10
-337.445007
 20
155.500000
 11
-338.144989
 21
151.500000
  0
LINE
  8
0
 10
-341.244995
 20
155.500000
 11
-340.545013
 21
151.500000
  0
LINE
  8
0
 10
-336.845001
 20
172.500000
 11
-341.845001
 21
172.500000
  0
LINE
  8
0
 10
-337.595001
 20
151.500000
 11
-337.595001
 21
149.500000
  0
LINE
  8
0
 10
-341.095001
 20
151.500000
 11
-341.095001
 21
149.500000
  0
LINE
  8
0
 10
-341.095001
 20
149.500000
 11
-337.595001
 21
149.500000
  0
LINE
  8
0
 10
-341.095001
 20
151.500000
 11
-337.595001
 21
151.500000
  0
LINE
  8
0
 10
-340.595001
 20
148.199997
 11
-338.095001
 21
148.199997
  0
LINE
  8
0
 10
-340.095001
 20
149.000000
 11
-338.595001
 21
149.000000
  0
LINE
  8
0
 10
-341.095001
 20
149.500015
 11
-340.095001
 21
149.000015
  0
LINE
  8
0
 10
-338.595001
 20
149.000015
 11
-337.595001
 21
149.500015
  0
LINE
  8
0
 10
-340.095001
 20
149.000000
 11
-340.595001
 21
148.199997
  0
LINE
  8
0
 10
-338.595001
 20
149.000000
 11
-338.095001
 21
148.199997
  0
LINE
  8
0
 10
-337.845001
 20
181.000000
 11
-337.845001
 21
181.100006
  0
LINE
  8
0
 10
-340.845001
 20
181.000000
 11
-340.845001
 21
181.100006
  0
ARC
  8
0
 10
-338.244995
 20
181.100006
 40
0.399994
 50
0.000000
 51
90.000000
  0
ARC
  8
0
 10
-340.445007
 20
181.100006
 40
0.399994
 50
90.000000
 51
180.000000
  0
ARC
  8
0
 10
-343.345001
 20
159.542404
 40
6.457592
 50
74.822968
 51
90.000000
  0
ARC
  8
0
 10
-339.345001
 20
154.047501
 40
11.952489
 50
78.859596
 51
101.140549
  0
ARC
  8
0
 10
-335.343170
 20
159.528671
 40
6.471329
 50
90.016212
 51
105.160851
  0
ARC
  8
0
 10
-335.345001
 20
169.457596
 40
6.457592
 50
254.822968
 51
270.000000
  0
ARC
  8
0
 10
-339.345001
 20
174.952499
 40
11.952496
 50
258.859467
 51
281.140411
  0
ARC
  8
0
 10
-343.345306
 20
169.459900
 40
6.459900
 50
270.002716
 51
285.174286
  0
POINT
  8
0
 10
-294.345001
 20
214.083344
  0
POINT
  8
0
 10
-339.345001
 20
214.083344
  0
LINE
  8
0
 10
-339.345001
 20
220.523468
 11
-339.345001
 21
206.839981
  0
LINE
  8
0
 10
-294.345001
 20
219.083344
 11
-294.345001
 21
209.083344
  0
LINE
  8
0
 10
-339.345001
 20
209.083344
 11
-294.345001
 21
209.083344
  0
LINE
  8
0
 10
-339.345001
 20
219.083344
 11
-294.345001
 21
219.083344
  0
LINE
  8
0
 10
-301.845001
 20
217.583344
 11
-301.845001
 21
210.583344
  0
LINE
  8
0
 10
-309.345001
 20
217.583344
 11
-309.345001
 21
210.583344
  0
LINE
  8
0
 10
-319.345001
 20
217.583344
 11
-319.345001
 21
210.583344
  0
LINE
  8
0
 10
-326.845001
 20
217.583344
 11
-326.845001
 21
210.583344
  0
LINE
  8
0
 10
-326.845001
 20
216.683350
 11
-319.345001
 21
216.683350
  0
LINE
  8
0
 10
-326.845001
 20
211.483337
 11
-319.345001
 21
211.483337
  0
LINE
  8
0
 10
-309.345001
 20
211.483337
 11
-301.845001
 21
211.483337
  0
LINE
  8
0
 10
-309.345001
 20
216.683350
 11
-301.845001
 21
216.683350
  0
LINE
  8
0
 10
-346.082458
 20
214.083344
 11
-292.988068
 21
214.083344
  0
LINE
  8
0
 10
-337.035614
 20
210.083344
 11
-334.726196
 21
214.083344
  0
LINE
  8
0
 10
-343.963806
 20
214.083344
 11
-341.654388
 21
218.083344
  0
LINE
  8
0
 10
-337.035614
 20
218.083344
 11
-334.726196
 21
214.083344
  0
LINE
  8
0
 10
-343.963806
 20
214.083344
 11
-341.654388
 21
210.083344
  0
LINE
  8
0
 10
-341.654388
 20
210.083344
 11
-337.035614
 21
210.083344
  0
LINE
  8
0
 10
-341.654388
 20
218.083344
 11
-337.035614
 21
218.083344
  0
ARC
  8
0
 10
-339.345001
 20
214.083344
 40
5.000000
 50
90.000000
 51
270.000000
  0
ARC
  8
0
 10
-326.845001
 20
214.083344
 40
2.600006
 50
90.000000
 51
270.000000
  0
ARC
  8
0
 10
-319.345001
 20
214.083344
 40
2.600006
 50
270.000000
 51
90.000000
  0
ARC
  8
0
 10
-309.345001
 20
214.083344
 40
2.600006
 50
90.000000
 51
270.000000
  0
ARC
  8
0
 10
-301.845001
 20
214.083344
 40
2.600006
 50
270.000000
 51
90.000000
  0
CIRCLE
  8
0
 10
-339.345001
 20
214.083344
 40
1.500000
  0
CIRCLE
  8
0
 10
-339.345001
 20
214.083344
 40
0.750000
  0
CIRCLE
  8
0
 10
-339.345001
 20
214.083344
 40
3.000000
  0
CIRCLE
  8
0
 10
-339.345001
 20
214.083344
 40
2.625000
  0
CIRCLE
  8
0
 10
-339.345001
 20
214.083344
 40
4.000000
  0
POINT
  8
0
 10
-179.535004
 20
163.000000
  0
POINT
  8
0
 10
-134.535004
 20
163.000000
  0
LINE
  8
0
 10
-179.535004
 20
183.277878
 11
-179.535004
 21
147.478455
  0
LINE
  8
0
 10
-178.434998
 20
181.500000
 11
-180.635010
 21
181.500000
  0
LINE
  8
0
 10
-178.035004
 20
181.000000
 11
-181.035004
 21
181.000000
  0
LINE
  8
0
 10
-178.035004
 20
179.500000
 11
-181.035004
 21
179.500000
  0
LINE
  8
0
 10
-178.035004
 20
178.000000
 11
-181.035004
 21
178.000000
  0
LINE
  8
0
 10
-178.035004
 20
176.500000
 11
-181.035004
 21
176.500000
  0
LINE
  8
0
 10
-178.035004
 20
176.500000
 11
-178.035004
 21
173.500000
  0
LINE
  8
0
 10
-181.035004
 20
176.500000
 11
-181.035004
 21
173.500000
  0
LINE
  8
0
 10
-178.035004
 20
179.500000
 11
-178.580963
 21
181.000000
  0
LINE
  8
0
 10
-178.035004
 20
178.000000
 11
-178.580963
 21
179.500000
  0
LINE
  8
0
 10
-178.035004
 20
176.500000
 11
-178.580963
 21
178.000000
  0
LINE
  8
0
 10
-181.035004
 20
179.500000
 11
-180.489044
 21
181.000000
  0
LINE
  8
0
 10
-181.035004
 20
178.000000
 11
-180.489044
 21
179.500000
  0
LINE
  8
0
 10
-181.035004
 20
176.500000
 11
-180.489044
 21
178.000000
  0
LINE
  8
0
 10
-182.035004
 20
172.500000
 11
-182.035004
 21
168.500000
  0
LINE
  8
0
 10
-184.535004
 20
161.000000
 11
-134.535004
 21
161.000000
  0
LINE
  8
0
 10
-184.535004
 20
163.000000
 11
-134.535004
 21
163.000000
  0
LINE
  8
0
 10
-184.535004
 20
163.000000
 11
-184.535004
 21
161.000000
  0
LINE
  8
0
 10
-134.535004
 20
163.000000
 11
-134.535004
 21
161.000000
  0
LINE
  8
0
 10
-176.535004
 20
168.500000
 11
-182.535004
 21
168.500000
  0
LINE
  8
0
 10
-178.035004
 20
173.500000
 11
-181.035004
 21
173.500000
  0
LINE
  8
0
 10
-176.535004
 20
155.500000
 11
-182.535004
 21
155.500000
  0
LINE
  8
0
 10
-183.535004
 20
163.000000
 11
-175.535004
 21
163.000000
  0
LINE
  8
0
 10
-184.153809
 20
165.774780
 11
-184.153809
 21
163.225220
  0
LINE
  8
0
 10
-181.844406
 20
165.774780
 11
-181.844406
 21
163.225220
  0
LINE
  8
0
 10
-177.225601
 20
165.774780
 11
-177.225601
 21
163.225220
  0
LINE
  8
0
 10
-174.916199
 20
165.774780
 11
-174.916199
 21
163.225220
  0
LINE
  8
0
 10
-183.535004
 20
166.000000
 11
-175.535004
 21
166.000000
  0
LINE
  8
0
 10
-175.535004
 20
166.000000
 11
-174.916199
 21
165.774780
  0
LINE
  8
0
 10
-183.535004
 20
163.000000
 11
-184.153809
 21
163.225235
  0
LINE
  8
0
 10
-183.535004
 20
166.000000
 11
-184.153809
 21
165.774780
  0
LINE
  8
0
 10
-175.535004
 20
163.000000
 11
-174.916199
 21
163.225235
  0
LINE
  8
0
 10
-177.035004
 20
172.500000
 11
-177.035004
 21
172.500000
  0
LINE
  8
0
 10
-177.035004
 20
172.500000
 11
-178.035004
 21
173.500000
  0
LINE
  8
0
 10
-181.035004
 20
173.500000
 11
-182.035004
 21
172.500000
  0
LINE
  8
0
 10
-177.035004
 20
172.500000
 11
-177.035004
 21
168.500000
  0
LINE
  8
0
 10
-176.535004
 20
168.500000
 11
-176.535004
 21
166.000000
  0
LINE
  8
0
 10
-182.535004
 20
168.500000
 11
-182.535004
 21
166.000000
  0
LINE
  8
0
 10
-182.160004
 20
168.500000
 11
-182.160004
 21
166.000000
  0
LINE
  8
0
 10
-176.910004
 20
168.500000
 11
-176.910004
 21
166.000000
  0
LINE
  8
0
 10
-182.160004
 20
161.000000
 11
-182.160004
 21
155.500000
  0
LINE
  8
0
 10
-182.535004
 20
161.000000
 11
-182.535004
 21
155.500000
  0
LINE
  8
0
 10
-176.910004
 20
161.000000
 11
-176.910004
 21
155.500000
  0
LINE
  8
0
 10
-176.535004
 20
161.000000
 11
-176.535004
 21
155.500000
  0
LINE
  8
0
 10
-177.635010
 20
155.500000
 11
-178.335007
 21
151.500000
  0
LINE
  8
0
 10
-181.434998
 20
155.500000
 11
-180.735001
 21
151.500000
  0
LINE
  8
0
 10
-177.035004
 20
172.500000
 11
-182.035004
 21
172.500000
  0
LINE
  8
0
 10
-177.785004
 20
151.500000
 11
-177.785004
 21
149.500000
  0
LINE
  8
0
 10
-181.285004
 20
151.500000
 11
-181.285004
 21
149.500000
  0
LINE
  8
0
 10
-181.285004
 20
149.500000
 11
-177.785004
 21
149.500000
  0
LINE
  8
0
 10
-181.285004
 20
151.500000
 11
-177.785004
 21
151.500000
  0
LINE
  8
0
 10
-181.285004
 20
148.000000
 11
-177.785004
 21
148.000000
  0
LINE
  8
0
 10
-180.535004
 20
149.199997
 11
-178.535004
 21
149.199997
  0
LINE
  8
0
 10
-180.535004
 20
148.699997
 11
-178.535004
 21
148.699997
  0
LINE
  8
0
 10
-178.535004
 20
149.199997
 11
-178.535004
 21
148.699997
  0
LINE
  8
0
 10
-180.535004
 20
149.199997
 11
-180.535004
 21
148.699997
  0
LINE
  8
0
 10
-181.285004
 20
149.500000
 11
-180.535004
 21
149.199997
  0
LINE
  8
0
 10
-180.535004
 20
148.700012
 11
-181.285004
 21
148.000015
  0
LINE
  8
0
 10
-177.785004
 20
149.500000
 11
-178.535004
 21
149.199997
  0
LINE
  8
0
 10
-178.535004
 20
148.700012
 11
-177.785004
 21
148.000015
  0
LINE
  8
0
 10
-181.035004
 20
181.000000
 11
-181.035004
 21
181.100006
  0
LINE
  8
0
 10
-178.035004
 20
181.000000
 11
-178.035004
 21
181.100006
  0
ARC
  8
0
 10
-178.434998
 20
181.100006
 40
0.399994
 50
0.000000
 51
90.000000
  0
ARC
  8
0
 10
-180.635010
 20
181.100006
 40
0.399994
 50
90.000000
 51
180.000000
  0
ARC
  8
0
 10
-183.535004
 20
159.542404
 40
6.457588
 50
74.823097
 51
90.000000
  0
ARC
  8
0
 10
-179.535004
 20
154.047501
 40
11.952492
 50
78.859528
 51
101.140472
  0
ARC
  8
0
 10
-175.533173
 20
159.528671
 40
6.471329
 50
90.016212
 51
105.160721
  0
ARC
  8
0
 10
-175.535004
 20
169.457596
 40
6.457588
 50
254.823090
 51
270.000000
  0
ARC
  8
0
 10
-179.535004
 20
174.952499
 40
11.952492
 50
258.859528
 51
281.140472
  0
ARC
  8
0
 10
-183.535309
 20
169.459900
 40
6.459900
 50
270.002716
 51
285.174164
  0
POINT
  8
0
 10
-134.535004
 20
214.083344
  0
POINT
  8
0
 10
-179.535004
 20
214.083344
  0
LINE
  8
0
 10
-179.535004
 20
220.523468
 11
-179.535004
 21
206.839981
  0
LINE
  8
0
 10
-134.535004
 20
219.083344
 11
-134.535004
 21
209.083344
  0
LINE
  8
0
 10
-179.535004
 20
209.083344
 11
-134.535004
 21
209.083344
  0
LINE
  8
0
 10
-179.535004
 20
219.083344
 11
-134.535004
 21
219.083344
  0
LINE
  8
0
 10
-142.035004
 20
217.583344
 11
-142.035004
 21
210.583344
  0
LINE
  8
0
 10
-149.535004
 20
217.583344
 11
-149.535004
 21
210.583344
  0
LINE
  8
0
 10
-159.535004
 20
217.583344
 11
-159.535004
 21
210.583344
  0
LINE
  8
0
 10
-167.035004
 20
217.583344
 11
-167.035004
 21
210.583344
  0
LINE
  8
0
 10
-167.035004
 20
216.683350
 11
-159.535004
 21
216.683350
  0
LINE
  8
0
 10
-167.035004
 20
211.483337
 11
-159.535004
 21
211.483337
  0
LINE
  8
0
 10
-149.535004
 20
211.483337
 11
-142.035004
 21
211.483337
  0
LINE
  8
0
 10
-149.535004
 20
216.683350
 11
-142.035004
 21
216.683350
  0
LINE
  8
0
 10
-186.272461
 20
214.083344
 11
-133.178070
 21
214.083344
  0
LINE
  8
0
 10
-177.225601
 20
210.083344
 11
-174.916199
 21
214.083344
  0
LINE
  8
0
 10
-184.153809
 20
214.083344
 11
-181.844406
 21
218.083344
  0
LINE
  8
0
 10
-177.225601
 20
218.083344
 11
-174.916199
 21
214.083344
  0
LINE
  8
0
 10
-184.153809
 20
214.083344
 11
-181.844406
 21
210.083344
  0
LINE
  8
0
 10
-181.844406
 20
210.083344
 11
-177.225601
 21
210.083344
  0
LINE
  8
0
 10
-181.844406
 20
218.083344
 11
-177.225601
 21
218.083344
  0
ARC
  8
0
 10
-179.535004
 20
214.083344
 40
5.000000
 50
90.000000
 51
270.000000
  0
ARC
  8
0
 10
-167.035004
 20
214.083344
 40
2.600006
 50
90.000000
 51
270.000000
  0
ARC
  8
0
 10
-159.535004
 20
214.083344
 40
2.600006
 50
270.000000
 51
90.000000
  0
ARC
  8
0
 10
-149.535004
 20
214.083344
 40
2.600006
 50
90.000000
 51
270.000000
  0
ARC
  8
0
 10
-142.035004
 20
214.083344
 40
2.600006
 50
270.000000
 51
90.000000
  0
CIRCLE
  8
0
 10
-179.535004
 20
214.083344
 40
1.500000
  0
CIRCLE
  8
0
 10
-179.535004
 20
214.083344
 40
0.750000
  0
CIRCLE
  8
0
 10
-179.535004
 20
214.083344
 40
3.000000
  0
CIRCLE
  8
0
 10
-179.535004
 20
214.083344
 40
2.625000
  0
CIRCLE
  8
0
 10
-179.535004
 20
214.083344
 40
4.000000
  0
POINT
  8
0
 10
-19.725006
 20
163.000000
  0
POINT
  8
0
 10
25.274994
 20
163.000000
  0
LINE
  8
0
 10
-19.725006
 20
183.277878
 11
-19.725006
 21
146.932739
  0
LINE
  8
0
 10
-18.625008
 20
181.500000
 11
-20.825008
 21
181.500000
  0
LINE
  8
0
 10
-18.225006
 20
181.000000
 11
-21.225006
 21
181.000000
  0
LINE
  8
0
 10
-18.225006
 20
179.500000
 11
-21.225006
 21
179.500000
  0
LINE
  8
0
 10
-18.225006
 20
178.000000
 11
-21.225006
 21
178.000000
  0
LINE
  8
0
 10
-18.225006
 20
176.500000
 11
-21.225006
 21
176.500000
  0
LINE
  8
0
 10
-18.225006
 20
176.500000
 11
-18.225006
 21
173.500000
  0
LINE
  8
0
 10
-21.225006
 20
176.500000
 11
-21.225006
 21
173.500000
  0
LINE
  8
0
 10
-18.225006
 20
179.500000
 11
-18.770962
 21
181.000000
  0
LINE
  8
0
 10
-18.225008
 20
178.000000
 11
-18.770962
 21
179.500000
  0
LINE
  8
0
 10
-18.225008
 20
176.500000
 11
-18.770964
 21
178.000000
  0
LINE
  8
0
 10
-21.225006
 20
179.500000
 11
-20.679050
 21
181.000000
  0
LINE
  8
0
 10
-21.225006
 20
178.000000
 11
-20.679050
 21
179.500000
  0
LINE
  8
0
 10
-21.225006
 20
176.500000
 11
-20.679050
 21
178.000000
  0
LINE
  8
0
 10
-22.225006
 20
172.500000
 11
-22.225006
 21
168.500000
  0
LINE
  8
0
 10
-24.725006
 20
161.000000
 11
25.274994
 21
161.000000
  0
LINE
  8
0
 10
-24.725006
 20
163.000000
 11
25.274994
 21
163.000000
  0
LINE
  8
0
 10
-24.725006
 20
163.000000
 11
-24.725006
 21
161.000000
  0
LINE
  8
0
 10
25.274994
 20
163.000000
 11
25.274994
 21
161.000000
  0
LINE
  8
0
 10
-16.725006
 20
168.500000
 11
-22.725006
 21
168.500000
  0
LINE
  8
0
 10
-18.225008
 20
173.500000
 11
-21.225006
 21
173.500000
  0
LINE
  8
0
 10
-16.725006
 20
155.500000
 11
-22.725006
 21
155.500000
  0
LINE
  8
0
 10
-23.725006
 20
163.000000
 11
-15.725006
 21
163.000000
  0
LINE
  8
0
 10
-24.343807
 20
165.774780
 11
-24.343807
 21
163.225220
  0
LINE
  8
0
 10
-22.034407
 20
165.774780
 11
-22.034407
 21
163.225220
  0
LINE
  8
0
 10
-17.415606
 20
165.774780
 11
-17.415606
 21
163.225220
  0
LINE
  8
0
 10
-15.106204
 20
165.774780
 11
-15.106204
 21
163.225220
  0
LINE
  8
0
 10
-23.725006
 20
166.000000
 11
-15.725010
 21
166.000000
  0
LINE
  8
0
 10
-15.725008
 20
166.000000
 11
-15.106202
 21
165.774780
  0
LINE
  8
0
 10
-23.725004
 20
163.000000
 11
-24.343807
 21
163.225235
  0
LINE
  8
0
 10
-23.725006
 20
166.000000
 11
-24.343807
 21
165.774780
  0
LINE
  8
0
 10
-15.725008
 20
163.000000
 11
-15.106205
 21
163.225235
  0
LINE
  8
0
 10
-17.225004
 20
172.500000
 11
-17.225004
 21
172.500000
  0
LINE
  8
0
 10
-17.225006
 20
172.500000
 11
-18.225008
 21
173.500000
  0
LINE
  8
0
 10
-21.225004
 20
173.500000
 11
-22.225004
 21
172.500000
  0
LINE
  8
0
 10
-17.225006
 20
172.500000
 11
-17.225006
 21
168.500000
  0
LINE
  8
0
 10
-16.725006
 20
168.500000
 11
-16.725006
 21
166.000000
  0
LINE
  8
0
 10
-22.725006
 20
168.500000
 11
-22.725006
 21
166.000000
  0
LINE
  8
0
 10
-22.350006
 20
168.500000
 11
-22.350006
 21
166.000000
  0
LINE
  8
0
 10
-17.100006
 20
168.500000
 11
-17.100006
 21
166.000000
  0
LINE
  8
0
 10
-22.350006
 20
161.000000
 11
-22.350006
 21
155.500000
  0
LINE
  8
0
 10
-22.725006
 20
161.000000
 11
-22.725006
 21
155.500000
  0
LINE
  8
0
 10
-17.100006
 20
161.000000
 11
-17.100006
 21
155.500000
  0
LINE
  8
0
 10
-16.725006
 20
161.000000
 11
-16.725006
 21
155.500000
  0
LINE
  8
0
 10
-17.825006
 20
155.500000
 11
-18.525005
 21
151.500000
  0
LINE
  8
0
 10
-21.625006
 20
155.500000
 11
-20.925007
 21
151.500000
  0
LINE
  8
0
 10
-17.225006
 20
172.500000
 11
-22.225006
 21
172.500000
  0
LINE
  8
0
 10
-22.475006
 20
149.500000
 11
-16.975006
 21
149.500000
  0
LINE
  8
0
 10
-21.200006
 20
151.500000
 11
-18.250006
 21
151.500000
  0
LINE
  8
0
 10
-17.975006
 20
151.225006
 11
-17.975006
 21
149.500000
  0
LINE
  8
0
 10
-21.475006
 20
151.225006
 11
-21.475006
 21
149.500000
  0
LINE
  8
0
 10
-22.025005
 20
147.500000
 11
-17.425007
 21
147.500000
  0
LINE
  8
0
 10
-22.475006
 20
149.500000
 11
-22.025007
 21
147.500000
  0
LINE
  8
0
 10
-17.425005
 20
147.500000
 11
-16.975006
 21
149.500000
  0
LINE
  8
0
 10
-21.475002
 20
151.224991
 11
-21.200003
 21
151.500000
  0
LINE
  8
0
 10
-17.975010
 20
151.224991
 11
-18.250010
 21
151.500000
  0
LINE
  8
0
 10
-21.475006
 20
151.225006
 11
-17.975006
 21
151.225006
  0
LINE
  8
0
 10
-21.225006
 20
181.000000
 11
-21.225006
 21
181.100006
  0
LINE
  8
0
 10
-18.225006
 20
181.000000
 11
-18.225006
 21
181.100006
  0
ARC
  8
0
 10
-18.625006
 20
181.100006
 40
0.400000
 50
0.000000
 51
90.000000
  0
ARC
  8
0
 10
-20.825006
 20
181.100006
 40
0.399994
 50
90.000000
 51
180.000000
  0
ARC
  8
0
 10
-23.725006
 20
159.542404
 40
6.457589
 50
74.823067
 51
90.000000
  0
ARC
  8
0
 10
-19.725006
 20
154.047501
 40
11.952492
 50
78.859543
 51
101.140472
  0
ARC
  8
0
 10
-15.723177
 20
159.528671
 40
6.471329
 50
90.016243
 51
105.160736
  0
ARC
  8
0
 10
-15.725006
 20
169.457596
 40
6.457588
 50
254.823074
 51
269.999969
  0
ARC
  8
0
 10
-19.725006
 20
174.952499
 40
11.952493
 50
258.859528
 51
281.140472
  0
ARC
  8
0
 10
-23.725313
 20
169.459900
 40
6.459900
 50
270.002716
 51
285.174194
  0
POINT
  8
0
 10
25.274994
 20
214.083344
  0
POINT
  8
0
 10
-19.725006
 20
214.083344
  0
LINE
  8
0
 10
-19.725006
 20
220.523468
 11
-19.725006
 21
206.839981
  0
LINE
  8
0
 10
25.274994
 20
219.083344
 11
25.274994
 21
209.083344
  0
LINE
  8
0
 10
-19.725006
 20
209.083344
 11
25.274994
 21
209.083344
  0
LINE
  8
0
 10
-19.725006
 20
219.083344
 11
25.274994
 21
219.083344
  0
LINE
  8
0
 10
17.774994
 20
217.583344
 11
17.774994
 21
210.583344
  0
LINE
  8
0
 10
10.274994
 20
217.583344
 11
10.274994
 21
210.583344
  0
LINE
  8
0
 10
0.274994
 20
217.583344
 11
0.274994
 21
210.583344
  0
LINE
  8
0
 10
-7.225006
 20
217.583344
 11
-7.225006
 21
210.583344
  0
LINE
  8
0
 10
-7.225006
 20
216.683350
 11
0.274994
 21
216.683350
  0
LINE
  8
0
 10
-7.225006
 20
211.483337
 11
0.274994
 21
211.483337
  0
LINE
  8
0
 10
10.274994
 20
211.483337
 11
17.774994
 21
211.483337
  0
LINE
  8
0
 10
10.274994
 20
216.683350
 11
17.774994
 21
216.683350
  0
LINE
  8
0
 10
-26.462471
 20
214.083344
 11
26.631927
 21
214.083344
  0
LINE
  8
0
 10
-17.415607
 20
210.083344
 11
-15.106205
 21
214.083344
  0
LINE
  8
0
 10
-24.343811
 20
214.083344
 11
-22.034409
 21
218.083344
  0
LINE
  8
0
 10
-17.415604
 20
218.083344
 11
-15.106201
 21
214.083344
  0
LINE
  8
0
 10
-24.343807
 20
214.083344
 11
-22.034405
 21
210.083344
  0
LINE
  8
0
 10
-22.034407
 20
210.083344
 11
-17.415606
 21
210.083344
  0
LINE
  8
0
 10
-22.034407
 20
218.083344
 11
-17.415606
 21
218.083344
  0
ARC
  8
0
 10
-19.725006
 20
214.083344
 40
5.000000
 50
89.999977
 51
270.000000
  0
ARC
  8
0
 10
-7.225006
 20
214.083344
 40
2.600006
 50
89.999977
 51
270.000000
  0
ARC
  8
0
 10
0.274994
 20
214.083344
 40
2.600006
 50
270.000000
 51
90.000000
  0
ARC
  8
0
 10
10.274994
 20
214.083344
 40
2.600006
 50
90.000000
 51
270.000000
  0
ARC
  8
0
 10
17.774994
 20
214.083344
 40
2.600006
 50
270.000000
 51
90.000000
  0
CIRCLE
  8
0
 10
-19.725006
 20
214.083344
 40
1.500000
  0
CIRCLE
  8
0
 10
-19.725006
 20
214.083344
 40
0.750000
  0
CIRCLE
  8
0
 10
-19.725006
 20
214.083344
 40
3.000000
  0
CIRCLE
  8
0
 10
-19.725006
 20
214.083344
 40
2.625000
  0
CIRCLE
  8
0
 10
-19.725006
 20
214.083344
 40
4.000000
  0
POINT
  8
0
 10
140.084991
 20
163.000000
  0
POINT
  8
0
 10
185.084991
 20
163.000000
  0
LINE
  8
0
 10
140.084991
 20
183.277878
 11
140.084991
 21
146.270020
  0
LINE
  8
0
 10
141.184998
 20
181.500000
 11
138.984985
 21
181.500000
  0
LINE
  8
0
 10
141.584991
 20
181.000000
 11
138.584991
 21
181.000000
  0
LINE
  8
0
 10
141.584991
 20
179.500000
 11
138.584991
 21
179.500000
  0
LINE
  8
0
 10
141.584991
 20
178.000000
 11
138.584991
 21
178.000000
  0
LINE
  8
0
 10
141.584991
 20
176.500000
 11
138.584991
 21
176.500000
  0
LINE
  8
0
 10
141.584991
 20
176.500000
 11
141.584991
 21
173.500000
  0
LINE
  8
0
 10
138.584991
 20
176.500000
 11
138.584991
 21
173.500000
  0
LINE
  8
0
 10
141.584991
 20
179.500000
 11
141.039032
 21
181.000000
  0
LINE
  8
0
 10
141.584991
 20
178.000000
 11
141.039032
 21
179.500000
  0
LINE
  8
0
 10
141.584991
 20
176.500000
 11
141.039032
 21
178.000000
  0
LINE
  8
0
 10
138.584991
 20
179.500000
 11
139.130951
 21
181.000000
  0
LINE
  8
0
 10
138.584991
 20
178.000000
 11
139.130951
 21
179.500000
  0
LINE
  8
0
 10
138.584991
 20
176.500000
 11
139.130951
 21
178.000000
  0
LINE
  8
0
 10
137.584991
 20
172.500000
 11
137.584991
 21
168.500000
  0
LINE
  8
0
 10
135.084991
 20
161.000000
 11
185.084991
 21
161.000000
  0
LINE
  8
0
 10
135.084991
 20
163.000000
 11
185.084991
 21
163.000000
  0
LINE
  8
0
 10
135.084991
 20
163.000000
 11
135.084991
 21
161.000000
  0
LINE
  8
0
 10
185.084991
 20
163.000000
 11
185.084991
 21
161.000000
  0
LINE
  8
0
 10
143.084991
 20
168.500000
 11
137.084991
 21
168.500000
  0
LINE
  8
0
 10
141.584991
 20
173.500000
 11
138.584991
 21
173.500000
  0
LINE
  8
0
 10
143.084991
 20
155.500000
 11
137.084991
 21
155.500000
  0
LINE
  8
0
 10
136.084991
 20
163.000000
 11
144.084991
 21
163.000000
  0
LINE
  8
0
 10
135.466187
 20
165.774780
 11
135.466187
 21
163.225220
  0
LINE
  8
0
 10
137.775589
 20
165.774780
 11
137.775589
 21
163.225220
  0
LINE
  8
0
 10
142.394394
 20
165.774780
 11
142.394394
 21
163.225220
  0
LINE
  8
0
 10
144.703796
 20
165.774780
 11
144.703796
 21
163.225220
  0
LINE
  8
0
 10
136.084991
 20
166.000000
 11
144.084991
 21
166.000000
  0
LINE
  8
0
 10
144.084991
 20
166.000000
 11
144.703796
 21
165.774780
  0
LINE
  8
0
 10
136.084991
 20
163.000000
 11
135.466187
 21
163.225235
  0
LINE
  8
0
 10
136.084991
 20
166.000000
 11
135.466187
 21
165.774780
  0
LINE
  8
0
 10
144.084991
 20
163.000000
 11
144.703796
 21
163.225235
  0
LINE
  8
0
 10
142.584991
 20
172.500000
 11
142.584991
 21
172.500000
  0
LINE
  8
0
 10
142.584991
 20
172.500000
 11
141.584991
 21
173.500000
  0
LINE
  8
0
 10
138.584991
 20
173.500000
 11
137.584991
 21
172.500000
  0
LINE
  8
0
 10
142.584991
 20
172.500000
 11
142.584991
 21
168.500000
  0
LINE
  8
0
 10
143.084991
 20
168.500000
 11
143.084991
 21
166.000000
  0
LINE
  8
0
 10
137.084991
 20
168.500000
 11
137.084991
 21
166.000000
  0
LINE
  8
0
 10
137.459991
 20
168.500000
 11
137.459991
 21
166.000000
  0
LINE
  8
0
 10
142.709991
 20
168.500000
 11
142.709991
 21
166.000000
  0
LINE
  8
0
 10
137.459991
 20
161.000000
 11
137.459991
 21
155.500000
  0
LINE
  8
0
 10
137.084991
 20
161.000000
 11
137.084991
 21
155.500000
  0
LINE
  8
0
 10
142.709991
 20
161.000000
 11
142.709991
 21
155.500000
  0
LINE
  8
0
 10
143.084991
 20
161.000000
 11
143.084991
 21
155.500000
  0
LINE
  8
0
 10
141.984985
 20
155.500000
 11
141.284988
 21
151.500000
  0
LINE
  8
0
 10
138.184998
 20
155.500000
 11
138.884995
 21
151.500000
  0
LINE
  8
0
 10
142.584991
 20
172.500000
 11
137.584991
 21
172.500000
  0
LINE
  8
0
 10
141.834991
 20
151.199997
 11
141.834991
 21
149.500000
  0
LINE
  8
0
 10
138.334991
 20
151.199997
 11
138.334991
 21
149.500000
  0
LINE
  8
0
 10
136.384995
 20
149.500000
 11
143.784988
 21
149.500000
  0
LINE
  8
0
 10
138.634995
 20
151.500000
 11
141.534988
 21
151.500000
  0
LINE
  8
0
 10
136.284988
 20
147.000000
 11
143.884995
 21
147.000000
  0
LINE
  8
0
 10
138.634995
 20
151.500000
 11
138.334991
 21
151.199997
  0
LINE
  8
0
 10
141.834991
 20
151.199997
 11
141.534988
 21
151.500000
  0
LINE
  8
0
 10
136.084991
 20
149.199997
 11
136.384995
 21
149.500000
  0
LINE
  8
0
 10
144.084991
 20
149.199997
 11
143.784988
 21
149.500000
  0
LINE
  8
0
 10
136.084991
 20
149.199997
 11
136.284988
 21
147.000000
  0
LINE
  8
0
 10
143.884995
 20
147.000000
 11
144.084991
 21
149.199997
  0
LINE
  8
0
 10
138.334991
 20
151.199997
 11
141.834991
 21
151.199997
  0
LINE
  8
0
 10
136.084991
 20
149.199997
 11
144.084991
 21
149.199997
  0
LINE
  8
0
 10
138.584991
 20
181.000000
 11
138.584991
 21
181.100006
  0
LINE
  8
0
 10
141.584991
 20
181.000000
 11
141.584991
 21
181.100006
  0
ARC
  8
0
 10
141.184998
 20
181.100006
 40
0.399994
 50
0.000000
 51
90.000000
  0
ARC
  8
0
 10
138.984985
 20
181.100006
 40
0.399994
 50
90.000000
 51
180.000000
  0
ARC
  8
0
 10
136.084991
 20
159.542404
 40
6.457588
 50
74.823097
 51
90.000000
  0
ARC
  8
0
 10
140.084991
 20
154.047501
 40
11.952492
 50
78.859528
 51
101.140472
  0
ARC
  8
0
 10
144.086823
 20
159.528671
 40
6.471329
 50
90.016212
 51
105.160721
  0
ARC
  8
0
 10
144.084991
 20
169.457596
 40
6.457588
 50
254.823090
 51
270.000000
  0
ARC
  8
0
 10
140.084991
 20
174.952499
 40
11.952492
 50
258.859528
 51
281.140472
  0
ARC
  8
0
 10
136.084686
 20
169.459900
 40
6.459900
 50
270.002716
 51
285.174164
  0
POINT
  8
0
 10
185.084991
 20
214.083344
  0
POINT
  8
0
 10
140.084991
 20
214.083344
  0
LINE
  8
0
 10
140.084991
 20
220.523468
 11
140.084991
 21
206.839981
  0
LINE
  8
0
 10
185.084991
 20
219.083344
 11
185.084991
 21
209.083344
  0
LINE
  8
0
 10
140.084991
 20
209.083344
 11
185.084991
 21
209.083344
  0
LINE
  8
0
 10
140.084991
 20
219.083344
 11
185.084991
 21
219.083344
  0
LINE
  8
0
 10
177.584991
 20
217.583344
 11
177.584991
 21
210.583344
  0
LINE
  8
0
 10
170.084991
 20
217.583344
 11
170.084991
 21
210.583344
  0
LINE
  8
0
 10
160.084991
 20
217.583344
 11
160.084991
 21
210.583344
  0
LINE
  8
0
 10
152.584991
 20
217.583344
 11
152.584991
 21
210.583344
  0
LINE
  8
0
 10
152.584991
 20
216.683350
 11
160.084991
 21
216.683350
  0
LINE
  8
0
 10
152.584991
 20
211.483337
 11
160.084991
 21
211.483337
  0
LINE
  8
0
 10
170.084991
 20
211.483337
 11
177.584991
 21
211.483337
  0
LINE
  8
0
 10
170.084991
 20
216.683350
 11
177.584991
 21
216.683350
  0
LINE
  8
0
 10
133.347534
 20
214.083344
 11
186.441925
 21
214.083344
  0
LINE
  8
0
 10
142.394394
 20
210.083344
 11
144.703796
 21
214.083344
  0
LINE
  8
0
 10
135.466187
 20
214.083344
 11
137.775589
 21
218.083344
  0
LINE
  8
0
 10
142.394394
 20
218.083344
 11
144.703796
 21
214.083344
  0
LINE
  8
0
 10
135.466187
 20
214.083344
 11
137.775589
 21
210.083344
  0
LINE
  8
0
 10
137.775589
 20
210.083344
 11
142.394394
 21
210.083344
  0
LINE
  8
0
 10
137.775589
 20
218.083344
 11
142.394394
 21
218.083344
  0
ARC
  8
0
 10
140.084991
 20
214.083344
 40
5.000000
 50
90.000000
 51
270.000000
  0
ARC
  8
0
 10
152.584991
 20
214.083344
 40
2.600006
 50
90.000000
 51
270.000000
  0
ARC
  8
0
 10
160.084991
 20
214.083344
 40
2.600006
 50
270.000000
 51
90.000000
  0
ARC
  8
0
 10
170.084991
 20
214.083344
 40
2.600006
 50
90.000000
 51
270.000000
  0
ARC
  8
0
 10
177.584991
 20
214.083344
 40
2.600006
 50
270.000000
 51
90.000000
  0
CIRCLE
  8
0
 10
140.084991
 20
214.083344
 40
1.500000
  0
CIRCLE
  8
0
 10
140.084991
 20
214.083344
 40
0.750000
  0
CIRCLE
  8
0
 10
140.084991
 20
214.083344
 40
3.000000
  0
CIRCLE
  8
0
 10
140.084991
 20
214.083344
 40
2.625000
  0
CIRCLE
  8
0
 10
140.084991
 20
214.083344
 40
4.000000
  0
POINT
  8
0
 10
341.894989
 20
163.000000
  0
POINT
  8
0
 10
296.894989
 20
163.000000
  0
LINE
  8
0
 10
293.894989
 20
156.500000
 11
299.894989
 21
156.500000
  0
LINE
  8
0
 10
297.991150
 20
153.500000
 11
298.794983
 21
156.500000
  0
LINE
  8
0
 10
295.798828
 20
153.500000
 11
294.994995
 21
156.500000
  0
LINE
  8
0
 10
294.853180
 20
182.500000
 11
298.936798
 21
182.500000
  0
LINE
  8
0
 10
293.894989
 20
169.500000
 11
299.894989
 21
169.500000
  0
LINE
  8
0
 10
294.394989
 20
181.000000
 11
299.394989
 21
181.000000
  0
LINE
  8
0
 10
294.394989
 20
179.500000
 11
299.394989
 21
179.500000
  0
LINE
  8
0
 10
294.394989
 20
178.000000
 11
299.394989
 21
178.000000
  0
LINE
  8
0
 10
294.394989
 20
176.500000
 11
299.394989
 21
176.500000
  0
LINE
  8
0
 10
299.394989
 20
176.500000
 11
299.394989
 21
169.500000
  0
LINE
  8
0
 10
294.394989
 20
176.500000
 11
294.394989
 21
169.500000
  0
LINE
  8
0
 10
299.394989
 20
181.000000
 11
299.336243
 21
182.120941
  0
LINE
  8
0
 10
294.394989
 20
181.000000
 11
294.453735
 21
182.120941
  0
LINE
  8
0
 10
299.394989
 20
179.500000
 11
298.849030
 21
181.000000
  0
LINE
  8
0
 10
299.394989
 20
178.000000
 11
298.849030
 21
179.500000
  0
LINE
  8
0
 10
299.394989
 20
176.500000
 11
298.849030
 21
178.000000
  0
LINE
  8
0
 10
294.394989
 20
179.500000
 11
294.940948
 21
181.000000
  0
LINE
  8
0
 10
294.394989
 20
178.000000
 11
294.940948
 21
179.500000
  0
LINE
  8
0
 10
294.394989
 20
176.500000
 11
294.940948
 21
178.000000
  0
LINE
  8
0
 10
299.894989
 20
169.500000
 11
299.894989
 21
166.000000
  0
LINE
  8
0
 10
293.894989
 20
169.500000
 11
293.894989
 21
166.000000
  0
LINE
  8
0
 10
294.269989
 20
169.500000
 11
294.269989
 21
166.000000
  0
LINE
  8
0
 10
299.519989
 20
169.500000
 11
299.519989
 21
166.000000
  0
LINE
  8
0
 10
293.894989
 20
161.000000
 11
293.894989
 21
156.500000
  0
LINE
  8
0
 10
294.269989
 20
161.000000
 11
294.269989
 21
156.500000
  0
LINE
  8
0
 10
299.519989
 20
161.000000
 11
299.519989
 21
156.500000
  0
LINE
  8
0
 10
299.894989
 20
161.000000
 11
299.894989
 21
156.500000
  0
LINE
  8
0
 10
292.853546
 20
165.802933
 11
292.853546
 21
163.197067
  0
LINE
  8
0
 10
294.874268
 20
165.802917
 11
294.874268
 21
163.197083
  0
LINE
  8
0
 10
298.915710
 20
165.802933
 11
298.915710
 21
163.191452
  0
LINE
  8
0
 10
300.936432
 20
165.802933
 11
300.936432
 21
163.197067
  0
LINE
  8
0
 10
293.394989
 20
166.000000
 11
300.394989
 21
166.000000
  0
LINE
  8
0
 10
293.394989
 20
166.000000
 11
292.853546
 21
165.802933
  0
LINE
  8
0
 10
300.394989
 20
163.000000
 11
300.936432
 21
163.197067
  0
LINE
  8
0
 10
300.394989
 20
166.000000
 11
300.936432
 21
165.802933
  0
LINE
  8
0
 10
293.394989
 20
163.000000
 11
292.853546
 21
163.197067
  0
LINE
  8
0
 10
291.894989
 20
163.000000
 11
341.894989
 21
163.000000
  0
LINE
  8
0
 10
291.894989
 20
163.000000
 11
291.894989
 21
161.000000
  0
LINE
  8
0
 10
291.894989
 20
161.000000
 11
341.894989
 21
161.000000
  0
LINE
  8
0
 10
341.894989
 20
163.000000
 11
341.894989
 21
161.000000
  0
LINE
  8
0
 10
296.894989
 20
184.000000
 11
296.894989
 21
145.432388
  0
LINE
  8
0
 10
298.894989
 20
149.500000
 11
298.894989
 21
148.706924
  0
LINE
  8
0
 10
294.894989
 20
149.500000
 11
294.894989
 21
148.706924
  0
LINE
  8
0
 10
299.894989
 20
153.500000
 11
299.894989
 21
150.500000
  0
LINE
  8
0
 10
293.894989
 20
153.500000
 11
293.894989
 21
150.500000
  0
LINE
  8
0
 10
293.894989
 20
150.500000
 11
299.894989
 21
150.500000
  0
LINE
  8
0
 10
293.894989
 20
153.500000
 11
299.894989
 21
153.500000
  0
LINE
  8
0
 10
293.894989
 20
147.500000
 11
299.894989
 21
147.500000
  0
LINE
  8
0
 10
294.894989
 20
149.500000
 11
293.894989
 21
150.500000
  0
LINE
  8
0
 10
298.894989
 20
149.500000
 11
299.894989
 21
150.500000
  0
LINE
  8
0
 10
293.894989
 20
147.500000
 11
293.694977
 21
147.699997
  0
LINE
  8
0
 10
299.894989
 20
147.500000
 11
300.095001
 21
147.699997
  0
LINE
  8
0
 10
293.694977
 20
147.700012
 11
294.894989
 21
148.706924
  0
LINE
  8
0
 10
300.095001
 20
147.699997
 11
298.894989
 21
148.706924
  0
LINE
  8
0
 10
294.894989
 20
149.500000
 11
298.894989
 21
149.500000
  0
LINE
  8
0
 10
298.894989
 20
148.706924
 11
294.894989
 21
148.706924
  0
LINE
  8
0
 10
293.694977
 20
147.699997
 11
300.095001
 21
147.699997
  0
ARC
  8
0
 10
294.853180
 20
182.100006
 40
0.399994
 50
90.000000
 51
176.999847
  0
ARC
  8
0
 10
298.936798
 20
182.100006
 40
0.399993
 50
3.000151
 51
90.000000
  0
ARC
  8
0
 10
300.394989
 20
160.349609
 40
5.650391
 50
90.000000
 51
105.176941
  0
ARC
  8
0
 10
296.894989
 20
155.541412
 40
10.458591
 50
78.859726
 51
101.072121
  0
ARC
  8
0
 10
293.394409
 20
160.184875
 40
5.815131
 50
75.132576
 51
89.994286
  0
ARC
  8
0
 10
293.394989
 20
168.650391
 40
5.650391
 50
270.000000
 51
285.176941
  0
ARC
  8
0
 10
296.894989
 20
173.458588
 40
10.458591
 50
258.859741
 51
281.072113
  0
ARC
  8
0
 10
300.395569
 20
168.815125
 40
5.815131
 50
255.132584
 51
269.994293
  0
POINT
  8
0
 10
346.894989
 20
214.083344
  0
POINT
  8
0
 10
296.894989
 20
214.083344
  0
LINE
  8
0
 10
296.894989
 20
221.283340
 11
296.894989
 21
206.283340
  0
LINE
  8
0
 10
290.988647
 20
214.083344
 11
302.545197
 21
214.083344
  0
LINE
  8
0
 10
294.874268
 20
210.583344
 11
298.915710
 21
210.583344
  0
LINE
  8
0
 10
294.874268
 20
217.583344
 11
298.915710
 21
217.583344
  0
LINE
  8
0
 10
298.915710
 20
210.583344
 11
300.936432
 21
214.083344
  0
LINE
  8
0
 10
292.853546
 20
214.083344
 11
294.874268
 21
217.583344
  0
LINE
  8
0
 10
298.915710
 20
217.583344
 11
300.936432
 21
214.083344
  0
LINE
  8
0
 10
292.853546
 20
214.083344
 11
294.874268
 21
210.583344
  0
LINE
  8
0
 10
296.894989
 20
219.083344
 11
346.894989
 21
219.083344
  0
LINE
  8
0
 10
296.894989
 20
209.083344
 11
346.894989
 21
209.083344
  0
LINE
  8
0
 10
346.894989
 20
219.083344
 11
346.894989
 21
209.083344
  0
LINE
  8
0
 10
339.394989
 20
217.894547
 11
339.394989
 21
210.309494
  0
LINE
  8
0
 10
331.894989
 20
217.794739
 11
331.894989
 21
210.309494
  0
LINE
  8
0
 10
321.894989
 20
217.694946
 11
321.894989
 21
210.309494
  0
LINE
  8
0
 10
314.394989
 20
217.794739
 11
314.394989
 21
210.409302
  0
LINE
  8
0
 10
314.394989
 20
216.683350
 11
321.894989
 21
216.683350
  0
LINE
  8
0
 10
314.394989
 20
211.483337
 11
321.894989
 21
211.483337
  0
LINE
  8
0
 10
331.894989
 20
216.683350
 11
339.394989
 21
216.683350
  0
LINE
  8
0
 10
331.894989
 20
211.483337
 11
339.394989
 21
211.483337
  0
LINE
  8
0
 10
310.030426
 20
214.083344
 11
343.327881
 21
214.083344
  0
CIRCLE
  8
0
 10
296.894989
 20
214.083344
 40
3.500000
  0
ARC
  8
0
 10
296.894989
 20
214.083344
 40
5.000000
 50
90.000000
 51
270.000000
  0
ARC
  8
0
 10
339.394989
 20
214.083344
 40
2.600006
 50
270.000000
 51
90.000000
  0
ARC
  8
0
 10
331.894989
 20
214.083344
 40
2.600006
 50
90.000000
 51
270.000000
  0
ARC
  8
0
 10
321.894989
 20
214.083344
 40
2.600006
 50
270.000000
 51
90.000000
  0
ARC
  8
0
 10
314.394989
 20
214.083344
 40
2.600006
 50
90.000000
 51
270.000000
  0
CIRCLE
  8
0
 10
296.894989
 20
214.083344
 40
1.250000
  0
CIRCLE
  8
0
 10
296.894989
 20
214.083344
 40
3.000000
  0
CIRCLE
  8
0
 10
296.894989
 20
214.083344
 40
2.625000
  0
POINT
  8
0
 10
-344.345001
 20
-17.333328
  0
POINT
  8
0
 10
-299.345001
 20
-17.333328
  0
LINE
  8
0
 10
-347.345001
 20
-23.833328
 11
-341.345001
 21
-23.833328
  0
LINE
  8
0
 10
-343.248840
 20
-26.833324
 11
-342.445007
 21
-23.833324
  0
LINE
  8
0
 10
-345.441162
 20
-26.833332
 11
-346.244995
 21
-23.833330
  0
LINE
  8
0
 10
-346.386810
 20
2.166672
 11
-342.303192
 21
2.166672
  0
LINE
  8
0
 10
-347.345001
 20
-10.833328
 11
-341.345001
 21
-10.833328
  0
LINE
  8
0
 10
-346.845001
 20
0.666672
 11
-341.845001
 21
0.666672
  0
LINE
  8
0
 10
-346.845001
 20
-0.833328
 11
-341.845001
 21
-0.833328
  0
LINE
  8
0
 10
-346.845001
 20
-2.333328
 11
-341.845001
 21
-2.333328
  0
LINE
  8
0
 10
-346.845001
 20
-3.833328
 11
-341.845001
 21
-3.833328
  0
LINE
  8
0
 10
-341.845001
 20
-3.833328
 11
-341.845001
 21
-10.833328
  0
LINE
  8
0
 10
-346.845001
 20
-3.833328
 11
-346.845001
 21
-10.833328
  0
LINE
  8
0
 10
-341.845001
 20
0.666674
 11
-341.903748
 21
1.787611
  0
LINE
  8
0
 10
-346.845001
 20
0.666676
 11
-346.786255
 21
1.787607
  0
LINE
  8
0
 10
-341.845001
 20
-0.833328
 11
-342.390961
 21
0.666672
  0
LINE
  8
0
 10
-341.845001
 20
-2.333329
 11
-342.390961
 21
-0.833328
  0
LINE
  8
0
 10
-341.845001
 20
-3.833328
 11
-342.390961
 21
-2.333329
  0
LINE
  8
0
 10
-346.845001
 20
-0.833328
 11
-346.299042
 21
0.666672
  0
LINE
  8
0
 10
-346.845001
 20
-2.333327
 11
-346.299042
 21
-0.833328
  0
LINE
  8
0
 10
-346.845001
 20
-3.833327
 11
-346.299042
 21
-2.333328
  0
LINE
  8
0
 10
-341.345001
 20
-10.833328
 11
-341.345001
 21
-14.333328
  0
LINE
  8
0
 10
-347.345001
 20
-10.833328
 11
-347.345001
 21
-14.333328
  0
LINE
  8
0
 10
-346.970001
 20
-10.833328
 11
-346.970001
 21
-14.333328
  0
LINE
  8
0
 10
-341.720001
 20
-10.833328
 11
-341.720001
 21
-14.333328
  0
LINE
  8
0
 10
-347.345001
 20
-19.333328
 11
-347.345001
 21
-23.833328
  0
LINE
  8
0
 10
-346.970001
 20
-19.333328
 11
-346.970001
 21
-23.833328
  0
LINE
  8
0
 10
-341.720001
 20
-19.333328
 11
-341.720001
 21
-23.833328
  0
LINE
  8
0
 10
-341.345001
 20
-19.333328
 11
-341.345001
 21
-23.833328
  0
LINE
  8
0
 10
-348.386444
 20
-14.530399
 11
-348.386444
 21
-17.136257
  0
LINE
  8
0
 10
-346.365723
 20
-14.530403
 11
-346.365723
 21
-17.136253
  0
LINE
  8
0
 10
-342.324280
 20
-14.530399
 11
-342.324280
 21
-17.141880
  0
LINE
  8
0
 10
-340.303558
 20
-14.530399
 11
-340.303558
 21
-17.136257
  0
LINE
  8
0
 10
-347.845001
 20
-14.333328
 11
-340.845001
 21
-14.333328
  0
LINE
  8
0
 10
-347.845001
 20
-14.333328
 11
-348.386444
 21
-14.530401
  0
LINE
  8
0
 10
-340.845001
 20
-17.333326
 11
-340.303558
 21
-17.136255
  0
LINE
  8
0
 10
-340.845001
 20
-14.333328
 11
-340.303558
 21
-14.530401
  0
LINE
  8
0
 10
-347.845001
 20
-17.333326
 11
-348.386444
 21
-17.136255
  0
LINE
  8
0
 10
-349.345001
 20
-17.333328
 11
-299.345001
 21
-17.333328
  0
LINE
  8
0
 10
-349.345001
 20
-17.333328
 11
-349.345001
 21
-19.333328
  0
LINE
  8
0
 10
-349.345001
 20
-19.333328
 11
-299.345001
 21
-19.333328
  0
LINE
  8
0
 10
-299.345001
 20
-17.333328
 11
-299.345001
 21
-19.333328
  0
LINE
  8
0
 10
-344.345001
 20
3.666668
 11
-344.345001
 21
-36.356926
  0
LINE
  8
0
 10
-341.345001
 20
-27.373329
 11
-341.345001
 21
-29.833328
  0
LINE
  8
0
 10
-347.345001
 20
-27.373329
 11
-347.345001
 21
-29.833328
  0
LINE
  8
0
 10
-347.345001
 20
-29.833328
 11
-341.345001
 21
-29.833328
  0
LINE
  8
0
 10
-346.804993
 20
-26.833328
 11
-341.885010
 21
-26.833328
  0
LINE
  8
0
 10
-348.345001
 20
-32.333328
 11
-340.345001
 21
-32.333328
  0
LINE
  8
0
 10
-348.345001
 20
-32.333324
 11
-348.514984
 21
-32.083324
  0
LINE
  8
0
 10
-340.175018
 20
-32.083324
 11
-340.345001
 21
-32.333324
  0
LINE
  8
0
 10
-348.515015
 20
-32.083328
 11
-346.804993
 21
-30.373329
  0
LINE
  8
0
 10
-340.174988
 20
-32.083328
 11
-341.885010
 21
-30.373327
  0
LINE
  8
0
 10
-346.804993
 20
-30.373329
 11
-347.345001
 21
-29.833328
  0
LINE
  8
0
 10
-341.885010
 20
-30.373333
 11
-341.345001
 21
-29.833332
  0
LINE
  8
0
 10
-346.804993
 20
-30.373329
 11
-341.885010
 21
-30.373329
  0
LINE
  8
0
 10
-346.804993
 20
-26.833328
 11
-347.345001
 21
-27.373329
  0
LINE
  8
0
 10
-341.345001
 20
-27.373329
 11
-341.885010
 21
-26.833330
  0
LINE
  8
0
 10
-348.515015
 20
-32.083328
 11
-340.174988
 21
-32.083328
  0
LINE
  8
0
 10
-347.345001
 20
-27.373329
 11
-341.345001
 21
-27.373329
  0
ARC
  8
0
 10
-346.386810
 20
1.766670
 40
0.400000
 50
90.000000
 51
176.999847
  0
ARC
  8
0
 10
-342.303192
 20
1.766670
 40
0.399993
 50
3.000151
 51
90.000000
  0
ARC
  8
0
 10
-340.845001
 20
-19.983723
 40
5.650394
 50
90.000000
 51
105.176949
  0
ARC
  8
0
 10
-344.345001
 20
-24.791916
 40
10.458586
 50
78.859726
 51
101.072128
  0
ARC
  8
0
 10
-347.845581
 20
-20.148457
 40
5.815131
 50
75.132576
 51
89.994286
  0
ARC
  8
0
 10
-347.845001
 20
-11.682934
 40
5.650394
 50
270.000000
 51
285.176941
  0
ARC
  8
0
 10
-344.345001
 20
-6.874741
 40
10.458585
 50
258.859711
 51
281.072113
  0
ARC
  8
0
 10
-340.844421
 20
-11.518200
 40
5.815131
 50
255.132584
 51
269.994293
  0
POINT
  8
0
 10
-294.345001
 20
33.749672
  0
POINT
  8
0
 10
-344.345001
 20
33.749672
  0
LINE
  8
0
 10
-344.345001
 20
40.949669
 11
-344.345001
 21
25.949669
  0
LINE
  8
0
 10
-350.251343
 20
33.749672
 11
-338.694794
 21
33.749672
  0
LINE
  8
0
 10
-346.365723
 20
30.249672
 11
-342.324280
 21
30.249672
  0
LINE
  8
0
 10
-346.365723
 20
37.249672
 11
-342.324280
 21
37.249672
  0
LINE
  8
0
 10
-342.324280
 20
30.249678
 11
-340.303558
 21
33.749676
  0
LINE
  8
0
 10
-348.386444
 20
33.749676
 11
-346.365723
 21
37.249676
  0
LINE
  8
0
 10
-342.324280
 20
37.249676
 11
-340.303558
 21
33.749676
  0
LINE
  8
0
 10
-348.386444
 20
33.749676
 11
-346.365723
 21
30.249678
  0
LINE
  8
0
 10
-344.345001
 20
38.749672
 11
-294.345001
 21
38.749672
  0
LINE
  8
0
 10
-344.345001
 20
28.749672
 11
-294.345001
 21
28.749672
  0
LINE
  8
0
 10
-294.345001
 20
38.749672
 11
-294.345001
 21
28.749672
  0
LINE
  8
0
 10
-301.845001
 20
37.560879
 11
-301.845001
 21
29.975826
  0
LINE
  8
0
 10
-309.345001
 20
37.461075
 11
-309.345001
 21
29.975826
  0
LINE
  8
0
 10
-319.345001
 20
37.361275
 11
-319.345001
 21
29.975826
  0
LINE
  8
0
 10
-326.845001
 20
37.461075
 11
-326.845001
 21
30.075630
  0
LINE
  8
0
 10
-326.845001
 20
36.349670
 11
-319.345001
 21
36.349670
  0
LINE
  8
0
 10
-326.845001
 20
31.149673
 11
-319.345001
 21
31.149673
  0
LINE
  8
0
 10
-309.345001
 20
36.349670
 11
-301.845001
 21
36.349670
  0
LINE
  8
0
 10
-309.345001
 20
31.149673
 11
-301.845001
 21
31.149673
  0
LINE
  8
0
 10
-331.209564
 20
33.749672
 11
-297.912109
 21
33.749672
  0
CIRCLE
  8
0
 10
-344.345001
 20
33.749672
 40
3.500000
  0
ARC
  8
0
 10
-344.345001
 20
33.749672
 40
5.000000
 50
90.000000
 51
270.000000
  0
ARC
  8
0
 10
-301.845001
 20
33.749672
 40
2.600000
 50
270.000000
 51
90.000000
  0
ARC
  8
0
 10
-309.345001
 20
33.749672
 40
2.599998
 50
90.000000
 51
270.000000
  0
ARC
  8
0
 10
-319.345001
 20
33.749672
 40
2.600000
 50
270.000000
 51
90.000000
  0
ARC
  8
0
 10
-326.845001
 20
33.749672
 40
2.599998
 50
90.000000
 51
270.000000
  0
CIRCLE
  8
0
 10
-344.345001
 20
33.749672
 40
1.250000
  0
CIRCLE
  8
0
 10
-344.345001
 20
33.749672
 40
3.000000
  0
CIRCLE
  8
0
 10
-344.345001
 20
33.749672
 40
2.625000
  0
POINT
  8
0
 10
-159.535004
 20
-27.833328
  0
POINT
  8
0
 10
-151.452103
 20
-27.833328
  0
LINE
  8
0
 10
-164.535004
 20
-43.333328
 11
-154.535004
 21
-43.333328
  0
LINE
  8
0
 10
-159.535004
 20
-1.142078
 11
-159.535004
 21
-24.833328
  0
LINE
  8
0
 10
-155.535004
 20
-38.333328
 11
-155.535004
 21
-43.333328
  0
LINE
  8
0
 10
-163.535004
 20
-38.333328
 11
-163.535004
 21
-43.333328
  0
LINE
  8
0
 10
-154.535004
 20
-43.333328
 11
-154.535004
 21
-47.333328
  0
LINE
  8
0
 10
-164.535004
 20
-43.333328
 11
-164.535004
 21
-47.333328
  0
LINE
  8
0
 10
-165.035004
 20
-38.333328
 11
-154.035004
 21
-38.333328
  0
LINE
  8
0
 10
-154.035004
 20
-17.333328
 11
-154.035004
 21
-24.833328
  0
LINE
  8
0
 10
-165.035004
 20
-17.333328
 11
-165.035004
 21
-24.833328
  0
LINE
  8
0
 10
-165.035004
 20
-17.333328
 11
-154.035004
 21
-17.333328
  0
LINE
  8
0
 10
-162.035004
 20
-8.333328
 11
-157.035004
 21
-8.333328
  0
LINE
  8
0
 10
-162.035004
 20
-8.333328
 11
-162.035004
 21
-12.333328
  0
LINE
  8
0
 10
-157.035004
 20
-8.333328
 11
-157.035004
 21
-12.333328
  0
LINE
  8
0
 10
-162.035004
 20
-6.833328
 11
-157.035004
 21
-6.833328
  0
LINE
  8
0
 10
-162.035004
 20
-5.333328
 11
-157.035004
 21
-5.333328
  0
LINE
  8
0
 10
-162.035004
 20
-3.833328
 11
-157.035004
 21
-3.833328
  0
LINE
  8
0
 10
-161.576813
 20
-2.333328
 11
-157.493195
 21
-2.333328
  0
LINE
  8
0
 10
-157.035004
 20
-3.833326
 11
-157.093750
 21
-2.712393
  0
LINE
  8
0
 10
-162.035004
 20
-3.833328
 11
-161.976257
 21
-2.712393
  0
LINE
  8
0
 10
-157.035004
 20
-5.333326
 11
-157.580963
 21
-3.833324
  0
LINE
  8
0
 10
-157.035004
 20
-6.833330
 11
-157.580963
 21
-5.333328
  0
LINE
  8
0
 10
-157.035004
 20
-8.333332
 11
-157.580963
 21
-6.833330
  0
LINE
  8
0
 10
-162.035004
 20
-5.333330
 11
-161.489044
 21
-3.833328
  0
LINE
  8
0
 10
-162.035004
 20
-6.833328
 11
-161.489044
 21
-5.333328
  0
LINE
  8
0
 10
-162.035004
 20
-8.333328
 11
-161.489044
 21
-6.833326
  0
LINE
  8
0
 10
-164.285004
 20
-12.333328
 11
-154.785004
 21
-12.333328
  0
LINE
  8
0
 10
-164.285004
 20
-12.333328
 11
-164.285004
 21
-17.333328
  0
LINE
  8
0
 10
-154.785004
 20
-12.333328
 11
-154.785004
 21
-17.333328
  0
LINE
  8
0
 10
-154.535004
 20
-17.333328
 11
-154.535004
 21
-24.833328
  0
LINE
  8
0
 10
-164.535004
 20
-17.333328
 11
-164.535004
 21
-24.833328
  0
LINE
  8
0
 10
-165.035004
 20
-30.833328
 11
-165.035004
 21
-38.333328
  0
LINE
  8
0
 10
-164.535004
 20
-30.833328
 11
-164.535004
 21
-38.333328
  0
LINE
  8
0
 10
-159.535004
 20
-30.833328
 11
-159.535004
 21
-57.220425
  0
LINE
  8
0
 10
-154.535004
 20
-30.833328
 11
-154.535004
 21
-38.333328
  0
LINE
  8
0
 10
-154.035004
 20
-30.833328
 11
-154.035004
 21
-38.333328
  0
LINE
  8
0
 10
-166.535004
 20
-27.833328
 11
-152.535004
 21
-27.833328
  0
LINE
  8
0
 10
-166.535004
 20
-24.833328
 11
-152.535004
 21
-24.833328
  0
LINE
  8
0
 10
-167.617905
 20
-25.227474
 11
-167.617905
 21
-27.439186
  0
LINE
  8
0
 10
-151.452103
 20
-25.227474
 11
-151.452103
 21
-27.439186
  0
LINE
  8
0
 10
-166.535004
 20
-24.833332
 11
-167.617905
 21
-25.227478
  0
LINE
  8
0
 10
-152.535004
 20
-27.833324
 11
-151.452103
 21
-27.439182
  0
LINE
  8
0
 10
-166.535004
 20
-27.833324
 11
-167.617905
 21
-27.439182
  0
LINE
  8
0
 10
-152.535004
 20
-24.833332
 11
-151.452103
 21
-25.227478
  0
LINE
  8
0
 10
-163.576462
 20
-25.227474
 11
-163.576462
 21
-27.439186
  0
LINE
  8
0
 10
-155.493546
 20
-25.227478
 11
-155.493546
 21
-27.439186
  0
LINE
  8
0
 10
-152.535004
 20
-30.833323
 11
-151.452103
 21
-30.439180
  0
LINE
  8
0
 10
-166.535004
 20
-30.833323
 11
-167.617905
 21
-30.439180
  0
LINE
  8
0
 10
-155.493546
 20
-28.227478
 11
-155.493546
 21
-30.439186
  0
LINE
  8
0
 10
-152.535004
 20
-27.833326
 11
-151.452103
 21
-28.227470
  0
LINE
  8
0
 10
-163.576462
 20
-28.227474
 11
-163.576462
 21
-30.439186
  0
LINE
  8
0
 10
-166.535004
 20
-30.833328
 11
-152.535004
 21
-30.833328
  0
LINE
  8
0
 10
-167.617905
 20
-28.227474
 11
-167.617905
 21
-30.439186
  0
LINE
  8
0
 10
-151.452103
 20
-28.227474
 11
-151.452103
 21
-30.439186
  0
LINE
  8
0
 10
-166.535004
 20
-27.833326
 11
-167.617905
 21
-28.227470
  0
LINE
  8
0
 10
-154.535004
 20
-47.833328
 11
-154.535004
 21
-50.933327
  0
LINE
  8
0
 10
-164.535004
 20
-47.833328
 11
-164.535004
 21
-50.933327
  0
LINE
  8
0
 10
-155.535004
 20
-52.633327
 11
-155.535004
 21
-53.260094
  0
LINE
  8
0
 10
-163.535004
 20
-52.633327
 11
-163.535004
 21
-53.260094
  0
LINE
  8
0
 10
-164.535004
 20
-47.333328
 11
-154.535004
 21
-47.333328
  0
LINE
  8
0
 10
-164.535004
 20
-55.333328
 11
-154.535004
 21
-55.333328
  0
LINE
  8
0
 10
-164.535004
 20
-50.933327
 11
-154.535004
 21
-50.933327
  0
LINE
  8
0
 10
-163.535004
 20
-52.633327
 11
-155.535004
 21
-52.633327
  0
LINE
  8
0
 10
-164.535004
 20
-55.333328
 11
-164.744995
 21
-55.123325
  0
LINE
  8
0
 10
-154.535004
 20
-55.333328
 11
-154.324997
 21
-55.123329
  0
LINE
  8
0
 10
-154.324997
 20
-55.123325
 11
-155.535004
 21
-53.260090
  0
LINE
  8
0
 10
-164.745010
 20
-55.123325
 11
-163.535004
 21
-53.260090
  0
LINE
  8
0
 10
-164.535004
 20
-50.933327
 11
-163.535004
 21
-52.633327
  0
LINE
  8
0
 10
-154.535004
 20
-50.933327
 11
-155.535004
 21
-52.633327
  0
LINE
  8
0
 10
-155.535004
 20
-53.260094
 11
-163.535004
 21
-53.260094
  0
LINE
  8
0
 10
-164.535004
 20
-47.833321
 11
-164.035004
 21
-47.333321
  0
LINE
  8
0
 10
-154.535004
 20
-47.833321
 11
-155.035004
 21
-47.333321
  0
LINE
  8
0
 10
-164.535004
 20
-47.833328
 11
-154.535004
 21
-47.833328
  0
LINE
  8
0
 10
-164.745010
 20
-55.123329
 11
-154.324997
 21
-55.123329
  0
ARC
  8
0
 10
-161.576813
 20
-2.733330
 40
0.400000
 50
90.000000
 51
176.999847
  0
ARC
  8
0
 10
-157.493195
 20
-2.733330
 40
0.399993
 50
3.000151
 51
90.000000
  0
ARC
  8
0
 10
-159.535004
 20
-45.750305
 40
20.916977
 50
78.859573
 51
101.140427
  0
ARC
  8
0
 10
-159.535004
 20
-6.916153
 40
20.917177
 50
258.859680
 51
281.140320
  0
ARC
  8
0
 10
-166.528778
 20
-36.087379
 40
11.254053
 50
74.791428
 51
90.031776
  0
ARC
  8
0
 10
-166.538635
 20
-16.505123
 40
11.328206
 50
270.018372
 51
285.158356
  0
ARC
  8
0
 10
-152.527725
 20
-36.188854
 40
11.355526
 50
90.036728
 51
105.140091
  0
ARC
  8
0
 10
-152.538422
 20
-16.558006
 40
11.275322
 50
254.805939
 51
270.017365
  0
ARC
  8
0
 10
-159.535004
 20
-48.750305
 40
20.916977
 50
78.859573
 51
101.140427
  0
ARC
  8
0
 10
-152.538422
 20
-19.558006
 40
11.275322
 50
254.805939
 51
270.017365
  0
ARC
  8
0
 10
-152.527725
 20
-39.188854
 40
11.355526
 50
90.036728
 51
105.140091
  0
ARC
  8
0
 10
-166.538635
 20
-19.505123
 40
11.328206
 50
270.018372
 51
285.158356
  0
ARC
  8
0
 10
-166.528778
 20
-39.087379
 40
11.254053
 50
74.791428
 51
90.031776
  0
ARC
  8
0
 10
-159.535004
 20
-9.916153
 40
20.917177
 50
258.859680
 51
281.140320
  0
POINT
  8
0
 10
-151.452087
 20
48.749672
  0
POINT
  8
0
 10
-159.535004
 20
48.749672
  0
LINE
  8
0
 10
-171.481903
 20
48.749672
 11
-148.108749
 21
48.749672
  0
LINE
  8
0
 10
-159.535004
 20
37.707638
 11
-159.535004
 21
59.639053
  0
LINE
  8
0
 10
-163.576447
 20
41.749672
 11
-167.617905
 21
48.749672
  0
LINE
  8
0
 10
-151.452087
 20
48.749680
 11
-155.493546
 21
55.749680
  0
LINE
  8
0
 10
-167.617905
 20
48.749676
 11
-163.576462
 21
55.749676
  0
LINE
  8
0
 10
-155.493546
 20
41.749676
 11
-151.452103
 21
48.749676
  0
LINE
  8
0
 10
-163.576462
 20
55.749672
 11
-155.493546
 21
55.749672
  0
LINE
  8
0
 10
-163.576462
 20
41.749672
 11
-155.493546
 21
41.749672
  0
CIRCLE
  8
0
 10
-159.535004
 20
48.749672
 40
5.500000
  0
CIRCLE
  8
0
 10
-159.535004
 20
48.749672
 40
5.000000
  0
CIRCLE
  8
0
 10
-159.535004
 20
48.749672
 40
7.000000
  0
CIRCLE
  8
0
 10
-159.535004
 20
48.749672
 40
1.250000
  0
CIRCLE
  8
0
 10
-159.535004
 20
48.749672
 40
2.500000
  0
POINT
  8
0
 10
0.274994
 20
-27.833328
  0
POINT
  8
0
 10
8.357898
 20
-27.833328
  0
LINE
  8
0
 10
-4.725006
 20
-43.333328
 11
5.274994
 21
-43.333328
  0
LINE
  8
0
 10
0.274994
 20
-1.142078
 11
0.274994
 21
-24.833328
  0
LINE
  8
0
 10
4.274994
 20
-38.333328
 11
4.274994
 21
-43.333328
  0
LINE
  8
0
 10
-3.725006
 20
-38.333328
 11
-3.725006
 21
-43.333328
  0
LINE
  8
0
 10
5.274994
 20
-43.333328
 11
5.274994
 21
-47.333328
  0
LINE
  8
0
 10
-4.725006
 20
-43.333328
 11
-4.725006
 21
-47.333328
  0
LINE
  8
0
 10
-5.225006
 20
-38.333328
 11
5.774994
 21
-38.333328
  0
LINE
  8
0
 10
5.774994
 20
-17.333328
 11
5.774994
 21
-24.833328
  0
LINE
  8
0
 10
-5.225006
 20
-17.333328
 11
-5.225006
 21
-24.833328
  0
LINE
  8
0
 10
-5.225006
 20
-17.333328
 11
5.774994
 21
-17.333328
  0
LINE
  8
0
 10
-2.225006
 20
-8.333328
 11
2.774994
 21
-8.333328
  0
LINE
  8
0
 10
-2.225006
 20
-8.333328
 11
-2.225006
 21
-12.333328
  0
LINE
  8
0
 10
2.774994
 20
-8.333328
 11
2.774994
 21
-12.333328
  0
LINE
  8
0
 10
-2.225006
 20
-6.833328
 11
2.774994
 21
-6.833328
  0
LINE
  8
0
 10
-2.225006
 20
-5.333328
 11
2.774994
 21
-5.333328
  0
LINE
  8
0
 10
-2.225006
 20
-3.833328
 11
2.774994
 21
-3.833328
  0
LINE
  8
0
 10
-1.766809
 20
-2.333328
 11
2.316797
 21
-2.333328
  0
LINE
  8
0
 10
2.774996
 20
-3.833326
 11
2.716250
 21
-2.712393
  0
LINE
  8
0
 10
-2.225005
 20
-3.833328
 11
-2.166259
 21
-2.712393
  0
LINE
  8
0
 10
2.774995
 20
-5.333326
 11
2.229040
 21
-3.833324
  0
LINE
  8
0
 10
2.774995
 20
-6.833330
 11
2.229040
 21
-5.333328
  0
LINE
  8
0
 10
2.774994
 20
-8.333332
 11
2.229038
 21
-6.833330
  0
LINE
  8
0
 10
-2.225006
 20
-5.333330
 11
-1.679050
 21
-3.833328
  0
LINE
  8
0
 10
-2.225006
 20
-6.833328
 11
-1.679050
 21
-5.333328
  0
LINE
  8
0
 10
-2.225007
 20
-8.333328
 11
-1.679051
 21
-6.833326
  0
LINE
  8
0
 10
-4.475006
 20
-12.333328
 11
5.024994
 21
-12.333328
  0
LINE
  8
0
 10
-4.475006
 20
-12.333328
 11
-4.475006
 21
-17.333328
  0
LINE
  8
0
 10
5.024994
 20
-12.333328
 11
5.024994
 21
-17.333328
  0
LINE
  8
0
 10
5.274994
 20
-17.333328
 11
5.274994
 21
-24.833328
  0
LINE
  8
0
 10
-4.725006
 20
-17.333328
 11
-4.725006
 21
-24.833328
  0
LINE
  8
0
 10
-5.225006
 20
-30.833328
 11
-5.225006
 21
-38.333328
  0
LINE
  8
0
 10
-4.725006
 20
-30.833328
 11
-4.725006
 21
-38.333328
  0
LINE
  8
0
 10
0.274994
 20
-30.833328
 11
0.274994
 21
-56.607521
  0
LINE
  8
0
 10
5.274994
 20
-30.833328
 11
5.274994
 21
-38.333328
  0
LINE
  8
0
 10
5.774994
 20
-30.833328
 11
5.774994
 21
-38.333328
  0
LINE
  8
0
 10
-6.725001
 20
-27.833328
 11
7.274989
 21
-27.833328
  0
LINE
  8
0
 10
-6.725006
 20
-24.833328
 11
7.274993
 21
-24.833328
  0
LINE
  8
0
 10
-7.807910
 20
-25.227474
 11
-7.807910
 21
-27.439186
  0
LINE
  8
0
 10
8.357898
 20
-25.227474
 11
8.357898
 21
-27.439186
  0
LINE
  8
0
 10
-6.725007
 20
-24.833332
 11
-7.807908
 21
-25.227478
  0
LINE
  8
0
 10
7.274992
 20
-27.833324
 11
8.357896
 21
-27.439182
  0
LINE
  8
0
 10
-6.725005
 20
-27.833324
 11
-7.807908
 21
-27.439182
  0
LINE
  8
0
 10
7.274994
 20
-24.833332
 11
8.357896
 21
-25.227478
  0
LINE
  8
0
 10
-3.766459
 20
-25.227474
 11
-3.766459
 21
-27.439186
  0
LINE
  8
0
 10
4.316445
 20
-25.227478
 11
4.316445
 21
-27.439186
  0
LINE
  8
0
 10
7.274992
 20
-30.833323
 11
8.357895
 21
-30.439180
  0
LINE
  8
0
 10
-6.725004
 20
-30.833323
 11
-7.807907
 21
-30.439180
  0
LINE
  8
0
 10
4.316445
 20
-28.227478
 11
4.316445
 21
-30.439186
  0
LINE
  8
0
 10
7.274995
 20
-27.833326
 11
8.357898
 21
-28.227470
  0
LINE
  8
0
 10
-3.766459
 20
-28.227474
 11
-3.766459
 21
-30.439186
  0
LINE
  8
0
 10
-6.725001
 20
-30.833328
 11
7.274989
 21
-30.833328
  0
LINE
  8
0
 10
-7.807910
 20
-28.227474
 11
-7.807910
 21
-30.439186
  0
LINE
  8
0
 10
8.357898
 20
-28.227474
 11
8.357898
 21
-30.439186
  0
LINE
  8
0
 10
-6.725007
 20
-27.833326
 11
-7.807910
 21
-28.227470
  0
LINE
  8
0
 10
-5.225006
 20
-48.333328
 11
-5.225006
 21
-51.333328
  0
LINE
  8
0
 10
5.774994
 20
-48.333328
 11
5.774994
 21
-51.333328
  0
LINE
  8
0
 10
5.274994
 20
-52.233330
 11
5.274994
 21
-52.711437
  0
LINE
  8
0
 10
-4.725006
 20
-52.233330
 11
-4.725006
 21
-52.711437
  0
LINE
  8
0
 10
-5.225006
 20
-51.333328
 11
5.774994
 21
-51.333328
  0
LINE
  8
0
 10
-7.225006
 20
-55.333328
 11
7.774994
 21
-55.333328
  0
LINE
  8
0
 10
-4.725006
 20
-47.333328
 11
5.274994
 21
-47.333328
  0
LINE
  8
0
 10
-4.725006
 20
-52.233330
 11
5.274994
 21
-52.233330
  0
LINE
  8
0
 10
-5.225003
 20
-51.333328
 11
-4.725002
 21
-52.233326
  0
LINE
  8
0
 10
5.274990
 20
-52.233326
 11
5.774991
 21
-51.333328
  0
LINE
  8
0
 10
-4.225005
 20
-47.333328
 11
-5.225006
 21
-48.333328
  0
LINE
  8
0
 10
5.774995
 20
-48.333332
 11
4.774994
 21
-47.333328
  0
LINE
  8
0
 10
-7.225006
 20
-55.333328
 11
-7.510006
 21
-55.048325
  0
LINE
  8
0
 10
7.774998
 20
-55.333332
 11
8.059998
 21
-55.048332
  0
LINE
  8
0
 10
-7.510008
 20
-55.048328
 11
-4.725008
 21
-52.711433
  0
LINE
  8
0
 10
8.059992
 20
-55.048332
 11
5.274992
 21
-52.711441
  0
LINE
  8
0
 10
-4.725006
 20
-52.711437
 11
5.274994
 21
-52.711437
  0
LINE
  8
0
 10
-7.510006
 20
-55.048328
 11
8.059994
 21
-55.048328
  0
LINE
  8
0
 10
-5.225006
 20
-48.333328
 11
5.774994
 21
-48.333328
  0
ARC
  8
0
 10
-1.766809
 20
-2.733330
 40
0.400000
 50
89.999969
 51
176.999908
  0
ARC
  8
0
 10
2.316797
 20
-2.733330
 40
0.400000
 50
3.000097
 51
89.999969
  0
ARC
  8
0
 10
0.274993
 20
-45.750305
 40
20.916977
 50
78.859573
 51
101.140427
  0
ARC
  8
0
 10
0.274993
 20
-6.916153
 40
20.917177
 50
258.859680
 51
281.140289
  0
ARC
  8
0
 10
-6.718774
 20
-36.087379
 40
11.254052
 50
74.791451
 51
90.031769
  0
ARC
  8
0
 10
-6.728639
 20
-16.505123
 40
11.328206
 50
270.018372
 51
285.158325
  0
ARC
  8
0
 10
7.282279
 20
-36.188854
 40
11.355526
 50
90.036751
 51
105.140099
  0
ARC
  8
0
 10
7.271580
 20
-16.558006
 40
11.275321
 50
254.805954
 51
270.017334
  0
ARC
  8
0
 10
0.274993
 20
-48.750305
 40
20.916977
 50
78.859573
 51
101.140427
  0
ARC
  8
0
 10
7.271580
 20
-19.558006
 40
11.275321
 50
254.805954
 51
270.017334
  0
ARC
  8
0
 10
7.282279
 20
-39.188854
 40
11.355526
 50
90.036751
 51
105.140099
  0
ARC
  8
0
 10
-6.728639
 20
-19.505123
 40
11.328206
 50
270.018372
 51
285.158325
  0
ARC
  8
0
 10
-6.718774
 20
-39.087379
 40
11.254052
 50
74.791451
 51
90.031769
  0
ARC
  8
0
 10
0.274993
 20
-9.916153
 40
20.917177
 50
258.859680
 51
281.140289
  0
POINT
  8
0
 10
8.357912
 20
48.749672
  0
POINT
  8
0
 10
0.274994
 20
48.749672
  0
LINE
  8
0
 10
-11.671909
 20
48.749672
 11
11.701247
 21
48.749672
  0
LINE
  8
0
 10
0.274994
 20
37.707638
 11
0.274994
 21
59.639053
  0
LINE
  8
0
 10
-3.766455
 20
41.749672
 11
-7.807907
 21
48.749672
  0
LINE
  8
0
 10
8.357910
 20
48.749680
 11
4.316458
 21
55.749680
  0
LINE
  8
0
 10
-7.807909
 20
48.749676
 11
-3.766458
 21
55.749676
  0
LINE
  8
0
 10
4.316447
 20
41.749676
 11
8.357898
 21
48.749676
  0
LINE
  8
0
 10
-3.766458
 20
55.749672
 11
4.316446
 21
55.749672
  0
LINE
  8
0
 10
-3.766459
 20
41.749672
 11
4.316445
 21
41.749672
  0
CIRCLE
  8
0
 10
0.274994
 20
48.749672
 40
5.500000
  0
CIRCLE
  8
0
 10
0.274994
 20
48.749672
 40
5.000000
  0
CIRCLE
  8
0
 10
0.274994
 20
48.749672
 40
7.000000
  0
CIRCLE
  8
0
 10
0.274994
 20
48.749672
 40
1.250000
  0
CIRCLE
  8
0
 10
0.274994
 20
48.749672
 40
2.500000
  0
ARC
  8
0
 10
0.274994
 20
48.749672
 40
7.784999
 50
4.048624
 51
55.951370
  0
ARC
  8
0
 10
0.274994
 20
48.749672
 40
7.785000
 50
184.048477
 51
235.951447
  0
ARC
  8
0
 10
0.274994
 20
48.749672
 40
7.785000
 50
124.048546
 51
175.951462
  0
ARC
  8
0
 10
0.274994
 20
48.749672
 40
7.785000
 50
64.048538
 51
115.951477
  0
ARC
  8
0
 10
0.274994
 20
48.749672
 40
7.784999
 50
304.048523
 51
355.951447
  0
ARC
  8
0
 10
0.274994
 20
48.749672
 40
7.785001
 50
244.048523
 51
295.951477
  0
POINT
  8
0
 10
160.084991
 20
-27.833328
  0
POINT
  8
0
 10
168.167892
 20
-27.833328
  0
LINE
  8
0
 10
155.084991
 20
-43.333328
 11
165.084991
 21
-43.333328
  0
LINE
  8
0
 10
160.084991
 20
-1.142078
 11
160.084991
 21
-24.833328
  0
LINE
  8
0
 10
164.084991
 20
-38.333328
 11
164.084991
 21
-43.333328
  0
LINE
  8
0
 10
156.084991
 20
-38.333328
 11
156.084991
 21
-43.333328
  0
LINE
  8
0
 10
165.084991
 20
-43.333328
 11
165.084991
 21
-47.333328
  0
LINE
  8
0
 10
155.084991
 20
-43.333328
 11
155.084991
 21
-47.333328
  0
LINE
  8
0
 10
154.584991
 20
-38.333328
 11
165.584991
 21
-38.333328
  0
LINE
  8
0
 10
165.584991
 20
-17.333328
 11
165.584991
 21
-24.833328
  0
LINE
  8
0
 10
154.584991
 20
-17.333328
 11
154.584991
 21
-24.833328
  0
LINE
  8
0
 10
154.584991
 20
-17.333328
 11
165.584991
 21
-17.333328
  0
LINE
  8
0
 10
157.584991
 20
-8.333328
 11
162.584991
 21
-8.333328
  0
LINE
  8
0
 10
157.584991
 20
-8.333328
 11
157.584991
 21
-12.333328
  0
LINE
  8
0
 10
162.584991
 20
-8.333328
 11
162.584991
 21
-12.333328
  0
LINE
  8
0
 10
157.584991
 20
-6.833328
 11
162.584991
 21
-6.833328
  0
LINE
  8
0
 10
157.584991
 20
-5.333328
 11
162.584991
 21
-5.333328
  0
LINE
  8
0
 10
157.584991
 20
-3.833328
 11
162.584991
 21
-3.833328
  0
LINE
  8
0
 10
158.043182
 20
-2.333328
 11
162.126801
 21
-2.333328
  0
LINE
  8
0
 10
162.584991
 20
-3.833326
 11
162.526245
 21
-2.712393
  0
LINE
  8
0
 10
157.584991
 20
-3.833328
 11
157.643738
 21
-2.712393
  0
LINE
  8
0
 10
162.584991
 20
-5.333326
 11
162.039032
 21
-3.833324
  0
LINE
  8
0
 10
162.584991
 20
-6.833330
 11
162.039032
 21
-5.333328
  0
LINE
  8
0
 10
162.584991
 20
-8.333332
 11
162.039032
 21
-6.833330
  0
LINE
  8
0
 10
157.584991
 20
-5.333330
 11
158.130951
 21
-3.833328
  0
LINE
  8
0
 10
157.584991
 20
-6.833328
 11
158.130951
 21
-5.333328
  0
LINE
  8
0
 10
157.584991
 20
-8.333328
 11
158.130951
 21
-6.833326
  0
LINE
  8
0
 10
155.334991
 20
-12.333328
 11
164.834991
 21
-12.333328
  0
LINE
  8
0
 10
155.334991
 20
-12.333328
 11
155.334991
 21
-17.333328
  0
LINE
  8
0
 10
164.834991
 20
-12.333328
 11
164.834991
 21
-17.333328
  0
LINE
  8
0
 10
165.084991
 20
-17.333328
 11
165.084991
 21
-24.833328
  0
LINE
  8
0
 10
155.084991
 20
-17.333328
 11
155.084991
 21
-24.833328
  0
LINE
  8
0
 10
154.584991
 20
-30.833328
 11
154.584991
 21
-38.333328
  0
LINE
  8
0
 10
155.084991
 20
-30.833328
 11
155.084991
 21
-38.333328
  0
LINE
  8
0
 10
160.084991
 20
-30.833328
 11
160.084991
 21
-59.345127
  0
LINE
  8
0
 10
165.084991
 20
-30.833328
 11
165.084991
 21
-38.333328
  0
LINE
  8
0
 10
165.584991
 20
-30.833328
 11
165.584991
 21
-38.333328
  0
LINE
  8
0
 10
153.084991
 20
-27.833328
 11
167.084991
 21
-27.833328
  0
LINE
  8
0
 10
153.084991
 20
-24.833328
 11
167.084991
 21
-24.833328
  0
LINE
  8
0
 10
152.002090
 20
-25.227474
 11
152.002090
 21
-27.439186
  0
LINE
  8
0
 10
168.167892
 20
-25.227474
 11
168.167892
 21
-27.439186
  0
LINE
  8
0
 10
153.084991
 20
-24.833332
 11
152.002090
 21
-25.227478
  0
LINE
  8
0
 10
167.084991
 20
-27.833324
 11
168.167892
 21
-27.439182
  0
LINE
  8
0
 10
153.084991
 20
-27.833324
 11
152.002090
 21
-27.439182
  0
LINE
  8
0
 10
167.084991
 20
-24.833332
 11
168.167892
 21
-25.227478
  0
LINE
  8
0
 10
156.043533
 20
-25.227474
 11
156.043533
 21
-27.439186
  0
LINE
  8
0
 10
164.126450
 20
-25.227478
 11
164.126450
 21
-27.439186
  0
LINE
  8
0
 10
167.084991
 20
-30.833323
 11
168.167892
 21
-30.439180
  0
LINE
  8
0
 10
153.084991
 20
-30.833323
 11
152.002090
 21
-30.439180
  0
LINE
  8
0
 10
164.126450
 20
-28.227478
 11
164.126450
 21
-30.439186
  0
LINE
  8
0
 10
167.084991
 20
-27.833326
 11
168.167892
 21
-28.227470
  0
LINE
  8
0
 10
156.043533
 20
-28.227474
 11
156.043533
 21
-30.439186
  0
LINE
  8
0
 10
153.084991
 20
-30.833328
 11
167.084991
 21
-30.833328
  0
LINE
  8
0
 10
152.002090
 20
-28.227474
 11
152.002090
 21
-30.439186
  0
LINE
  8
0
 10
168.167892
 20
-28.227474
 11
168.167892
 21
-30.439186
  0
LINE
  8
0
 10
153.084991
 20
-27.833326
 11
152.002090
 21
-28.227470
  0
LINE
  8
0
 10
153.084991
 20
-49.333328
 11
153.084991
 21
-53.333328
  0
LINE
  8
0
 10
167.084991
 20
-49.333328
 11
167.084991
 21
-53.333328
  0
LINE
  8
0
 10
154.834991
 20
-47.333328
 11
165.334991
 21
-47.333328
  0
LINE
  8
0
 10
153.084991
 20
-49.333328
 11
167.084991
 21
-49.333328
  0
LINE
  8
0
 10
150.334991
 20
-57.333328
 11
169.834991
 21
-57.333328
  0
LINE
  8
0
 10
153.297684
 20
-54.733330
 11
166.872299
 21
-54.733330
  0
LINE
  8
0
 10
154.834991
 20
-47.333328
 11
165.334991
 21
-47.333328
  0
LINE
  8
0
 10
153.084991
 20
-49.333328
 11
167.084991
 21
-49.333328
  0
LINE
  8
0
 10
154.834991
 20
-47.333328
 11
153.084991
 21
-49.333328
  0
LINE
  8
0
 10
167.084991
 20
-49.333328
 11
165.334991
 21
-47.333328
  0
LINE
  8
0
 10
153.084991
 20
-53.333328
 11
167.084991
 21
-53.333328
  0
LINE
  8
0
 10
150.334991
 20
-57.333328
 11
150.084991
 21
-56.900314
  0
LINE
  8
0
 10
169.834991
 20
-57.333336
 11
170.084991
 21
-56.900318
  0
LINE
  8
0
 10
166.872299
 20
-54.733334
 11
170.084991
 21
-56.900322
  0
LINE
  8
0
 10
150.084991
 20
-56.900322
 11
153.297684
 21
-54.733334
  0
LINE
  8
0
 10
153.084991
 20
-53.333328
 11
153.297684
 21
-54.733330
  0
LINE
  8
0
 10
167.084991
 20
-53.333328
 11
166.872299
 21
-54.733330
  0
LINE
  8
0
 10
170.084991
 20
-56.900314
 11
150.084991
 21
-56.900314
  0
ARC
  8
0
 10
158.043182
 20
-2.733330
 40
0.400000
 50
90.000000
 51
176.999847
  0
ARC
  8
0
 10
162.126801
 20
-2.733330
 40
0.399993
 50
3.000151
 51
90.000000
  0
ARC
  8
0
 10
160.084991
 20
-45.750305
 40
20.916977
 50
78.859573
 51
101.140427
  0
ARC
  8
0
 10
160.084991
 20
-6.916153
 40
20.917177
 50
258.859680
 51
281.140320
  0
ARC
  8
0
 10
153.091217
 20
-36.087379
 40
11.254053
 50
74.791428
 51
90.031776
  0
ARC
  8
0
 10
153.081360
 20
-16.505123
 40
11.328206
 50
270.018372
 51
285.158356
  0
ARC
  8
0
 10
167.092270
 20
-36.188854
 40
11.355526
 50
90.036728
 51
105.140091
  0
ARC
  8
0
 10
167.081573
 20
-16.558006
 40
11.275322
 50
254.805939
 51
270.017365
  0
ARC
  8
0
 10
160.084991
 20
-48.750305
 40
20.916977
 50
78.859573
 51
101.140427
  0
ARC
  8
0
 10
167.081573
 20
-19.558006
 40
11.275322
 50
254.805939
 51
270.017365
  0
ARC
  8
0
 10
167.092270
 20
-39.188854
 40
11.355526
 50
90.036728
 51
105.140091
  0
ARC
  8
0
 10
153.081360
 20
-19.505123
 40
11.328206
 50
270.018372
 51
285.158356
  0
ARC
  8
0
 10
153.091217
 20
-39.087379
 40
11.254053
 50
74.791428
 51
90.031776
  0
ARC
  8
0
 10
160.084991
 20
-9.916153
 40
20.917177
 50
258.859680
 51
281.140320
  0
POINT
  8
0
 10
168.167908
 20
48.749672
  0
POINT
  8
0
 10
160.084991
 20
48.749672
  0
LINE
  8
0
 10
148.138092
 20
48.749672
 11
171.511246
 21
48.749672
  0
LINE
  8
0
 10
160.084991
 20
37.707638
 11
160.084991
 21
59.639053
  0
LINE
  8
0
 10
156.043549
 20
41.749672
 11
152.002090
 21
48.749672
  0
LINE
  8
0
 10
168.167908
 20
48.749680
 11
164.126450
 21
55.749680
  0
LINE
  8
0
 10
152.002090
 20
48.749676
 11
156.043533
 21
55.749676
  0
LINE
  8
0
 10
164.126450
 20
41.749676
 11
168.167892
 21
48.749676
  0
LINE
  8
0
 10
156.043533
 20
55.749672
 11
164.126450
 21
55.749672
  0
LINE
  8
0
 10
156.043533
 20
41.749672
 11
164.126450
 21
41.749672
  0
CIRCLE
  8
0
 10
160.084991
 20
48.749672
 40
5.500000
  0
CIRCLE
  8
0
 10
160.084991
 20
48.749672
 40
5.000000
  0
CIRCLE
  8
0
 10
160.084991
 20
48.749672
 40
7.000000
  0
CIRCLE
  8
0
 10
160.084991
 20
48.749672
 40
1.250000
  0
CIRCLE
  8
0
 10
160.084991
 20
48.749672
 40
2.500000
  0
CIRCLE
  8
0
 10
160.084991
 20
48.749672
 40
10.000000
  0
POINT
  8
0
 10
319.894989
 20
-8.333328
  0
POINT
  8
0
 10
329.709930
 20
-8.333328
  0
LINE
  8
0
 10
319.894989
 20
-63.788101
 11
319.894989
 21
8.747787
  0
LINE
  8
0
 10
313.644989
 20
-2.333328
 11
326.144989
 21
-2.333328
  0
LINE
  8
0
 10
314.894989
 20
-35.333328
 11
314.894989
 21
-12.333328
  0
LINE
  8
0
 10
324.894989
 20
-35.333328
 11
324.894989
 21
-12.333328
  0
LINE
  8
0
 10
326.144989
 20
-35.333328
 11
326.144989
 21
-12.333328
  0
LINE
  8
0
 10
313.644989
 20
-35.333328
 11
313.644989
 21
-12.333328
  0
LINE
  8
0
 10
312.827515
 20
-8.333328
 11
326.962463
 21
-8.333328
  0
LINE
  8
0
 10
312.827515
 20
-12.333328
 11
326.962463
 21
-12.333328
  0
LINE
  8
0
 10
310.080048
 20
-9.333328
 11
310.080048
 21
-11.333328
  0
LINE
  8
0
 10
329.709930
 20
-9.333328
 11
329.709930
 21
-11.333328
  0
LINE
  8
0
 10
310.080017
 20
-9.333328
 11
312.827515
 21
-8.333327
  0
LINE
  8
0
 10
329.709930
 20
-11.333331
 11
326.962463
 21
-12.333330
  0
LINE
  8
0
 10
310.080048
 20
-11.333336
 11
312.827515
 21
-12.333336
  0
LINE
  8
0
 10
329.709930
 20
-9.333326
 11
326.962463
 21
-8.333326
  0
LINE
  8
0
 10
314.987518
 20
-11.333328
 11
314.987518
 21
-9.333328
  0
LINE
  8
0
 10
324.802460
 20
-9.333328
 11
324.802460
 21
-11.333328
  0
LINE
  8
0
 10
312.827515
 20
-4.333328
 11
326.962463
 21
-4.333328
  0
LINE
  8
0
 10
310.080048
 20
-5.333328
 11
310.080048
 21
-7.333328
  0
LINE
  8
0
 10
329.709930
 20
-5.333328
 11
329.709930
 21
-7.333328
  0
LINE
  8
0
 10
310.080017
 20
-5.333325
 11
312.827515
 21
-4.333325
  0
LINE
  8
0
 10
329.709930
 20
-7.333329
 11
326.962463
 21
-8.333328
  0
LINE
  8
0
 10
310.080048
 20
-7.333329
 11
312.827515
 21
-8.333328
  0
LINE
  8
0
 10
329.709961
 20
-5.333324
 11
326.962463
 21
-4.333325
  0
LINE
  8
0
 10
314.987518
 20
-7.333328
 11
314.987518
 21
-5.333328
  0
LINE
  8
0
 10
324.802460
 20
-5.333328
 11
324.802460
 21
-7.333328
  0
LINE
  8
0
 10
313.644989
 20
-4.333328
 11
313.644989
 21
-2.333328
  0
LINE
  8
0
 10
314.894989
 20
-4.333328
 11
314.894989
 21
-2.333328
  0
LINE
  8
0
 10
324.894989
 20
-4.333328
 11
324.894989
 21
-2.333328
  0
LINE
  8
0
 10
326.144989
 20
-4.333328
 11
326.144989
 21
-2.333328
  0
LINE
  8
0
 10
313.644989
 20
-35.333328
 11
326.144989
 21
-35.333328
  0
LINE
  8
0
 10
312.894989
 20
-44.333328
 11
326.894989
 21
-44.333328
  0
LINE
  8
0
 10
326.894989
 20
-48.333328
 11
326.894989
 21
-44.333328
  0
LINE
  8
0
 10
312.894989
 20
-48.333328
 11
312.894989
 21
-44.333328
  0
LINE
  8
0
 10
324.394989
 20
-44.333328
 11
324.394989
 21
-35.333328
  0
LINE
  8
0
 10
315.394989
 20
-44.333328
 11
315.394989
 21
-35.333328
  0
LINE
  8
0
 10
317.394989
 20
1.666672
 11
322.394989
 21
1.666672
  0
LINE
  8
0
 10
317.394989
 20
1.666672
 11
317.394989
 21
-2.333328
  0
LINE
  8
0
 10
322.394989
 20
1.666672
 11
322.394989
 21
-2.333328
  0
LINE
  8
0
 10
317.394989
 20
3.166672
 11
322.394989
 21
3.166672
  0
LINE
  8
0
 10
317.394989
 20
4.666672
 11
322.394989
 21
4.666672
  0
LINE
  8
0
 10
317.394989
 20
6.166672
 11
322.394989
 21
6.166672
  0
LINE
  8
0
 10
317.853180
 20
7.666672
 11
321.936798
 21
7.666672
  0
LINE
  8
0
 10
322.394989
 20
6.166674
 11
322.336243
 21
7.287610
  0
LINE
  8
0
 10
317.394989
 20
6.166672
 11
317.453735
 21
7.287608
  0
LINE
  8
0
 10
322.394989
 20
4.666670
 11
321.849030
 21
6.166671
  0
LINE
  8
0
 10
322.394989
 20
3.166671
 11
321.849030
 21
4.666672
  0
LINE
  8
0
 10
322.394989
 20
1.666668
 11
321.849030
 21
3.166669
  0
LINE
  8
0
 10
317.394989
 20
4.666670
 11
317.940948
 21
6.166675
  0
LINE
  8
0
 10
317.394989
 20
3.166668
 11
317.940948
 21
4.666669
  0
LINE
  8
0
 10
317.394989
 20
1.666678
 11
317.940948
 21
3.166679
  0
LINE
  8
0
 10
327.394989
 20
-49.833328
 11
327.394989
 21
-54.833328
  0
LINE
  8
0
 10
312.394989
 20
-49.833328
 11
312.394989
 21
-54.833328
  0
LINE
  8
0
 10
312.394989
 20
-54.833328
 11
327.394989
 21
-54.833328
  0
LINE
  8
0
 10
312.894989
 20
-48.333328
 11
326.894989
 21
-48.333328
  0
LINE
  8
0
 10
312.394989
 20
-49.833328
 11
327.394989
 21
-49.833328
  0
LINE
  8
0
 10
307.644989
 20
-62.333328
 11
332.144989
 21
-62.333328
  0
LINE
  8
0
 10
313.455597
 20
-57.333328
 11
326.334381
 21
-57.333328
  0
LINE
  8
0
 10
314.144989
 20
-48.333328
 11
312.394989
 21
-49.833328
  0
LINE
  8
0
 10
325.644989
 20
-48.333324
 11
327.394989
 21
-49.833328
  0
LINE
  8
0
 10
332.144989
 20
-62.333324
 11
332.394989
 21
-61.900314
  0
LINE
  8
0
 10
307.394989
 20
-61.900318
 11
307.644989
 21
-62.333332
  0
LINE
  8
0
 10
326.334381
 20
-57.333328
 11
332.394989
 21
-61.900314
  0
LINE
  8
0
 10
307.346344
 20
-61.936985
 11
313.455597
 21
-57.333328
  0
LINE
  8
0
 10
312.394989
 20
-54.833328
 11
313.455597
 21
-57.333332
  0
LINE
  8
0
 10
327.394989
 20
-54.833336
 11
326.334412
 21
-57.333332
  0
LINE
  8
0
 10
307.394989
 20
-61.900314
 11
332.394989
 21
-61.900314
  0
ARC
  8
0
 10
319.894989
 20
-20.875000
 40
12.541669
 50
66.965004
 51
113.034996
  0
ARC
  8
0
 10
319.894989
 20
0.208344
 40
12.541667
 50
246.964996
 51
293.035004
  0
ARC
  8
0
 10
326.962463
 20
-11.166142
 40
2.832813
 50
90.000000
 51
139.684616
  0
ARC
  8
0
 10
312.827057
 20
-11.167084
 40
2.833770
 50
40.323917
 51
89.990746
  0
ARC
  8
0
 10
312.827515
 20
-9.500526
 40
2.832802
 50
270.000000
 51
319.684784
  0
ARC
  8
0
 10
326.963074
 20
-9.499180
 40
2.834141
 50
220.327972
 51
269.987671
  0
ARC
  8
0
 10
319.894989
 20
-16.875000
 40
12.541668
 50
66.965004
 51
113.034996
  0
ARC
  8
0
 10
319.894989
 20
4.208344
 40
12.541667
 50
246.964996
 51
293.035004
  0
ARC
  8
0
 10
326.962463
 20
-7.166142
 40
2.832813
 50
90.000000
 51
139.684616
  0
ARC
  8
0
 10
312.827057
 20
-7.167084
 40
2.833770
 50
40.323910
 51
89.990746
  0
ARC
  8
0
 10
312.827515
 20
-5.500526
 40
2.832802
 50
270.000000
 51
319.684784
  0
ARC
  8
0
 10
326.963074
 20
-5.499180
 40
2.834141
 50
220.327972
 51
269.987671
  0
ARC
  8
0
 10
321.936798
 20
7.266670
 40
0.399993
 50
3.000151
 51
90.000000
  0
ARC
  8
0
 10
317.853180
 20
7.266670
 40
0.400000
 50
90.000000
 51
176.999847
  0
POINT
  8
0
 10
329.709961
 20
58.749672
  0
POINT
  8
0
 10
319.894989
 20
58.749672
  0
LINE
  8
0
 10
305.603210
 20
58.749672
 11
333.561646
 21
58.749672
  0
LINE
  8
0
 10
329.709961
 20
58.749672
 11
324.802490
 21
67.249672
  0
LINE
  8
0
 10
314.987518
 20
50.249672
 11
310.080048
 21
58.749676
  0
LINE
  8
0
 10
310.080017
 20
58.749676
 11
314.987518
 21
67.249680
  0
LINE
  8
0
 10
324.802460
 20
50.249672
 11
329.709930
 21
58.749672
  0
LINE
  8
0
 10
314.987518
 20
50.249672
 11
324.802460
 21
50.249672
  0
LINE
  8
0
 10
314.987518
 20
67.249672
 11
324.802460
 21
67.249672
  0
LINE
  8
0
 10
319.894989
 20
44.868164
 11
319.894989
 21
72.572197
  0
CIRCLE
  8
0
 10
319.894989
 20
58.749672
 40
7.000000
  0
CIRCLE
  8
0
 10
319.894989
 20
58.749672
 40
6.250000
  0
CIRCLE
  8
0
 10
319.894989
 20
58.749672
 40
8.500000
  0
CIRCLE
  8
0
 10
319.894989
 20
58.749672
 40
2.500000
  0
CIRCLE
  8
0
 10
319.894989
 20
58.749672
 40
4.550000
  0
CIRCLE
  8
0
 10
319.894989
 20
58.749672
 40
1.500000
  0
CIRCLE
  8
0
 10
319.894989
 20
58.749672
 40
12.500000
  0
POINT
  8
0
 10
-319.345001
 20
-202.666656
  0
POINT
  8
0
 10
-309.530060
 20
-202.666656
  0
LINE
  8
0
 10
-319.345001
 20
-256.120239
 11
-319.345001
 21
-185.585541
  0
LINE
  8
0
 10
-325.595001
 20
-196.666656
 11
-313.095001
 21
-196.666656
  0
LINE
  8
0
 10
-324.345001
 20
-229.666656
 11
-324.345001
 21
-206.666656
  0
LINE
  8
0
 10
-314.345001
 20
-229.666656
 11
-314.345001
 21
-206.666656
  0
LINE
  8
0
 10
-313.095001
 20
-229.666656
 11
-313.095001
 21
-206.666656
  0
LINE
  8
0
 10
-325.595001
 20
-229.666656
 11
-325.595001
 21
-206.666656
  0
LINE
  8
0
 10
-326.412476
 20
-202.666656
 11
-312.277527
 21
-202.666656
  0
LINE
  8
0
 10
-326.412476
 20
-206.666656
 11
-312.277527
 21
-206.666656
  0
LINE
  8
0
 10
-329.159943
 20
-203.666656
 11
-329.159943
 21
-205.666656
  0
LINE
  8
0
 10
-309.530060
 20
-203.666656
 11
-309.530060
 21
-205.666656
  0
LINE
  8
0
 10
-329.159973
 20
-203.666656
 11
-326.412476
 21
-202.666656
  0
LINE
  8
0
 10
-309.530060
 20
-205.666656
 11
-312.277527
 21
-206.666656
  0
LINE
  8
0
 10
-329.159943
 20
-205.666672
 11
-326.412476
 21
-206.666656
  0
LINE
  8
0
 10
-309.530060
 20
-203.666656
 11
-312.277527
 21
-202.666656
  0
LINE
  8
0
 10
-324.252472
 20
-205.666656
 11
-324.252472
 21
-203.666656
  0
LINE
  8
0
 10
-314.437531
 20
-203.666656
 11
-314.437531
 21
-205.666656
  0
LINE
  8
0
 10
-326.412476
 20
-198.666656
 11
-312.277527
 21
-198.666656
  0
LINE
  8
0
 10
-329.159943
 20
-199.666656
 11
-329.159943
 21
-201.666656
  0
LINE
  8
0
 10
-309.530060
 20
-199.666656
 11
-309.530060
 21
-201.666656
  0
LINE
  8
0
 10
-329.159973
 20
-199.666656
 11
-326.412476
 21
-198.666656
  0
LINE
  8
0
 10
-309.530060
 20
-201.666656
 11
-312.277527
 21
-202.666656
  0
LINE
  8
0
 10
-329.159943
 20
-201.666656
 11
-326.412476
 21
-202.666656
  0
LINE
  8
0
 10
-309.530029
 20
-199.666656
 11
-312.277527
 21
-198.666656
  0
LINE
  8
0
 10
-324.252472
 20
-201.666656
 11
-324.252472
 21
-199.666656
  0
LINE
  8
0
 10
-314.437531
 20
-199.666656
 11
-314.437531
 21
-201.666656
  0
LINE
  8
0
 10
-325.595001
 20
-198.666656
 11
-325.595001
 21
-196.666656
  0
LINE
  8
0
 10
-324.345001
 20
-198.666656
 11
-324.345001
 21
-196.666656
  0
LINE
  8
0
 10
-314.345001
 20
-198.666656
 11
-314.345001
 21
-196.666656
  0
LINE
  8
0
 10
-313.095001
 20
-198.666656
 11
-313.095001
 21
-196.666656
  0
LINE
  8
0
 10
-325.595001
 20
-229.666656
 11
-313.095001
 21
-229.666656
  0
LINE
  8
0
 10
-326.345001
 20
-238.666656
 11
-312.345001
 21
-238.666656
  0
LINE
  8
0
 10
-312.345001
 20
-242.666656
 11
-312.345001
 21
-238.666656
  0
LINE
  8
0
 10
-326.345001
 20
-242.666656
 11
-326.345001
 21
-238.666656
  0
LINE
  8
0
 10
-314.845001
 20
-238.666656
 11
-314.845001
 21
-229.666656
  0
LINE
  8
0
 10
-323.845001
 20
-238.666656
 11
-323.845001
 21
-229.666656
  0
LINE
  8
0
 10
-321.845001
 20
-192.666656
 11
-316.845001
 21
-192.666656
  0
LINE
  8
0
 10
-321.845001
 20
-192.666656
 11
-321.845001
 21
-196.666656
  0
LINE
  8
0
 10
-316.845001
 20
-192.666656
 11
-316.845001
 21
-196.666656
  0
LINE
  8
0
 10
-321.845001
 20
-191.166656
 11
-316.845001
 21
-191.166656
  0
LINE
  8
0
 10
-321.845001
 20
-189.666656
 11
-316.845001
 21
-189.666656
  0
LINE
  8
0
 10
-321.845001
 20
-188.166656
 11
-316.845001
 21
-188.166656
  0
LINE
  8
0
 10
-321.386810
 20
-186.666656
 11
-317.303192
 21
-186.666656
  0
LINE
  8
0
 10
-316.845001
 20
-188.166656
 11
-316.903748
 21
-187.045715
  0
LINE
  8
0
 10
-321.845001
 20
-188.166656
 11
-321.786255
 21
-187.045715
  0
LINE
  8
0
 10
-316.845001
 20
-189.666656
 11
-317.390961
 21
-188.166656
  0
LINE
  8
0
 10
-316.845001
 20
-191.166656
 11
-317.390961
 21
-189.666656
  0
LINE
  8
0
 10
-316.845001
 20
-192.666656
 11
-317.390961
 21
-191.166656
  0
LINE
  8
0
 10
-321.845001
 20
-189.666656
 11
-321.299042
 21
-188.166656
  0
LINE
  8
0
 10
-321.845001
 20
-191.166656
 11
-321.299042
 21
-189.666656
  0
LINE
  8
0
 10
-321.845001
 20
-192.666656
 11
-321.299042
 21
-191.166656
  0
LINE
  8
0
 10
-311.845001
 20
-244.666656
 11
-311.845001
 21
-248.666656
  0
LINE
  8
0
 10
-326.845001
 20
-244.666656
 11
-326.845001
 21
-248.666656
  0
LINE
  8
0
 10
-325.381775
 20
-249.666656
 11
-313.308228
 21
-249.666656
  0
LINE
  8
0
 10
-325.381775
 20
-249.666656
 11
-313.308228
 21
-249.666656
  0
LINE
  8
0
 10
-334.095001
 20
-254.666656
 11
-304.595001
 21
-254.666656
  0
LINE
  8
0
 10
-326.345001
 20
-242.666656
 11
-312.345001
 21
-242.666656
  0
LINE
  8
0
 10
-326.845001
 20
-244.666656
 11
-311.845001
 21
-244.666656
  0
LINE
  8
0
 10
-324.595001
 20
-242.666656
 11
-326.845001
 21
-244.666656
  0
LINE
  8
0
 10
-314.095001
 20
-242.666656
 11
-311.845001
 21
-244.666656
  0
LINE
  8
0
 10
-334.345001
 20
-254.233643
 11
-334.095001
 21
-254.666656
  0
LINE
  8
0
 10
-304.595001
 20
-254.666656
 11
-304.345001
 21
-254.233643
  0
LINE
  8
0
 10
-334.345001
 20
-254.233643
 11
-325.381775
 21
-249.666656
  0
LINE
  8
0
 10
-313.308228
 20
-249.666656
 11
-304.345001
 21
-254.233643
  0
LINE
  8
0
 10
-326.845001
 20
-248.666656
 11
-311.845001
 21
-248.666656
  0
LINE
  8
0
 10
-326.845001
 20
-248.666656
 11
-325.381775
 21
-249.666656
  0
LINE
  8
0
 10
-311.845001
 20
-248.666656
 11
-313.308228
 21
-249.666656
  0
LINE
  8
0
 10
-334.345001
 20
-254.233643
 11
-304.345001
 21
-254.233643
  0
ARC
  8
0
 10
-319.345001
 20
-215.208328
 40
12.541669
 50
66.965004
 51
113.034996
  0
ARC
  8
0
 10
-319.345001
 20
-194.124985
 40
12.541669
 50
246.965012
 51
293.035004
  0
ARC
  8
0
 10
-312.277527
 20
-205.499466
 40
2.832809
 50
90.000000
 51
139.684677
  0
ARC
  8
0
 10
-326.412933
 20
-205.500412
 40
2.833770
 50
40.323917
 51
89.990746
  0
ARC
  8
0
 10
-326.412476
 20
-203.833862
 40
2.832794
 50
270.000000
 51
319.684906
  0
ARC
  8
0
 10
-312.276917
 20
-203.832504
 40
2.834143
 50
220.328033
 51
269.987671
  0
ARC
  8
0
 10
-319.345001
 20
-211.208328
 40
12.541669
 50
66.965004
 51
113.034996
  0
ARC
  8
0
 10
-319.345001
 20
-190.124985
 40
12.541669
 50
246.965012
 51
293.035004
  0
ARC
  8
0
 10
-312.277527
 20
-201.499466
 40
2.832809
 50
90.000000
 51
139.684677
  0
ARC
  8
0
 10
-326.412933
 20
-201.500412
 40
2.833770
 50
40.323917
 51
89.990746
  0
ARC
  8
0
 10
-326.412476
 20
-199.833862
 40
2.832794
 50
270.000000
 51
319.684906
  0
ARC
  8
0
 10
-312.276917
 20
-199.832504
 40
2.834143
 50
220.328033
 51
269.987671
  0
ARC
  8
0
 10
-317.303192
 20
-187.066650
 40
0.399993
 50
3.000151
 51
90.000000
  0
ARC
  8
0
 10
-321.386810
 20
-187.066650
 40
0.399994
 50
90.000000
 51
176.999847
  0
POINT
  8
0
 10
-309.530029
 20
-135.583649
  0
POINT
  8
0
 10
-319.345001
 20
-135.583649
  0
LINE
  8
0
 10
-337.461151
 20
-135.583649
 11
-300.461151
 21
-135.583649
  0
LINE
  8
0
 10
-309.530029
 20
-135.583649
 11
-314.437500
 21
-127.083649
  0
LINE
  8
0
 10
-324.252472
 20
-144.083649
 11
-329.159943
 21
-135.583649
  0
LINE
  8
0
 10
-329.159973
 20
-135.583649
 11
-324.252472
 21
-127.083649
  0
LINE
  8
0
 10
-314.437531
 20
-144.083649
 11
-309.530060
 21
-135.583649
  0
LINE
  8
0
 10
-324.252472
 20
-144.083649
 11
-314.437531
 21
-144.083649
  0
LINE
  8
0
 10
-324.252472
 20
-127.083649
 11
-314.437531
 21
-127.083649
  0
LINE
  8
0
 10
-319.345001
 20
-152.981339
 11
-319.345001
 21
-117.314667
  0
CIRCLE
  8
0
 10
-319.345001
 20
-135.583649
 40
7.000000
  0
CIRCLE
  8
0
 10
-319.345001
 20
-135.583649
 40
6.250000
  0
CIRCLE
  8
0
 10
-319.345001
 20
-135.583649
 40
8.500000
  0
CIRCLE
  8
0
 10
-319.345001
 20
-135.583649
 40
2.500000
  0
CIRCLE
  8
0
 10
-319.345001
 20
-135.583649
 40
4.550000
  0
CIRCLE
  8
0
 10
-319.345001
 20
-135.583649
 40
1.500000
  0
CIRCLE
  8
0
 10
-319.345001
 20
-135.583649
 40
15.000000
  0
POINT
  8
0
 10
-159.535004
 20
-202.666656
  0
POINT
  8
0
 10
-149.720047
 20
-202.666656
  0
LINE
  8
0
 10
-159.535004
 20
-259.137146
 11
-159.535004
 21
-185.585541
  0
LINE
  8
0
 10
-165.785004
 20
-196.666656
 11
-153.285004
 21
-196.666656
  0
LINE
  8
0
 10
-164.535004
 20
-229.666656
 11
-164.535004
 21
-206.666656
  0
LINE
  8
0
 10
-154.535004
 20
-229.666656
 11
-154.535004
 21
-206.666656
  0
LINE
  8
0
 10
-153.285004
 20
-229.666656
 11
-153.285004
 21
-206.666656
  0
LINE
  8
0
 10
-165.785004
 20
-229.666656
 11
-165.785004
 21
-206.666656
  0
LINE
  8
0
 10
-166.602478
 20
-202.666656
 11
-152.467529
 21
-202.666656
  0
LINE
  8
0
 10
-166.602478
 20
-206.666656
 11
-152.467529
 21
-206.666656
  0
LINE
  8
0
 10
-169.349960
 20
-203.666656
 11
-169.349960
 21
-205.666656
  0
LINE
  8
0
 10
-149.720047
 20
-203.666656
 11
-149.720047
 21
-205.666656
  0
LINE
  8
0
 10
-169.349960
 20
-203.666656
 11
-166.602493
 21
-202.666656
  0
LINE
  8
0
 10
-149.720047
 20
-205.666656
 11
-152.467529
 21
-206.666656
  0
LINE
  8
0
 10
-169.349960
 20
-205.666672
 11
-166.602478
 21
-206.666656
  0
LINE
  8
0
 10
-149.720047
 20
-203.666656
 11
-152.467514
 21
-202.666656
  0
LINE
  8
0
 10
-164.442490
 20
-205.666656
 11
-164.442490
 21
-203.666656
  0
LINE
  8
0
 10
-154.627533
 20
-203.666656
 11
-154.627533
 21
-205.666656
  0
LINE
  8
0
 10
-166.602478
 20
-198.666656
 11
-152.467529
 21
-198.666656
  0
LINE
  8
0
 10
-169.349960
 20
-199.666656
 11
-169.349960
 21
-201.666656
  0
LINE
  8
0
 10
-149.720047
 20
-199.666656
 11
-149.720047
 21
-201.666656
  0
LINE
  8
0
 10
-169.349960
 20
-199.666656
 11
-166.602493
 21
-198.666656
  0
LINE
  8
0
 10
-149.720047
 20
-201.666656
 11
-152.467529
 21
-202.666656
  0
LINE
  8
0
 10
-169.349960
 20
-201.666656
 11
-166.602478
 21
-202.666656
  0
LINE
  8
0
 10
-149.720047
 20
-199.666656
 11
-152.467514
 21
-198.666656
  0
LINE
  8
0
 10
-164.442490
 20
-201.666656
 11
-164.442490
 21
-199.666656
  0
LINE
  8
0
 10
-154.627533
 20
-199.666656
 11
-154.627533
 21
-201.666656
  0
LINE
  8
0
 10
-165.785004
 20
-198.666656
 11
-165.785004
 21
-196.666656
  0
LINE
  8
0
 10
-164.535004
 20
-198.666656
 11
-164.535004
 21
-196.666656
  0
LINE
  8
0
 10
-154.535004
 20
-198.666656
 11
-154.535004
 21
-196.666656
  0
LINE
  8
0
 10
-153.285004
 20
-198.666656
 11
-153.285004
 21
-196.666656
  0
LINE
  8
0
 10
-165.785004
 20
-229.666656
 11
-153.285004
 21
-229.666656
  0
LINE
  8
0
 10
-166.535004
 20
-238.666656
 11
-152.535004
 21
-238.666656
  0
LINE
  8
0
 10
-152.535004
 20
-242.666656
 11
-152.535004
 21
-238.666656
  0
LINE
  8
0
 10
-166.535004
 20
-242.666656
 11
-166.535004
 21
-238.666656
  0
LINE
  8
0
 10
-155.035004
 20
-238.666656
 11
-155.035004
 21
-229.666656
  0
LINE
  8
0
 10
-164.035004
 20
-238.666656
 11
-164.035004
 21
-229.666656
  0
LINE
  8
0
 10
-162.035004
 20
-192.666656
 11
-157.035004
 21
-192.666656
  0
LINE
  8
0
 10
-162.035004
 20
-192.666656
 11
-162.035004
 21
-196.666656
  0
LINE
  8
0
 10
-157.035004
 20
-192.666656
 11
-157.035004
 21
-196.666656
  0
LINE
  8
0
 10
-162.035004
 20
-191.166656
 11
-157.035004
 21
-191.166656
  0
LINE
  8
0
 10
-162.035004
 20
-189.666656
 11
-157.035004
 21
-189.666656
  0
LINE
  8
0
 10
-162.035004
 20
-188.166656
 11
-157.035004
 21
-188.166656
  0
LINE
  8
0
 10
-161.576813
 20
-186.666656
 11
-157.493195
 21
-186.666656
  0
LINE
  8
0
 10
-157.035004
 20
-188.166656
 11
-157.093750
 21
-187.045715
  0
LINE
  8
0
 10
-162.035004
 20
-188.166656
 11
-161.976257
 21
-187.045715
  0
LINE
  8
0
 10
-157.035004
 20
-189.666656
 11
-157.580963
 21
-188.166656
  0
LINE
  8
0
 10
-157.035004
 20
-191.166656
 11
-157.580963
 21
-189.666656
  0
LINE
  8
0
 10
-157.035004
 20
-192.666656
 11
-157.580963
 21
-191.166656
  0
LINE
  8
0
 10
-162.035004
 20
-189.666656
 11
-161.489044
 21
-188.166656
  0
LINE
  8
0
 10
-162.035004
 20
-191.166656
 11
-161.489044
 21
-189.666656
  0
LINE
  8
0
 10
-162.035004
 20
-192.666656
 11
-161.489044
 21
-191.166656
  0
LINE
  8
0
 10
-167.035004
 20
-244.666656
 11
-167.035004
 21
-249.666656
  0
LINE
  8
0
 10
-152.035004
 20
-244.666656
 11
-152.035004
 21
-249.666656
  0
LINE
  8
0
 10
-166.777374
 20
-251.666656
 11
-152.292633
 21
-251.666656
  0
LINE
  8
0
 10
-176.785004
 20
-256.666656
 11
-142.285004
 21
-256.666656
  0
LINE
  8
0
 10
-166.535004
 20
-242.666656
 11
-152.535004
 21
-242.666656
  0
LINE
  8
0
 10
-167.035004
 20
-244.666656
 11
-152.035004
 21
-244.666656
  0
LINE
  8
0
 10
-164.785004
 20
-242.666656
 11
-167.035004
 21
-244.666656
  0
LINE
  8
0
 10
-154.285004
 20
-242.666656
 11
-152.035004
 21
-244.666656
  0
LINE
  8
0
 10
-177.035004
 20
-256.233643
 11
-176.785004
 21
-256.666656
  0
LINE
  8
0
 10
-142.285004
 20
-256.666656
 11
-142.035004
 21
-256.233643
  0
LINE
  8
0
 10
-177.035004
 20
-256.233643
 11
-166.777374
 21
-251.666656
  0
LINE
  8
0
 10
-152.292633
 20
-251.666656
 11
-142.035004
 21
-256.233643
  0
LINE
  8
0
 10
-167.035004
 20
-249.666656
 11
-152.035004
 21
-249.666656
  0
LINE
  8
0
 10
-166.777374
 20
-251.666656
 11
-167.035004
 21
-249.666656
  0
LINE
  8
0
 10
-152.035004
 20
-249.666656
 11
-152.292633
 21
-251.666656
  0
LINE
  8
0
 10
-177.035004
 20
-256.233643
 11
-142.035004
 21
-256.233643
  0
ARC
  8
0
 10
-159.535004
 20
-215.208328
 40
12.541669
 50
66.965004
 51
113.035057
  0
ARC
  8
0
 10
-159.535004
 20
-194.124985
 40
12.541675
 50
246.964935
 51
293.035004
  0
ARC
  8
0
 10
-152.467529
 20
-205.499466
 40
2.832809
 50
90.000000
 51
139.684677
  0
ARC
  8
0
 10
-166.602921
 20
-205.500412
 40
2.833747
 50
40.324314
 51
89.991051
  0
ARC
  8
0
 10
-166.602478
 20
-203.833862
 40
2.832794
 50
270.000000
 51
319.684906
  0
ARC
  8
0
 10
-152.466904
 20
-203.832504
 40
2.834155
 50
220.327835
 51
269.987366
  0
ARC
  8
0
 10
-159.535004
 20
-211.208328
 40
12.541669
 50
66.965004
 51
113.035057
  0
ARC
  8
0
 10
-159.535004
 20
-190.124985
 40
12.541675
 50
246.964935
 51
293.035004
  0
ARC
  8
0
 10
-152.467529
 20
-201.499466
 40
2.832809
 50
90.000000
 51
139.684677
  0
ARC
  8
0
 10
-166.602921
 20
-201.500412
 40
2.833747
 50
40.324314
 51
89.991051
  0
ARC
  8
0
 10
-166.602478
 20
-199.833862
 40
2.832794
 50
270.000000
 51
319.684906
  0
ARC
  8
0
 10
-152.466904
 20
-199.832504
 40
2.834155
 50
220.327835
 51
269.987366
  0
ARC
  8
0
 10
-157.493195
 20
-187.066650
 40
0.399993
 50
3.000151
 51
90.000000
  0
ARC
  8
0
 10
-161.576813
 20
-187.066650
 40
0.399994
 50
90.000000
 51
176.999847
  0
POINT
  8
0
 10
-149.720032
 20
-145.583649
  0
POINT
  8
0
 10
-159.535004
 20
-145.583649
  0
LINE
  8
0
 10
-178.744843
 20
-145.583649
 11
-140.578674
 21
-145.583649
  0
LINE
  8
0
 10
-149.720032
 20
-145.583649
 11
-154.627502
 21
-137.083649
  0
LINE
  8
0
 10
-164.442474
 20
-154.083649
 11
-169.349960
 21
-145.583649
  0
LINE
  8
0
 10
-169.349960
 20
-145.583649
 11
-164.442490
 21
-137.083649
  0
LINE
  8
0
 10
-154.627533
 20
-154.083649
 11
-149.720047
 21
-145.583649
  0
LINE
  8
0
 10
-164.442474
 20
-154.083649
 11
-154.627533
 21
-154.083649
  0
LINE
  8
0
 10
-164.442474
 20
-137.083649
 11
-154.627533
 21
-137.083649
  0
LINE
  8
0
 10
-159.535004
 20
-164.855072
 11
-159.535004
 21
-126.466995
  0
CIRCLE
  8
0
 10
-159.535004
 20
-145.583649
 40
7.000000
  0
CIRCLE
  8
0
 10
-159.535004
 20
-145.583649
 40
6.250000
  0
CIRCLE
  8
0
 10
-159.535004
 20
-145.583649
 40
8.500000
  0
CIRCLE
  8
0
 10
-159.535004
 20
-145.583649
 40
2.500000
  0
CIRCLE
  8
0
 10
-159.535004
 20
-145.583649
 40
4.550000
  0
CIRCLE
  8
0
 10
-159.535004
 20
-145.583649
 40
1.500000
  0
CIRCLE
  8
0
 10
-159.535004
 20
-145.583649
 40
17.500000
  0
POINT
  8
0
 10
0.274994
 20
-202.666656
  0
POINT
  8
0
 10
10.089949
 20
-202.666656
  0
LINE
  8
0
 10
0.274994
 20
-258.552612
 11
0.274994
 21
-185.585541
  0
LINE
  8
0
 10
-5.975006
 20
-196.666656
 11
6.524994
 21
-196.666656
  0
LINE
  8
0
 10
-4.725006
 20
-229.666656
 11
-4.725006
 21
-206.666656
  0
LINE
  8
0
 10
5.274994
 20
-229.666656
 11
5.274994
 21
-206.666656
  0
LINE
  8
0
 10
6.524994
 20
-229.666656
 11
6.524994
 21
-206.666656
  0
LINE
  8
0
 10
-5.975006
 20
-229.666656
 11
-5.975006
 21
-206.666656
  0
LINE
  8
0
 10
-6.792484
 20
-202.666656
 11
7.342472
 21
-202.666656
  0
LINE
  8
0
 10
-6.792488
 20
-206.666656
 11
7.342476
 21
-206.666656
  0
LINE
  8
0
 10
-9.539961
 20
-203.666656
 11
-9.539961
 21
-205.666656
  0
LINE
  8
0
 10
10.089949
 20
-203.666656
 11
10.089949
 21
-205.666656
  0
LINE
  8
0
 10
-9.539964
 20
-203.666656
 11
-6.792490
 21
-202.666656
  0
LINE
  8
0
 10
10.089947
 20
-205.666656
 11
7.342473
 21
-206.666656
  0
LINE
  8
0
 10
-9.539957
 20
-205.666672
 11
-6.792482
 21
-206.666656
  0
LINE
  8
0
 10
10.089950
 20
-203.666656
 11
7.342478
 21
-202.666656
  0
LINE
  8
0
 10
-4.632485
 20
-205.666656
 11
-4.632485
 21
-203.666656
  0
LINE
  8
0
 10
5.182470
 20
-203.666656
 11
5.182470
 21
-205.666656
  0
LINE
  8
0
 10
-6.792484
 20
-198.666656
 11
7.342472
 21
-198.666656
  0
LINE
  8
0
 10
-9.539961
 20
-199.666656
 11
-9.539961
 21
-201.666656
  0
LINE
  8
0
 10
10.089949
 20
-199.666656
 11
10.089949
 21
-201.666656
  0
LINE
  8
0
 10
-9.539964
 20
-199.666656
 11
-6.792490
 21
-198.666656
  0
LINE
  8
0
 10
10.089944
 20
-201.666656
 11
7.342471
 21
-202.666656
  0
LINE
  8
0
 10
-9.539957
 20
-201.666656
 11
-6.792483
 21
-202.666656
  0
LINE
  8
0
 10
10.089952
 20
-199.666656
 11
7.342480
 21
-198.666656
  0
LINE
  8
0
 10
-4.632485
 20
-201.666656
 11
-4.632485
 21
-199.666656
  0
LINE
  8
0
 10
5.182470
 20
-199.666656
 11
5.182470
 21
-201.666656
  0
LINE
  8
0
 10
-5.975006
 20
-198.666656
 11
-5.975006
 21
-196.666656
  0
LINE
  8
0
 10
-4.725006
 20
-198.666656
 11
-4.725006
 21
-196.666656
  0
LINE
  8
0
 10
5.274994
 20
-198.666656
 11
5.274994
 21
-196.666656
  0
LINE
  8
0
 10
6.524994
 20
-198.666656
 11
6.524994
 21
-196.666656
  0
LINE
  8
0
 10
-5.975006
 20
-229.666656
 11
6.524994
 21
-229.666656
  0
LINE
  8
0
 10
-6.725006
 20
-238.666656
 11
7.274994
 21
-238.666656
  0
LINE
  8
0
 10
7.274994
 20
-242.666656
 11
7.274994
 21
-238.666656
  0
LINE
  8
0
 10
-6.725006
 20
-242.666656
 11
-6.725006
 21
-238.666656
  0
LINE
  8
0
 10
4.774994
 20
-238.666656
 11
4.774994
 21
-229.666656
  0
LINE
  8
0
 10
-4.225006
 20
-238.666656
 11
-4.225006
 21
-229.666656
  0
LINE
  8
0
 10
-2.225006
 20
-192.666656
 11
2.774994
 21
-192.666656
  0
LINE
  8
0
 10
-2.225006
 20
-192.666656
 11
-2.225006
 21
-196.666656
  0
LINE
  8
0
 10
2.774994
 20
-192.666656
 11
2.774994
 21
-196.666656
  0
LINE
  8
0
 10
-2.225006
 20
-191.166656
 11
2.774994
 21
-191.166656
  0
LINE
  8
0
 10
-2.225006
 20
-189.666656
 11
2.774994
 21
-189.666656
  0
LINE
  8
0
 10
-2.225006
 20
-188.166656
 11
2.774994
 21
-188.166656
  0
LINE
  8
0
 10
-1.766809
 20
-186.666656
 11
2.316797
 21
-186.666656
  0
LINE
  8
0
 10
2.774996
 20
-188.166656
 11
2.716250
 21
-187.045715
  0
LINE
  8
0
 10
-2.225005
 20
-188.166656
 11
-2.166259
 21
-187.045715
  0
LINE
  8
0
 10
2.774996
 20
-189.666656
 11
2.229041
 21
-188.166656
  0
LINE
  8
0
 10
2.774995
 20
-191.166656
 11
2.229040
 21
-189.666656
  0
LINE
  8
0
 10
2.774994
 20
-192.666656
 11
2.229039
 21
-191.166656
  0
LINE
  8
0
 10
-2.225005
 20
-189.666656
 11
-1.679048
 21
-188.166656
  0
LINE
  8
0
 10
-2.225008
 20
-191.166656
 11
-1.679052
 21
-189.666656
  0
LINE
  8
0
 10
-2.225005
 20
-192.666656
 11
-1.679049
 21
-191.166656
  0
LINE
  8
0
 10
-7.725006
 20
-244.666656
 11
-7.725006
 21
-250.890900
  0
LINE
  8
0
 10
8.274994
 20
-244.666656
 11
8.274994
 21
-250.890900
  0
LINE
  8
0
 10
-19.475006
 20
-256.666656
 11
20.024994
 21
-256.666656
  0
LINE
  8
0
 10
-6.725006
 20
-242.666656
 11
7.274994
 21
-242.666656
  0
LINE
  8
0
 10
-7.725006
 20
-244.666656
 11
8.274994
 21
-244.666656
  0
LINE
  8
0
 10
-5.975007
 20
-242.666656
 11
-7.725009
 21
-244.666656
  0
LINE
  8
0
 10
6.524995
 20
-242.666656
 11
8.274995
 21
-244.666656
  0
LINE
  8
0
 10
-19.725010
 20
-256.233643
 11
-19.475010
 21
-256.666656
  0
LINE
  8
0
 10
20.024998
 20
-256.666656
 11
20.274998
 21
-256.233643
  0
LINE
  8
0
 10
-19.677261
 20
-256.212402
 11
-7.725007
 21
-250.890900
  0
LINE
  8
0
 10
8.274992
 20
-250.890900
 11
20.274996
 21
-256.233643
  0
LINE
  8
0
 10
-7.725006
 20
-250.890900
 11
8.274994
 21
-250.890900
  0
LINE
  8
0
 10
-19.725006
 20
-256.233643
 11
20.274994
 21
-256.233643
  0
ARC
  8
0
 10
0.274993
 20
-215.208328
 40
12.541671
 50
66.964981
 51
113.035034
  0
ARC
  8
0
 10
0.274993
 20
-194.124985
 40
12.541673
 50
246.964966
 51
293.035034
  0
ARC
  8
0
 10
7.342476
 20
-205.499466
 40
2.832809
 50
90.000114
 51
139.684723
  0
ARC
  8
0
 10
-6.792928
 20
-205.500412
 40
2.833756
 50
40.324162
 51
89.991028
  0
ARC
  8
0
 10
-6.792485
 20
-203.833862
 40
2.832794
 50
269.999969
 51
319.684875
  0
ARC
  8
0
 10
7.343094
 20
-203.832504
 40
2.834151
 50
220.327896
 51
269.987457
  0
ARC
  8
0
 10
0.274993
 20
-211.208328
 40
12.541671
 50
66.964981
 51
113.035034
  0
ARC
  8
0
 10
0.274993
 20
-190.124985
 40
12.541673
 50
246.964966
 51
293.035034
  0
ARC
  8
0
 10
7.342476
 20
-201.499466
 40
2.832809
 50
90.000114
 51
139.684723
  0
ARC
  8
0
 10
-6.792928
 20
-201.500412
 40
2.833756
 50
40.324162
 51
89.991028
  0
ARC
  8
0
 10
-6.792485
 20
-199.833862
 40
2.832794
 50
269.999969
 51
319.684875
  0
ARC
  8
0
 10
7.343094
 20
-199.832504
 40
2.834151
 50
220.327896
 51
269.987457
  0
ARC
  8
0
 10
2.316797
 20
-187.066650
 40
0.400000
 50
3.000097
 51
89.999969
  0
ARC
  8
0
 10
-1.766809
 20
-187.066650
 40
0.399994
 50
89.999969
 51
176.999908
  0
POINT
  8
0
 10
10.089966
 20
-145.583649
  0
POINT
  8
0
 10
0.274994
 20
-145.583649
  0
LINE
  8
0
 10
-22.063717
 20
-145.583649
 11
22.509434
 21
-145.583649
  0
LINE
  8
0
 10
10.089969
 20
-145.583649
 11
5.182491
 21
-137.083649
  0
LINE
  8
0
 10
-4.632480
 20
-154.083649
 11
-9.539957
 21
-145.583649
  0
LINE
  8
0
 10
-9.539966
 20
-145.583649
 11
-4.632486
 21
-137.083649
  0
LINE
  8
0
 10
5.182468
 20
-154.083649
 11
10.089948
 21
-145.583649
  0
LINE
  8
0
 10
-4.632484
 20
-154.083649
 11
5.182470
 21
-154.083649
  0
LINE
  8
0
 10
-4.632483
 20
-137.083649
 11
5.182472
 21
-137.083649
  0
LINE
  8
0
 10
0.274994
 20
-168.261719
 11
0.274994
 21
-123.933929
  0
CIRCLE
  8
0
 10
0.274994
 20
-145.583649
 40
7.000000
  0
CIRCLE
  8
0
 10
0.274994
 20
-145.583649
 40
6.250000
  0
CIRCLE
  8
0
 10
0.274994
 20
-145.583649
 40
8.500000
  0
CIRCLE
  8
0
 10
0.274994
 20
-145.583649
 40
2.500000
  0
CIRCLE
  8
0
 10
0.274994
 20
-145.583649
 40
4.550000
  0
CIRCLE
  8
0
 10
0.274994
 20
-145.583649
 40
1.500000
  0
CIRCLE
  8
0
 10
0.274994
 20
-145.583649
 40
20.000000
  0
POINT
  8
0
 10
169.899948
 20
-202.666656
  0
POINT
  8
0
 10
160.084991
 20
-202.666656
  0
LINE
  8
0
 10
160.084991
 20
-261.209167
 11
160.084991
 21
-185.585541
  0
LINE
  8
0
 10
153.834991
 20
-196.666656
 11
166.334991
 21
-196.666656
  0
LINE
  8
0
 10
155.084991
 20
-229.666656
 11
155.084991
 21
-206.666656
  0
LINE
  8
0
 10
165.084991
 20
-229.666656
 11
165.084991
 21
-206.666656
  0
LINE
  8
0
 10
166.334991
 20
-229.666656
 11
166.334991
 21
-206.666656
  0
LINE
  8
0
 10
153.834991
 20
-229.666656
 11
153.834991
 21
-206.666656
  0
LINE
  8
0
 10
153.017517
 20
-202.666656
 11
167.152466
 21
-202.666656
  0
LINE
  8
0
 10
153.017517
 20
-206.666656
 11
167.152466
 21
-206.666656
  0
LINE
  8
0
 10
150.270035
 20
-203.666656
 11
150.270035
 21
-205.666656
  0
LINE
  8
0
 10
169.899948
 20
-203.666656
 11
169.899948
 21
-205.666656
  0
LINE
  8
0
 10
150.270035
 20
-203.666656
 11
153.017502
 21
-202.666656
  0
LINE
  8
0
 10
169.899948
 20
-205.666656
 11
167.152466
 21
-206.666656
  0
LINE
  8
0
 10
150.270035
 20
-205.666656
 11
153.017517
 21
-206.666656
  0
LINE
  8
0
 10
169.899948
 20
-203.666656
 11
167.152481
 21
-202.666656
  0
LINE
  8
0
 10
155.177505
 20
-205.666656
 11
155.177505
 21
-203.666656
  0
LINE
  8
0
 10
164.992462
 20
-203.666656
 11
164.992462
 21
-205.666656
  0
LINE
  8
0
 10
153.017517
 20
-198.666656
 11
167.152466
 21
-198.666656
  0
LINE
  8
0
 10
150.270035
 20
-199.666656
 11
150.270035
 21
-201.666656
  0
LINE
  8
0
 10
169.899948
 20
-199.666656
 11
169.899948
 21
-201.666656
  0
LINE
  8
0
 10
150.270035
 20
-199.666656
 11
153.017502
 21
-198.666656
  0
LINE
  8
0
 10
169.899948
 20
-201.666656
 11
167.152466
 21
-202.666656
  0
LINE
  8
0
 10
150.270035
 20
-201.666656
 11
153.017517
 21
-202.666656
  0
LINE
  8
0
 10
169.899948
 20
-199.666656
 11
167.152481
 21
-198.666656
  0
LINE
  8
0
 10
155.177505
 20
-201.666656
 11
155.177505
 21
-199.666656
  0
LINE
  8
0
 10
164.992462
 20
-199.666656
 11
164.992462
 21
-201.666656
  0
LINE
  8
0
 10
153.834991
 20
-198.666656
 11
153.834991
 21
-196.666656
  0
LINE
  8
0
 10
155.084991
 20
-198.666656
 11
155.084991
 21
-196.666656
  0
LINE
  8
0
 10
165.084991
 20
-198.666656
 11
165.084991
 21
-196.666656
  0
LINE
  8
0
 10
166.334991
 20
-198.666656
 11
166.334991
 21
-196.666656
  0
LINE
  8
0
 10
153.834991
 20
-229.666656
 11
166.334991
 21
-229.666656
  0
LINE
  8
0
 10
153.084991
 20
-238.666656
 11
167.084991
 21
-238.666656
  0
LINE
  8
0
 10
167.084991
 20
-242.666656
 11
167.084991
 21
-238.666656
  0
LINE
  8
0
 10
153.084991
 20
-242.666656
 11
153.084991
 21
-238.666656
  0
LINE
  8
0
 10
164.584991
 20
-238.666656
 11
164.584991
 21
-229.666656
  0
LINE
  8
0
 10
155.584991
 20
-238.666656
 11
155.584991
 21
-229.666656
  0
LINE
  8
0
 10
157.584991
 20
-192.666656
 11
162.584991
 21
-192.666656
  0
LINE
  8
0
 10
157.584991
 20
-192.666656
 11
157.584991
 21
-196.666656
  0
LINE
  8
0
 10
162.584991
 20
-192.666656
 11
162.584991
 21
-196.666656
  0
LINE
  8
0
 10
157.584991
 20
-191.166656
 11
162.584991
 21
-191.166656
  0
LINE
  8
0
 10
157.584991
 20
-189.666656
 11
162.584991
 21
-189.666656
  0
LINE
  8
0
 10
157.584991
 20
-188.166656
 11
162.584991
 21
-188.166656
  0
LINE
  8
0
 10
158.043182
 20
-186.666656
 11
162.126801
 21
-186.666656
  0
LINE
  8
0
 10
162.584991
 20
-188.166656
 11
162.526245
 21
-187.045715
  0
LINE
  8
0
 10
157.584991
 20
-188.166656
 11
157.643738
 21
-187.045715
  0
LINE
  8
0
 10
162.584991
 20
-189.666656
 11
162.039032
 21
-188.166656
  0
LINE
  8
0
 10
162.584991
 20
-191.166656
 11
162.039032
 21
-189.666656
  0
LINE
  8
0
 10
162.584991
 20
-192.666656
 11
162.039032
 21
-191.166656
  0
LINE
  8
0
 10
157.584991
 20
-189.666656
 11
158.130951
 21
-188.166656
  0
LINE
  8
0
 10
157.584991
 20
-191.166656
 11
158.130951
 21
-189.666656
  0
LINE
  8
0
 10
157.584991
 20
-192.666656
 11
158.130951
 21
-191.166641
  0
LINE
  8
0
 10
148.084991
 20
-244.666656
 11
148.084991
 21
-251.666656
  0
LINE
  8
0
 10
172.084991
 20
-244.666656
 11
172.084991
 21
-251.666656
  0
LINE
  8
0
 10
148.084991
 20
-251.666656
 11
172.084991
 21
-251.666656
  0
LINE
  8
0
 10
148.084991
 20
-251.666656
 11
172.084991
 21
-251.666656
  0
LINE
  8
0
 10
135.084991
 20
-258.666656
 11
185.084991
 21
-258.666656
  0
LINE
  8
0
 10
151.584991
 20
-242.666656
 11
168.584991
 21
-242.666656
  0
LINE
  8
0
 10
148.084991
 20
-244.666656
 11
172.084991
 21
-244.666656
  0
LINE
  8
0
 10
148.084991
 20
-244.666656
 11
151.584991
 21
-242.666656
  0
LINE
  8
0
 10
168.584991
 20
-242.666656
 11
172.084991
 21
-244.666656
  0
LINE
  8
0
 10
134.834976
 20
-258.233643
 11
135.084976
 21
-258.666656
  0
LINE
  8
0
 10
185.085007
 20
-258.666656
 11
185.335007
 21
-258.233643
  0
LINE
  8
0
 10
148.084991
 20
-251.666641
 11
134.834991
 21
-258.233643
  0
LINE
  8
0
 10
172.084991
 20
-251.666641
 11
185.334991
 21
-258.233643
  0
LINE
  8
0
 10
134.834991
 20
-258.233643
 11
185.334991
 21
-258.233643
  0
ARC
  8
0
 10
160.084991
 20
-215.208328
 40
12.541669
 50
66.965004
 51
113.035057
  0
ARC
  8
0
 10
160.084991
 20
-194.124985
 40
12.541675
 50
246.964935
 51
293.035004
  0
ARC
  8
0
 10
167.152466
 20
-205.499466
 40
2.832809
 50
90.000000
 51
139.684677
  0
ARC
  8
0
 10
153.017075
 20
-205.500412
 40
2.833747
 50
40.324314
 51
89.991051
  0
ARC
  8
0
 10
153.017517
 20
-203.833862
 40
2.832794
 50
270.000000
 51
319.684906
  0
ARC
  8
0
 10
167.153091
 20
-203.832504
 40
2.834155
 50
220.327835
 51
269.987366
  0
ARC
  8
0
 10
160.084991
 20
-211.208328
 40
12.541669
 50
66.965004
 51
113.035057
  0
ARC
  8
0
 10
160.084991
 20
-190.124985
 40
12.541675
 50
246.964935
 51
293.035004
  0
ARC
  8
0
 10
167.152466
 20
-201.499466
 40
2.832809
 50
90.000000
 51
139.684677
  0
ARC
  8
0
 10
153.017075
 20
-201.500412
 40
2.833747
 50
40.324314
 51
89.991051
  0
ARC
  8
0
 10
153.017517
 20
-199.833862
 40
2.832794
 50
270.000000
 51
319.684906
  0
ARC
  8
0
 10
167.153091
 20
-199.832504
 40
2.834155
 50
220.327835
 51
269.987366
  0
ARC
  8
0
 10
162.126801
 20
-187.066650
 40
0.399993
 50
3.000151
 51
90.000000
  0
ARC
  8
0
 10
158.043182
 20
-187.066650
 40
0.399994
 50
90.000000
 51
176.999847
  0
POINT
  8
0
 10
169.899963
 20
-145.583649
  0
POINT
  8
0
 10
160.084991
 20
-145.583649
  0
LINE
  8
0
 10
133.064789
 20
-145.583649
 11
187.287018
 21
-145.583649
  0
LINE
  8
0
 10
169.899963
 20
-145.583649
 11
164.992493
 21
-137.083649
  0
LINE
  8
0
 10
155.177521
 20
-154.083649
 11
150.270035
 21
-145.583649
  0
LINE
  8
0
 10
150.270035
 20
-145.583649
 11
155.177505
 21
-137.083649
  0
LINE
  8
0
 10
164.992462
 20
-154.083649
 11
169.899948
 21
-145.583649
  0
LINE
  8
0
 10
155.177521
 20
-154.083649
 11
164.992462
 21
-154.083649
  0
LINE
  8
0
 10
155.177521
 20
-137.083649
 11
164.992462
 21
-137.083649
  0
LINE
  8
0
 10
160.084991
 20
-172.613953
 11
160.084991
 21
-118.149307
  0
CIRCLE
  8
0
 10
160.084991
 20
-145.583649
 40
7.000000
  0
CIRCLE
  8
0
 10
160.084991
 20
-145.583649
 40
6.250000
  0
CIRCLE
  8
0
 10
160.084991
 20
-145.583649
 40
8.500000
  0
CIRCLE
  8
0
 10
160.084991
 20
-145.583649
 40
2.500000
  0
CIRCLE
  8
0
 10
160.084991
 20
-145.583649
 40
4.550000
  0
CIRCLE
  8
0
 10
160.084991
 20
-145.583649
 40
1.500000
  0
CIRCLE
  8
0
 10
160.084991
 20
-145.583649
 40
12.000000
  0
CIRCLE
  8
0
 10
160.084991
 20
-145.583649
 40
25.000000
  0
ENDSEC
  0
EOF
