  0
SECTION
  2
HEADER
  9
$ACADVER
  1
AC1012
  9
$DWGCODEPAGE
  3
dos932
  9
$INSBASE
 10
0.0
 20
0.0
 30
0.0
  9
$EXTMIN
 10
-194.25
 20
-133.5
 30
0.0
  9
$EXTMAX
 10
196.25000429153442
 20
132.60000610351562
 30
0.0
  9
$LIMMIN
 10
-194.25
 20
-133.5
  9
$LIMMAX
 10
196.25000429153442
 20
132.60000610351562
  9
$ORTHOMODE
 70
               0
  9
$REGENMODE
 70
               1
  9
$FILLMODE
 70
               1
  9
$QTEXTMODE
 70
               0
  9
$MIRRTEXT
 70
               1
  9
$DRAGMODE
 70
               2
  9
$LTSCALE
 40
1.0
  9
$OSMODE
 70
               0
  9
$ATTMODE
 70
               1
  9
$TEXTSIZE
 40
3.2000000476837158
  9
$TRACEWID
 40
0.05
  9
$TEXTSTYLE
  7
MX_NOTE_STANDARD
  9
$CLAYER
  8
0
  9
$CELTYPE
  6
CONTINUOUS
  9
$CECOLOR
 62
             256
  9
$CELTSCALE
 40
1.0
  9
$DELOBJ
 70
               1
  9
$DISPSILH
 70
               0
  9
$DIMSCALE
 40
1.0
  9
$DIMASZ
 40
2.5
  9
$DIMEXO
 40
1.5
  9
$DIMDLI
 40
3.75
  9
$DIMRND
 40
0.0
  9
$DIMDLE
 40
0.0
  9
$DIMEXE
 40
1.5
  9
$DIMTP
 40
0.0
  9
$DIMTM
 40
0.0
  9
$DIMTXT
 40
3.2000000476837158
  9
$DIMCEN
 40
2.5
  9
$DIMTSZ
 40
0.0
  9
$DIMTOL
 70
               0
  9
$DIMLIM
 70
               0
  9
$DIMTIH
 70
               0
  9
$DIMTOH
 70
               0
  9
$DIMSE1
 70
               0
  9
$DIMSE2
 70
               0
  9
$DIMTAD
 70
               1
  9
$DIMZIN
 70
               8
  9
$DIMBLK
  1

  9
$DIMASO
 70
               1
  9
$DIMSHO
 70
               1
  9
$DIMPOST
  1

  9
$DIMAPOST
  1

  9
$DIMALT
 70
               0
  9
$DIMALTD
 70
               4
  9
$DIMALTF
 40
0.03937007874016
  9
$DIMLFAC
 40
1.0
  9
$DIMTOFL
 70
               1
  9
$DIMTVP
 40
0.0
  9
$DIMTIX
 70
               0
  9
$DIMSOXD
 70
               0
  9
$DIMSAH
 70
               0
  9
$DIMBLK1
  1

  9
$DIMBLK2
  1

  9
$DIMSTYLE
  2
MXDIMSTYLE
  9
$DIMCLRD
 70
               0
  9
$DIMCLRE
 70
               0
  9
$DIMCLRT
 70
               0
  9
$DIMTFAC
 40
1.0
  9
$DIMGAP
 40
1.0
  9
$DIMJUST
 70
               0
  9
$DIMSD1
 70
               0
  9
$DIMSD2
 70
               0
  9
$DIMTOLJ
 70
               1
  9
$DIMTZIN
 70
               0
  9
$DIMALTZ
 70
               0
  9
$DIMALTTZ
 70
               0
  9
$DIMFIT
 70
               3
  9
$DIMUPT
 70
               1
  9
$DIMUNIT
 70
               2
  9
$DIMDEC
 70
               4
  9
$DIMTDEC
 70
               4
  9
$DIMALTU
 70
               2
  9
$DIMALTTD
 70
               4
  9
$DIMTXSTY
  7
MX_NOTE_STANDARD
  9
$DIMAUNIT
 70
               0
  9
$LUNITS
 70
               2
  9
$LUPREC
 70
               4
  9
$SKETCHINC
 40
0.1
  9
$FILLETRAD
 40
0.0
  9
$AUNITS
 70
               0
  9
$AUPREC
 70
               0
  9
$MENU
  1
acad
  9
$ELEVATION
 40
0.0
  9
$PELEVATION
 40
0.0
  9
$THICKNESS
 40
0.0
  9
$LIMCHECK
 70
               0
  9
$BLIPMODE
 70
               1
  9
$CHAMFERA
 40
0.0
  9
$CHAMFERB
 40
0.0
  9
$CHAMFERC
 40
0.0
  9
$CHAMFERD
 40
0.0
  9
$SKPOLY
 70
               0
  9
$TDCREATE
 40
2453210.477673611
  9
$TDUPDATE
 40
2453210.477673611
  9
$TDINDWG
 40
0.0000000000
  9
$TDUSRTIMER
 40
0.0000000000
  9
$USRTIMER
 70
               1
  9
$ANGBASE
 50
0.0
  9
$ANGDIR
 70
               0
  9
$PDMODE
 70
               0
  9
$PDSIZE
 40
0.0
  9
$PLINEWID
 40
0.0
  9
$COORDS
 70
               1
  9
$SPLFRAME
 70
               0
  9
$SPLINETYPE
 70
               6
  9
$SPLINESEGS
 70
               8
  9
$ATTDIA
 70
               0
  9
$ATTREQ
 70
               1
  9
$HANDLING
 70
               1
  9
$HANDSEED
  5
132
  9
$SURFTAB1
 70
               6
  9
$SURFTAB2
 70
               6
  9
$SURFTYPE
 70
               6
  9
$SURFU
 70
               6
  9
$SURFV
 70
               6
  9
$UCSNAME
  2

  9
$UCSORG
 10
0.0
 20
0.0
 30
0.0
  9
$UCSXDIR
 10
1.0
 20
0.0
 30
0.0
  9
$UCSYDIR
 10
0.0
 20
1.0
 30
0.0
  9
$PUCSNAME
  2

  9
$PUCSORG
 10
0.0
 20
0.0
 30
0.0
  9
$PUCSXDIR
 10
1.0
 20
0.0
 30
0.0
  9
$PUCSYDIR
 10
0.0
 20
1.0
 30
0.0
  9
$USERI1
 70
               0
  9
$USERI2
 70
               0
  9
$USERI3
 70
               0
  9
$USERI4
 70
               0
  9
$USERI5
 70
               0
  9
$USERR1
 40
0.0
  9
$USERR2
 40
0.0
  9
$USERR3
 40
0.0
  9
$USERR4
 40
0.0
  9
$USERR5
 40
0.0
  9
$WORLDVIEW
 70
               1
  9
$SHADEDGE
 70
               3
  9
$SHADEDIF
 70
              70
  9
$TILEMODE
 70
               1
  9
$MAXACTVP
 70
              16
  9
$PINSBASE
 10
0.0
 20
0.0
 30
0.0
  9
$PLIMCHECK
 70
               0
  9
$PEXTMIN
 10
1.0000000000000000E+20
 20
1.0000000000000000E+20
 30
1.0000000000000000E+20
  9
$PEXTMAX
 10
-1.0000000000000000E+20
 20
-1.0000000000000000E+20
 30
-1.0000000000000000E+20
  9
$PLIMMIN
 10
0.0
 20
0.0
  9
$PLIMMAX
 10
12.0
 20
9.0
  9
$UNITMODE
 70
               0
  9
$VISRETAIN
 70
               0
  9
$PLINEGEN
 70
               1
  9
$PSLTSCALE
 70
               0
  9
$TREEDEPTH
 70
            3020
  9
$PICKSTYLE
 70
               1
  9
$CMLSTYLE
  2
Standard
  9
$CMLJUST
 70
               0
  9
$CMLSCALE
 40
1.0
  9
$SAVEIMAGES
 70
               0
  0
ENDSEC
  0
SECTION
  2
CLASSES
  0
CLASS
  1
LWPOLYLINE
  2
AcDbPolyline
  3
"AutoCAD"
 90
        0
280
               0
281
               1
  0
CLASS
  1
IMAGE
  2
AcDbRasterImage
  3
ISM
 90
      127
280
               0
281
               1
  0
CLASS
  1
OLE2FRAME
  2
AcDbOle2Frame
  3
""
 90
        0
280
               0
281
               1
  0
CLASS
  1
HATCH
  2
AcDbHatch
  3
"ACAD_SEDONA"
 90
        0
280
               0
281
               1
  0
CLASS
  1
DICTIONARYVAR
  2
AcDbDictionaryVar
  3
"AutoCAD"
 90
        0
280
               0
281
               0
  0
CLASS
  1
RASTERVARIABLES
  2
AcDbRasterVariables
  3
ISM
 90
        0
280
               0
281
               0
  0
CLASS
  1
IMAGEDEF
  2
AcDbRasterImageDef
  3
ISM
 90
        0
280
               0
281
               0
  0
CLASS
  1
IMAGEDEF_REACTOR
  2
AcDbRasterImageDefReactor
  3
ISM
 90
        1
280
               0
281
               0
  0
CLASS
  1
IDBUFFER
  2
AcDbIdBuffer
  3
"Acad"
 90
        0
280
               0
281
               0
  0
CLASS
  1
SPATIAL_FILTER
  2
AcDbSpatialFilter
  3
"Acad"
 90
        0
280
               0
281
               0
  0
CLASS
  1
XRECORD
  2
AcDbXrecord
  3
"<Built In>"
 90
        0
280
               0
281
               0
  0
CLASS
  1
SORTENTSTABLE
  2
AcDbSortentsTable
  3
"AutoCAD"
 90
        0
280
               0
281
               0
  0
CLASS
  1
LAYER_INDEX
  2
AcDbLayerIndex
  3
"Acad"
 90
        0
280
               0
281
               0
  0
CLASS
  1
SPATIAL_INDEX
  2
AcDbSpatialIndex
  3
"Acad"
 90
        0
280
               0
281
               0
  0
CLASS
  1
OBJECT_PTR
  2
CAseDLPNTableRecord
  3
"ASE-LPNTableRecord"
 90
        1
280
               0
281
               0
  0
CLASS
  1
LAYOUT
  2
AcDbLayout
  3
"AutoCAD 2000"
 90
        1
280
               0
281
               0
  0
CLASS
  1
PLOTSETTINGS
  2
AcDbPlotSettings
  3
"AutoCAD 2000"
 90
        1
280
               0
281
               0
  0
CLASS
  1
ACDBDICTIONARYWDFLT
  2
AcDbDictionaryWithDefault
  3
"AutoCAD 2000"
 90
        1
280
               0
281
               0
  0
CLASS
  1
ACDBPLACEHOLDER
  2
AcDbPlaceHolder
  3
"AutoCAD 2000"
 90
        1
280
               0
281
               0
  0
ENDSEC
  0
SECTION
  2
TABLES
  0
TABLE
  2
VPORT
  5
7
100
AcDbSymbolTable
 70
               1
  0
VPORT
  5
15
100
AcDbSymbolTableRecord
100
AcDbViewportTableRecord
  2
*ACTIVE
 70
               0
 10
0.0
 20
0.0
 11
1.0
 21
1.0
 12
1.0000021457672119
 22
-0.4499969482421875
 13
0.0
 23
0.0
 14
1.0
 24
1.0
 15
0.0
 25
0.0
 16
0.0
 26
0.0
 36
1.0
 17
0.0
 27
0.0
 37
0.0
 40
268.76100616455079
 41
1.7320508075688772
 42
50.0
 43
0.0
 44
0.0
 50
0.0
 51
0.0
 71
               0
 72
             100
 73
               1
 74
               1
 75
               0
 76
               0
 77
               0
 78
               0
  0
ENDTAB
  0
TABLE
  2
LTYPE
  5
4
100
AcDbSymbolTable
 70
               4
  0
LTYPE
  5
11
100
AcDbSymbolTableRecord
100
AcDbLinetypeTableRecord
  2
BYBLOCK
 70
              64
  3

 72
              65
 73
               0
 40
0.0
  0
LTYPE
  5
12
100
AcDbSymbolTableRecord
100
AcDbLinetypeTableRecord
  2
BYLAYER
 70
              64
  3

 72
              65
 73
               0
 40
0.0
  0
LTYPE
  5
13
100
AcDbSymbolTableRecord
100
AcDbLinetypeTableRecord
  2
CONTINUOUS
 70
              64
  3
Solid line
 72
              65
 73
               0
 40
0.0
  0
LTYPE
  5
11B
100
AcDbSymbolTableRecord
100
AcDbLinetypeTableRecord
  2
DASHED
 70
              64
  3
Dashed __ __ __ __ __ __ __ __ __ __ __ __ __ _
 72
              65
 73
               2
 40
19.049999999999997
 49
12.699999999999999
 74
               0
 49
-6.3499999999999996
 74
               0
  0
ENDTAB
  0
TABLE
  2
LAYER
  5
2
100
AcDbSymbolTable
 70
               2
  0
LAYER
  5
14
100
AcDbSymbolTableRecord
100
AcDbLayerTableRecord
  2
0
 70
               0
 62
               7
  6
CONTINUOUS
  0
LAYER
  5
1D
100
AcDbSymbolTableRecord
100
AcDbLayerTableRecord
  2
DEFPOINTS
 70
               0
 62
               7
  6
CONTINUOUS
  0
ENDTAB
  0
TABLE
  2
STYLE
  5
3
100
AcDbSymbolTable
 70
               1
  0
STYLE
  5
17
100
AcDbSymbolTableRecord
100
AcDbTextStyleTableRecord
  2
MX_NOTE_STANDARD
 70
               0
 40
0.0
 41
1.0
 50
0.0
 71
               0
 42
3.2000000476837158
  3
txt.shx
  4
extfont.shx
  0
ENDTAB
  0
TABLE
  2
VIEW
  5
5
100
AcDbSymbolTable
 70
               0
  0
ENDTAB
  0
TABLE
  2
UCS
  5
6
100
AcDbSymbolTable
 70
               0
  0
ENDTAB
  0
TABLE
  2
APPID
  5
8
100
AcDbSymbolTable
 70
               1
  0
APPID
  5
16
100
AcDbSymbolTableRecord
100
AcDbRegAppTableRecord
  2
ACAD
 70
               0
  0
ENDTAB
  0
TABLE
  2
DIMSTYLE
  5
9
100
AcDbSymbolTable
 70
               1
  0
DIMSTYLE
105
18
100
AcDbSymbolTableRecord
100
AcDbDimStyleTableRecord
  2
MXDIMSTYLE
 70
               0
  3

  4

  5

  6

  7

 40
1.0
 41
2.5
 42
1.5
 43
3.75
 44
1.5
 45
0.0
 46
0.0
 47
0.0
 48
0.0
 71
               0
 72
               0
 73
               0
 74
               0
 75
               0
 76
               0
 77
               1
 78
               8
140
3.2000000476837158
141
2.5
142
0.0
143
0.03937007874016
144
1.0
145
0.0
146
1.0
147
1.0
170
               0
171
               4
172
               1
173
               0
174
               0
175
               0
176
               0
177
               0
178
               0
270
               2
271
               4
272
               4
273
               2
274
               4
275
               0
280
               0
281
               0
282
               0
283
               1
284
               0
285
               0
286
               0
287
               3
288
               1
340
17
  0
ENDTAB
  0
TABLE
  2
BLOCK_RECORD
  5
1
100
AcDbSymbolTable
 70
               8
  0
BLOCK_RECORD
  5
A
100
AcDbSymbolTableRecord
100
AcDbBlockTableRecord
  2
*MODEL_SPACE
  0
BLOCK_RECORD
  5
B
100
AcDbSymbolTableRecord
100
AcDbBlockTableRecord
  2
*PAPER_SPACE
  0
BLOCK_RECORD
  5
1E
100
AcDbSymbolTableRecord
100
AcDbBlockTableRecord
  2
KSHJ16-1
  0
BLOCK_RECORD
  5
1F
100
AcDbSymbolTableRecord
100
AcDbBlockTableRecord
  2
KSHJ16-2
  0
BLOCK_RECORD
  5
20
100
AcDbSymbolTableRecord
100
AcDbBlockTableRecord
  2
KSHJ16-3
  0
BLOCK_RECORD
  5
21
100
AcDbSymbolTableRecord
100
AcDbBlockTableRecord
  2
KSHJ16-4
  0
BLOCK_RECORD
  5
22
100
AcDbSymbolTableRecord
100
AcDbBlockTableRecord
  2
KSHJ16-5
  0
BLOCK_RECORD
  5
23
100
AcDbSymbolTableRecord
100
AcDbBlockTableRecord
  2
KSHJ16-6
  0
BLOCK_RECORD
  5
24
100
AcDbSymbolTableRecord
100
AcDbBlockTableRecord
  2
KSHJ16-7
  0
BLOCK_RECORD
  5
25
100
AcDbSymbolTableRecord
100
AcDbBlockTableRecord
  2
KSHJ16-8
  0
ENDTAB
  0
ENDSEC
  0
SECTION
  2
BLOCKS
  0
BLOCK
  5
D
100
AcDbEntity
  8
0
100
AcDbBlockBegin
  2
*MODEL_SPACE
 70
               0
 10
0.0
 20
0.0
 30
0.0
  3
*MODEL_SPACE
  1

  0
ENDBLK
  5
E
100
AcDbEntity
  8
0
100
AcDbBlockEnd
  0
BLOCK
  5
F
100
AcDbEntity
 67
               1
  8
0
100
AcDbBlockBegin
  2
*PAPER_SPACE
 70
               0
 10
0.0
 20
0.0
 30
0.0
  3
*PAPER_SPACE
  1

  0
ENDBLK
  5
10
100
AcDbEntity
 67
               1
  8
0
100
AcDbBlockEnd
  0
BLOCK
  5
26
100
AcDbEntity
  8
0
100
AcDbBlockBegin
  2
KSHJ16-1
 70
               0
 10
0.0
 20
0.0
 30
0.0
  3
KSHJ16-1
  1

  0
LINE
  5
27
100
AcDbEntity
  8
0
  6
CONTINUOUS
 62
               4
100
AcDbLine
 10
23.621380459981651
 20
-9.5
 30
0.0
 11
24.469886233339309
 21
-10.969655109971001
 31
0.0
  0
LINE
  5
28
100
AcDbEntity
  8
0
  6
CONTINUOUS
 62
               4
100
AcDbLine
 10
30.621380459981651
 20
-9.5
 30
0.0
 11
31.469886233339309
 21
-10.969655109971001
 31
0.0
  0
LINE
  5
29
100
AcDbEntity
  8
0
  6
CONTINUOUS
 62
               4
100
AcDbLine
 10
37.621380459981651
 20
-9.5
 30
0.0
 11
36.772874686623993
 21
-10.969655109971001
 31
0.0
  0
LINE
  5
2A
100
AcDbEntity
  8
0
  6
CONTINUOUS
 62
               4
100
AcDbLine
 10
30.621380459981651
 20
-9.5
 30
0.0
 11
29.772874686623993
 21
-10.969655109971001
 31
0.0
  0
LINE
  5
2B
100
AcDbEntity
  8
0
  6
CONTINUOUS
 62
               4
100
AcDbLine
 10
23.621380459981651
 20
9.5
 30
0.0
 11
24.469886251225432
 21
10.969655140950692
 31
0.0
  0
LINE
  5
2C
100
AcDbEntity
  8
0
  6
CONTINUOUS
 62
               4
100
AcDbLine
 10
30.621380459981651
 20
9.5
 30
0.0
 11
31.469886251225432
 21
10.969655140950692
 31
0.0
  0
LINE
  5
2D
100
AcDbEntity
  8
0
  6
CONTINUOUS
 62
               4
100
AcDbLine
 10
30.621380459981651
 20
9.5
 30
0.0
 11
29.77287466873787
 21
10.969655140950692
 31
0.0
  0
LINE
  5
2E
100
AcDbEntity
  8
0
  6
CONTINUOUS
 62
               4
100
AcDbLine
 10
37.621380459981651
 20
9.5
 30
0.0
 11
36.77287466873787
 21
10.969655140950692
 31
0.0
  0
LINE
  5
2F
100
AcDbEntity
  8
0
  6
CONTINUOUS
 62
               4
100
AcDbLine
 10
23.621380459981651
 20
-9.5
 30
0.0
 11
23.621380459981651
 21
9.5
 31
0.0
  0
LINE
  5
30
100
AcDbEntity
  8
0
  6
CONTINUOUS
 62
               4
100
AcDbLine
 10
30.621380459981651
 20
-9.5
 30
0.0
 11
30.621380459981651
 21
9.5
 31
0.0
  0
LINE
  5
31
100
AcDbEntity
  8
0
  6
CONTINUOUS
 62
               4
100
AcDbLine
 10
37.621380459981651
 20
-9.5
 30
0.0
 11
37.621380459981651
 21
9.5
 31
0.0
  0
LINE
  5
32
100
AcDbEntity
  8
0
  6
CONTINUOUS
 62
               4
100
AcDbLine
 10
31.469886233339366
 20
-10.969655109971001
 30
0.0
 11
36.772874686623993
 21
-10.969655109971001
 31
0.0
  0
LINE
  5
33
100
AcDbEntity
  8
0
  6
CONTINUOUS
 62
               4
100
AcDbLine
 10
31.469886251225432
 20
10.969655140950692
 30
0.0
 11
36.77287466873787
 21
10.969655140950692
 31
0.0
  0
LINE
  5
34
100
AcDbEntity
  8
0
  6
CONTINUOUS
 62
               4
100
AcDbLine
 10
24.46988620870718
 20
-10.969655109971001
 30
0.0
 11
29.772874678307858
 21
-10.969655109971001
 31
0.0
  0
LINE
  5
35
100
AcDbEntity
  8
0
  6
CONTINUOUS
 62
               4
100
AcDbLine
 10
24.469886268311825
 20
10.969655140950692
 30
0.0
 11
29.772874678307858
 21
10.969655140950692
 31
0.0
  0
LINE
  5
36
100
AcDbEntity
  8
0
  6
CONTINUOUS
 62
               7
100
AcDbLine
 10
60.0
 20
-6.5
 30
0.0
 11
58.5
 21
-8.0
 31
0.0
  0
LINE
  5
37
100
AcDbEntity
  8
0
  6
CONTINUOUS
 62
               7
100
AcDbLine
 10
60.0
 20
6.5000000000000284
 30
0.0
 11
58.5
 21
8.0
 31
0.0
  0
LINE
  5
38
100
AcDbEntity
  8
0
  6
CONTINUOUS
 62
               7
100
AcDbLine
 10
67.0
 20
-6.5
 30
0.0
 11
60.0
 21
-6.5
 31
0.0
  0
LINE
  5
39
100
AcDbEntity
  8
0
  6
CONTINUOUS
 62
               7
100
AcDbLine
 10
67.0
 20
6.5000000000000284
 30
0.0
 11
60.0
 21
6.5000000000000284
 31
0.0
  0
LINE
  5
3A
100
AcDbEntity
  8
0
  6
CONTINUOUS
 62
               2
100
AcDbLine
 10
37.621380459981651
 20
-7.1879999999999882
 30
0.0
 11
59.312000000000012
 21
-7.1879999999999882
 31
0.0
  0
LINE
  5
3B
100
AcDbEntity
  8
0
  6
CONTINUOUS
 62
               2
100
AcDbLine
 10
37.621380459981651
 20
7.1880000000000166
 30
0.0
 11
59.312000000000012
 21
7.1880000000000166
 31
0.0
  0
LINE
  5
3C
100
AcDbEntity
  8
0
  6
CONTINUOUS
 62
               2
100
AcDbLine
 10
3.2240119044455469
 20
-7.1879999999999882
 30
0.0
 11
23.621380459981651
 21
-7.1879999999999882
 31
0.0
  0
LINE
  5
3D
100
AcDbEntity
  8
0
  6
CONTINUOUS
 62
               2
100
AcDbLine
 10
3.2240119044455469
 20
7.1880000000000166
 30
0.0
 11
23.621380459981651
 21
7.1880000000000166
 31
0.0
  0
LINE
  5
3E
100
AcDbEntity
  8
0
  6
CONTINUOUS
 62
               4
100
AcDbLine
 10
24.45853835030664
 20
5.4651724426985595
 30
0.0
 11
29.78422256965672
 21
5.4651724426985595
 31
0.0
  0
ARC
  5
3F
100
AcDbEntity
  8
0
  6
CONTINUOUS
 62
               4
100
AcDbCircle
 10
28.531844042589285
 20
8.2075862213492883
 30
0.0
 40
4.9104635826076235
100
AcDbArc
 50
153.95099893585979
 51
213.95099893585945
  0
LINE
  5
40
100
AcDbEntity
  8
0
  6
CONTINUOUS
 62
               4
100
AcDbLine
 10
24.45853835030664
 20
-5.4651724426985595
 30
0.0
 11
29.78422256965672
 21
-5.4651724426985595
 31
0.0
  0
ARC
  5
41
100
AcDbEntity
  8
0
  6
CONTINUOUS
 62
               4
100
AcDbCircle
 10
41.878953801313401
 20
0.0
 30
0.0
 40
18.257573341331721
100
AcDbArc
 50
162.58219669097579
 51
180.0
  0
ARC
  5
42
100
AcDbEntity
  8
0
  6
CONTINUOUS
 62
               4
100
AcDbCircle
 10
41.878953801313401
 20
0.0
 30
0.0
 40
18.257573341331721
100
AcDbArc
 50
180.0
 51
197.41780330902418
  0
ARC
  5
43
100
AcDbEntity
  8
0
  6
CONTINUOUS
 62
               4
100
AcDbCircle
 10
28.531844042589285
 20
-8.2075862213492599
 30
0.0
 40
4.9104635826076235
100
AcDbArc
 50
146.04900106414055
 51
206.04900106413965
  0
ARC
  5
44
100
AcDbEntity
  8
0
  6
CONTINUOUS
 62
               4
100
AcDbCircle
 10
25.710916877374018
 20
8.2075862213492883
 30
0.0
 40
4.9104635826076235
100
AcDbArc
 50
326.04900106414055
 51
26.049001064140189
  0
ARC
  5
45
100
AcDbEntity
  8
0
  6
CONTINUOUS
 62
               4
100
AcDbCircle
 10
12.363807118649959
 20
0.0
 30
0.0
 40
18.257573341331721
100
AcDbArc
 50
0.0
 51
17.417803309024183
  0
ARC
  5
46
100
AcDbEntity
  8
0
  6
CONTINUOUS
 62
               4
100
AcDbCircle
 10
12.363807118649959
 20
0.0
 30
0.0
 40
18.257573341331721
100
AcDbArc
 50
342.58219669097582
 51
0.0
  0
ARC
  5
47
100
AcDbEntity
  8
0
  6
CONTINUOUS
 62
               4
100
AcDbCircle
 10
25.710916877374018
 20
-8.2075862213492599
 30
0.0
 40
4.9104635826076235
100
AcDbArc
 50
333.95099893586035
 51
33.950998935859438
  0
ARC
  5
48
100
AcDbEntity
  8
0
  6
CONTINUOUS
 62
               4
100
AcDbCircle
 10
35.531844042589285
 20
-8.2075862213492599
 30
0.0
 40
4.9104635826076235
100
AcDbArc
 50
146.04900106414055
 51
206.04900106413965
  0
ARC
  5
49
100
AcDbEntity
  8
0
  6
CONTINUOUS
 62
               4
100
AcDbCircle
 10
48.878953801313401
 20
0.0
 30
0.0
 40
18.257573341331721
100
AcDbArc
 50
180.0
 51
197.41780330902418
  0
ARC
  5
4A
100
AcDbEntity
  8
0
  6
CONTINUOUS
 62
               4
100
AcDbCircle
 10
48.878953801313401
 20
0.0
 30
0.0
 40
18.257573341331721
100
AcDbArc
 50
162.58219669097579
 51
180.0
  0
ARC
  5
4B
100
AcDbEntity
  8
0
  6
CONTINUOUS
 62
               4
100
AcDbCircle
 10
35.531844042589285
 20
8.2075862213492883
 30
0.0
 40
4.9104635826076235
100
AcDbArc
 50
153.95099893585979
 51
213.95099893585945
  0
ARC
  5
4C
100
AcDbEntity
  8
0
  6
CONTINUOUS
 62
               4
100
AcDbCircle
 10
32.710916877374018
 20
-8.2075862213492599
 30
0.0
 40
4.9104635826076235
100
AcDbArc
 50
333.95099893586035
 51
33.950998935859438
  0
ARC
  5
4D
100
AcDbEntity
  8
0
  6
CONTINUOUS
 62
               4
100
AcDbCircle
 10
19.363807118649959
 20
0.0
 30
0.0
 40
18.257573341331721
100
AcDbArc
 50
342.58219669097582
 51
0.0
  0
ARC
  5
4E
100
AcDbEntity
  8
0
  6
CONTINUOUS
 62
               4
100
AcDbCircle
 10
19.363807118649959
 20
0.0
 30
0.0
 40
18.257573341331721
100
AcDbArc
 50
0.0
 51
17.417803309024183
  0
LINE
  5
4F
100
AcDbEntity
  8
0
  6
CONTINUOUS
 62
               4
100
AcDbLine
 10
36.78422256965672
 20
-5.4651724426985595
 30
0.0
 11
31.45853835030664
 21
-5.4651724426985595
 31
0.0
  0
ARC
  5
50
100
AcDbEntity
  8
0
  6
CONTINUOUS
 62
               4
100
AcDbCircle
 10
32.710916877374018
 20
8.2075862213492883
 30
0.0
 40
4.9104635826076235
100
AcDbArc
 50
326.04900106414055
 51
26.049001064140189
  0
LINE
  5
51
100
AcDbEntity
  8
0
  6
CONTINUOUS
 62
               4
100
AcDbLine
 10
36.78422256965672
 20
5.4651724426985595
 30
0.0
 11
31.45853835030664
 21
5.4651724426985595
 31
0.0
  0
LINE
  5
52
100
AcDbEntity
  8
0
  6
CONTINUOUS
 62
               7
100
AcDbLine
 10
3.6928203230275471
 20
8.0
 30
0.0
 11
3.6928203230275471
 21
-8.0
 31
0.0
  0
LINE
  5
53
100
AcDbEntity
  8
0
  6
CONTINUOUS
 62
               7
100
AcDbLine
 10
3.0
 20
-6.7999999999999829
 30
0.0
 11
3.6928203230275471
 21
-8.0
 31
0.0
  0
LINE
  5
54
100
AcDbEntity
  8
0
  6
CONTINUOUS
 62
               7
100
AcDbLine
 10
3.0
 20
6.8000000000000114
 30
0.0
 11
3.6928203230275471
 21
8.0
 31
0.0
  0
LINE
  5
55
100
AcDbEntity
  8
0
  6
CONTINUOUS
 62
               7
100
AcDbLine
 10
66.278312163512965
 20
-6.5
 30
0.0
 11
66.278312163512965
 21
-0.9000000000000057
 31
0.0
  0
LINE
  5
56
100
AcDbEntity
  8
0
  6
CONTINUOUS
 62
               7
100
AcDbLine
 10
66.278312163512965
 20
6.5000000000000284
 30
0.0
 11
66.278312163512965
 21
0.9000000000000057
 31
0.0
  0
LINE
  5
57
100
AcDbEntity
  8
0
  6
CONTINUOUS
 62
               7
100
AcDbLine
 10
3.6928203230275471
 20
-8.0
 30
0.0
 11
23.621380459981651
 21
-8.0
 31
0.0
  0
LINE
  5
58
100
AcDbEntity
  8
0
  6
CONTINUOUS
 62
               7
100
AcDbLine
 10
37.621380459981651
 20
-8.0
 30
0.0
 11
58.5
 21
-8.0
 31
0.0
  0
LINE
  5
59
100
AcDbEntity
  8
0
  6
CONTINUOUS
 62
               7
100
AcDbLine
 10
67.0
 20
0.9000000000000057
 30
0.0
 11
67.0
 21
6.5000000000000284
 31
0.0
  0
LINE
  5
5A
100
AcDbEntity
  8
0
  6
CONTINUOUS
 62
               7
100
AcDbLine
 10
67.0
 20
-0.9000000000000057
 30
0.0
 11
65.0
 21
-0.9000000000000057
 31
0.0
  0
LINE
  5
5B
100
AcDbEntity
  8
0
  6
CONTINUOUS
 62
               7
100
AcDbLine
 10
67.0
 20
0.9000000000000057
 30
0.0
 11
65.0
 21
0.9000000000000057
 31
0.0
  0
LINE
  5
5C
100
AcDbEntity
  8
0
  6
CONTINUOUS
 62
               7
100
AcDbLine
 10
65.0
 20
-0.9000000000000057
 30
0.0
 11
65.0
 21
0.9000000000000057
 31
0.0
  0
LINE
  5
5D
100
AcDbEntity
  8
0
  6
CONTINUOUS
 62
               7
100
AcDbLine
 10
3.0
 20
6.8000000000000114
 30
0.0
 11
3.0
 21
-6.7999999999999829
 31
0.0
  0
LINE
  5
5E
100
AcDbEntity
  8
0
  6
CONTINUOUS
 62
               7
100
AcDbLine
 10
37.621380459981651
 20
8.0
 30
0.0
 11
58.5
 21
8.0
 31
0.0
  0
LINE
  5
5F
100
AcDbEntity
  8
0
  6
CONTINUOUS
 62
               7
100
AcDbLine
 10
67.0
 20
-6.5
 30
0.0
 11
67.0
 21
-0.9000000000000057
 31
0.0
  0
LINE
  5
60
100
AcDbEntity
  8
0
  6
CONTINUOUS
 62
               7
100
AcDbLine
 10
3.6928203230275471
 20
8.0
 30
0.0
 11
23.621380459981651
 21
8.0
 31
0.0
  0
LINE
  5
61
100
AcDbEntity
  8
0
  6
CONTINUOUS
 62
               7
100
AcDbLine
 10
0.0
 20
-6.7999999999999829
 30
0.0
 11
0.0
 21
6.8000000000000114
 31
0.0
  0
LINE
  5
62
100
AcDbEntity
  8
0
  6
CONTINUOUS
 62
               7
100
AcDbLine
 10
1.0
 20
6.8000000000000114
 30
0.0
 11
1.0
 21
-6.7999999999999829
 31
0.0
  0
LINE
  5
63
100
AcDbEntity
  8
0
  6
CONTINUOUS
 62
               7
100
AcDbLine
 10
0.0
 20
6.8000000000000114
 30
0.0
 11
3.0
 21
6.8000000000000114
 31
0.0
  0
LINE
  5
64
100
AcDbEntity
  8
0
  6
CONTINUOUS
 62
               7
100
AcDbLine
 10
-14.249422577821633
 20
2.0
 30
0.0
 11
0.0
 21
2.0
 31
0.0
  0
LINE
  5
65
100
AcDbEntity
  8
0
  6
CONTINUOUS
 62
               7
100
AcDbLine
 10
-15.0
 20
-1.6500000000000057
 30
0.0
 11
-15.0
 21
1.6500000000000057
 31
0.0
  0
LINE
  5
66
100
AcDbEntity
  8
0
  6
CONTINUOUS
 62
               7
100
AcDbLine
 10
-14.249422577821633
 20
-2.0
 30
0.0
 11
0.0
 21
-2.0
 31
0.0
  0
LINE
  5
67
100
AcDbEntity
  8
0
  6
CONTINUOUS
 62
               7
100
AcDbLine
 10
-15.0
 20
-1.6500000000000057
 30
0.0
 11
-14.249422577821633
 21
-2.0
 31
0.0
  0
LINE
  5
68
100
AcDbEntity
  8
0
  6
CONTINUOUS
 62
               7
100
AcDbLine
 10
0.0
 20
-6.7999999999999829
 30
0.0
 11
3.0
 21
-6.7999999999999829
 31
0.0
  0
LINE
  5
69
100
AcDbEntity
  8
0
  6
CONTINUOUS
 62
               7
100
AcDbLine
 10
-14.249422577821633
 20
-2.0
 30
0.0
 11
-14.249422577821633
 21
2.0
 31
0.0
  0
LINE
  5
6A
100
AcDbEntity
  8
0
  6
CONTINUOUS
 62
               7
100
AcDbLine
 10
-15.0
 20
1.6500000000000057
 30
0.0
 11
-14.249422577821633
 21
2.0
 31
0.0
  0
LINE
  5
6B
100
AcDbEntity
  8
0
  6
CONTINUOUS
 62
               2
100
AcDbLine
 10
-18.026959680992491
 20
0.0
 30
0.0
 11
69.0
 21
0.0
 31
0.0
  0
ENDBLK
  5
6C
100
AcDbEntity
  8
0
100
AcDbBlockEnd
  0
BLOCK
  5
6D
100
AcDbEntity
  8
0
100
AcDbBlockBegin
  2
KSHJ16-2
 70
               0
 10
0.0
 20
0.0
 30
0.0
  3
KSHJ16-2
  1

  0
LINE
  5
6E
100
AcDbEntity
  8
0
  6
CONTINUOUS
 62
               4
100
AcDbLine
 10
0.0000000143709258
 20
-10.969655111715781
 30
0.0
 11
9.5000000739755706
 21
-5.4848275336480015
 31
0.0
  0
LINE
  5
6F
100
AcDbEntity
  8
0
  6
CONTINUOUS
 62
               4
100
AcDbLine
 10
-9.4999999856290742
 20
5.4848275032782681
 30
0.0
 11
0.0000001335802153
 21
10.969655140950692
 31
0.0
  0
LINE
  5
70
100
AcDbEntity
  8
0
  6
CONTINUOUS
 62
               4
100
AcDbLine
 10
-9.4999999260244294
 20
-5.4848275634503239
 30
0.0
 11
0.0000000553027348
 21
-10.969655109971001
 31
0.0
  0
LINE
  5
71
100
AcDbEntity
  8
0
  6
CONTINUOUS
 62
               4
100
AcDbLine
 10
0.0000000739755706
 20
10.969655081346048
 30
0.0
 11
9.5000000739755706
 21
5.4848275330805905
 31
0.0
  0
CIRCLE
  5
72
100
AcDbEntity
  8
0
  6
CONTINUOUS
 62
               4
100
AcDbCircle
 10
0.0
 20
0.0
 30
0.0
 40
9.5
  0
CIRCLE
  5
73
100
AcDbEntity
  8
0
  6
CONTINUOUS
 62
               2
100
AcDbCircle
 10
0.0
 20
0.0
 30
0.0
 40
7.1880000000000024
  0
LINE
  5
74
100
AcDbEntity
  8
0
  6
CONTINUOUS
 62
               7
100
AcDbLine
 10
7.9492137976029085
 20
-0.9000000000000057
 30
0.0
 11
2.170829334609266
 21
-0.9000000000000057
 31
0.0
  0
LINE
  5
75
100
AcDbEntity
  8
0
  6
CONTINUOUS
 62
               7
100
AcDbLine
 10
7.9492137976028516
 20
0.9000000000000057
 30
0.0
 11
2.170829334609266
 21
0.9000000000000057
 31
0.0
  0
LINE
  5
76
100
AcDbEntity
  8
0
  6
CONTINUOUS
 62
               7
100
AcDbLine
 10
-7.9492137976028516
 20
-0.9000000000000057
 30
0.0
 11
-2.170829334609266
 21
-0.9000000000000057
 31
0.0
  0
LINE
  5
77
100
AcDbEntity
  8
0
  6
CONTINUOUS
 62
               7
100
AcDbLine
 10
-7.9492137976028516
 20
0.9000000000000057
 30
0.0
 11
-2.1708293346092091
 21
0.9000000000000057
 31
0.0
  0
LINE
  5
78
100
AcDbEntity
  8
0
  6
CONTINUOUS
 62
               4
100
AcDbLine
 10
-9.5
 20
-5.4848275207405095
 30
0.0
 11
-9.5
 21
5.4848274949812037
 31
0.0
  0
LINE
  5
79
100
AcDbEntity
  8
0
  6
CONTINUOUS
 62
               4
100
AcDbLine
 10
9.5
 20
5.4848275757904048
 30
0.0
 11
9.5
 21
-5.4848275763578158
 31
0.0
  0
ARC
  5
7A
100
AcDbEntity
  8
0
  6
CONTINUOUS
 62
               7
100
AcDbCircle
 10
0.0
 20
0.0
 30
0.0
 40
6.75
100
AcDbArc
 50
7.6622556607660508
 51
74.357528987000691
  0
ARC
  5
7B
100
AcDbEntity
  8
0
  6
CONTINUOUS
 62
               7
100
AcDbCircle
 10
0.0
 20
0.0
 30
0.0
 40
6.75
100
AcDbArc
 50
187.66225566076605
 51
254.35752898700068
  0
ARC
  5
7C
100
AcDbEntity
  8
0
  6
CONTINUOUS
 62
               7
100
AcDbCircle
 10
0.0
 20
0.0
 30
0.0
 40
6.75
100
AcDbArc
 50
285.64247101299935
 51
352.33774433923395
  0
ARC
  5
7D
100
AcDbEntity
  8
0
  6
CONTINUOUS
 62
               7
100
AcDbCircle
 10
0.0
 20
0.0
 30
0.0
 40
6.75
100
AcDbArc
 50
105.64247101299932
 51
172.33774433923395
  0
LINE
  5
7E
100
AcDbEntity
  8
0
  6
CONTINUOUS
 62
               7
100
AcDbLine
 10
-4.6636895265444309
 20
6.5
 30
0.0
 11
4.6636895265444309
 21
6.5
 31
0.0
  0
LINE
  5
7F
100
AcDbEntity
  8
0
  6
CONTINUOUS
 62
               7
100
AcDbLine
 10
-4.6636895265444309
 20
-6.5
 30
0.0
 11
4.6636895265444309
 21
-6.5
 31
0.0
  0
CIRCLE
  5
80
100
AcDbEntity
  8
0
  6
CONTINUOUS
 62
               7
100
AcDbCircle
 10
0.0
 20
0.0
 30
0.0
 40
8.0
  0
CIRCLE
  5
81
100
AcDbEntity
  8
0
  6
CONTINUOUS
 62
               7
100
AcDbCircle
 10
0.0
 20
0.0
 30
0.0
 40
2.3500000000000001
  0
CIRCLE
  5
82
100
AcDbEntity
  8
0
  6
CONTINUOUS
 62
               7
100
AcDbCircle
 10
0.0
 20
0.0
 30
0.0
 40
2.1237851090878976
  0
LINE
  5
83
100
AcDbEntity
  8
0
  6
CONTINUOUS
 62
               2
100
AcDbLine
 10
-14.017634443861482
 20
0.0
 30
0.0
 11
14.017634443861539
 21
0.0
 31
0.0
  0
LINE
  5
84
100
AcDbEntity
  8
0
  6
CONTINUOUS
 62
               7
100
AcDbLine
 10
-1.1458006798401925
 20
-1.1458006798401641
 30
0.0
 11
1.1458006798401925
 21
1.1458006798401641
 31
0.0
  0
LINE
  5
85
100
AcDbEntity
  8
0
  6
CONTINUOUS
 62
               7
100
AcDbLine
 10
-1.1458006798401925
 20
1.1458006798401641
 30
0.0
 11
1.1458006798401925
 21
-1.1458006798401641
 31
0.0
  0
LINE
  5
86
100
AcDbEntity
  8
0
  6
CONTINUOUS
 62
               2
100
AcDbLine
 10
0.0
 20
14.01763444386151
 30
0.0
 11
0.0
 21
-14.01763444386151
 31
0.0
  0
ENDBLK
  5
87
100
AcDbEntity
  8
0
100
AcDbBlockEnd
  0
BLOCK
  5
88
100
AcDbEntity
  8
0
100
AcDbBlockBegin
  2
KSHJ16-3
 70
               0
 10
0.0
 20
0.0
 30
0.0
  3
KSHJ16-3
  1

  0
LINE
  5
89
100
AcDbEntity
  8
0
  6
CONTINUOUS
 62
               4
100
AcDbLine
 10
23.621380459981651
 20
-9.4999999999999716
 30
0.0
 11
24.469886233339309
 21
-10.969655109971001
 31
0.0
  0
LINE
  5
8A
100
AcDbEntity
  8
0
  6
CONTINUOUS
 62
               4
100
AcDbLine
 10
30.621380459981651
 20
-9.4999999999999716
 30
0.0
 11
31.469886233339309
 21
-10.969655109971001
 31
0.0
  0
LINE
  5
8B
100
AcDbEntity
  8
0
  6
CONTINUOUS
 62
               4
100
AcDbLine
 10
37.621380459981651
 20
-9.5
 30
0.0
 11
36.772874686623993
 21
-10.969655109971001
 31
0.0
  0
LINE
  5
8C
100
AcDbEntity
  8
0
  6
CONTINUOUS
 62
               4
100
AcDbLine
 10
30.621380459981651
 20
-9.4999999999999716
 30
0.0
 11
29.772874686623936
 21
-10.969655109971001
 31
0.0
  0
LINE
  5
8D
100
AcDbEntity
  8
0
  6
CONTINUOUS
 62
               4
100
AcDbLine
 10
23.621380459981651
 20
9.5000000000000284
 30
0.0
 11
24.469886251225432
 21
10.969655140950692
 31
0.0
  0
LINE
  5
8E
100
AcDbEntity
  8
0
  6
CONTINUOUS
 62
               4
100
AcDbLine
 10
30.621380459981651
 20
9.5000000000000284
 30
0.0
 11
31.469886251225432
 21
10.969655140950692
 31
0.0
  0
LINE
  5
8F
100
AcDbEntity
  8
0
  6
CONTINUOUS
 62
               4
100
AcDbLine
 10
30.621380459981651
 20
9.5000000000000284
 30
0.0
 11
29.77287466873787
 21
10.969655140950692
 31
0.0
  0
LINE
  5
90
100
AcDbEntity
  8
0
  6
CONTINUOUS
 62
               4
100
AcDbLine
 10
37.621380459981651
 20
9.5
 30
0.0
 11
36.77287466873787
 21
10.969655140950692
 31
0.0
  0
LINE
  5
91
100
AcDbEntity
  8
0
  6
CONTINUOUS
 62
               4
100
AcDbLine
 10
23.621380459981651
 20
-9.4999999999999716
 30
0.0
 11
23.621380459981651
 21
9.5000000000000284
 31
0.0
  0
LINE
  5
92
100
AcDbEntity
  8
0
  6
CONTINUOUS
 62
               4
100
AcDbLine
 10
30.621380459981651
 20
-9.4999999999999716
 30
0.0
 11
30.621380459981651
 21
9.5000000000000284
 31
0.0
  0
LINE
  5
93
100
AcDbEntity
  8
0
  6
CONTINUOUS
 62
               4
100
AcDbLine
 10
37.621380459981651
 20
-9.5
 30
0.0
 11
37.621380459981651
 21
9.5
 31
0.0
  0
LINE
  5
94
100
AcDbEntity
  8
0
  6
CONTINUOUS
 62
               4
100
AcDbLine
 10
31.469886233339366
 20
-10.969655109971001
 30
0.0
 11
36.772874686623993
 21
-10.969655109971001
 31
0.0
  0
LINE
  5
95
100
AcDbEntity
  8
0
  6
CONTINUOUS
 62
               4
100
AcDbLine
 10
31.469886251225432
 20
10.969655140950692
 30
0.0
 11
36.77287466873787
 21
10.969655140950692
 31
0.0
  0
LINE
  5
96
100
AcDbEntity
  8
0
  6
CONTINUOUS
 62
               4
100
AcDbLine
 10
24.46988620870718
 20
-10.969655109971001
 30
0.0
 11
29.772874678307858
 21
-10.969655109971001
 31
0.0
  0
LINE
  5
97
100
AcDbEntity
  8
0
  6
CONTINUOUS
 62
               4
100
AcDbLine
 10
24.469886268311825
 20
10.969655140950692
 30
0.0
 11
29.772874678307858
 21
10.969655140950692
 31
0.0
  0
LINE
  5
98
100
AcDbEntity
  8
0
  6
CONTINUOUS
 62
               4
100
AcDbLine
 10
24.458538350306583
 20
5.4651724426985879
 30
0.0
 11
29.78422256965672
 21
5.4651724426985879
 31
0.0
  0
ARC
  5
99
100
AcDbEntity
  8
0
  6
CONTINUOUS
 62
               4
100
AcDbCircle
 10
28.531844042589285
 20
8.2075862213492883
 30
0.0
 40
4.9104635826076235
100
AcDbArc
 50
153.95099893585979
 51
213.95099893585945
  0
LINE
  5
9A
100
AcDbEntity
  8
0
  6
CONTINUOUS
 62
               4
100
AcDbLine
 10
24.458538350306583
 20
-5.4651724426985595
 30
0.0
 11
29.78422256965672
 21
-5.4651724426985595
 31
0.0
  0
ARC
  5
9B
100
AcDbEntity
  8
0
  6
CONTINUOUS
 62
               4
100
AcDbCircle
 10
41.878953801313344
 20
0.0000000000000284
 30
0.0
 40
18.257573341331721
100
AcDbArc
 50
162.58219669097579
 51
180.0
  0
ARC
  5
9C
100
AcDbEntity
  8
0
  6
CONTINUOUS
 62
               4
100
AcDbCircle
 10
41.878953801313344
 20
0.0000000000000284
 30
0.0
 40
18.257573341331721
100
AcDbArc
 50
180.0
 51
197.41780330902418
  0
ARC
  5
9D
100
AcDbEntity
  8
0
  6
CONTINUOUS
 62
               4
100
AcDbCircle
 10
28.531844042589285
 20
-8.2075862213492599
 30
0.0
 40
4.9104635826076235
100
AcDbArc
 50
146.04900106414055
 51
206.04900106413965
  0
ARC
  5
9E
100
AcDbEntity
  8
0
  6
CONTINUOUS
 62
               4
100
AcDbCircle
 10
25.710916877374018
 20
8.2075862213492883
 30
0.0
 40
4.9104635826076235
100
AcDbArc
 50
326.04900106414055
 51
26.049001064140189
  0
ARC
  5
9F
100
AcDbEntity
  8
0
  6
CONTINUOUS
 62
               4
100
AcDbCircle
 10
12.363807118649959
 20
0.0000000000000284
 30
0.0
 40
18.257573341331721
100
AcDbArc
 50
0.0
 51
17.417803309024183
  0
ARC
  5
A0
100
AcDbEntity
  8
0
  6
CONTINUOUS
 62
               4
100
AcDbCircle
 10
12.363807118649959
 20
0.0000000000000284
 30
0.0
 40
18.257573341331721
100
AcDbArc
 50
342.58219669097582
 51
0.0
  0
ARC
  5
A1
100
AcDbEntity
  8
0
  6
CONTINUOUS
 62
               4
100
AcDbCircle
 10
25.710916877374018
 20
-8.2075862213492599
 30
0.0
 40
4.9104635826076235
100
AcDbArc
 50
333.95099893586035
 51
33.950998935859438
  0
ARC
  5
A2
100
AcDbEntity
  8
0
  6
CONTINUOUS
 62
               4
100
AcDbCircle
 10
35.531844042589285
 20
-8.2075862213492599
 30
0.0
 40
4.9104635826076235
100
AcDbArc
 50
146.04900106414055
 51
206.04900106413965
  0
ARC
  5
A3
100
AcDbEntity
  8
0
  6
CONTINUOUS
 62
               4
100
AcDbCircle
 10
48.878953801313344
 20
0.0000000000000284
 30
0.0
 40
18.257573341331721
100
AcDbArc
 50
180.0
 51
197.41780330902418
  0
ARC
  5
A4
100
AcDbEntity
  8
0
  6
CONTINUOUS
 62
               4
100
AcDbCircle
 10
48.878953801313344
 20
0.0000000000000284
 30
0.0
 40
18.257573341331721
100
AcDbArc
 50
162.58219669097579
 51
180.0
  0
ARC
  5
A5
100
AcDbEntity
  8
0
  6
CONTINUOUS
 62
               4
100
AcDbCircle
 10
35.531844042589285
 20
8.2075862213492883
 30
0.0
 40
4.9104635826076235
100
AcDbArc
 50
153.95099893585979
 51
213.95099893585945
  0
ARC
  5
A6
100
AcDbEntity
  8
0
  6
CONTINUOUS
 62
               4
100
AcDbCircle
 10
32.710916877374018
 20
-8.2075862213492599
 30
0.0
 40
4.9104635826076235
100
AcDbArc
 50
333.95099893586035
 51
33.950998935859438
  0
ARC
  5
A7
100
AcDbEntity
  8
0
  6
CONTINUOUS
 62
               4
100
AcDbCircle
 10
19.363807118649959
 20
0.0000000000000284
 30
0.0
 40
18.257573341331721
100
AcDbArc
 50
342.58219669097582
 51
0.0
  0
ARC
  5
A8
100
AcDbEntity
  8
0
  6
CONTINUOUS
 62
               4
100
AcDbCircle
 10
19.363807118649959
 20
0.0000000000000284
 30
0.0
 40
18.257573341331721
100
AcDbArc
 50
0.0
 51
17.417803309024183
  0
LINE
  5
A9
100
AcDbEntity
  8
0
  6
CONTINUOUS
 62
               4
100
AcDbLine
 10
36.78422256965672
 20
-5.4651724426985595
 30
0.0
 11
31.458538350306583
 21
-5.4651724426985595
 31
0.0
  0
ARC
  5
AA
100
AcDbEntity
  8
0
  6
CONTINUOUS
 62
               4
100
AcDbCircle
 10
32.710916877374018
 20
8.2075862213492883
 30
0.0
 40
4.9104635826076235
100
AcDbArc
 50
326.04900106414055
 51
26.049001064140189
  0
LINE
  5
AB
100
AcDbEntity
  8
0
  6
CONTINUOUS
 62
               4
100
AcDbLine
 10
36.78422256965672
 20
5.4651724426985879
 30
0.0
 11
31.458538350306583
 21
5.4651724426985879
 31
0.0
  0
LINE
  5
AC
100
AcDbEntity
  8
0
  6
CONTINUOUS
 62
               7
100
AcDbLine
 10
60.0
 20
-6.5
 30
0.0
 11
58.5
 21
-8.0
 31
0.0
  0
LINE
  5
AD
100
AcDbEntity
  8
0
  6
CONTINUOUS
 62
               7
100
AcDbLine
 10
60.0
 20
6.5
 30
0.0
 11
58.5
 21
8.0
 31
0.0
  0
LINE
  5
AE
100
AcDbEntity
  8
0
  6
CONTINUOUS
 62
               7
100
AcDbLine
 10
67.0
 20
-6.5
 30
0.0
 11
60.0
 21
-6.5
 31
0.0
  0
LINE
  5
AF
100
AcDbEntity
  8
0
  6
CONTINUOUS
 62
               7
100
AcDbLine
 10
67.0
 20
6.5
 30
0.0
 11
60.0
 21
6.5
 31
0.0
  0
LINE
  5
B0
100
AcDbEntity
  8
0
  6
CONTINUOUS
 62
               2
100
AcDbLine
 10
37.621380459981651
 20
-7.1879999999999882
 30
0.0
 11
59.312000000000012
 21
-7.1879999999999882
 31
0.0
  0
LINE
  5
B1
100
AcDbEntity
  8
0
  6
CONTINUOUS
 62
               2
100
AcDbLine
 10
37.621380459981651
 20
7.1880000000000166
 30
0.0
 11
59.312000000000012
 21
7.1880000000000166
 31
0.0
  0
LINE
  5
B2
100
AcDbEntity
  8
0
  6
CONTINUOUS
 62
               2
100
AcDbLine
 10
3.2240119044456037
 20
-7.1879999999999882
 30
0.0
 11
23.621380459981651
 21
-7.1879999999999882
 31
0.0
  0
LINE
  5
B3
100
AcDbEntity
  8
0
  6
CONTINUOUS
 62
               2
100
AcDbLine
 10
3.2240119044456037
 20
7.1880000000000166
 30
0.0
 11
23.621380459981651
 21
7.1880000000000166
 31
0.0
  0
LINE
  5
B4
100
AcDbEntity
  8
0
  6
CONTINUOUS
 62
               7
100
AcDbLine
 10
37.621380459981651
 20
-8.0
 30
0.0
 11
58.5
 21
-8.0
 31
0.0
  0
LINE
  5
B5
100
AcDbEntity
  8
0
  6
CONTINUOUS
 62
               7
100
AcDbLine
 10
67.0
 20
-6.5
 30
0.0
 11
67.0
 21
-0.9000000000000057
 31
0.0
  0
LINE
  5
B6
100
AcDbEntity
  8
0
  6
CONTINUOUS
 62
               7
100
AcDbLine
 10
65.0
 20
-0.9000000000000057
 30
0.0
 11
65.0
 21
0.9000000000000057
 31
0.0
  0
LINE
  5
B7
100
AcDbEntity
  8
0
  6
CONTINUOUS
 62
               7
100
AcDbLine
 10
67.0
 20
0.9000000000000057
 30
0.0
 11
65.0
 21
0.9000000000000057
 31
0.0
  0
LINE
  5
B8
100
AcDbEntity
  8
0
  6
CONTINUOUS
 62
               7
100
AcDbLine
 10
67.0
 20
-0.9000000000000057
 30
0.0
 11
65.0
 21
-0.9000000000000057
 31
0.0
  0
LINE
  5
B9
100
AcDbEntity
  8
0
  6
CONTINUOUS
 62
               7
100
AcDbLine
 10
66.278312163512965
 20
-6.5
 30
0.0
 11
66.278312163512965
 21
-0.9000000000000057
 31
0.0
  0
LINE
  5
BA
100
AcDbEntity
  8
0
  6
CONTINUOUS
 62
               7
100
AcDbLine
 10
66.278312163512965
 20
6.5
 30
0.0
 11
66.278312163512965
 21
0.9000000000000057
 31
0.0
  0
LINE
  5
BB
100
AcDbEntity
  8
0
  6
CONTINUOUS
 62
               7
100
AcDbLine
 10
67.0
 20
0.9000000000000057
 30
0.0
 11
67.0
 21
6.5
 31
0.0
  0
LINE
  5
BC
100
AcDbEntity
  8
0
  6
CONTINUOUS
 62
               7
100
AcDbLine
 10
37.621380459981651
 20
8.0
 30
0.0
 11
58.5
 21
8.0
 31
0.0
  0
LINE
  5
BD
100
AcDbEntity
  8
0
  6
CONTINUOUS
 62
               7
100
AcDbLine
 10
3.6928203230275471
 20
-8.0
 30
0.0
 11
23.621380459981651
 21
-8.0
 31
0.0
  0
LINE
  5
BE
100
AcDbEntity
  8
0
  6
CONTINUOUS
 62
               7
100
AcDbLine
 10
3.6928203230275471
 20
8.0
 30
0.0
 11
23.621380459981651
 21
8.0
 31
0.0
  0
LINE
  5
BF
100
AcDbEntity
  8
0
  6
CONTINUOUS
 62
               7
100
AcDbLine
 10
3.6928203230275471
 20
8.0
 30
0.0
 11
3.6928203230275471
 21
-8.0
 31
0.0
  0
LINE
  5
C0
100
AcDbEntity
  8
0
  6
CONTINUOUS
 62
               7
100
AcDbLine
 10
3.0
 20
-6.7999999999999829
 30
0.0
 11
3.6928203230275471
 21
-8.0
 31
0.0
  0
LINE
  5
C1
100
AcDbEntity
  8
0
  6
CONTINUOUS
 62
               7
100
AcDbLine
 10
3.0
 20
6.8000000000000114
 30
0.0
 11
3.6928203230275471
 21
8.0
 31
0.0
  0
LINE
  5
C2
100
AcDbEntity
  8
0
  6
CONTINUOUS
 62
               4
100
AcDbLine
 10
-21.454356057317852
 20
-5.5
 30
0.0
 11
-15.0
 21
-5.5
 31
0.0
  0
ARC
  5
C3
100
AcDbEntity
  8
0
  6
CONTINUOUS
 62
               4
100
AcDbCircle
 10
-21.454356057317852
 20
-2.5
 30
0.0
 40
3.0
100
AcDbArc
 50
204.62431835216407
 51
270.0
  0
ARC
  5
C4
100
AcDbEntity
  8
0
  6
CONTINUOUS
 62
               4
100
AcDbCircle
 10
-16.0
 20
0.0
 30
0.0
 40
9.0
100
AcDbArc
 50
155.3756816478359
 51
204.62431835216407
  0
LINE
  5
C5
100
AcDbEntity
  8
0
  6
CONTINUOUS
 62
               4
100
AcDbLine
 10
-21.454356057317852
 20
5.5
 30
0.0
 11
-15.0
 21
5.5
 31
0.0
  0
LINE
  5
C6
100
AcDbEntity
  8
0
  6
CONTINUOUS
 62
               4
100
AcDbLine
 10
-15.0
 20
-5.5
 30
0.0
 11
-15.0
 21
5.5
 31
0.0
  0
ARC
  5
C7
100
AcDbEntity
  8
0
  6
CONTINUOUS
 62
               4
100
AcDbCircle
 10
-21.454356057317852
 20
2.5
 30
0.0
 40
3.0
100
AcDbArc
 50
90.0
 51
155.3756816478359
  0
LINE
  5
C8
100
AcDbEntity
  8
0
  6
CONTINUOUS
 62
               7
100
AcDbLine
 10
0.0
 20
-6.7999999999999829
 30
0.0
 11
3.0
 21
-6.7999999999999829
 31
0.0
  0
LINE
  5
C9
100
AcDbEntity
  8
0
  6
CONTINUOUS
 62
               7
100
AcDbLine
 10
0.0
 20
6.8000000000000114
 30
0.0
 11
3.0
 21
6.8000000000000114
 31
0.0
  0
LINE
  5
CA
100
AcDbEntity
  8
0
  6
CONTINUOUS
 62
               7
100
AcDbLine
 10
1.0
 20
6.8000000000000114
 30
0.0
 11
1.0
 21
-6.7999999999999829
 31
0.0
  0
LINE
  5
CB
100
AcDbEntity
  8
0
  6
CONTINUOUS
 62
               7
100
AcDbLine
 10
0.0
 20
-6.7999999999999829
 30
0.0
 11
0.0
 21
6.8000000000000114
 31
0.0
  0
LINE
  5
CC
100
AcDbEntity
  8
0
  6
CONTINUOUS
 62
               7
100
AcDbLine
 10
3.0
 20
6.8000000000000114
 30
0.0
 11
3.0
 21
-6.7999999999999829
 31
0.0
  0
LINE
  5
CD
100
AcDbEntity
  8
0
  6
CONTINUOUS
 62
               2
100
AcDbLine
 10
-26.65752560283795
 20
0.0
 30
0.0
 11
69.0
 21
0.0
 31
0.0
  0
LINE
  5
CE
100
AcDbEntity
  8
0
  6
CONTINUOUS
 62
               7
100
AcDbLine
 10
-15.0
 20
-2.0
 30
0.0
 11
0.0
 21
-2.0
 31
0.0
  0
LINE
  5
CF
100
AcDbEntity
  8
0
  6
CONTINUOUS
 62
               7
100
AcDbLine
 10
-15.0
 20
2.0
 30
0.0
 11
0.0
 21
2.0
 31
0.0
  0
ENDBLK
  5
D0
100
AcDbEntity
  8
0
100
AcDbBlockEnd
  0
BLOCK
  5
D1
100
AcDbEntity
  8
0
100
AcDbBlockBegin
  2
KSHJ16-4
 70
               0
 10
0.0
 20
0.0
 30
0.0
  3
KSHJ16-4
  1

  0
LINE
  5
D2
100
AcDbEntity
  8
0
  6
CONTINUOUS
 62
             200
100
AcDbLine
 10
-12.61150516331287
 20
0.0
 30
0.0
 11
12.61150516331287
 21
0.0
 31
0.0
  0
CIRCLE
  5
D3
100
AcDbEntity
  8
0
  6
CONTINUOUS
 62
             200
100
AcDbCircle
 10
0.0
 20
0.0
 30
0.0
 40
8.0
  0
CIRCLE
  5
D4
100
AcDbEntity
  8
0
  6
CONTINUOUS
 62
               4
100
AcDbCircle
 10
0.0
 20
0.0
 30
0.0
 40
7.1879999999999997
  0
LINE
  5
D5
100
AcDbEntity
  8
0
  6
CONTINUOUS
 62
               4
100
AcDbLine
 10
0.0
 20
-10.949999999999996
 30
0.0
 11
9.5
 21
-5.4651724426985666
 31
0.0
  0
LINE
  5
D6
100
AcDbEntity
  8
0
  6
CONTINUOUS
 62
               4
100
AcDbLine
 10
0.0
 20
10.950000000000003
 30
0.0
 11
-9.5
 21
5.4651724426985737
 31
0.0
  0
LINE
  5
D7
100
AcDbEntity
  8
0
  6
CONTINUOUS
 62
               4
100
AcDbLine
 10
0.0
 20
10.950000000000003
 30
0.0
 11
9.5
 21
5.4651724426985737
 31
0.0
  0
LINE
  5
D8
100
AcDbEntity
  8
0
  6
CONTINUOUS
 62
               4
100
AcDbLine
 10
0.0
 20
-10.949999999999996
 30
0.0
 11
-9.5
 21
-5.4651724426985666
 31
0.0
  0
LINE
  5
D9
100
AcDbEntity
  8
0
  6
CONTINUOUS
 62
               4
100
AcDbLine
 10
9.5
 20
5.4651724426985737
 30
0.0
 11
9.5
 21
-5.4651724426985666
 31
0.0
  0
LINE
  5
DA
100
AcDbEntity
  8
0
  6
CONTINUOUS
 62
               4
100
AcDbLine
 10
-9.5
 20
-5.4651724426985666
 30
0.0
 11
-9.5
 21
5.4651724426985737
 31
0.0
  0
CIRCLE
  5
DB
100
AcDbEntity
  8
0
  6
CONTINUOUS
 62
               4
100
AcDbCircle
 10
0.0
 20
0.0
 30
0.0
 40
9.4829781714396066
  0
LINE
  5
DC
100
AcDbEntity
  8
0
  6
CONTINUOUS
 62
             200
100
AcDbLine
 10
0.0
 20
12.61150516331287
 30
0.0
 11
0.0
 21
-12.61150516331287
 31
0.0
  0
ENDBLK
  5
DD
100
AcDbEntity
  8
0
100
AcDbBlockEnd
  0
BLOCK
  5
DE
100
AcDbEntity
  8
0
100
AcDbBlockBegin
  2
KSHJ16-5
 70
               0
 10
0.0
 20
0.0
 30
0.0
  3
KSHJ16-5
  1

  0
ARC
  5
DF
100
AcDbEntity
  8
0
  6
CONTINUOUS
 62
               4
100
AcDbCircle
 10
4.9104635826075764
 20
-8.2075862213492812
 30
0.0
 40
4.9104635826075897
100
AcDbArc
 50
146.04900106414033
 51
206.04900106414064
  0
ARC
  5
E0
100
AcDbEntity
  8
0
  6
CONTINUOUS
 62
               4
100
AcDbCircle
 10
18.257573341331977
 20
0.0
 30
0.0
 40
18.257573341331984
100
AcDbArc
 50
162.58219669097605
 51
197.41780330902395
  0
ARC
  5
E1
100
AcDbEntity
  8
0
  6
CONTINUOUS
 62
               4
100
AcDbCircle
 10
4.9104635826076333
 20
8.2075862213492883
 30
0.0
 40
4.910463582607612
100
AcDbArc
 50
153.95099893585959
 51
213.95099893585945
  0
ARC
  5
E2
100
AcDbEntity
  8
0
  6
CONTINUOUS
 62
               4
100
AcDbCircle
 10
25.089536417392424
 20
-8.2075862213492883
 30
0.0
 40
4.9104635826075747
100
AcDbArc
 50
333.95099893585945
 51
33.950998935859694
  0
ARC
  5
E3
100
AcDbEntity
  8
0
  6
CONTINUOUS
 62
               4
100
AcDbCircle
 10
11.74242665866808
 20
0.0
 30
0.0
 40
18.257573341331945
100
AcDbArc
 50
342.58219669097599
 51
17.417803309023984
  0
ARC
  5
E4
100
AcDbEntity
  8
0
  6
CONTINUOUS
 62
               4
100
AcDbCircle
 10
25.089536417392367
 20
8.2075862213492883
 30
0.0
 40
4.910463582607612
100
AcDbArc
 50
326.04900106414055
 51
26.049001064140391
  0
LINE
  5
E5
100
AcDbEntity
  8
0
  6
CONTINUOUS
 62
               4
100
AcDbLine
 10
29.162842109675069
 20
-5.4651724426985666
 30
0.0
 11
0.8371578903249883
 21
-5.4651724426985666
 31
0.0
  0
LINE
  5
E6
100
AcDbEntity
  8
0
  6
CONTINUOUS
 62
               4
100
AcDbLine
 10
0.8371578903249315
 20
5.4651724426985737
 30
0.0
 11
29.162842109675069
 21
5.4651724426985737
 31
0.0
  0
LINE
  5
E7
100
AcDbEntity
  8
0
  6
CONTINUOUS
 62
               4
100
AcDbLine
 10
0.0
 20
-9.5
 30
0.0
 11
0.8371578903249883
 21
-10.949999999999996
 31
0.0
  0
LINE
  5
E8
100
AcDbEntity
  8
0
  6
CONTINUOUS
 62
               4
100
AcDbLine
 10
30.0
 20
9.5
 30
0.0
 11
29.162842109675069
 21
10.949999999999996
 31
0.0
  0
LINE
  5
E9
100
AcDbEntity
  8
0
  6
CONTINUOUS
 62
               4
100
AcDbLine
 10
30.0
 20
-9.5
 30
0.0
 11
29.162842109675012
 21
-10.949999999999996
 31
0.0
  0
LINE
  5
EA
100
AcDbEntity
  8
0
  6
CONTINUOUS
 62
               4
100
AcDbLine
 10
0.0
 20
9.5
 30
0.0
 11
0.8371578903249315
 21
10.949999999999996
 31
0.0
  0
LINE
  5
EB
100
AcDbEntity
  8
0
  6
CONTINUOUS
 62
               4
100
AcDbLine
 10
0.8371578903249883
 20
-10.949999999999996
 30
0.0
 11
29.162842109675012
 21
-10.949999999999996
 31
0.0
  0
LINE
  5
EC
100
AcDbEntity
  8
0
  6
CONTINUOUS
 62
               4
100
AcDbLine
 10
0.8371578903249315
 20
10.949999999999996
 30
0.0
 11
29.162842109675069
 21
10.949999999999996
 31
0.0
  0
LINE
  5
ED
100
AcDbEntity
  8
0
  6
CONTINUOUS
 62
               4
100
AcDbLine
 10
30.0
 20
9.5
 30
0.0
 11
30.0
 21
-9.5
 31
0.0
  0
LINE
  5
EE
100
AcDbEntity
  8
0
  6
CONTINUOUS
 62
               4
100
AcDbLine
 10
0.0
 20
9.5
 30
0.0
 11
0.0
 21
-9.5
 31
0.0
  0
LINE
  5
EF
100
AcDbEntity
  8
0
  6
CONTINUOUS
 62
             200
100
AcDbLine
 10
-2.5865950145743
 20
0.0
 30
0.0
 11
32.495883698828038
 21
0.0
 31
0.0
  0
ENDBLK
  5
F0
100
AcDbEntity
  8
0
100
AcDbBlockEnd
  0
BLOCK
  5
F1
100
AcDbEntity
  8
0
100
AcDbBlockBegin
  2
KSHJ16-6
 70
               0
 10
0.0
 20
0.0
 30
0.0
  3
KSHJ16-6
  1

  0
LINE
  5
F2
100
AcDbEntity
  8
0
  6
CONTINUOUS
 62
               4
100
AcDbLine
 10
19.0
 20
12.5
 30
0.0
 11
19.0
 21
-12.5
 31
0.0
  0
LINE
  5
F3
100
AcDbEntity
  8
0
  6
CONTINUOUS
 62
               4
100
AcDbLine
 10
-19.0
 20
-12.5
 30
0.0
 11
19.0
 21
-12.5
 31
0.0
  0
LINE
  5
F4
100
AcDbEntity
  8
0
  6
CONTINUOUS
 62
               4
100
AcDbLine
 10
-19.0
 20
12.5
 30
0.0
 11
-19.0
 21
-12.5
 31
0.0
  0
LINE
  5
F5
100
AcDbEntity
  8
0
  6
CONTINUOUS
 62
               4
100
AcDbLine
 10
-19.0
 20
12.5
 30
0.0
 11
19.0
 21
12.5
 31
0.0
  0
LINE
  5
F6
100
AcDbEntity
  8
0
  6
CONTINUOUS
 62
             200
100
AcDbLine
 10
-21.870000000000005
 20
0.0
 30
0.0
 11
21.920000000000016
 21
0.0
 31
0.0
  0
CIRCLE
  5
F7
100
AcDbEntity
  8
0
  6
CONTINUOUS
 62
             200
100
AcDbCircle
 10
0.0
 20
0.0
 30
0.0
 40
8.0
  0
CIRCLE
  5
F8
100
AcDbEntity
  8
0
  6
CONTINUOUS
 62
               4
100
AcDbCircle
 10
0.0
 20
0.0
 30
0.0
 40
7.1879999999999997
  0
LINE
  5
F9
100
AcDbEntity
  8
0
  6
CONTINUOUS
 62
             200
100
AcDbLine
 10
0.0
 20
14.670000000000002
 30
0.0
 11
0.0
 21
-16.189999999999998
 31
0.0
  0
ENDBLK
  5
FA
100
AcDbEntity
  8
0
100
AcDbBlockEnd
  0
BLOCK
  5
FB
100
AcDbEntity
  8
0
100
AcDbBlockBegin
  2
KSHJ16-7
 70
               0
 10
0.0
 20
0.0
 30
0.0
  3
KSHJ16-7
  1

  0
LINE
  5
FC
100
AcDbEntity
  8
0
  6
CONTINUOUS
 62
               4
100
AcDbLine
 10
0.0
 20
-12.499999503696515
 30
0.0
 11
12.0
 21
-12.499999503696515
 31
0.0
  0
LINE
  5
FD
100
AcDbEntity
  8
0
  6
CONTINUOUS
 62
               4
100
AcDbLine
 10
0.0
 20
12.5
 30
0.0
 11
12.0
 21
12.5
 31
0.0
  0
LINE
  5
FE
100
AcDbEntity
  8
0
  6
CONTINUOUS
 62
               4
100
AcDbLine
 10
0.0
 20
-12.499999503696515
 30
0.0
 11
0.0
 21
12.5
 31
0.0
  0
LINE
  5
FF
100
AcDbEntity
  8
0
  6
CONTINUOUS
 62
               4
100
AcDbLine
 10
12.0
 20
-12.499999503696515
 30
0.0
 11
12.0
 21
12.5
 31
0.0
  0
LINE
  5
100
100
AcDbEntity
  8
0
  6
CONTINUOUS
 62
             200
100
AcDbLine
 10
-5.1117127087501331
 20
0.0
 30
0.0
 11
16.923304814200037
 21
0.0
 31
0.0
  0
ENDBLK
  5
101
100
AcDbEntity
  8
0
100
AcDbBlockEnd
  0
BLOCK
  5
102
100
AcDbEntity
  8
0
100
AcDbBlockBegin
  2
KSHJ16-8
 70
               0
 10
0.0
 20
0.0
 30
0.0
  3
KSHJ16-8
  1

  0
LINE
  5
103
100
AcDbEntity
  8
0
  6
CONTINUOUS
 62
               4
100
AcDbLine
 10
-19.0
 20
0.0
 30
0.0
 11
19.0
 21
0.0
 31
0.0
  0
LINE
  5
104
100
AcDbEntity
  8
0
  6
CONTINUOUS
 62
               4
100
AcDbLine
 10
19.0
 20
12.0
 30
0.0
 11
19.0
 21
0.0
 31
0.0
  0
LINE
  5
105
100
AcDbEntity
  8
0
  6
CONTINUOUS
 62
             200
100
AcDbLine
 10
-22.060000000000002
 20
6.0
 30
0.0
 11
23.0
 21
6.0
 31
0.0
  0
LINE
  5
106
100
AcDbEntity
  8
0
  6
CONTINUOUS
 62
               4
100
AcDbLine
 10
-19.0
 20
12.0
 30
0.0
 11
19.0
 21
12.0
 31
0.0
  0
LINE
  5
107
100
AcDbEntity
  8
0
  6
CONTINUOUS
 62
               4
100
AcDbLine
 10
-19.0
 20
12.0
 30
0.0
 11
-19.0
 21
0.0
 31
0.0
  0
LINE
  5
108
100
AcDbEntity
  8
0
  6
CONTINUOUS
 62
             200
100
AcDbLine
 10
-12.5
 20
10.780000000000001
 30
0.0
 11
-12.5
 21
1.0699999999999932
 31
0.0
  0
LINE
  5
109
100
AcDbEntity
  8
0
  6
CONTINUOUS
 62
             200
100
AcDbLine
 10
12.5
 20
10.780000000000001
 30
0.0
 11
12.5
 21
1.0699999999999932
 31
0.0
  0
CIRCLE
  5
10A
100
AcDbEntity
  8
0
  6
CONTINUOUS
 62
               4
100
AcDbCircle
 10
-12.5
 20
6.0
 30
0.0
 40
2.25
  0
CIRCLE
  5
10B
100
AcDbEntity
  8
0
  6
CONTINUOUS
 62
               4
100
AcDbCircle
 10
-12.5
 20
6.0
 30
0.0
 40
4.0
  0
CIRCLE
  5
10C
100
AcDbEntity
  8
0
  6
CONTINUOUS
 62
               4
100
AcDbCircle
 10
12.5
 20
6.0
 30
0.0
 40
4.0
  0
CIRCLE
  5
10D
100
AcDbEntity
  8
0
  6
CONTINUOUS
 62
               4
100
AcDbCircle
 10
12.5
 20
6.0
 30
0.0
 40
2.25
  0
LINE
  5
10E
100
AcDbEntity
  8
0
  6
CONTINUOUS
 62
             200
100
AcDbLine
 10
0.0
 20
14.539999999999999
 30
0.0
 11
0.0
 21
-2.8900000000000006
 31
0.0
  0
ENDBLK
  5
10F
100
AcDbEntity
  8
0
100
AcDbBlockEnd
  0
ENDSEC
  0
SECTION
  2
ENTITIES
  0
INSERT
  5
110
100
AcDbEntity
  8
0
  6
ByBlock
100
AcDbBlockReference
  2
KSHJ16-8
 10
-52.844084973548064
 20
-59.398643082223629
 30
0.0
  0
INSERT
  5
111
100
AcDbEntity
  8
0
  6
ByBlock
100
AcDbBlockReference
  2
KSHJ16-7
 10
26.18027257746482
 20
-107.39864357852711
 30
0.0
  0
INSERT
  5
112
100
AcDbEntity
  8
0
  6
ByBlock
100
AcDbBlockReference
  2
KSHJ16-6
 10
-52.844084973548064
 20
-107.39864308222363
 30
0.0
  0
INSERT
  5
113
100
AcDbEntity
  8
0
  6
ByBlock
100
AcDbBlockReference
  2
KSHJ16-5
 10
136.46250616643971
 20
42.394006859144227
 30
0.0
  0
INSERT
  5
114
100
AcDbEntity
  8
0
  6
ByBlock
100
AcDbBlockReference
  2
KSHJ16-4
 10
83.448179739818556
 20
42.394006859144227
 30
0.0
  0
INSERT
  5
115
100
AcDbEntity
  8
0
  6
ByBlock
100
AcDbBlockReference
  2
KSHJ16-3
 10
-138.28681184580088
 20
-4.8142349754813836
 30
0.0
  0
INSERT
  5
116
100
AcDbEntity
  8
0
  6
ByBlock
100
AcDbBlockReference
  2
KSHJ16-2
 10
-9.1624296969510794
 20
70.971173261213565
 30
0.0
  0
INSERT
  5
117
100
AcDbEntity
  8
0
  6
ByBlock
100
AcDbBlockReference
  2
KSHJ16-1
 10
-138.28681184580088
 20
70.971173261213565
 30
0.0
  0
MTEXT
  5
118
100
AcDbEntity
  8
0
  6
CONTINUOUS
 62
               7
100
AcDbMText
 10
-164.455879662998
 20
121.35000610351562
 30
0.0
 40
4.5
 41
0.0
 71
               4
 72
               1
  1
\W1.059;\A1;KSHJ16
  0
MTEXT
  5
119
100
AcDbEntity
  8
0
  6
CONTINUOUS
 62
               7
100
AcDbMText
 10
-158.59780786265534
 20
101.25688731526867
 30
0.0
 40
4.5
 41
0.0
 71
               4
 72
               1
  1
\W1.075;\A1;KSHJ16X15-02
  0
MTEXT
  5
11A
100
AcDbEntity
  8
0
  6
CONTINUOUS
 62
               7
100
AcDbMText
 10
58.687337391579099
 20
108.60000610351563
 30
0.0
 40
4.5
 41
0.0
 71
               4
 72
               1
  1
\W1.094;\A1;STOPER NUT:-S(S-KSH-M16)
  0
LINE
  5
11C
100
AcDbEntity
  8
0
  6
DASHED
 62
               2
100
AcDbLine
 10
55.116668701171875
 20
132.60000610351562
 30
0.0
 11
55.116668701171875
 21
-35.375622749328613
 31
0.0
  0
MTEXT
  5
11D
100
AcDbEntity
  8
0
  6
CONTINUOUS
 62
               7
100
AcDbMText
 10
-158.69609785905715
 20
29.064018345048247
 30
0.0
 40
4.5
 41
0.0
 71
               4
 72
               1
  1
\W1.068;\A1;KSHJ16X15C-02
  0
MTEXT
  5
11E
100
AcDbEntity
  8
0
  6
CONTINUOUS
 62
               7
100
AcDbMText
 10
-185.66990291502319
 20
34.900004069010421
 30
0.0
 40
4.5
 41
0.0
 71
               4
 72
               1
  1
\W1.107;\A1;MODEL:KSHJ16X15C-01
  0
LINE
  5
11F
100
AcDbEntity
  8
0
  6
CONTINUOUS
 62
               7
100
AcDbLine
 10
-194.25
 20
43.900004069010421
 30
0.0
 11
55.116668701171875
 21
43.900004069010421
 31
0.0
  0
MTEXT
  5
120
100
AcDbEntity
  8
0
  6
CONTINUOUS
 62
               7
100
AcDbMText
 10
-185.666666670116
 20
-43.799997965494782
 30
0.0
 40
4.5
 41
0.0
 71
               4
 72
               1
  1
\W1.111;\A1;SIDE MOUNT:-2(2-KSH-M16)
  0
LINE
  5
121
100
AcDbEntity
  8
0
  6
CONTINUOUS
 62
               7
100
AcDbLine
 10
-194.25
 20
-34.799997965494782
 30
0.0
 11
194.80000305175781
 21
-34.799997965494782
 31
0.0
  0
MTEXT
  5
122
100
AcDbEntity
  8
0
  6
CONTINUOUS
 62
               7
100
AcDbMText
 10
-182.47793466437096
 20
128.85000610351562
 30
0.0
 40
4.5
 41
0.0
 71
               4
 72
               1
  1
\W1.029;\A1;SHOCK ABSORBER
  0
MTEXT
  5
123
100
AcDbEntity
  8
0
  6
CONTINUOUS
 62
               7
100
AcDbMText
 10
-185.66494845617387
 20
107.60000610351562
 30
0.0
 40
4.5
 41
0.0
 71
               4
 72
               1
  1
\W1.113;\A1;MODEL:KSHJ16X15-01
  0
LINE
  5
124
100
AcDbEntity
  8
0
  6
CONTINUOUS
 62
               7
100
AcDbLine
 10
-194.25
 20
132.60000610351562
 30
0.0
 11
194.80000305175781
 21
132.60000610351562
 31
0.0
  0
LINE
  5
125
100
AcDbEntity
  8
0
  6
CONTINUOUS
 62
               7
100
AcDbLine
 10
194.80000305175781
 20
132.60000610351562
 30
0.0
 11
194.80000305175781
 21
-133.5
 31
0.0
  0
LINE
  5
126
100
AcDbEntity
  8
0
  6
CONTINUOUS
 62
               7
100
AcDbLine
 10
-194.25
 20
132.60000610351562
 30
0.0
 11
-194.25
 21
-133.5
 31
0.0
  0
LINE
  5
127
100
AcDbEntity
  8
0
  6
CONTINUOUS
 62
               7
100
AcDbLine
 10
-194.25
 20
-133.5
 30
0.0
 11
194.80000305175781
 21
-133.5
 31
0.0
  0
LINE
  5
128
100
AcDbEntity
  8
0
  6
CONTINUOUS
 62
               7
100
AcDbLine
 10
109.80000305175781
 20
-118.5
 30
0.0
 11
109.80000305175781
 21
-133.5
 31
0.0
  0
LINE
  5
129
100
AcDbEntity
  8
0
  6
CONTINUOUS
 62
               7
100
AcDbLine
 10
109.80000305175781
 20
-118.5
 30
0.0
 11
194.80000305175781
 21
-118.5
 31
0.0
  0
LINE
  5
12A
100
AcDbEntity
  8
0
  6
CONTINUOUS
 62
               7
100
AcDbLine
 10
109.80000305175781
 20
132.60000610351562
 30
0.0
 11
109.80000305175781
 21
117.60000610351562
 31
0.0
  0
LINE
  5
12B
100
AcDbEntity
  8
0
  6
CONTINUOUS
 62
               7
100
AcDbLine
 10
109.80000305175781
 20
117.60000610351562
 30
0.0
 11
194.80000305175781
 21
117.60000610351562
 31
0.0
  0
LINE
  5
12C
100
AcDbEntity
  8
0
  6
CONTINUOUS
 62
               7
100
AcDbLine
 10
-194.25
 20
117.60000610351562
 30
0.0
 11
-109.25
 21
117.60000610351562
 31
0.0
  0
LINE
  5
12D
100
AcDbEntity
  8
0
  6
CONTINUOUS
 62
               7
100
AcDbLine
 10
-109.25
 20
132.60000610351562
 30
0.0
 11
-109.25
 21
117.60000610351562
 31
0.0
  0
MTEXT
  5
12E
100
AcDbEntity
  8
0
  6
CONTINUOUS
 62
               7
100
AcDbMText
 10
135.28361320576767
 20
125.10000610351562
 30
0.0
 40
4.5
 41
0.0
 71
               4
 72
               1
  1
\W1.311;\A1;Ver. 1.0
  0
MTEXT
  5
12F
100
AcDbEntity
  8
0
  6
CONTINUOUS
 62
               7
100
AcDbMText
 10
115.5267259825148
 20
-126.0
 30
0.0
 40
6.3000001907348633
 41
0.0
 71
               4
 72
               1
  1
\W1.121;\A1;KOGANEI CORP.
  0
ENDSEC
  0
SECTION
  2
OBJECTS
  0
DICTIONARY
  5
19
100
AcDbDictionary
  3
ACAD_GROUP
350
1A
  3
ACAD_MLINESTYLE
350
1B
  0
DICTIONARY
  5
1A
102
{ACAD_REACTORS
330
19
102
}
100
AcDbDictionary
  0
DICTIONARY
  5
1B
102
{ACAD_REACTORS
330
19
102
}
100
AcDbDictionary
  3
STANDARD
350
1C
  0
MLINESTYLE
  5
1C
102
{ACAD_REACTORS
330
1B
102
}
100
AcDbMlineStyle
  2
Standard
 70
               0
  3

 62
               0
 51
90.0
 52
90.0
 71
               2
 49
0.5
 62
             256
  6
ByLayer
 49
-0.5
 62
             256
  6
ByLayer
  0
ENDSEC
  0
EOF
