  0
SECTION
  2
HEADER
  0
ENDSEC
  0
SECTION
  2
TABLES
  0
TABLE
  2
LTYPE
 70
     4
  0
LTYPE
  2
CONTINUOUS
 70
    64
  3
Solid line
 72
    65
 73
     0
 40
0.000000
  0
LTYPE
  2
DASHED
 70
    64
  3
__ __ __ __ __ __ __ __ __ __ __ __ __ __ __
 72
    65
 73
     2
 40
3.500000
 49
2.000000
 49
-1.500000
  0
LTYPE
  2
CENTER
 70
    64
  3
____ _ ____ _ ____ _ ____ _ ____ _ ____ _ ____
 72
    65
 73
     4
 40
17.500000
 49
13.000000
 49
-1.500000
 49
1.500000
 49
-1.500000
  0
LTYPE
  2
PHANTOM
 70
    64
  3
_____ _ _ _____ _ _ _____ _ _ _____ _ _ ____  
 72
    65
 73
     6
 40
15.500000
 49
8.000000
 49
-1.500000
 49
1.500000
 49
-1.500000
 49
1.500000
 49
-1.500000
  0
LTYPE
  2
DASHED1
 70
    64
  3
__ __ __ __ __ __ __ __ __ __ __ __ __ __ __
 72
    65
 73
     2
 40
1.500000
 49
1.000000
 49
-0.500000
  0
LTYPE
  2
DASHED2
 70
    64
  3
__ __ __ __ __ __ __ __ __ __ __ __ __ __ __
 72
    65
 73
     2
 40
3.500000
 49
2.500000
 49
-1.000000
  0
LTYPE
  2
DASHED3
 70
    64
  3
__ __ __ __ __ __ __ __ __ __ __ __ __ __ __
 72
    65
 73
     2
 40
6.000000
 49
4.000000
 49
-2.000000
  0
LTYPE
  2
DASHED4
 70
    64
  3
__ __ __ __ __ __ __ __ __ __ __ __ __ __ __
 72
    65
 73
     2
 40
12.000000
 49
10.000000
 49
-2.000000
  0
LTYPE
  2
DASHED5
 70
    64
  3
__ __ __ __ __ __ __ __ __ __ __ __ __ __ __
 72
    65
 73
     2
 40
17.000000
 49
15.000000
 49
-2.000000
  0
LTYPE
  2
DASHED6
 70
    64
  3
__ __ __ __ __ __ __ __ __ __ __ __ __ __ __
 72
    65
 73
     2
 40
29.000000
 49
27.000000
 49
-2.000000
  0
LTYPE
  2
PHANTOM1
 70
    64
  3
_____ _ _ _____ _ _ _____ _ _ _____ _ _ ____  
 72
    65
 73
     6
 40
31.000000
 49
25.000000
 49
-1.500000
 49
1.000000
 49
-1.000000
 49
1.000000
 49
-1.500000
  0
LTYPE
  2
PHANTOM2
 70
    64
  3
_____ _ _ _____ _ _ _____ _ _ _____ _ _ ____  
 72
    65
 73
     6
 40
36.000000
 49
27.000000
 49
-1.500000
 49
2.500000
 49
-1.000000
 49
2.500000
 49
-1.500000
  0
LTYPE
  2
PHANTOM3
 70
    64
  3
_____ _ _ _____ _ _ _____ _ _ _____ _ _ ____  
 72
    65
 73
     6
 40
78.000000
 49
64.000000
 49
-2.000000
 49
4.000000
 49
-2.000000
 49
4.000000
 49
-2.000000
  0
LTYPE
  2
CENTER1
 70
    64
  3
____ _ ____ _ ____ _ ____ _ ____ _ ____ _ ____
 72
    65
 73
     4
 40
19.000000
 49
14.000000
 49
-1.000000
 49
3.000000
 49
-1.000000
  0
LTYPE
  2
CENTER2
 70
    64
  3
____ _ ____ _ ____ _ ____ _ ____ _ ____ _ ____
 72
    65
 73
     4
 40
28.500000
 49
25.000000
 49
-1.000000
 49
1.500000
 49
-1.000000
  0
LTYPE
  2
CENTER3
 70
    64
  3
____ _ ____ _ ____ _ ____ _ ____ _ ____ _ ____
 72
    65
 73
     4
 40
31.500000
 49
27.000000
 49
-1.000000
 49
2.500000
 49
-1.000000
  0
LTYPE
  2
CENTER4
 70
    64
  3
____ _ ____ _ ____ _ ____ _ ____ _ ____ _ ____
 72
    65
 73
     4
 40
50.000000
 49
45.000000
 49
-1.000000
 49
3.000000
 49
-1.000000
  0
LTYPE
  2
CENTER5
 70
    64
  3
____ _ ____ _ ____ _ ____ _ ____ _ ____ _ ____
 72
    65
 73
     4
 40
100.000000
 49
92.000000
 49
-2.000000
 49
4.000000
 49
-2.000000
  0
LTYPE
  2
SBK1
 70
    64
  3
______ _ _ _ ______ _ _ _ ______ _ _ _ _____  
 72
    65
 73
     8
 40
60.500000
 49
45.000000
 49
-2.000000
 49
2.500000
 49
-2.000000
 49
2.500000
 49
-2.000000
 49
2.500000
 49
-2.000000
  0
LTYPE
  2
SBK2
 70
    64
  3
______ _ _ _ ______ _ _ _ ______ _ _ _ _____  
 72
    65
 73
     8
 40
84.000000
 49
64.000000
 49
-2.000000
 49
4.000000
 49
-2.000000
 49
4.000000
 49
-2.000000
 49
4.000000
 49
-2.000000
  0
LTYPE
  2
STCH
 70
    64
  3
__ __ __ __ __ __ __ __ __ __ __ __ __ __ __
 72
    65
 73
     2
 40
3.000000
 49
1.000000
 49
-2.000000
  0
LTYPE
  2
MTCH
 70
    64
  3
_____ _ _ _____ _ _ _____ _ _ _____ _ _ ____  
 72
    65
 73
     6
 40
80.000000
 49
66.000000
 49
-2.000000
 49
4.000000
 49
-2.000000
 49
4.000000
 49
-2.000000
  0
ENDTAB
  0
TABLE
  2
LAYER
 70
     1
  0
LAYER
  2
0
 70
     0
 62
     7
  6
CONTINUOUS
  0
ENDTAB
  0
TABLE
  2
STYLE
 70
     1
  0
STYLE
  2
STANDARD
 70
     0
 40
0.000000
 41
1.000000
 50
0.000000
 71
     0
 42
0.200000
  3
txt
  4
BIGFONT
  0
ENDTAB
  0
TABLE
  2
VIEW
 70
     0
  0
ENDTAB
  0
ENDSEC
  0
SECTION
  2
BLOCKS
  0
ENDSEC
  0
SECTION
  2
ENTITIES
  0
LINE
  8
0
 10
-194.250000
 20
132.600006
 11
194.800003
 21
132.600006
  0
LINE
  8
0
 10
194.800003
 20
132.600006
 11
194.800003
 21
-133.500000
  0
LINE
  8
0
 10
-194.250000
 20
132.600006
 11
-194.250000
 21
-133.500000
  0
LINE
  8
0
 10
-194.250000
 20
-133.500000
 11
194.800003
 21
-133.500000
  0
LINE
  8
0
 10
210.000000
 20
148.500000
 11
210.000000
 21
-148.500000
  0
LINE
  8
0
 10
-210.000000
 20
148.500000
 11
-210.000000
 21
-148.500000
  0
LINE
  8
0
 10
-210.000000
 20
148.500000
 11
210.000000
 21
148.500000
  0
LINE
  8
0
 10
-210.000000
 20
-148.500000
 11
210.000000
 21
-148.500000
  0
LINE
  8
0
 10
109.800003
 20
-118.500000
 11
109.800003
 21
-133.500000
  0
LINE
  8
0
 10
109.800003
 20
-118.500000
 11
194.800003
 21
-118.500000
  0
LINE
  8
0
 10
109.800003
 20
132.600006
 11
109.800003
 21
117.600006
  0
LINE
  8
0
 10
109.800003
 20
117.600006
 11
194.800003
 21
117.600006
  0
LINE
  8
0
 10
-194.250000
 20
117.600006
 11
-109.250000
 21
117.600006
  0
LINE
  8
0
 10
-109.250000
 20
132.600006
 11
-109.250000
 21
117.600006
  0
LINE
  8
0
 10
-144.672104
 20
-52.198933
 11
-144.672104
 21
-109.755203
  0
LINE
  8
0
  6
PHANTOM
 10
-153.072113
 20
-86.483673
 11
-136.272110
 21
-86.483673
  0
LINE
  8
0
  6
PHANTOM
 10
-162.522110
 20
-51.700779
 11
-162.522110
 21
-71.983673
  0
LINE
  8
0
  6
PHANTOM
 10
-126.822113
 20
-61.266563
 11
-126.822113
 21
-71.983673
  0
LINE
  8
0
  6
PHANTOM
 10
-156.172104
 20
-79.983673
 11
-156.172104
 21
-79.983673
  0
LINE
  8
0
  6
PHANTOM
 10
-136.272110
 20
-83.083679
 11
-136.272110
 21
-86.483673
  0
LINE
  8
0
  6
PHANTOM
 10
-153.072113
 20
-83.083679
 11
-153.072113
 21
-86.483673
  0
LINE
  8
0
  6
PHANTOM
 10
-156.849182
 20
-79.637962
 11
-155.270462
 21
-80.117920
  0
LINE
  8
0
  6
PHANTOM
 10
-132.495102
 20
-79.637863
 11
-134.073792
 21
-80.117813
  0
LINE
  8
0
  6
PHANTOM
 10
-147.172104
 20
-69.983673
 11
-142.172104
 21
-69.983673
  0
LINE
  8
0
  6
PHANTOM
 10
-140.672104
 20
-57.555470
 11
-140.672104
 21
-68.483681
  0
LINE
  8
0
  6
PHANTOM
 10
-148.672104
 20
-55.411877
 11
-148.672104
 21
-68.483681
  0
LINE
  8
0
  6
PHANTOM
 10
-150.890167
 20
-79.983673
 11
-138.560455
 21
-79.983673
  0
LINE
  8
0
 10
-61.672104
 20
-52.640881
 11
-61.672104
 21
-91.480682
  0
LINE
  8
0
  6
PHANTOM
 10
-70.072105
 20
-86.483673
 11
-53.272110
 21
-86.483673
  0
LINE
  8
0
  6
PHANTOM
 10
-79.522110
 20
-51.700783
 11
-79.522110
 21
-71.983673
  0
LINE
  8
0
  6
PHANTOM
 10
-43.822105
 20
-61.266571
 11
-43.822105
 21
-71.983673
  0
LINE
  8
0
  6
PHANTOM
 10
-73.172104
 20
-79.983673
 11
-73.172104
 21
-79.983673
  0
LINE
  8
0
  6
PHANTOM
 10
-53.272110
 20
-83.083679
 11
-53.272110
 21
-86.483673
  0
LINE
  8
0
  6
PHANTOM
 10
-70.072105
 20
-83.083679
 11
-70.072105
 21
-86.483673
  0
LINE
  8
0
  6
PHANTOM
 10
-73.849136
 20
-79.637932
 11
-72.270447
 21
-80.117882
  0
LINE
  8
0
  6
PHANTOM
 10
-49.495094
 20
-79.637878
 11
-51.073780
 21
-80.117828
  0
LINE
  8
0
  6
PHANTOM
 10
-64.172104
 20
-69.983673
 11
-59.172104
 21
-69.983673
  0
LINE
  8
0
  6
PHANTOM
 10
-57.672104
 20
-57.555473
 11
-57.672104
 21
-68.483681
  0
LINE
  8
0
  6
PHANTOM
 10
-65.672104
 20
-55.411877
 11
-65.672104
 21
-68.483681
  0
LINE
  8
0
  6
PHANTOM
 10
-67.890160
 20
-79.983673
 11
-55.560448
 21
-79.983673
  0
LINE
  8
0
  6
PHANTOM
 10
-162.522110
 20
-51.700726
 11
-126.822090
 21
-61.266518
  0
LINE
  8
0
  6
PHANTOM
 10
-79.522095
 20
-51.700733
 11
-43.822090
 21
-61.266518
  0
ARC
  8
0
  6
PHANTOM
 10
-133.172104
 20
-83.083679
 40
3.099996
 50
106.910187
 51
180.000000
  0
ARC
  8
0
  6
PHANTOM
 10
-154.522110
 20
-71.983673
 40
8.000000
 50
180.000000
 51
253.089783
  0
ARC
  8
0
  6
PHANTOM
 10
-134.822113
 20
-71.983673
 40
7.999997
 50
286.910217
 51
0.000000
  0
ARC
  8
0
  6
PHANTOM
 10
-156.172104
 20
-83.083679
 40
3.100006
 50
0.000000
 51
73.089813
  0
ARC
  8
0
  6
PHANTOM
 10
-147.172104
 20
-68.483681
 40
1.500000
 50
180.000000
 51
270.000000
  0
ARC
  8
0
  6
PHANTOM
 10
-142.172104
 20
-68.483681
 40
1.500000
 50
270.000000
 51
0.000000
  0
ARC
  8
0
  6
PHANTOM
 10
-50.172104
 20
-83.083679
 40
3.099997
 50
106.910255
 51
180.000000
  0
ARC
  8
0
  6
PHANTOM
 10
-71.522110
 20
-71.983673
 40
8.000000
 50
180.000000
 51
253.089737
  0
ARC
  8
0
  6
PHANTOM
 10
-51.822105
 20
-71.983673
 40
7.999998
 50
286.910248
 51
0.000000
  0
ARC
  8
0
  6
PHANTOM
 10
-73.172104
 20
-83.083679
 40
3.099998
 50
0.000000
 51
73.089813
  0
ARC
  8
0
  6
PHANTOM
 10
-64.172104
 20
-68.483681
 40
1.500000
 50
180.000000
 51
270.000000
  0
ARC
  8
0
  6
PHANTOM
 10
-59.172104
 20
-68.483681
 40
1.500000
 50
270.000000
 51
0.000000
  0
TEXT
  8
0
 10
115.907150
 20
122.050003
 40
4.500000
  1
DATE : SEP ,1992
 50
0.000000
 41
1.052631
 51
0.000000
  7
STANDARD
  0
TEXT
  8
0
 10
113.700279
 20
-130.669998
 40
6.300000
  1
KOGANEI CORP.
 50
0.000000
 41
1.052632
 51
0.000000
  7
STANDARD
  0
TEXT
  8
0
 10
-174.642654
 20
122.050003
 40
4.500000
  1
LUBRICATOR
 50
0.000000
 41
1.052632
 51
0.000000
  7
STANDARD
  0
TEXT
  8
0
 10
-179.000000
 20
105.900009
 40
4.500000
  1
MODEL : L150-01-BG
 50
0.000000
 41
1.052632
 51
0.000000
  7
STANDARD
  0
TEXT
  8
0
 10
-90.088501
 20
-44.318546
 40
4.500000
  1
OPTION : -D
 50
0.000000
 41
1.052632
 51
0.000000
  7
STANDARD
  0
TEXT
  8
0
 10
-182.941605
 20
-44.318546
 40
4.500000
  1
OPTION : (-BG)-F2
 50
0.000000
 41
1.052632
 51
0.000000
  7
STANDARD
  0
POINT
  8
0
 10
0.327896
 20
-1.983681
  0
POINT
  8
0
 10
40.327896
 20
-1.983681
  0
LINE
  8
0
 10
1.327896
 20
8.016319
 11
20.327896
 21
8.016319
  0
LINE
  8
0
 10
1.327896
 20
-24.983681
 11
39.327896
 21
-24.983681
  0
LINE
  8
0
 10
0.327896
 20
7.016319
 11
0.327896
 21
-23.983681
  0
LINE
  8
0
 10
40.327896
 20
7.016319
 11
40.327896
 21
-23.983679
  0
LINE
  8
0
 10
0.327896
 20
-11.983681
 11
40.327896
 21
-11.983681
  0
LINE
  8
0
 10
1.327947
 20
8.016274
 11
0.327945
 21
7.016273
  0
LINE
  8
0
 10
0.327903
 20
7.016311
 11
1.327902
 21
8.016310
  0
LINE
  8
0
 10
39.327869
 20
8.016296
 11
40.327869
 21
7.016295
  0
LINE
  8
0
 10
0.327896
 20
7.016319
 11
5.827896
 21
7.016319
  0
LINE
  8
0
 10
0.327901
 20
-23.983677
 11
1.327900
 21
-24.983675
  0
LINE
  8
0
 10
39.327885
 20
-24.983681
 11
40.327885
 21
-23.983679
  0
LINE
  8
0
 10
0.327896
 20
-23.983679
 11
40.327896
 21
-23.983679
  0
LINE
  8
0
 10
1.327896
 20
8.016319
 11
1.327896
 21
-11.983681
  0
LINE
  8
0
 10
39.327896
 20
8.016319
 11
39.327896
 21
-11.983681
  0
LINE
  8
0
 10
11.827896
 20
-10.983681
 11
35.327896
 21
-10.983681
  0
LINE
  8
0
 10
4.327896
 20
-11.983681
 11
4.327896
 21
-11.983681
  0
LINE
  8
0
 10
36.327896
 20
-11.983681
 11
36.327896
 21
-11.983681
  0
LINE
  8
0
 10
2.327896
 20
5.049530
 11
2.327896
 21
-8.983681
  0
LINE
  8
0
 10
5.327896
 20
5.016319
 11
5.327896
 21
-8.983681
  0
LINE
  8
0
 10
38.327896
 20
5.016319
 11
38.327896
 21
-8.983681
  0
LINE
  8
0
 10
35.327896
 20
5.016319
 11
35.327896
 21
-8.983681
  0
LINE
  8
0
 10
-3.454876
 20
-1.983681
 11
43.483833
 21
-1.983681
  0
LINE
  8
0
 10
2.327896
 20
5.016319
 11
5.327896
 21
5.016319
  0
LINE
  8
0
 10
2.327896
 20
-8.983681
 11
5.327896
 21
-8.983681
  0
LINE
  8
0
 10
35.327896
 20
5.016319
 11
38.327896
 21
5.016319
  0
LINE
  8
0
 10
35.327896
 20
-8.983681
 11
38.327896
 21
-8.983681
  0
LINE
  8
0
 10
2.827896
 20
8.516319
 11
2.827896
 21
8.016319
  0
LINE
  8
0
 10
8.327896
 20
8.516319
 11
8.327896
 21
8.016319
  0
LINE
  8
0
 10
2.827896
 20
8.516319
 11
8.327896
 21
8.516319
  0
LINE
  8
0
 10
17.827896
 20
-34.983673
 11
22.827896
 21
-34.983673
  0
LINE
  8
0
 10
5.827896
 20
8.016319
 11
5.827896
 21
-11.983681
  0
LINE
  8
0
 10
35.327900
 20
-10.983679
 11
37.059948
 21
-11.983679
  0
LINE
  8
0
 10
10.095844
 20
-11.983674
 11
11.827895
 21
-10.983674
  0
LINE
  8
0
 10
20.327896
 20
-7.983681
 11
29.327894
 21
-7.983681
  0
LINE
  8
0
 10
29.327894
 20
-7.983681
 11
29.327894
 21
-10.983681
  0
LINE
  8
0
 10
21.327896
 20
-6.983681
 11
28.327894
 21
-6.983681
  0
LINE
  8
0
 10
28.327883
 20
-6.983683
 11
29.327883
 21
-7.983684
  0
LINE
  8
0
 10
16.327896
 20
8.016319
 11
16.327896
 21
-10.983681
  0
LINE
  8
0
 10
11.827896
 20
13.316319
 11
39.827896
 21
13.316319
  0
LINE
  8
0
 10
25.827896
 20
36.118027
 11
25.827896
 21
6.274368
  0
LINE
  8
0
 10
12.827896
 20
13.316319
 11
12.827896
 21
9.516319
  0
LINE
  8
0
 10
38.827896
 20
13.316319
 11
38.827896
 21
8.016319
  0
LINE
  8
0
 10
16.327896
 20
7.016319
 11
40.327896
 21
7.016319
  0
LINE
  8
0
 10
31.327894
 20
8.016319
 11
39.327896
 21
8.016319
  0
LINE
  8
0
 10
17.827896
 20
13.316319
 11
17.827896
 21
8.016319
  0
LINE
  8
0
 10
12.327896
 20
20.816315
 11
13.523323
 21
20.816315
  0
LINE
  8
0
 10
33.027893
 20
22.316315
 11
33.027893
 21
21.316315
  0
LINE
  8
0
 10
12.827896
 20
21.316315
 11
38.827896
 21
21.316315
  0
LINE
  8
0
 10
11.827896
 20
20.316315
 11
11.827896
 21
13.316319
  0
LINE
  8
0
 10
39.827896
 20
20.316315
 11
39.827896
 21
13.316319
  0
LINE
  8
0
 10
11.827902
 20
20.316305
 11
12.827898
 21
21.316301
  0
LINE
  8
0
 10
38.827873
 20
21.316298
 11
39.827873
 21
20.316294
  0
LINE
  8
0
 10
27.327894
 20
20.316315
 11
27.327894
 21
14.816319
  0
LINE
  8
0
 10
31.488562
 20
20.316315
 11
31.488562
 21
14.816319
  0
LINE
  8
0
 10
34.086639
 20
20.316315
 11
34.086639
 21
14.816319
  0
LINE
  8
0
 10
37.132462
 20
20.316315
 11
37.132462
 21
14.816319
  0
LINE
  8
0
 10
38.632462
 20
20.316315
 11
38.632462
 21
14.816319
  0
LINE
  8
0
 10
27.327894
 20
14.816319
 11
31.488562
 21
14.816319
  0
LINE
  8
0
 10
27.827894
 20
15.316319
 11
30.988562
 21
15.316319
  0
LINE
  8
0
 10
27.827894
 20
20.816315
 11
27.827894
 21
15.316319
  0
LINE
  8
0
 10
34.086639
 20
14.816319
 11
37.132462
 21
14.816319
  0
LINE
  8
0
 10
30.988562
 20
20.816315
 11
30.988562
 21
15.316319
  0
LINE
  8
0
 10
25.827896
 20
20.316315
 11
27.327894
 21
20.316315
  0
LINE
  8
0
 10
27.327875
 20
20.316334
 11
27.827875
 21
20.816336
  0
LINE
  8
0
 10
27.827894
 20
20.816315
 11
30.988562
 21
20.816315
  0
LINE
  8
0
 10
30.988588
 20
20.816347
 11
31.488590
 21
20.316345
  0
LINE
  8
0
 10
30.988588
 20
15.316336
 11
31.488590
 21
14.816336
  0
LINE
  8
0
 10
27.327883
 20
14.816330
 11
27.827883
 21
15.316332
  0
LINE
  8
0
 10
31.488562
 20
20.316315
 11
34.086639
 21
20.316315
  0
LINE
  8
0
 10
33.586639
 20
20.816315
 11
36.632462
 21
20.816315
  0
LINE
  8
0
 10
34.086639
 20
15.316319
 11
36.632462
 21
15.316319
  0
LINE
  8
0
 10
36.632462
 20
20.816315
 11
36.632462
 21
15.316319
  0
LINE
  8
0
 10
37.132462
 20
20.316315
 11
38.632462
 21
20.316315
  0
LINE
  8
0
 10
33.586658
 20
20.816341
 11
34.086658
 21
20.316341
  0
LINE
  8
0
 10
36.632477
 20
20.816343
 11
37.132481
 21
20.316341
  0
LINE
  8
0
 10
38.132462
 20
20.816315
 11
39.327896
 21
20.816315
  0
LINE
  8
0
 10
38.132481
 20
20.816341
 11
38.632481
 21
20.316341
  0
LINE
  8
0
 10
38.632462
 20
14.816319
 11
39.827896
 21
14.816319
  0
LINE
  8
0
 10
36.632473
 20
15.316338
 11
37.132473
 21
14.816338
  0
LINE
  8
0
 10
39.327896
 20
20.816315
 11
39.327896
 21
15.316319
  0
LINE
  8
0
 10
38.632462
 20
15.316319
 11
39.327896
 21
15.316319
  0
LINE
  8
0
 10
39.327915
 20
15.316339
 11
39.827919
 21
14.816338
  0
LINE
  8
0
 10
25.827896
 20
20.316315
 11
24.327896
 21
20.316315
  0
LINE
  8
0
 10
24.327913
 20
20.316341
 11
23.827917
 21
20.816338
  0
LINE
  8
0
 10
24.327896
 20
20.316315
 11
24.327896
 21
14.816319
  0
LINE
  8
0
 10
23.827896
 20
20.816315
 11
23.827896
 21
15.316319
  0
LINE
  8
0
 10
24.327917
 20
14.816338
 11
23.827915
 21
15.316338
  0
LINE
  8
0
 10
23.827896
 20
15.316319
 11
20.667229
 21
15.316319
  0
LINE
  8
0
 10
24.327896
 20
14.816319
 11
20.167229
 21
14.816319
  0
LINE
  8
0
 10
23.827896
 20
20.816315
 11
20.667229
 21
20.816315
  0
LINE
  8
0
 10
20.667200
 20
20.816336
 11
20.167204
 21
20.316339
  0
LINE
  8
0
 10
20.667229
 20
20.816315
 11
20.667229
 21
15.316319
  0
LINE
  8
0
 10
20.167229
 20
20.316315
 11
20.167229
 21
14.816319
  0
LINE
  8
0
 10
20.167229
 20
20.316315
 11
17.569153
 21
20.316315
  0
LINE
  8
0
 10
20.667202
 20
15.316338
 11
20.167202
 21
14.816338
  0
LINE
  8
0
 10
18.069130
 20
20.816341
 11
17.569130
 21
20.316341
  0
LINE
  8
0
 10
18.069153
 20
20.816315
 11
15.023331
 21
20.816315
  0
LINE
  8
0
 10
17.569153
 20
20.316315
 11
17.569153
 21
14.816319
  0
LINE
  8
0
 10
17.569153
 20
15.316319
 11
15.023331
 21
15.316319
  0
LINE
  8
0
 10
17.569153
 20
14.816319
 11
14.523331
 21
14.816319
  0
LINE
  8
0
 10
15.023331
 20
20.816315
 11
15.023331
 21
15.316319
  0
LINE
  8
0
 10
15.023312
 20
15.316338
 11
14.523311
 21
14.816338
  0
LINE
  8
0
 10
14.523331
 20
20.316315
 11
14.523331
 21
14.816319
  0
LINE
  8
0
 10
15.023311
 20
20.816339
 11
14.523310
 21
20.316339
  0
LINE
  8
0
 10
14.523331
 20
20.316315
 11
13.023331
 21
20.316315
  0
LINE
  8
0
 10
13.523318
 20
20.816338
 11
13.023317
 21
20.316338
  0
LINE
  8
0
 10
12.327896
 20
20.816315
 11
12.327896
 21
15.316319
  0
LINE
  8
0
 10
13.023331
 20
20.316315
 11
13.023331
 21
14.816319
  0
LINE
  8
0
 10
13.023331
 20
15.316319
 11
12.327896
 21
15.316319
  0
LINE
  8
0
 10
13.023331
 20
14.816319
 11
11.827896
 21
14.816319
  0
LINE
  8
0
 10
12.327880
 20
15.316339
 11
11.827880
 21
14.816339
  0
LINE
  8
0
 10
18.877899
 20
27.366318
 11
18.877899
 21
22.316315
  0
LINE
  8
0
 10
32.777893
 20
27.366318
 11
32.777893
 21
22.316315
  0
LINE
  8
0
 10
18.627899
 20
22.316315
 11
33.027893
 21
22.316315
  0
LINE
  8
0
 10
18.627899
 20
22.316315
 11
18.627899
 21
21.316315
  0
LINE
  8
0
 10
11.077896
 20
10.898087
 11
11.077896
 21
-10.787155
  0
LINE
  8
0
 10
9.077896
 20
9.516319
 11
13.077896
 21
9.516319
  0
LINE
  8
0
 10
9.077896
 20
9.516319
 11
9.077896
 21
8.016319
  0
LINE
  8
0
 10
13.077896
 20
9.516319
 11
13.077896
 21
8.016319
  0
LINE
  8
0
 10
21.327919
 20
-6.983705
 11
20.327919
 21
-7.983706
  0
LINE
  8
0
 10
21.327896
 20
7.016319
 11
21.327896
 21
-6.983681
  0
LINE
  8
0
 10
20.327896
 20
-7.983681
 11
20.327896
 21
-10.983681
  0
LINE
  8
0
 10
20.327896
 20
11.642117
 11
20.327896
 21
-88.474693
  0
LINE
  8
0
 10
11.927895
 20
-86.483673
 11
28.727892
 21
-86.483673
  0
LINE
  8
0
 10
2.477890
 20
-24.983681
 11
2.477890
 21
-71.983673
  0
LINE
  8
0
 10
38.177895
 20
-24.983681
 11
38.177895
 21
-71.983673
  0
LINE
  8
0
 10
8.827896
 20
-79.983673
 11
8.827896
 21
-79.983673
  0
LINE
  8
0
 10
28.727892
 20
-83.083679
 11
28.727892
 21
-86.483673
  0
LINE
  8
0
 10
11.927895
 20
-83.083679
 11
11.927895
 21
-86.483673
  0
LINE
  8
0
 10
8.150887
 20
-79.637863
 11
9.729578
 21
-80.117813
  0
LINE
  8
0
 10
32.504902
 20
-79.637833
 11
30.926212
 21
-80.117783
  0
LINE
  8
0
 10
17.827896
 20
-69.983673
 11
22.827896
 21
-69.983673
  0
LINE
  8
0
 10
24.327896
 20
-36.483673
 11
24.327896
 21
-68.483681
  0
LINE
  8
0
 10
16.327896
 20
-36.483673
 11
16.327896
 21
-68.483681
  0
LINE
  8
0
 10
14.109840
 20
-79.983673
 11
26.439554
 21
-79.983673
  0
ARC
  8
0
 10
22.827896
 20
-68.483681
 40
1.500000
 50
270.000000
 51
0.000000
  0
ARC
  8
0
 10
17.827896
 20
-36.483673
 40
1.500000
 50
90.000000
 51
180.000000
  0
ARC
  8
0
 10
22.827896
 20
-36.483673
 40
1.500000
 50
0.000000
 51
90.000000
  0
ARC
  8
0
 10
25.827896
 20
22.641319
 40
15.625000
 50
249.390289
 51
290.609711
  0
ARC
  8
0
 10
25.827896
 20
27.366318
 40
6.950001
 50
0.000000
 51
179.999969
  0
ARC
  8
0
 10
31.827894
 20
-83.083679
 40
3.099997
 50
106.910255
 51
180.000000
  0
ARC
  8
0
 10
10.477890
 20
-71.983673
 40
8.000000
 50
180.000000
 51
253.089737
  0
ARC
  8
0
 10
30.177896
 20
-71.983673
 40
7.999998
 50
286.910248
 51
0.000000
  0
ARC
  8
0
 10
8.827896
 20
-83.083679
 40
3.100000
 50
0.000000
 51
73.089760
  0
ARC
  8
0
 10
17.827896
 20
-68.483681
 40
1.500000
 50
180.000000
 51
270.000000
  0
POINT
  8
0
 10
130.327896
 20
-1.983681
  0
POINT
  8
0
 10
143.327896
 20
-1.983681
  0
LINE
  8
0
 10
130.327896
 20
35.986061
 11
130.327896
 21
-88.152817
  0
LINE
  8
0
 10
111.327896
 20
-24.983681
 11
149.327896
 21
-24.983681
  0
LINE
  8
0
 10
113.327896
 20
8.016319
 11
141.327896
 21
8.016319
  0
LINE
  8
0
 10
150.327896
 20
-11.983681
 11
150.327896
 21
-23.983685
  0
LINE
  8
0
 10
110.327896
 20
-11.983681
 11
110.327896
 21
-23.983681
  0
LINE
  8
0
 10
110.327896
 20
-11.983681
 11
150.327896
 21
-11.983681
  0
LINE
  8
0
 10
142.327896
 20
7.016312
 11
142.327896
 21
-11.983681
  0
LINE
  8
0
 10
111.327896
 20
-10.983681
 11
118.327896
 21
-10.983681
  0
LINE
  8
0
 10
111.327866
 20
-10.983659
 11
110.327866
 21
-11.983661
  0
LINE
  8
0
 10
149.327881
 20
-10.983696
 11
150.327896
 21
-11.983697
  0
LINE
  8
0
 10
110.327896
 20
-23.983698
 11
111.327888
 21
-24.983692
  0
LINE
  8
0
 10
149.327820
 20
-24.983614
 11
150.327820
 21
-23.983616
  0
LINE
  8
0
 10
142.327896
 20
-10.983681
 11
149.327896
 21
-10.983681
  0
LINE
  8
0
 10
119.327881
 20
8.016329
 11
118.327881
 21
7.016328
  0
LINE
  8
0
 10
141.327881
 20
8.016299
 11
142.327881
 21
7.016295
  0
LINE
  8
0
 10
116.327896
 20
7.016319
 11
142.327896
 21
7.016319
  0
LINE
  8
0
 10
110.327896
 20
-23.983681
 11
150.327896
 21
-23.983681
  0
LINE
  8
0
 10
119.327896
 20
8.016319
 11
119.327896
 21
-11.983681
  0
LINE
  8
0
 10
141.327896
 20
8.016319
 11
141.327896
 21
-11.983681
  0
LINE
  8
0
 10
111.327896
 20
-1.983681
 11
146.431015
 21
-1.983681
  0
LINE
  8
0
 10
128.327896
 20
8.516319
 11
132.327896
 21
8.516319
  0
LINE
  8
0
 10
132.327896
 20
8.516319
 11
132.327896
 21
8.016319
  0
LINE
  8
0
 10
128.327896
 20
8.516319
 11
128.327896
 21
8.016319
  0
LINE
  8
0
 10
112.477898
 20
-24.983681
 11
112.477898
 21
-71.983673
  0
LINE
  8
0
 10
148.177887
 20
-24.983681
 11
148.177887
 21
-71.983673
  0
LINE
  8
0
 10
121.927895
 20
-86.483673
 11
138.727905
 21
-86.483673
  0
LINE
  8
0
 10
138.727905
 20
-83.083679
 11
138.727905
 21
-86.483673
  0
LINE
  8
0
 10
121.927895
 20
-83.083679
 11
121.927895
 21
-86.483673
  0
LINE
  8
0
 10
118.150894
 20
-79.637794
 11
119.729599
 21
-80.117752
  0
LINE
  8
0
 10
142.504898
 20
-79.637817
 11
140.926193
 21
-80.117775
  0
LINE
  8
0
 10
127.827896
 20
-34.983673
 11
132.827896
 21
-34.983673
  0
LINE
  8
0
 10
127.827896
 20
-69.983673
 11
132.827896
 21
-69.983673
  0
LINE
  8
0
 10
134.327896
 20
-36.483673
 11
134.327896
 21
-68.483681
  0
LINE
  8
0
 10
126.327896
 20
-36.483673
 11
126.327896
 21
-68.483681
  0
LINE
  8
0
 10
124.247124
 20
-79.983673
 11
136.576843
 21
-79.983673
  0
LINE
  8
0
 10
143.327896
 20
13.316319
 11
143.327896
 21
-10.983681
  0
LINE
  8
0
 10
116.327896
 20
13.316319
 11
144.327896
 21
13.316319
  0
LINE
  8
0
 10
113.327896
 20
8.016319
 11
113.327896
 21
-10.983681
  0
LINE
  8
0
 10
118.327896
 20
7.016319
 11
118.327896
 21
-11.983681
  0
LINE
  8
0
 10
116.327896
 20
7.016319
 11
116.327896
 21
-10.983681
  0
LINE
  8
0
 10
116.327896
 20
-7.983681
 11
118.327896
 21
-7.983681
  0
LINE
  8
0
 10
117.327896
 20
-6.983681
 11
118.327896
 21
-6.983681
  0
LINE
  8
0
 10
116.327888
 20
-7.983673
 11
117.327881
 21
-6.983677
  0
LINE
  8
0
 10
116.827896
 20
20.816315
 11
118.023323
 21
20.816315
  0
LINE
  8
0
 10
137.527893
 20
22.316315
 11
137.527893
 21
21.316315
  0
LINE
  8
0
 10
117.327896
 20
21.316315
 11
143.327896
 21
21.316315
  0
LINE
  8
0
 10
116.327896
 20
20.316315
 11
116.327896
 21
13.316319
  0
LINE
  8
0
 10
144.327896
 20
20.316315
 11
144.327896
 21
13.316319
  0
LINE
  8
0
 10
116.327896
 20
20.316313
 11
117.327888
 21
21.316307
  0
LINE
  8
0
 10
143.327866
 20
21.316299
 11
144.327866
 21
20.316296
  0
LINE
  8
0
 10
131.827896
 20
20.316315
 11
131.827896
 21
14.816319
  0
LINE
  8
0
 10
135.988556
 20
20.316315
 11
135.988556
 21
14.816319
  0
LINE
  8
0
 10
138.586639
 20
20.316315
 11
138.586639
 21
14.816319
  0
LINE
  8
0
 10
141.632462
 20
20.316315
 11
141.632462
 21
14.816319
  0
LINE
  8
0
 10
143.132462
 20
20.316315
 11
143.132462
 21
14.816319
  0
LINE
  8
0
 10
131.827896
 20
14.816319
 11
135.988556
 21
14.816319
  0
LINE
  8
0
 10
132.327896
 20
15.316319
 11
135.488556
 21
15.316319
  0
LINE
  8
0
 10
132.327896
 20
20.816315
 11
132.327896
 21
15.316319
  0
LINE
  8
0
 10
138.586639
 20
14.816319
 11
141.632462
 21
14.816319
  0
LINE
  8
0
 10
135.488556
 20
20.816315
 11
135.488556
 21
15.316319
  0
LINE
  8
0
 10
130.327896
 20
20.316315
 11
131.827896
 21
20.316315
  0
LINE
  8
0
 10
131.827911
 20
20.316311
 11
132.327911
 21
20.816311
  0
LINE
  8
0
 10
132.327896
 20
20.816315
 11
135.488556
 21
20.816315
  0
LINE
  8
0
 10
135.488586
 20
20.816357
 11
135.988586
 21
20.316362
  0
LINE
  8
0
 10
135.488586
 20
15.316336
 11
135.988586
 21
14.816336
  0
LINE
  8
0
 10
131.827911
 20
14.816311
 11
132.327911
 21
15.316311
  0
LINE
  8
0
 10
135.988556
 20
20.316315
 11
138.586639
 21
20.316315
  0
LINE
  8
0
 10
138.086639
 20
20.816315
 11
141.132462
 21
20.816315
  0
LINE
  8
0
 10
138.586639
 20
15.316319
 11
141.132462
 21
15.316319
  0
LINE
  8
0
 10
141.132462
 20
20.816315
 11
141.132462
 21
15.316319
  0
LINE
  8
0
 10
141.632462
 20
20.316315
 11
143.132462
 21
20.316315
  0
LINE
  8
0
 10
138.086670
 20
20.816347
 11
138.586670
 21
20.316345
  0
LINE
  8
0
 10
141.132507
 20
20.816353
 11
141.632507
 21
20.316351
  0
LINE
  8
0
 10
142.632462
 20
20.816315
 11
143.827896
 21
20.816315
  0
LINE
  8
0
 10
142.632492
 20
20.816336
 11
143.132492
 21
20.316336
  0
LINE
  8
0
 10
143.132462
 20
14.816319
 11
144.327896
 21
14.816319
  0
LINE
  8
0
 10
141.132477
 20
15.316357
 11
141.632477
 21
14.816357
  0
LINE
  8
0
 10
143.827896
 20
20.816315
 11
143.827896
 21
15.316319
  0
LINE
  8
0
 10
143.132462
 20
15.316319
 11
143.827896
 21
15.316319
  0
LINE
  8
0
 10
143.827911
 20
15.316351
 11
144.327911
 21
14.816351
  0
LINE
  8
0
 10
130.327896
 20
20.316315
 11
128.827896
 21
20.316315
  0
LINE
  8
0
 10
128.827927
 20
20.316355
 11
128.327927
 21
20.816355
  0
LINE
  8
0
 10
128.827896
 20
20.316315
 11
128.827896
 21
14.816319
  0
LINE
  8
0
 10
128.327896
 20
20.816315
 11
128.327896
 21
15.316319
  0
LINE
  8
0
 10
128.827942
 20
14.816362
 11
128.327942
 21
15.316364
  0
LINE
  8
0
 10
128.327896
 20
15.316319
 11
125.167229
 21
15.316319
  0
LINE
  8
0
 10
128.827896
 20
14.816319
 11
124.667229
 21
14.816319
  0
LINE
  8
0
 10
128.327896
 20
20.816315
 11
125.167229
 21
20.816315
  0
LINE
  8
0
 10
125.167213
 20
20.816315
 11
124.667229
 21
20.316324
  0
LINE
  8
0
 10
125.167229
 20
20.816315
 11
125.167229
 21
15.316319
  0
LINE
  8
0
 10
124.667229
 20
20.316315
 11
124.667229
 21
14.816319
  0
LINE
  8
0
 10
124.667229
 20
20.316315
 11
122.069153
 21
20.316315
  0
LINE
  8
0
 10
125.167229
 20
15.316307
 11
124.667229
 21
14.816305
  0
LINE
  8
0
 10
122.569153
 20
20.816307
 11
122.069153
 21
20.316307
  0
LINE
  8
0
 10
122.569153
 20
20.816315
 11
119.523331
 21
20.816315
  0
LINE
  8
0
 10
122.069153
 20
20.316315
 11
122.069153
 21
14.816319
  0
LINE
  8
0
 10
122.069153
 20
15.316319
 11
119.523331
 21
15.316319
  0
LINE
  8
0
 10
122.069153
 20
14.816319
 11
119.023331
 21
14.816319
  0
LINE
  8
0
 10
119.523331
 20
20.816315
 11
119.523331
 21
15.316319
  0
LINE
  8
0
 10
119.523338
 20
15.316313
 11
119.023331
 21
14.816313
  0
LINE
  8
0
 10
119.023331
 20
20.316315
 11
119.023331
 21
14.816319
  0
LINE
  8
0
 10
119.523331
 20
20.816311
 11
119.023331
 21
20.316309
  0
LINE
  8
0
 10
119.023331
 20
20.316315
 11
117.523331
 21
20.316315
  0
LINE
  8
0
 10
118.023346
 20
20.816315
 11
117.523346
 21
20.316315
  0
LINE
  8
0
 10
116.827896
 20
20.816315
 11
116.827896
 21
15.316319
  0
LINE
  8
0
 10
117.523331
 20
20.316315
 11
117.523331
 21
14.816319
  0
LINE
  8
0
 10
117.523331
 20
15.316319
 11
116.827896
 21
15.316319
  0
LINE
  8
0
 10
117.523331
 20
14.816319
 11
116.327896
 21
14.816319
  0
LINE
  8
0
 10
116.827896
 20
15.316320
 11
116.327896
 21
14.816320
  0
LINE
  8
0
 10
123.377899
 20
27.366318
 11
123.377899
 21
22.316315
  0
LINE
  8
0
 10
137.277893
 20
27.366318
 11
137.277893
 21
22.316315
  0
LINE
  8
0
 10
123.127899
 20
22.316315
 11
137.527893
 21
22.316315
  0
LINE
  8
0
 10
123.127899
 20
22.316315
 11
123.127899
 21
21.316315
  0
LINE
  8
0
 10
117.327896
 20
13.316319
 11
117.327896
 21
8.016319
  0
LINE
  8
0
 10
114.827896
 20
9.516319
 11
114.827896
 21
8.016319
  0
LINE
  8
0
 10
114.827896
 20
9.516319
 11
117.327896
 21
9.516319
  0
CIRCLE
  8
0
 10
130.327896
 20
-1.983681
 40
8.000000
  0
ARC
  8
0
 10
118.827896
 20
-83.083679
 40
3.099998
 50
0.000000
 51
73.089676
  0
ARC
  8
0
 10
141.827896
 20
-83.083679
 40
3.100000
 50
106.910454
 51
180.000000
  0
ARC
  8
0
 10
120.477898
 20
-71.983673
 40
8.000000
 50
180.000000
 51
253.089737
  0
ARC
  8
0
 10
140.177887
 20
-71.983673
 40
8.000001
 50
286.910309
 51
0.000000
  0
ARC
  8
0
 10
127.827896
 20
-36.483673
 40
1.500000
 50
90.000000
 51
180.000000
  0
ARC
  8
0
 10
132.827896
 20
-36.483673
 40
1.500000
 50
0.000000
 51
90.000000
  0
ARC
  8
0
 10
127.827896
 20
-68.483681
 40
1.500000
 50
180.000000
 51
270.000000
  0
ARC
  8
0
 10
132.827896
 20
-68.483681
 40
1.500000
 50
270.000000
 51
0.000000
  0
ARC
  8
0
 10
130.327896
 20
27.366318
 40
6.949997
 50
0.000000
 51
179.999969
  0
CIRCLE
  8
0
 10
130.327896
 20
-1.983681
 40
4.283000
  0
CIRCLE
  8
0
 10
130.327896
 20
-1.983681
 40
4.864000
  0
POINT
  8
0
 10
0.327896
 20
82.554893
  0
POINT
  8
0
 10
40.327896
 20
82.554893
  0
LINE
  8
0
 10
-4.746647
 20
82.554893
 11
45.274719
 21
82.554893
  0
LINE
  8
0
 10
0.327896
 20
93.554886
 11
17.167641
 21
93.554886
  0
LINE
  8
0
 10
1.327892
 20
94.554886
 11
18.616795
 21
94.554886
  0
LINE
  8
0
 10
0.327896
 20
71.554886
 11
5.874533
 21
71.554886
  0
LINE
  8
0
 10
1.327896
 20
70.554886
 11
5.827896
 21
70.554886
  0
LINE
  8
0
 10
1.327896
 20
94.554886
 11
1.327896
 21
70.554886
  0
LINE
  8
0
 10
0.327896
 20
93.554886
 11
0.327896
 21
71.554886
  0
LINE
  8
0
 10
40.327896
 20
93.554886
 11
40.327896
 21
71.554886
  0
LINE
  8
0
 10
39.327896
 20
94.554886
 11
39.327896
 21
86.262993
  0
LINE
  8
0
 10
0.327909
 20
93.554871
 11
1.327905
 21
94.554871
  0
LINE
  8
0
 10
40.327900
 20
93.554886
 11
39.327904
 21
94.554886
  0
LINE
  8
0
 10
39.327896
 20
70.554886
 11
40.327896
 21
71.554886
  0
LINE
  8
0
 10
1.327893
 20
70.554886
 11
0.327892
 21
71.554886
  0
LINE
  8
0
 10
34.488152
 20
71.554886
 11
40.327896
 21
71.554886
  0
LINE
  8
0
 10
33.038998
 20
70.554886
 11
39.327896
 21
70.554886
  0
LINE
  8
0
 10
33.038998
 20
94.554886
 11
39.327900
 21
94.554886
  0
LINE
  8
0
 10
34.488152
 20
93.554886
 11
40.327896
 21
93.554886
  0
LINE
  8
0
 10
39.327896
 20
78.846779
 11
39.327896
 21
70.554886
  0
LINE
  8
0
 10
16.281260
 20
71.554886
 11
17.167641
 21
71.554886
  0
LINE
  8
0
 10
16.327896
 20
70.554886
 11
18.616795
 21
70.554886
  0
LINE
  8
0
 10
11.077896
 20
79.811134
 11
11.077896
 21
61.811134
  0
LINE
  8
0
 10
2.077896
 20
70.811134
 11
20.077896
 21
70.811134
  0
LINE
  8
0
 10
25.827896
 20
100.054886
 11
25.827896
 21
65.054886
  0
LINE
  8
0
 10
20.327896
 20
105.054893
 11
20.327896
 21
60.054893
  0
ARC
  8
0
 10
20.327896
 20
82.554893
 40
20.000002
 50
36.869865
 51
143.130157
  0
ARC
  8
0
 10
20.327896
 20
82.554893
 40
19.000000
 50
39.166679
 51
140.833328
  0
CIRCLE
  8
0
 10
25.827896
 20
82.554886
 40
7.199997
  0
CIRCLE
  8
0
 10
25.827896
 20
82.554886
 40
6.949997
  0
CIRCLE
  8
0
 10
25.827896
 20
82.554886
 40
14.000000
  0
CIRCLE
  8
0
 10
25.827896
 20
82.554886
 40
13.000000
  0
ARC
  8
0
 10
20.327896
 20
82.554893
 40
18.999998
 50
219.166718
 51
220.368149
  0
ARC
  8
0
 10
11.077896
 20
70.811134
 40
5.256250
 50
57.790257
 51
19.262379
  0
CIRCLE
  8
0
 10
11.077896
 20
70.811134
 40
3.756248
  0
ARC
  8
0
 10
24.827896
 20
74.617386
 40
6.062500
 50
251.886185
 51
273.752716
  0
ARC
  8
0
 10
20.327896
 20
82.554893
 40
19.000002
 50
243.180191
 51
320.833252
  0
ARC
  8
0
 10
20.327896
 20
82.554893
 40
20.000000
 50
216.869904
 51
226.950897
  0
ARC
  8
0
 10
20.327896
 20
82.554893
 40
20.000004
 50
236.597427
 51
323.130066
  0
POINT
  8
0
 10
-144.672104
 20
-86.483673
  0
POINT
  8
0
 10
-137.172104
 20
-86.483673
  0
LINE
  8
0
 10
-137.172104
 20
-86.483673
 11
-137.172104
 21
-89.483673
  0
LINE
  8
0
 10
-152.172104
 20
-86.483673
 11
-152.172104
 21
-89.483673
  0
LINE
  8
0
 10
-152.172104
 20
-89.483673
 11
-137.172104
 21
-89.483673
  0
LINE
  8
0
 10
-138.672104
 20
-89.483673
 11
-138.672104
 21
-97.483673
  0
LINE
  8
0
 10
-150.672104
 20
-89.483673
 11
-150.672104
 21
-97.483673
  0
LINE
  8
0
 10
-149.672104
 20
-98.483673
 11
-139.672104
 21
-98.483673
  0
LINE
  8
0
 10
-150.672104
 20
-97.483673
 11
-138.672104
 21
-97.483673
  0
LINE
  8
0
 10
-150.672104
 20
-97.483673
 11
-149.672104
 21
-98.483673
  0
LINE
  8
0
 10
-139.672104
 20
-98.483673
 11
-138.672104
 21
-97.483673
  0
LINE
  8
0
 10
-151.472107
 20
-86.483673
 11
-151.472107
 21
-89.483673
  0
LINE
  8
0
 10
-137.872101
 20
-86.483673
 11
-137.872101
 21
-89.483673
  0
LINE
  8
0
 10
-146.598907
 20
-108.983673
 11
-142.745300
 21
-108.983673
  0
LINE
  8
0
 10
-142.745270
 20
-108.983673
 11
-142.322083
 21
-106.583672
  0
LINE
  8
0
 10
-142.745285
 20
-106.583672
 11
-142.322098
 21
-104.183670
  0
LINE
  8
0
 10
-147.022095
 20
-106.583679
 11
-142.322113
 21
-106.583679
  0
LINE
  8
0
 10
-147.022095
 20
-104.183670
 11
-142.322113
 21
-104.183670
  0
LINE
  8
0
 10
-147.672104
 20
-101.983673
 11
-141.672104
 21
-101.983673
  0
LINE
  8
0
 10
-142.745300
 20
-101.983673
 11
-142.745300
 21
-104.183670
  0
LINE
  8
0
 10
-141.672104
 20
-98.483673
 11
-141.672104
 21
-101.983673
  0
LINE
  8
0
 10
-146.598923
 20
-106.583679
 11
-147.022110
 21
-104.183685
  0
LINE
  8
0
 10
-147.672104
 20
-98.483673
 11
-147.672104
 21
-101.983673
  0
LINE
  8
0
 10
-146.598907
 20
-101.983673
 11
-146.598907
 21
-104.183670
  0
LINE
  8
0
 10
-146.598907
 20
-108.983673
 11
-147.022095
 21
-106.583672
  0
POINT
  8
0
 10
-61.672104
 20
-86.483673
  0
POINT
  8
0
 10
-53.272110
 20
-86.483673
  0
LINE
  8
0
 10
-62.672104
 20
-89.983673
 11
-60.672104
 21
-89.983673
  0
LINE
  8
0
 10
-61.172104
 20
-86.483673
 11
-61.172104
 21
-88.983673
  0
LINE
  8
0
 10
-62.172104
 20
-86.483673
 11
-62.172104
 21
-88.983673
  0
LINE
  8
0
 10
-62.672104
 20
-88.983673
 11
-60.672104
 21
-88.983673
  0
LINE
  8
0
 10
-60.672104
 20
-88.983673
 11
-60.672104
 21
-89.983673
  0
LINE
  8
0
 10
-62.672104
 20
-88.983673
 11
-62.672104
 21
-89.983673
  0
ENDSEC
  0
EOF
