  0
SECTION
  2
HEADER
  9
$ACADVER
  1
AC1003
  9
$EXTMIN
 10
-2.81250000E+02
 20
-1.95000000E+02
  9
$EXTMAX
 10
2.82099854E+02
 20
1.95500000E+02
  9
$LIMMIN
 10
-2.81251000E+02
 20
-1.95001000E+02
  9
$LIMMAX
 10
2.82100854E+02
 20
1.95501000E+02
  9
$SNAPUNIT
 10
1
 20
1
  9
$SNAPBASE
 10
0
 20
0
  9
$GRIDMODE
 70
0
  9
$GRIDUNIT
 10
0
 20
0
  9
$LTSCALE
 40
9.38916423E+00
  9
$TEXTSIZE
 40
3.2
  9
$DIMTAD
 70
0
  9
$LUNITS
 70
2
  9
$LUPREC
 70
4
  9
$FILLETRAD
 40
0
  9
$AUNITS
 70
0
  9
$AUPREC
 70
0
  0
ENDSEC
  0
SECTION
  2
TABLES
  0
TABLE
  2
LTYPE
 70
2
  0
LTYPE
  2
CONTINUOUS
 70
64
  3
Solid-Line
 72
65
 73
0
 40
0
  0
LTYPE
  2
DASHED
 70
64
  3
DASHED
 72
65
 73
2
 40
.75
 49
.5
 49
-.25
  0
LTYPE
  2
HIDDEN
 70
64
  3
HIDDEN
 72
65
 73
2
 40
.375
 49
.25
 49
-.125
  0
LTYPE
  2
CENTER
 70
64
  3
CENTER
 72
65
 73
4
 40
2
 49
1.25
 49
-.25
 49
.25
 49
-.25
  0
LTYPE
  2
PHANTOM
 70
64
  3
PHANTOM
 72
65
 73
6
 40
2.5
 49
1.25
 49
-.25
 49
.25
 49
-.25
 49
.25
 49
-.25
  0
ENDTAB
  0
TABLE
  2
LAYER
 70
1
  0
LAYER
  2
0
 70
0
 62
3
  6
CONTINUOUS
 0
ENDTAB
  0
TABLE
  2
STYLE
 70
2
  0
STYLE
  2
MONOTXT
 70
0
 40
0
 41
1
 50
0
 71
0
 42
.2
  3
monotxt
  0
STYLE
  2
BIGFONT
 70
0
 40
0
 41
1
 50
0
 71
0
 42
.2
  3
txt
  4
bigfont
  0
ENDTAB
  0
ENDSEC
  0
SECTION
  2
ENTITIES
  0
LINE
  8
0
  6
CENTER
 62
2
 10
-2.97250977E+01
 20
5.75607289E+01
 11
-2.97250977E+01
 21
-1.92939275E+02
  0
LINE
  8
0
 62
7
 10
-7.47250984E+01
 20
-2.92392726E+01
 11
1.52749031E+01
 21
-2.92392726E+01
  0
LINE
  8
0
  6
CENTER
 62
2
 10
-8.90108130E+01
 20
1.07607281E+01
 11
2.95606176E+01
 21
1.07607281E+01
  0
LINE
  8
0
 62
7
 10
-7.47250984E+01
 20
3.42607285E+01
 11
-7.47250984E+01
 21
-2.92392726E+01
  0
LINE
  8
0
 62
7
 10
1.52749031E+01
 20
3.42607285E+01
 11
1.52749031E+01
 21
-2.92392726E+01
  0
LINE
  8
0
 62
7
 10
-7.47250984E+01
 20
3.42607285E+01
 11
-7.32250984E+01
 21
3.57607285E+01
  0
LINE
  8
0
 62
7
 10
1.37749031E+01
 20
3.57607285E+01
 11
1.52749031E+01
 21
3.42607285E+01
  0
LINE
  8
0
 62
7
 10
-7.32250984E+01
 20
3.57607285E+01
 11
1.37749031E+01
 21
3.57607285E+01
  0
LINE
  8
0
 62
7
 10
-7.37250984E+01
 20
-1.42392724E+01
 11
1.42749031E+01
 21
-1.42392724E+01
  0
LINE
  8
0
 62
7
 10
-1.72509718E+00
 20
2.57607283E+01
 11
8.27490299E+00
 21
2.57607283E+01
  0
LINE
  8
0
 62
7
 10
-1.72509718E+00
 20
-4.23927220E+00
 11
8.27490299E+00
 21
-4.23927220E+00
  0
LINE
  8
0
 62
7
 10
8.27490299E+00
 20
2.57607283E+01
 11
8.27490299E+00
 21
-4.23927220E+00
  0
LINE
  8
0
 62
7
 10
7.40347440E+00
 20
2.51464426E+01
 11
7.40347440E+00
 21
-3.62498648E+00
  0
LINE
  8
0
 62
7
 10
-8.39382879E-01
 20
2.51464426E+01
 11
-8.39382879E-01
 21
-3.62498648E+00
  0
LINE
  8
0
 62
7
 10
-8.39382879E-01
 20
2.51464426E+01
 11
7.40347440E+00
 21
2.51464426E+01
  0
LINE
  8
0
 62
7
 10
-8.39382879E-01
 20
-3.62498648E+00
 11
7.40347440E+00
 21
-3.62498648E+00
  0
LINE
  8
0
  6
CENTER
 62
2
 10
-4.07250978E+01
 20
6.69035862E+01
 11
-4.07250978E+01
 21
3.27607284E+01
  0
LINE
  8
0
 62
7
 10
-5.42250981E+01
 20
4.18607286E+01
 11
-5.42250981E+01
 21
3.67607285E+01
  0
LINE
  8
0
 62
7
 10
-5.47250981E+01
 20
4.88607287E+01
 11
-5.47250981E+01
 21
4.18607286E+01
  0
LINE
  8
0
 62
7
 10
-2.67250976E+01
 20
4.88607287E+01
 11
-2.67250976E+01
 21
4.67607287E+01
  0
LINE
  8
0
 62
7
 10
-5.37250981E+01
 20
4.98607287E+01
 11
-5.47250981E+01
 21
4.88607287E+01
  0
LINE
  8
0
 62
7
 10
-2.67250976E+01
 20
4.88607287E+01
 11
-2.77250976E+01
 21
4.98607287E+01
  0
LINE
  8
0
 62
7
 10
-2.77250976E+01
 20
4.98607287E+01
 11
-5.37250981E+01
 21
4.98607287E+01
  0
LINE
  8
0
 62
7
 10
-4.79250980E+01
 20
5.07607287E+01
 11
-4.79250980E+01
 21
4.98607287E+01
  0
LINE
  8
0
 62
7
 10
-3.35250977E+01
 20
5.07607287E+01
 11
-3.35250977E+01
 21
4.98607287E+01
  0
LINE
  8
0
 62
7
 10
-4.77250980E+01
 20
5.07607287E+01
 11
-4.76679551E+01
 21
5.70035860E+01
  0
LINE
  8
0
 62
7
 10
-3.37250977E+01
 20
5.07607287E+01
 11
-3.37679549E+01
 21
5.70035860E+01
  0
LINE
  8
0
 62
7
 10
-3.35250977E+01
 20
5.07607287E+01
 11
-4.79250980E+01
 21
5.07607287E+01
  0
LINE
  8
0
 62
7
 10
-4.22250979E+01
 20
4.38607286E+01
 11
-4.63822408E+01
 21
4.38607286E+01
  0
LINE
  8
0
 62
7
 10
-4.23536693E+01
 20
4.41464429E+01
 11
-4.59965265E+01
 21
4.41464429E+01
  0
LINE
  8
0
 62
7
 10
-5.46393838E+01
 20
4.88607287E+01
 11
-5.46393838E+01
 21
4.38607286E+01
  0
LINE
  8
0
 62
7
 10
-5.41250981E+01
 20
4.93607287E+01
 11
-5.41250981E+01
 21
4.41464429E+01
  0
LINE
  8
0
 62
7
 10
-5.35250981E+01
 20
4.88607287E+01
 11
-5.35250981E+01
 21
4.38607286E+01
  0
LINE
  8
0
 62
7
 10
-5.20250980E+01
 20
4.88607287E+01
 11
-5.20250980E+01
 21
4.38607286E+01
  0
LINE
  8
0
 62
7
 10
-5.15108123E+01
 20
4.93607287E+01
 11
-5.15108123E+01
 21
4.41464429E+01
  0
LINE
  8
0
 62
7
 10
-4.89822408E+01
 20
4.88607287E+01
 11
-4.89822408E+01
 21
4.38607286E+01
  0
LINE
  8
0
 62
7
 10
-4.63822408E+01
 20
4.88607287E+01
 11
-4.63822408E+01
 21
4.38607286E+01
  0
LINE
  8
0
 62
7
 10
-4.59965265E+01
 20
4.93607287E+01
 11
-4.59965265E+01
 21
4.41464429E+01
  0
LINE
  8
0
 62
7
 10
-4.23536693E+01
 20
4.93607287E+01
 11
-4.23536693E+01
 21
4.41464429E+01
  0
LINE
  8
0
 62
7
 10
-4.22250979E+01
 20
4.88607287E+01
 11
-4.22250979E+01
 21
4.38607286E+01
  0
LINE
  8
0
 62
7
 10
-3.92250978E+01
 20
4.88607287E+01
 11
-4.22250979E+01
 21
4.88607287E+01
  0
LINE
  8
0
 62
7
 10
-4.23536693E+01
 20
4.93607287E+01
 11
-4.59965265E+01
 21
4.93607287E+01
  0
LINE
  8
0
 62
7
 10
-4.63822408E+01
 20
4.88607287E+01
 11
-4.89822408E+01
 21
4.88607287E+01
  0
LINE
  8
0
 62
7
 10
-5.20250980E+01
 20
4.88607287E+01
 11
-5.35250981E+01
 21
4.88607287E+01
  0
LINE
  8
0
 62
7
 10
-4.89822408E+01
 20
4.41464429E+01
 11
-5.15108123E+01
 21
4.41464429E+01
  0
LINE
  8
0
 62
7
 10
-5.35250981E+01
 20
4.41464429E+01
 11
-5.41250981E+01
 21
4.41464429E+01
  0
LINE
  8
0
 62
7
 10
-4.88393837E+01
 20
4.93607287E+01
 11
-5.15108123E+01
 21
4.93607287E+01
  0
LINE
  8
0
 62
7
 10
-4.22250979E+01
 20
4.88607287E+01
 11
-4.23536693E+01
 21
4.93607287E+01
  0
LINE
  8
0
 62
7
 10
-4.23536693E+01
 20
4.41464429E+01
 11
-4.22250979E+01
 21
4.38607286E+01
  0
LINE
  8
0
 62
7
 10
-4.63822408E+01
 20
4.88607287E+01
 11
-4.59965265E+01
 21
4.93607287E+01
  0
LINE
  8
0
 62
7
 10
-4.59965265E+01
 20
4.41464429E+01
 11
-4.63822408E+01
 21
4.38607286E+01
  0
LINE
  8
0
 62
7
 10
-4.89822408E+01
 20
4.88607287E+01
 11
-4.88393837E+01
 21
4.93607287E+01
  0
LINE
  8
0
 62
7
 10
-5.15108123E+01
 20
4.41464429E+01
 11
-5.20250980E+01
 21
4.38607286E+01
  0
LINE
  8
0
 62
7
 10
-5.35250981E+01
 20
4.88607287E+01
 11
-5.31393838E+01
 21
4.93607287E+01
  0
LINE
  8
0
 62
7
 10
-5.20250980E+01
 20
4.88607287E+01
 11
-5.15108123E+01
 21
4.93607287E+01
  0
LINE
  8
0
 62
7
 10
-5.31393838E+01
 20
4.93607287E+01
 11
-5.41250981E+01
 21
4.93607287E+01
  0
LINE
  8
0
 62
7
 10
-4.89822408E+01
 20
4.38607286E+01
 11
-5.20250980E+01
 21
4.38607286E+01
  0
LINE
  8
0
 62
7
 10
-5.35250981E+01
 20
4.38607286E+01
 11
-5.46393838E+01
 21
4.38607286E+01
  0
LINE
  8
0
 62
7
 10
-5.41250981E+01
 20
4.41464429E+01
 11
-5.46393838E+01
 21
4.38607286E+01
  0
LINE
  8
0
 62
7
 10
-5.46393838E+01
 20
4.88607287E+01
 11
-5.47250981E+01
 21
4.88607287E+01
  0
LINE
  8
0
 62
7
 10
-5.46393838E+01
 20
4.88607287E+01
 11
-5.41250981E+01
 21
4.93607287E+01
  0
LINE
  8
0
 62
7
 10
-3.92250978E+01
 20
4.38607286E+01
 11
-3.50536692E+01
 21
4.38607286E+01
  0
LINE
  8
0
 62
7
 10
-3.90822407E+01
 20
4.41464429E+01
 11
-3.54393835E+01
 21
4.41464429E+01
  0
LINE
  8
0
 62
7
 10
-2.67965262E+01
 20
4.88607287E+01
 11
-2.67965262E+01
 21
4.38607286E+01
  0
LINE
  8
0
 62
7
 10
-2.73250976E+01
 20
4.93607287E+01
 11
-2.73250976E+01
 21
4.41464429E+01
  0
LINE
  8
0
 62
7
 10
-2.79108119E+01
 20
4.88607287E+01
 11
-2.79108119E+01
 21
4.38607286E+01
  0
LINE
  8
0
 62
7
 10
-2.94108119E+01
 20
4.88607287E+01
 11
-2.94108119E+01
 21
4.38607286E+01
  0
LINE
  8
0
 62
7
 10
-2.99393834E+01
 20
4.93607287E+01
 11
-2.99393834E+01
 21
4.41464429E+01
  0
LINE
  8
0
 62
7
 10
-3.24536691E+01
 20
4.88607287E+01
 11
-3.24536691E+01
 21
4.38607286E+01
  0
LINE
  8
0
 62
7
 10
-3.50536692E+01
 20
4.88607287E+01
 11
-3.50536692E+01
 21
4.38607286E+01
  0
LINE
  8
0
 62
7
 10
-3.54393835E+01
 20
4.93607287E+01
 11
-3.54393835E+01
 21
4.41464429E+01
  0
LINE
  8
0
 62
7
 10
-3.90822407E+01
 20
4.93607287E+01
 11
-3.90822407E+01
 21
4.41464429E+01
  0
LINE
  8
0
 62
7
 10
-3.92250978E+01
 20
4.88607287E+01
 11
-3.92250978E+01
 21
4.38607286E+01
  0
LINE
  8
0
 62
7
 10
-3.90822407E+01
 20
4.93607287E+01
 11
-3.54393835E+01
 21
4.93607287E+01
  0
LINE
  8
0
 62
7
 10
-3.50536692E+01
 20
4.88607287E+01
 11
-3.24536691E+01
 21
4.88607287E+01
  0
LINE
  8
0
 62
7
 10
-2.94108119E+01
 20
4.88607287E+01
 11
-2.79108119E+01
 21
4.88607287E+01
  0
LINE
  8
0
 62
7
 10
-3.25965263E+01
 20
4.93607287E+01
 11
-2.99393834E+01
 21
4.93607287E+01
  0
LINE
  8
0
 62
7
 10
-3.92250978E+01
 20
4.88607287E+01
 11
-3.90822407E+01
 21
4.93607287E+01
  0
LINE
  8
0
 62
7
 10
-3.90822407E+01
 20
4.41464429E+01
 11
-3.92250978E+01
 21
4.38607286E+01
  0
LINE
  8
0
 62
7
 10
-3.50536692E+01
 20
4.88607287E+01
 11
-3.54393835E+01
 21
4.93607287E+01
  0
LINE
  8
0
 62
7
 10
-3.24536691E+01
 20
4.88607287E+01
 11
-3.25965263E+01
 21
4.93607287E+01
  0
LINE
  8
0
 62
7
 10
-2.79108119E+01
 20
4.88607287E+01
 11
-2.82965262E+01
 21
4.93607287E+01
  0
LINE
  8
0
 62
7
 10
-2.94108119E+01
 20
4.88607287E+01
 11
-2.99393834E+01
 21
4.93607287E+01
  0
LINE
  8
0
 62
7
 10
-2.82965262E+01
 20
4.93607287E+01
 11
-2.73250976E+01
 21
4.93607287E+01
  0
LINE
  8
0
 62
7
 10
-2.67965262E+01
 20
4.88607287E+01
 11
-2.67250976E+01
 21
4.88607287E+01
  0
LINE
  8
0
 62
7
 10
-2.67965262E+01
 20
4.88607287E+01
 11
-2.73250976E+01
 21
4.93607287E+01
  0
LINE
  8
0
 62
7
 10
-7.32250984E+01
 20
3.57607285E+01
 11
-7.32250984E+01
 21
-1.42964152E+01
  0
LINE
  8
0
 62
7
 10
1.37749031E+01
 20
3.57607285E+01
 11
1.37749031E+01
 21
-1.42964152E+01
  0
LINE
  8
0
 62
7
 10
1.52749031E+01
 20
3.42607285E+01
 11
-7.47250984E+01
 21
3.42607285E+01
  0
LINE
  8
0
 62
7
 10
-1.72509718E+00
 20
3.42607285E+01
 11
-1.72509718E+00
 21
2.57607283E+01
  0
LINE
  8
0
 62
7
 10
-1.72509718E+00
 20
-4.23927220E+00
 11
-1.72509718E+00
 21
-1.42392724E+01
  0
LINE
  8
0
 62
7
 10
-5.85965267E+01
 20
2.51464426E+01
 11
-5.85965267E+01
 21
-3.62498648E+00
  0
LINE
  8
0
 62
7
 10
-5.77250981E+01
 20
2.57607283E+01
 11
-6.77250983E+01
 21
2.57607283E+01
  0
LINE
  8
0
 62
7
 10
-6.68393840E+01
 20
2.51464426E+01
 11
-6.68393840E+01
 21
-3.62498648E+00
  0
LINE
  8
0
 62
7
 10
-6.77250983E+01
 20
2.57607283E+01
 11
-6.77250983E+01
 21
-4.23927220E+00
  0
LINE
  8
0
 62
7
 10
-5.77250981E+01
 20
-4.23927220E+00
 11
-6.77250983E+01
 21
-4.23927220E+00
  0
LINE
  8
0
 62
7
 10
-5.85965267E+01
 20
-3.62498648E+00
 11
-6.68393840E+01
 21
-3.62498648E+00
  0
LINE
  8
0
 62
7
 10
-5.77250981E+01
 20
-4.23927220E+00
 11
-5.77250981E+01
 21
-1.42392724E+01
  0
LINE
  8
0
 62
7
 10
-5.85965267E+01
 20
2.51464426E+01
 11
-6.68393840E+01
 21
2.51464426E+01
  0
LINE
  8
0
 62
7
 10
-5.77250981E+01
 20
3.42607285E+01
 11
-5.77250981E+01
 21
2.57607283E+01
  0
LINE
  8
0
 62
7
 10
-6.68393840E+01
 20
2.51464426E+01
 11
-6.77250983E+01
 21
2.57607283E+01
  0
LINE
  8
0
 62
7
 10
-6.68393840E+01
 20
-3.62498648E+00
 11
-6.77250983E+01
 21
-4.23927220E+00
  0
LINE
  8
0
 62
7
 10
-5.85965267E+01
 20
2.51464426E+01
 11
-5.77250981E+01
 21
2.57607283E+01
  0
LINE
  8
0
 62
7
 10
-5.85965267E+01
 20
-3.62498648E+00
 11
-5.77250981E+01
 21
-4.23927220E+00
  0
LINE
  8
0
 62
7
 10
-3.47250977E+01
 20
4.18607286E+01
 11
-5.47250981E+01
 21
4.18607286E+01
  0
LINE
  8
0
 62
7
 10
-7.37250984E+01
 20
-2.17392725E+01
 11
-6.02250982E+01
 21
-2.17392725E+01
  0
LINE
  8
0
 62
7
 10
7.74902863E-01
 20
-2.17392725E+01
 11
1.42749031E+01
 21
-2.17392725E+01
  0
LINE
  8
0
 62
7
 10
2.74902855E-01
 20
-1.52392724E+01
 11
2.74902855E-01
 21
-2.12392725E+01
  0
LINE
  8
0
  6
CENTER
 62
2
 10
7.27490297E+00
 20
-1.12392723E+01
 11
7.27490297E+00
 21
-2.47392725E+01
  0
LINE
  8
0
  6
CENTER
 62
2
 10
-6.67250983E+01
 20
-1.12392723E+01
 11
-6.67250983E+01
 21
-2.47392725E+01
  0
LINE
  8
0
 62
7
 10
-1.88536689E+01
 20
4.32607286E+01
 11
-1.87250975E+01
 21
4.32607286E+01
  0
LINE
  8
0
 62
7
 10
-1.88536689E+01
 20
4.32607286E+01
 11
-1.93965261E+01
 21
4.37607286E+01
  0
LINE
  8
0
 62
7
 10
-2.00965261E+01
 20
3.77607285E+01
 11
-1.88536689E+01
 21
3.77607285E+01
  0
LINE
  8
0
 62
7
 10
-2.52250976E+01
 20
4.32607286E+01
 11
-2.82250976E+01
 21
4.32607286E+01
  0
LINE
  8
0
 62
7
 10
-1.88536689E+01
 20
3.77607285E+01
 11
-1.93965261E+01
 21
3.81035857E+01
  0
LINE
  8
0
 62
7
 10
-2.27108118E+01
 20
3.81035857E+01
 11
-2.50679547E+01
 21
3.81035857E+01
  0
LINE
  8
0
 62
7
 10
-1.92250975E+01
 20
4.37607286E+01
 11
-3.42250977E+01
 21
4.37607286E+01
  0
LINE
  8
0
 62
7
 10
-1.87250975E+01
 20
4.32607286E+01
 11
-1.87250975E+01
 21
3.57607285E+01
  0
LINE
  8
0
 62
7
 10
-3.47250977E+01
 20
4.32607286E+01
 11
-3.47250977E+01
 21
3.57607285E+01
  0
LINE
  8
0
 62
7
 10
-1.92250975E+01
 20
4.37607286E+01
 11
-1.87250975E+01
 21
4.32607286E+01
  0
LINE
  8
0
 62
7
 10
-3.47250977E+01
 20
4.32607286E+01
 11
-3.42250977E+01
 21
4.37607286E+01
  0
LINE
  8
0
  6
CENTER
 62
2
 10
-2.67250976E+01
 20
4.67607287E+01
 11
-2.67250976E+01
 21
3.27607284E+01
  0
LINE
  8
0
 62
7
 10
-2.82250976E+01
 20
3.77607285E+01
 11
-3.12108120E+01
 21
3.77607285E+01
  0
LINE
  8
0
 62
7
 10
-3.12108120E+01
 20
4.32607286E+01
 11
-3.33393834E+01
 21
4.32607286E+01
  0
LINE
  8
0
 62
7
 10
-3.45822406E+01
 20
4.32607286E+01
 11
-3.45822406E+01
 21
3.77607285E+01
  0
LINE
  8
0
 62
7
 10
-3.40393834E+01
 20
4.37607286E+01
 11
-3.40393834E+01
 21
3.81035857E+01
  0
LINE
  8
0
 62
7
 10
-3.33393834E+01
 20
4.32607286E+01
 11
-3.33393834E+01
 21
3.77607285E+01
  0
LINE
  8
0
 62
7
 10
-3.12108120E+01
 20
4.32607286E+01
 11
-3.12108120E+01
 21
3.77607285E+01
  0
LINE
  8
0
 62
7
 10
-3.07250977E+01
 20
4.37607286E+01
 11
-3.07250977E+01
 21
3.81035857E+01
  0
LINE
  8
0
 62
7
 10
-2.83679548E+01
 20
4.37607286E+01
 11
-2.83679548E+01
 21
3.81035857E+01
  0
LINE
  8
0
 62
7
 10
-2.82250976E+01
 20
4.32607286E+01
 11
-2.82250976E+01
 21
3.77607285E+01
  0
LINE
  8
0
 62
7
 10
-3.40393834E+01
 20
3.81035857E+01
 11
-3.33393834E+01
 21
3.81035857E+01
  0
LINE
  8
0
 62
7
 10
-2.82250976E+01
 20
4.32607286E+01
 11
-2.83679548E+01
 21
4.37607286E+01
  0
LINE
  8
0
 62
7
 10
-2.82250976E+01
 20
3.77607285E+01
 11
-2.83679548E+01
 21
3.81035857E+01
  0
LINE
  8
0
 62
7
 10
-3.07250977E+01
 20
3.81035857E+01
 11
-3.12108120E+01
 21
3.77607285E+01
  0
LINE
  8
0
 62
7
 10
-3.12108120E+01
 20
4.32607286E+01
 11
-3.07250977E+01
 21
4.37607286E+01
  0
LINE
  8
0
 62
7
 10
-3.33393834E+01
 20
4.32607286E+01
 11
-3.30536691E+01
 21
4.37607286E+01
  0
LINE
  8
0
 62
7
 10
-3.45822406E+01
 20
3.77607285E+01
 11
-3.40393834E+01
 21
3.81035857E+01
  0
LINE
  8
0
 62
7
 10
-3.45822406E+01
 20
4.32607286E+01
 11
-3.40393834E+01
 21
4.37607286E+01
  0
LINE
  8
0
 62
7
 10
-3.45822406E+01
 20
4.32607286E+01
 11
-3.47250977E+01
 21
4.32607286E+01
  0
LINE
  8
0
 62
7
 10
-3.07250977E+01
 20
3.81035857E+01
 11
-2.83679548E+01
 21
3.81035857E+01
  0
LINE
  8
0
 62
7
 10
-3.33393834E+01
 20
3.77607285E+01
 11
-3.45822406E+01
 21
3.77607285E+01
  0
LINE
  8
0
 62
7
 10
-2.52250976E+01
 20
3.77607285E+01
 11
-2.22250975E+01
 21
3.77607285E+01
  0
LINE
  8
0
 62
7
 10
-2.22250975E+01
 20
4.32607286E+01
 11
-2.00965261E+01
 21
4.32607286E+01
  0
LINE
  8
0
 62
7
 10
-1.88536689E+01
 20
4.32607286E+01
 11
-1.88536689E+01
 21
3.77607285E+01
  0
LINE
  8
0
 62
7
 10
-1.93965261E+01
 20
4.37607286E+01
 11
-1.93965261E+01
 21
3.81035857E+01
  0
LINE
  8
0
 62
7
 10
-2.00965261E+01
 20
4.32607286E+01
 11
-2.00965261E+01
 21
3.77607285E+01
  0
LINE
  8
0
 62
7
 10
-2.22250975E+01
 20
4.32607286E+01
 11
-2.22250975E+01
 21
3.77607285E+01
  0
LINE
  8
0
 62
7
 10
-2.27108118E+01
 20
4.37607286E+01
 11
-2.27108118E+01
 21
3.81035857E+01
  0
LINE
  8
0
 62
7
 10
-2.50679547E+01
 20
4.37607286E+01
 11
-2.50679547E+01
 21
3.81035857E+01
  0
LINE
  8
0
 62
7
 10
-2.52250976E+01
 20
4.32607286E+01
 11
-2.52250976E+01
 21
3.77607285E+01
  0
LINE
  8
0
 62
7
 10
-1.93965261E+01
 20
3.81035857E+01
 11
-2.00965261E+01
 21
3.81035857E+01
  0
LINE
  8
0
 62
7
 10
-2.52250976E+01
 20
4.32607286E+01
 11
-2.50679547E+01
 21
4.37607286E+01
  0
LINE
  8
0
 62
7
 10
-2.52250976E+01
 20
3.77607285E+01
 11
-2.50679547E+01
 21
3.81035857E+01
  0
LINE
  8
0
 62
7
 10
-2.27108118E+01
 20
3.81035857E+01
 11
-2.22250975E+01
 21
3.77607285E+01
  0
LINE
  8
0
 62
7
 10
-2.22250975E+01
 20
4.32607286E+01
 11
-2.27108118E+01
 21
4.37607286E+01
  0
LINE
  8
0
 62
7
 10
-2.00965261E+01
 20
4.32607286E+01
 11
-2.03822404E+01
 21
4.37607286E+01
  0
LINE
  8
0
 62
7
 10
-5.97250982E+01
 20
-1.52392724E+01
 11
-5.97250982E+01
 21
-2.12392725E+01
  0
LINE
  8
0
 62
7
 10
-3.54393835E+01
 20
4.41464429E+01
 11
-3.50536692E+01
 21
4.38607286E+01
  0
LINE
  8
0
 62
7
 10
-5.64536695E+01
 20
3.57607285E+01
 11
-5.77250981E+01
 21
3.42607285E+01
  0
LINE
  8
0
 62
7
 10
-5.52965267E+01
 20
3.57607285E+01
 11
-5.66822410E+01
 21
3.42607285E+01
  0
LINE
  8
0
 62
7
 10
-5.61393838E+01
 20
-1.42392724E+01
 11
-5.66822410E+01
 21
3.42607285E+01
  0
LINE
  8
0
 62
7
 10
-3.29652578E+00
 20
-1.42392724E+01
 11
-2.75366863E+00
 21
3.42607285E+01
  0
LINE
  8
0
 62
7
 10
-4.13938293E+00
 20
3.57607285E+01
 11
-2.75366863E+00
 21
3.42607285E+01
  0
LINE
  8
0
 62
7
 10
-2.98224006E+00
 20
3.57607285E+01
 11
-1.72509718E+00
 21
3.42607285E+01
  0
LINE
  8
0
 62
7
 10
-6.97250983E+01
 20
3.67607285E+01
 11
-5.87250982E+01
 21
3.67607285E+01
  0
LINE
  8
0
 62
7
 10
-6.97250983E+01
 20
3.67607285E+01
 11
-6.97250983E+01
 21
3.57607285E+01
  0
LINE
  8
0
 62
7
 10
-5.87250982E+01
 20
3.67607285E+01
 11
-5.87250982E+01
 21
3.57607285E+01
  0
LINE
  8
0
 62
7
 10
-3.24536691E+01
 20
4.38607286E+01
 11
-2.94108119E+01
 21
4.38607286E+01
  0
LINE
  8
0
 62
7
 10
-3.24536691E+01
 20
4.41464429E+01
 11
-2.99393834E+01
 21
4.41464429E+01
  0
LINE
  8
0
 62
7
 10
-2.99393834E+01
 20
4.41464429E+01
 11
-2.94108119E+01
 21
4.38607286E+01
  0
LINE
  8
0
 62
7
 10
-2.79108119E+01
 20
4.38607286E+01
 11
-2.67965262E+01
 21
4.38607286E+01
  0
LINE
  8
0
 62
7
 10
-2.79108119E+01
 20
4.41464429E+01
 11
-2.73250976E+01
 21
4.41464429E+01
  0
LINE
  8
0
 62
7
 10
-2.73250976E+01
 20
4.41464429E+01
 11
-2.67965262E+01
 21
4.38607286E+01
  0
LINE
  8
0
 62
7
 10
-7.47250984E+01
 20
-2.92392726E+01
 11
-7.47250984E+01
 21
-4.32392729E+01
  0
LINE
  8
0
 62
7
 10
1.52749031E+01
 20
-2.92392726E+01
 11
1.52749031E+01
 21
-4.32392729E+01
  0
LINE
  8
0
 62
7
 10
-6.76965269E+01
 20
-8.92392736E+01
 11
8.26061728E+00
 21
-8.92392736E+01
  0
LINE
  8
0
 62
7
 10
-7.37250984E+01
 20
-4.42392729E+01
 11
1.42749031E+01
 21
-4.42392729E+01
  0
LINE
  8
0
 62
7
 10
-6.87393840E+01
 20
-8.82392736E+01
 11
-6.98679555E+01
 21
-4.52107015E+01
  0
LINE
  8
0
 62
7
 10
9.30347444E+00
 20
-8.82392736E+01
 11
1.04320459E+01
 21
-4.52107015E+01
  0
LINE
  8
0
 62
7
 10
-6.87393840E+01
 20
-8.82392736E+01
 11
-6.76965269E+01
 21
-8.92392736E+01
  0
LINE
  8
0
 62
7
 10
9.30347444E+00
 20
-8.82392736E+01
 11
8.26061728E+00
 21
-8.92392736E+01
  0
LINE
  8
0
 62
7
 10
-6.87393840E+01
 20
-8.82392736E+01
 11
9.30347444E+00
 21
-8.82392736E+01
  0
LINE
  8
0
 62
7
 10
-7.17250984E+01
 20
-1.48392724E+01
 11
-7.17250984E+01
 21
-2.02392725E+01
  0
LINE
  8
0
 62
7
 10
-6.17250982E+01
 20
-1.48392724E+01
 11
-6.17250982E+01
 21
-2.02392725E+01
  0
LINE
  8
0
 62
7
 10
-6.06250982E+01
 20
-2.02392725E+01
 11
-7.28250984E+01
 21
-2.02392725E+01
  0
LINE
  8
0
 62
7
 10
-6.06250982E+01
 20
-2.02392725E+01
 11
-6.06250982E+01
 21
-2.17392725E+01
  0
LINE
  8
0
 62
7
 10
-7.28250984E+01
 20
-2.02392725E+01
 11
-7.28250984E+01
 21
-2.17392725E+01
  0
LINE
  8
0
 62
7
 10
-7.17250984E+01
 20
-1.48392724E+01
 11
-6.17250982E+01
 21
-1.48392724E+01
  0
LINE
  8
0
 62
7
 10
-7.17250984E+01
 20
-1.48392724E+01
 11
-7.11250984E+01
 21
-1.42392724E+01
  0
LINE
  8
0
 62
7
 10
-6.17250982E+01
 20
-1.48392724E+01
 11
-6.23250982E+01
 21
-1.42392724E+01
  0
LINE
  8
0
 62
7
 10
2.27490289E+00
 20
-1.48392724E+01
 11
2.27490289E+00
 21
-2.02392725E+01
  0
LINE
  8
0
 62
7
 10
1.22749031E+01
 20
-1.48392724E+01
 11
1.22749031E+01
 21
-2.02392725E+01
  0
LINE
  8
0
 62
7
 10
1.33749031E+01
 20
-2.02392725E+01
 11
1.17490287E+00
 21
-2.02392725E+01
  0
LINE
  8
0
 62
7
 10
1.33749031E+01
 20
-2.02392725E+01
 11
1.33749031E+01
 21
-2.17392725E+01
  0
LINE
  8
0
 62
7
 10
1.17490287E+00
 20
-2.02392725E+01
 11
1.17490287E+00
 21
-2.17392725E+01
  0
LINE
  8
0
 62
7
 10
2.27490289E+00
 20
-1.48392724E+01
 11
1.22749031E+01
 21
-1.48392724E+01
  0
LINE
  8
0
 62
7
 10
2.27490289E+00
 20
-1.48392724E+01
 11
2.87490290E+00
 21
-1.42392724E+01
  0
LINE
  8
0
 62
7
 10
1.22749031E+01
 20
-1.48392724E+01
 11
1.16749030E+01
 21
-1.42392724E+01
  0
LINE
  8
0
 62
7
 10
-1.87250975E+01
 20
3.67607285E+01
 11
-1.47250974E+01
 21
3.67607285E+01
  0
LINE
  8
0
 62
7
 10
-8.39382879E-01
 20
2.51464426E+01
 11
-1.72509718E+00
 21
2.57607283E+01
  0
LINE
  8
0
 62
7
 10
-8.39382879E-01
 20
-3.62498648E+00
 11
-1.72509718E+00
 21
-4.23927220E+00
  0
LINE
  8
0
 62
7
 10
7.40347440E+00
 20
2.51464426E+01
 11
8.27490299E+00
 21
2.57607283E+01
  0
LINE
  8
0
 62
7
 10
7.40347440E+00
 20
-3.62498648E+00
 11
8.27490299E+00
 21
-4.23927220E+00
  0
LINE
  8
0
  6
PHANTOM
 62
6
 10
-7.37250984E+01
 20
4.75607287E+01
 11
-6.87250983E+01
 21
5.25607288E+01
  0
LINE
  8
0
  6
PHANTOM
 62
6
 10
-7.37250984E+01
 20
3.52607285E+01
 11
-7.37250984E+01
 21
4.75607287E+01
  0
LINE
  8
0
  6
PHANTOM
 62
6
 10
-7.37250984E+01
 20
-4.74392729E+01
 11
-7.37250984E+01
 21
-4.42392729E+01
  0
LINE
  8
0
  6
PHANTOM
 62
6
 10
-7.37250984E+01
 20
-4.74392729E+01
 11
-6.98108126E+01
 21
-4.74392729E+01
  0
LINE
  8
0
  6
CENTER
 62
6
 10
-5.82250981E+01
 20
3.65035856E+01
 11
-5.82250981E+01
 21
4.90035858E+01
  0
LINE
  8
0
  6
CENTER
 62
6
 10
-6.07250982E+01
 20
3.65035856E+01
 11
-6.07250982E+01
 21
4.90035858E+01
  0
LINE
  8
0
  6
CENTER
 62
6
 10
-6.32250982E+01
 20
3.65035856E+01
 11
-6.32250982E+01
 21
4.90035858E+01
  0
LINE
  8
0
  6
PHANTOM
 62
6
 10
-6.32250982E+01
 20
4.68035858E+01
 11
-5.82250981E+01
 21
4.68035858E+01
  0
LINE
  8
0
  6
CENTER
 62
6
 10
-6.94679555E+01
 20
4.25607286E+01
 11
-5.47250981E+01
 21
4.25607286E+01
  0
LINE
  8
0
  6
PHANTOM
 62
6
 10
-6.32250982E+01
 20
3.83035857E+01
 11
-5.82250981E+01
 21
3.83035857E+01
  0
LINE
  8
0
  6
PHANTOM
 62
6
 10
-6.87250983E+01
 20
5.25607288E+01
 11
-4.77108122E+01
 21
5.25607288E+01
  0
LINE
  8
0
  6
PHANTOM
 62
6
 10
9.27490301E+00
 20
5.25607288E+01
 11
1.42749031E+01
 21
4.75607287E+01
  0
LINE
  8
0
  6
PHANTOM
 62
6
 10
1.42749031E+01
 20
3.52607285E+01
 11
1.42749031E+01
 21
4.75607287E+01
  0
LINE
  8
0
  6
CENTER
 62
6
 10
3.77490291E+00
 20
3.63035856E+01
 11
3.77490291E+00
 21
4.88035858E+01
  0
LINE
  8
0
  6
PHANTOM
 62
6
 10
-1.22509717E+00
 20
4.68035858E+01
 11
3.77490291E+00
 21
4.68035858E+01
  0
LINE
  8
0
  6
CENTER
 62
6
 10
1.27490287E+00
 20
3.65035856E+01
 11
1.27490287E+00
 21
4.90035858E+01
  0
LINE
  8
0
  6
CENTER
 62
6
 10
-1.22509717E+00
 20
3.63035856E+01
 11
-1.22509717E+00
 21
4.88035858E+01
  0
LINE
  8
0
  6
CENTER
 62
6
 10
-7.46795442E+00
 20
4.25607286E+01
 11
1.00320459E+01
 21
4.25607286E+01
  0
LINE
  8
0
  6
PHANTOM
 62
6
 10
-1.22509717E+00
 20
3.83035857E+01
 11
3.77490291E+00
 21
3.83035857E+01
  0
LINE
  8
0
  6
PHANTOM
 62
6
 10
1.42749031E+01
 20
-4.74392729E+01
 11
1.42749031E+01
 21
-4.42392729E+01
  0
LINE
  8
0
  6
PHANTOM
 62
6
 10
1.03749030E+01
 20
-4.74392729E+01
 11
1.42749031E+01
 21
-4.74392729E+01
  0
LINE
  8
0
  6
PHANTOM
 62
6
 10
-3.37393834E+01
 20
5.25607288E+01
 11
9.27490301E+00
 21
5.25607288E+01
  0
LINE
  8
0
 62
7
 10
-1.47250974E+01
 20
3.67607285E+01
 11
-1.47250974E+01
 21
3.57607285E+01
  0
ARC
  8
0
 62
7
 10
-4.07179550E+01
 20
5.69607454E+01
 40
6.95013215E+00
 50
3.53173297E-01
 51
1.79646827E+02
  0
ARC
  8
0
 62
7
 10
-6.02250960E+01
 20
-2.12392747E+01
 40
4.99997829E-01
 50
2.70000000E+02
 51
2.49777252E-04
  0
ARC
  8
0
 62
7
 10
7.74900683E-01
 20
-2.12392747E+01
 40
4.99997829E-01
 50
1.79999750E+02
 51
2.70000000E+02
  0
ARC
  8
0
 62
7
 10
-5.87251025E+01
 20
-1.52392680E+01
 40
9.99995657E-01
 50
9.00000002E+01
 51
1.80000250E+02
  0
ARC
  8
0
 62
7
 10
-7.25103702E-01
 20
-1.52392789E+01
 40
1.00000656E+00
 50
3.74685616E-04
 51
9.00000002E+01
  0
ARC
  8
0
 62
7
 10
1.42748966E+01
 20
-2.27392791E+01
 40
1.00000656E+00
 50
3.74685616E-04
 51
9.00000002E+01
  0
ARC
  8
0
 62
7
 10
-7.37251028E+01
 20
-2.27392682E+01
 40
9.99995657E-01
 50
9.00000002E+01
 51
1.80000250E+02
  0
ARC
  8
0
 62
7
 10
-7.37251028E+01
 20
-1.52392680E+01
 40
9.99995657E-01
 50
9.00000002E+01
 51
1.80000250E+02
  0
ARC
  8
0
 62
7
 10
1.42748966E+01
 20
-1.52392789E+01
 40
1.00000656E+00
 50
3.74685616E-04
 51
9.00000002E+01
  0
ARC
  8
0
 62
7
 10
-5.52250894E+01
 20
3.67607198E+01
 40
9.99991298E-01
 50
2.70000000E+02
 51
4.99583362E-04
  0
ARC
  8
0
 62
7
 10
-7.37250919E+01
 20
-4.32392663E+01
 40
1.00000656E+00
 50
1.80000375E+02
 51
2.70000000E+02
  0
ARC
  8
0
 62
7
 10
1.42749075E+01
 20
-4.32392772E+01
 40
9.99995657E-01
 50
2.70000000E+02
 51
2.49790864E-04
  0
ARC
  8
0
 62
7
 10
-7.08724575E+01
 20
-4.52443275E+01
 40
1.00506469E+00
 50
1.91727839E+00
 51
8.97433523E+01
  0
ARC
  8
0
 62
7
 10
1.14295907E+01
 20
-4.52371656E+01
 40
9.97895749E-01
 50
8.98590279E+01
 51
1.78480341E+02
  0
ARC
  8
0
  6
PHANTOM
 62
6
 10
-5.82285579E+01
 20
4.25582856E+01
 40
4.25470135E+00
 50
2.70046591E+02
 51
3.40211657E+02
  0
ARC
  8
0
  6
PHANTOM
 62
6
 10
-6.32250982E+01
 20
4.25535857E+01
 40
4.25000007E+00
 50
9.00000002E+01
 51
2.70000000E+02
  0
ARC
  8
0
  6
PHANTOM
 62
6
 10
3.77490291E+00
 20
4.25535857E+01
 40
4.25000007E+00
 50
2.70000000E+02
 51
9.00000002E+01
  0
ARC
  8
0
  6
PHANTOM
 62
6
 10
-1.22509717E+00
 20
4.25535857E+01
 40
4.25000007E+00
 50
9.00000002E+01
 51
2.70000000E+02
  0
ARC
  8
0
  6
PHANTOM
 62
6
 10
-5.82241874E+01
 20
4.25602434E+01
 40
4.24334251E+00
 50
3.44513466E+01
 51
9.00000002E+01
  0
LINE
  8
0
 62
7
 10
-4.81393837E+01
 20
-1.88439275E+02
 11
-1.12965259E+01
 21
-1.88439275E+02
  0
LINE
  8
0
 62
7
 10
-4.96822409E+01
 20
-1.70939275E+02
 11
-5.65822410E+01
 21
-1.70939275E+02
  0
LINE
  8
0
 62
7
 10
-4.96822409E+01
 20
-1.34939274E+02
 11
-5.65822410E+01
 21
-1.34939274E+02
  0
LINE
  8
0
 62
7
 10
-4.96822409E+01
 20
-1.28939274E+02
 11
-5.65822410E+01
 21
-1.28939274E+02
  0
LINE
  8
0
 62
7
 10
-5.65822410E+01
 20
-9.49392737E+01
 11
-4.96822409E+01
 21
-9.49392737E+01
  0
LINE
  8
0
 62
7
 10
3.70347434E+00
 20
-1.73567847E+02
 11
4.43204578E+00
 21
-8.92392736E+01
  0
LINE
  8
0
 62
7
 10
-6.31393839E+01
 20
-1.73567847E+02
 11
-6.36108125E+01
 21
-1.19139274E+02
  0
LINE
  8
0
 62
7
 10
-5.47536695E+01
 20
-9.54392738E+01
 11
-4.96822409E+01
 21
-9.54392738E+01
  0
LINE
  8
0
 62
7
 10
-4.96822409E+01
 20
-1.35439274E+02
 11
-5.47536695E+01
 21
-1.35439274E+02
  0
LINE
  8
0
 62
7
 10
-4.96822409E+01
 20
-1.28439274E+02
 11
-5.47536695E+01
 21
-1.28439274E+02
  0
LINE
  8
0
 62
7
 10
-4.96822409E+01
 20
-1.70439275E+02
 11
-5.47536695E+01
 21
-1.70439275E+02
  0
LINE
  8
0
 62
7
 10
-5.75822410E+01
 20
-1.35939274E+02
 11
-5.75822410E+01
 21
-1.69939275E+02
  0
LINE
  8
0
 62
7
 10
-5.57536695E+01
 20
-1.36439274E+02
 11
-5.57536695E+01
 21
-1.69439275E+02
  0
LINE
  8
0
 62
7
 10
-4.86822408E+01
 20
-1.35939274E+02
 11
-4.86822408E+01
 21
-1.69939275E+02
  0
LINE
  8
0
 62
7
 10
-4.92965266E+01
 20
-1.71439275E+02
 11
-5.68393838E+01
 21
-1.71439275E+02
  0
LINE
  8
0
 62
7
 10
-4.92965266E+01
 20
-1.71939275E+02
 11
-5.74393838E+01
 21
-1.71939275E+02
  0
LINE
  8
0
 62
7
 10
-5.68393838E+01
 20
-9.44392737E+01
 11
-4.92965266E+01
 21
-9.44392737E+01
  0
LINE
  8
0
 62
7
 10
-5.74393838E+01
 20
-9.39392737E+01
 11
-4.92965266E+01
 21
-9.39392737E+01
  0
LINE
  8
0
 62
7
 10
-4.82965265E+01
 20
-9.49392737E+01
 11
-4.82965265E+01
 21
-1.70939275E+02
  0
LINE
  8
0
 62
7
 10
-4.86822408E+01
 20
-9.59392738E+01
 11
-4.86822408E+01
 21
-1.27939274E+02
  0
LINE
  8
0
 62
7
 10
-5.57536695E+01
 20
-9.64392738E+01
 11
-5.57536695E+01
 21
-1.27439274E+02
  0
LINE
  8
0
 62
7
 10
-5.75822410E+01
 20
-9.59392738E+01
 11
-5.75822410E+01
 21
-1.27939274E+02
  0
LINE
  8
0
 62
7
 10
-5.78393838E+01
 20
-9.54392738E+01
 11
-5.78393838E+01
 21
-1.70439275E+02
  0
LINE
  8
0
 62
7
 10
-5.84393839E+01
 20
-9.49392737E+01
 11
-5.84393839E+01
 21
-1.70939275E+02
  0
LINE
  8
0
 62
7
 10
-9.76795446E+00
 20
-1.70939275E+02
 11
-2.85366863E+00
 21
-1.70939275E+02
  0
LINE
  8
0
 62
7
 10
-9.76795446E+00
 20
-1.34939274E+02
 11
-2.85366863E+00
 21
-1.34939274E+02
  0
LINE
  8
0
 62
7
 10
-9.76795446E+00
 20
-1.28939274E+02
 11
-2.85366863E+00
 21
-1.28939274E+02
  0
LINE
  8
0
 62
7
 10
-2.85366863E+00
 20
-9.49392737E+01
 11
-9.76795446E+00
 21
-9.49392737E+01
  0
LINE
  8
0
 62
7
 10
-4.69652580E+00
 20
-9.54392738E+01
 11
-9.76795446E+00
 21
-9.54392738E+01
  0
LINE
  8
0
 62
7
 10
-9.76795446E+00
 20
-1.35439274E+02
 11
-4.69652580E+00
 21
-1.35439274E+02
  0
LINE
  8
0
 62
7
 10
-9.76795446E+00
 20
-1.28439274E+02
 11
-4.69652580E+00
 21
-1.28439274E+02
  0
LINE
  8
0
 62
7
 10
-9.76795446E+00
 20
-1.70439275E+02
 11
-4.69652580E+00
 21
-1.70439275E+02
  0
LINE
  8
0
 62
7
 10
-1.85366861E+00
 20
-1.35939274E+02
 11
-1.85366861E+00
 21
-1.69939275E+02
  0
LINE
  8
0
 62
7
 10
-3.69652578E+00
 20
-1.36439274E+02
 11
-3.69652578E+00
 21
-1.69439275E+02
  0
LINE
  8
0
 62
7
 10
-1.07679545E+01
 20
-1.35939274E+02
 11
-1.07679545E+01
 21
-1.69939275E+02
  0
LINE
  8
0
 62
7
 10
-1.01393830E+01
 20
-1.71439275E+02
 11
-2.59652577E+00
 21
-1.71439275E+02
  0
LINE
  8
0
 62
7
 10
-1.01393830E+01
 20
-1.71939275E+02
 11
-1.99652576E+00
 21
-1.71939275E+02
  0
LINE
  8
0
 62
7
 10
-2.59652577E+00
 20
-9.44392737E+01
 11
-1.01393830E+01
 21
-9.44392737E+01
  0
LINE
  8
0
 62
7
 10
-1.99652576E+00
 20
-9.39392737E+01
 11
-1.01393830E+01
 21
-9.39392737E+01
  0
LINE
  8
0
 62
7
 10
-1.11393831E+01
 20
-9.49392737E+01
 11
-1.11393831E+01
 21
-1.70939275E+02
  0
LINE
  8
0
 62
7
 10
-1.07679545E+01
 20
-9.59392738E+01
 11
-1.07679545E+01
 21
-1.27939274E+02
  0
LINE
  8
0
 62
7
 10
-3.69652578E+00
 20
-9.64392738E+01
 11
-3.69652578E+00
 21
-1.27439274E+02
  0
LINE
  8
0
 62
7
 10
-1.85366861E+00
 20
-9.59392738E+01
 11
-1.85366861E+00
 21
-1.27939274E+02
  0
LINE
  8
0
 62
7
 10
-1.59652575E+00
 20
-9.54392738E+01
 11
-1.59652575E+00
 21
-1.70439275E+02
  0
LINE
  8
0
 62
7
 10
-9.96525738E-01
 20
-9.49392737E+01
 11
-9.96525738E-01
 21
-1.70939275E+02
  0
LINE
  8
0
 62
7
 10
-6.36108125E+01
 20
-1.19139274E+02
 11
-6.63965269E+01
 21
-1.15153560E+02
  0
LINE
  8
0
 62
7
 10
-6.64393840E+01
 20
-1.14982131E+02
 11
-6.65250983E+01
 21
-1.05639274E+02
  0
LINE
  8
0
 62
7
 10
-6.37679554E+01
 20
-1.01310702E+02
 11
-6.65250983E+01
 21
-1.05639274E+02
  0
LINE
  8
0
 62
7
 10
-6.37679554E+01
 20
-1.01310702E+02
 11
-6.38679554E+01
 21
-8.92392736E+01
  0
LINE
  8
0
 62
7
 10
-6.71250983E+01
 20
-9.17535594E+01
 11
-6.65822411E+01
 21
-1.13753560E+02
  0
LINE
  8
0
 62
7
 10
-6.66393840E+01
 20
-9.12392737E+01
 11
-6.55536697E+01
 21
-9.12107023E+01
  0
LINE
  8
0
 62
7
 10
-6.65822411E+01
 20
-1.13753560E+02
 11
-6.64536697E+01
 21
-1.13867845E+02
  0
LINE
  8
0
 62
7
 10
-6.71250983E+01
 20
-9.17535594E+01
 11
-6.66393840E+01
 21
-9.12392737E+01
  0
LINE
  8
0
 62
7
 10
-6.61822411E+01
 20
-8.92392736E+01
 11
-6.61393840E+01
 21
-9.12249880E+01
  0
LINE
  8
0
 62
7
 10
-6.56108126E+01
 20
-8.92392736E+01
 11
-6.55536697E+01
 21
-9.12107023E+01
  0
LINE
  8
0
 62
7
 10
-6.66393840E+01
 20
-9.12392737E+01
 11
-6.62965269E+01
 21
-1.05267845E+02
  0
ARC
  8
0
 62
7
 10
-4.81403542E+01
 20
-1.73439698E+02
 40
1.49995771E+01
 50
1.80489510E+02
 51
2.70000000E+02
  0
ARC
  8
0
 62
7
 10
-1.13026274E+01
 20
-1.73432565E+02
 40
1.50067115E+01
 50
2.70023296E+02
 51
3.59483487E+02
  0
ARC
  8
0
 62
7
 10
-5.47534921E+01
 20
-1.36439452E+02
 40
1.00017749E+00
 50
9.00000002E+01
 51
1.79989834E+02
  0
ARC
  8
0
 62
7
 10
-4.96822151E+01
 20
-1.36439249E+02
 40
9.99974295E-01
 50
3.59998526E+02
 51
9.00000002E+01
  0
ARC
  8
0
 62
7
 10
-4.96822217E+01
 20
-1.35939255E+02
 40
9.99980835E-01
 50
3.59998901E+02
 51
9.00000002E+01
  0
ARC
  8
0
 62
7
 10
-4.96822531E+01
 20
-1.69439263E+02
 40
1.00001222E+00
 50
2.70000000E+02
 51
3.59999301E+02
  0
ARC
  8
0
 62
7
 10
-4.96822487E+01
 20
-1.69939267E+02
 40
1.00000786E+00
 50
2.70000000E+02
 51
3.59999550E+02
  0
ARC
  8
0
 62
7
 10
-4.92976502E+01
 20
-1.70438151E+02
 40
1.00112427E+00
 50
2.70064306E+02
 51
3.59935693E+02
  0
ARC
  8
0
 62
7
 10
-4.92976458E+01
 20
-1.70938156E+02
 40
1.00111991E+00
 50
2.70064058E+02
 51
3.59935942E+02
  0
ARC
  8
0
 62
7
 10
-5.47534541E+01
 20
-1.69439060E+02
 40
1.00021542E+00
 50
1.80012338E+02
 51
2.70000000E+02
  0
ARC
  8
0
 62
7
 10
-5.65848973E+01
 20
-1.35936618E+02
 40
9.97347218E-01
 50
8.98473980E+01
 51
1.80152602E+02
  0
ARC
  8
0
 62
7
 10
-5.65848702E+01
 20
-1.69941904E+02
 40
9.97374248E-01
 50
1.79848959E+02
 51
2.70151041E+02
  0
ARC
  8
0
 62
7
 10
-5.68419904E+01
 20
-1.70441882E+02
 40
9.97396833E-01
 50
1.79850264E+02
 51
2.70149737E+02
  0
ARC
  8
0
 62
7
 10
-5.74406556E+01
 20
-1.70940547E+02
 40
9.98729105E-01
 50
1.79927043E+02
 51
2.70072957E+02
  0
ARC
  8
0
 62
7
 10
-4.96822151E+01
 20
-9.64392480E+01
 40
9.99974295E-01
 50
3.59998526E+02
 51
9.00000002E+01
  0
ARC
  8
0
 62
7
 10
-4.96822217E+01
 20
-9.59392546E+01
 40
9.99980835E-01
 50
3.59998901E+02
 51
9.00000002E+01
  0
ARC
  8
0
 62
7
 10
-4.92976123E+01
 20
-9.54403595E+01
 40
1.00108634E+00
 50
6.21406161E-02
 51
8.99378595E+01
  0
ARC
  8
0
 62
7
 10
-4.92976079E+01
 20
-9.49403551E+01
 40
1.00108198E+00
 50
6.18916447E-02
 51
8.99381081E+01
  0
ARC
  8
0
 62
7
 10
-5.47534921E+01
 20
-9.64394512E+01
 40
1.00017749E+00
 50
9.00000002E+01
 51
1.79989834E+02
  0
ARC
  8
0
 62
7
 10
-5.65848973E+01
 20
-9.59366174E+01
 40
9.97347218E-01
 50
8.98473980E+01
 51
1.80152602E+02
  0
ARC
  8
0
 62
7
 10
-5.68420285E+01
 20
-9.54366291E+01
 40
9.97358904E-01
 50
8.98480730E+01
 51
1.80151927E+02
  0
ARC
  8
0
 62
7
 10
-5.74406935E+01
 20
-9.49379640E+01
 40
9.98691176E-01
 50
8.99248614E+01
 51
1.80075139E+02
  0
ARC
  8
0
 62
7
 10
-4.96822487E+01
 20
-1.27439266E+02
 40
1.00000786E+00
 50
2.70000000E+02
 51
3.59999550E+02
  0
ARC
  8
0
 62
7
 10
-4.96822443E+01
 20
-1.27939271E+02
 40
1.00000351E+00
 50
2.70000000E+02
 51
3.59999800E+02
  0
ARC
  8
0
 62
7
 10
-5.47534585E+01
 20
-1.27439063E+02
 40
1.00021106E+00
 50
1.80012088E+02
 51
2.70000000E+02
  0
ARC
  8
0
 62
7
 10
-5.65848746E+01
 20
-1.27941908E+02
 40
9.97369888E-01
 50
1.79848707E+02
 51
2.70151292E+02
  0
ARC
  8
0
 62
7
 10
-4.69668146E+00
 20
-1.36439430E+02
 40
1.00015569E+00
 50
8.91710901E-03
 51
9.00000002E+01
  0
ARC
  8
0
 62
7
 10
-9.76795838E+00
 20
-1.36439271E+02
 40
9.99996094E-01
 50
9.00000002E+01
 51
1.80000225E+02
  0
ARC
  8
0
 62
7
 10
-9.76795184E+00
 20
-1.35939277E+02
 40
1.00000263E+00
 50
9.00000002E+01
 51
1.79999850E+02
  0
ARC
  8
0
 62
7
 10
-9.76792045E+00
 20
-1.69439241E+02
 40
1.00003402E+00
 50
1.80001948E+02
 51
2.70000000E+02
  0
ARC
  8
0
 62
7
 10
-9.76792481E+00
 20
-1.69939245E+02
 40
1.00002966E+00
 50
1.80001699E+02
 51
2.70000000E+02
  0
ARC
  8
0
 62
7
 10
-1.01453628E+01
 20
-1.70445255E+02
 40
9.94038272E-01
 50
1.79655330E+02
 51
2.70344670E+02
  0
ARC
  8
0
 62
7
 10
-1.01453672E+01
 20
-1.70945259E+02
 40
9.94033913E-01
 50
1.79655075E+02
 51
2.70344925E+02
  0
ARC
  8
0
 62
7
 10
-4.69671938E+00
 20
-1.69439081E+02
 40
1.00019362E+00
 50
2.70000000E+02
 51
3.59988911E+02
  0
ARC
  8
0
 62
7
 10
-2.85813989E+00
 20
-1.35943746E+02
 40
1.00448124E+00
 50
2.55042662E-01
 51
8.97449572E+01
  0
ARC
  8
0
 62
7
 10
-2.85816680E+00
 20
-1.69934777E+02
 40
1.00450826E+00
 50
2.70256570E+02
 51
3.59743429E+02
  0
ARC
  8
0
 62
7
 10
-2.60104665E+00
 20
-1.70434754E+02
 40
1.00453108E+00
 50
2.70257860E+02
 51
3.59742140E+02
  0
ARC
  8
0
 62
7
 10
-2.00239110E+00
 20
-1.70933410E+02
 40
1.00588246E+00
 50
2.70334096E+02
 51
3.59665904E+02
  0
ARC
  8
0
 62
7
 10
-9.76795838E+00
 20
-9.64392698E+01
 40
9.99996094E-01
 50
9.00000002E+01
 51
1.80000225E+02
  0
ARC
  8
0
 62
7
 10
-9.76795184E+00
 20
-9.59392764E+01
 40
1.00000263E+00
 50
9.00000002E+01
 51
1.79999850E+02
  0
ARC
  8
0
 62
7
 10
-1.01454009E+01
 20
-9.54332559E+01
 40
9.94000345E-01
 50
8.96531172E+01
 51
1.80346883E+02
  0
ARC
  8
0
 62
7
 10
-1.01454053E+01
 20
-9.49332515E+01
 40
9.93995986E-01
 50
8.96528628E+01
 51
1.80347137E+02
  0
ARC
  8
0
 62
7
 10
-4.69668146E+00
 20
-9.64394294E+01
 40
1.00015569E+00
 50
8.91710901E-03
 51
9.00000002E+01
  0
ARC
  8
0
 62
7
 10
-2.85813989E+00
 20
-9.59437450E+01
 40
1.00448124E+00
 50
2.55042662E-01
 51
8.97449572E+01
  0
ARC
  8
0
 62
7
 10
-2.60100890E+00
 20
-9.54437569E+01
 40
1.00449315E+00
 50
2.55716306E-01
 51
8.97442840E+01
  0
ARC
  8
0
 62
7
 10
-2.00235339E+00
 20
-9.49451014E+01
 40
1.00584453E+00
 50
3.31960643E-01
 51
8.96680393E+01
  0
ARC
  8
0
 62
7
 10
-9.76792481E+00
 20
-1.27439245E+02
 40
1.00002966E+00
 50
1.80001699E+02
 51
2.70000000E+02
  0
ARC
  8
0
 62
7
 10
-9.76792917E+00
 20
-1.27939249E+02
 40
1.00002530E+00
 50
1.80001449E+02
 51
2.70000000E+02
  0
ARC
  8
0
 62
7
 10
-4.69671502E+00
 20
-1.27439085E+02
 40
1.00018926E+00
 50
2.70000000E+02
 51
3.59989160E+02
  0
ARC
  8
0
 62
7
 10
-2.85816246E+00
 20
-1.27934780E+02
 40
1.00450390E+00
 50
2.70256324E+02
 51
3.59743676E+02
  0
ARC
  8
0
 62
7
 10
-6.61485221E+01
 20
-1.15000487E+02
 40
2.91440540E-01
 50
1.76388920E+02
 51
2.11683568E+02
  0
POLYLINE
  8
0
 62
7
 66
1
  0
VERTEX
  8
0
 62
7
 10
-6.37679554E+01
 20
-1.01310702E+02
  0
VERTEX
  8
0
 62
7
 10
-6.35483759E+01
 20
-1.02074000E+02
  0
VERTEX
  8
0
 62
7
 10
-6.33467327E+01
 20
-1.02843014E+02
  0
VERTEX
  8
0
 62
7
 10
-6.31634073E+01
 20
-1.03617231E+02
  0
VERTEX
  8
0
 62
7
 10
-6.29987817E+01
 20
-1.04396137E+02
  0
VERTEX
  8
0
 62
7
 10
-6.28532375E+01
 20
-1.05179218E+02
  0
VERTEX
  8
0
 62
7
 10
-6.27271564E+01
 20
-1.05965962E+02
  0
VERTEX
  8
0
 62
7
 10
-6.26209201E+01
 20
-1.06755853E+02
  0
VERTEX
  8
0
 62
7
 10
-6.25349106E+01
 20
-1.07548378E+02
  0
VERTEX
  8
0
 62
7
 10
-6.24695093E+01
 20
-1.08343023E+02
  0
VERTEX
  8
0
 62
7
 10
-6.24250982E+01
 20
-1.09139274E+02
  0
VERTEX
  8
0
 62
7
 10
-6.23992721E+01
 20
-1.10150307E+02
  0
VERTEX
  8
0
 62
7
 10
-6.24070821E+01
 20
-1.11162036E+02
  0
VERTEX
  8
0
 62
7
 10
-6.24479478E+01
 20
-1.12173281E+02
  0
VERTEX
  8
0
 62
7
 10
-6.25212887E+01
 20
-1.13182861E+02
  0
VERTEX
  8
0
 62
7
 10
-6.26265245E+01
 20
-1.14189596E+02
  0
VERTEX
  8
0
 62
7
 10
-6.27630748E+01
 20
-1.15192305E+02
  0
VERTEX
  8
0
 62
7
 10
-6.29303591E+01
 20
-1.16189807E+02
  0
VERTEX
  8
0
 62
7
 10
-6.31277971E+01
 20
-1.17180923E+02
  0
VERTEX
  8
0
 62
7
 10
-6.33548084E+01
 20
-1.18164473E+02
  0
VERTEX
  8
0
 62
7
 10
-6.36108125E+01
 20
-1.19139274E+02
  0
SEQEND
  8
0
  0
LINE
  8
0
  6
CENTER
 62
2
 10
1.20274906E+02
 20
4.17607286E+01
 11
1.20274906E+02
 21
-1.92939275E+02
  0
LINE
  8
0
 62
7
 10
8.22891908E+01
 20
-8.92392736E+01
 11
1.58246335E+02
 21
-8.92392736E+01
  0
LINE
  8
0
 62
7
 10
8.12463337E+01
 20
-8.82392736E+01
 11
8.22891908E+01
 21
-8.92392736E+01
  0
LINE
  8
0
 62
7
 10
1.59289192E+02
 20
-8.82392736E+01
 11
1.58246335E+02
 21
-8.92392736E+01
  0
LINE
  8
0
 62
7
 10
8.12463337E+01
 20
-8.82392736E+01
 11
1.59289192E+02
 21
-8.82392736E+01
  0
LINE
  8
0
 62
7
 10
7.52749050E+01
 20
-2.92392726E+01
 11
1.65274907E+02
 21
-2.92392726E+01
  0
LINE
  8
0
 62
7
 10
8.07749051E+01
 20
3.57607285E+01
 11
1.59774906E+02
 21
3.57607285E+01
  0
LINE
  8
0
 62
7
 10
7.62749050E+01
 20
-1.42392724E+01
 11
9.57749053E+01
 21
-1.42392724E+01
  0
LINE
  8
0
 62
7
 10
9.52749053E+01
 20
3.42607285E+01
 11
9.52749053E+01
 21
-1.42392724E+01
  0
LINE
  8
0
 62
7
 10
1.45274906E+02
 20
3.42607285E+01
 11
1.45274906E+02
 21
-1.42392724E+01
  0
LINE
  8
0
 62
7
 10
1.65274907E+02
 20
-1.52392724E+01
 11
1.65274907E+02
 21
-2.92392726E+01
  0
LINE
  8
0
 62
7
 10
7.52749050E+01
 20
-1.52392724E+01
 11
7.52749050E+01
 21
-2.92392726E+01
  0
LINE
  8
0
 62
7
 10
9.67749053E+01
 20
3.57607285E+01
 11
9.52749053E+01
 21
3.42607285E+01
  0
LINE
  8
0
  6
CENTER
 62
2
 10
7.32891907E+01
 20
1.07607281E+01
 11
1.67246335E+02
 21
1.07607281E+01
  0
LINE
  8
0
 62
2
 10
1.57274906E+02
 20
-1.12392723E+01
 11
1.57274906E+02
 21
-2.47392725E+01
  0
LINE
  8
0
  6
CENTER
 62
2
 10
8.32749051E+01
 20
-1.12392723E+01
 11
8.32749051E+01
 21
-2.47392725E+01
  0
LINE
  8
0
 62
7
 10
7.62749050E+01
 20
-2.17392725E+01
 11
8.97749052E+01
 21
-2.17392725E+01
  0
LINE
  8
0
 62
7
 10
1.50774906E+02
 20
-2.17392725E+01
 11
1.64274906E+02
 21
-2.17392725E+01
  0
LINE
  8
0
 62
7
 10
9.02749052E+01
 20
-1.52392724E+01
 11
9.02749052E+01
 21
-2.12392725E+01
  0
LINE
  8
0
 62
7
 10
1.50274906E+02
 20
-1.52392724E+01
 11
1.50274906E+02
 21
-2.12392725E+01
  0
LINE
  8
0
  6
CENTER
 62
2
 10
1.39274906E+02
 20
6.69035862E+01
 11
1.39274906E+02
 21
3.27607284E+01
  0
LINE
  8
0
 62
7
 10
1.25774906E+02
 20
4.18607286E+01
 11
1.25774906E+02
 21
3.67607285E+01
  0
LINE
  8
0
 62
7
 10
1.53274906E+02
 20
4.18607286E+01
 11
1.25274906E+02
 21
4.18607286E+01
  0
LINE
  8
0
 62
7
 10
1.25274906E+02
 20
4.88607287E+01
 11
1.25274906E+02
 21
4.18607286E+01
  0
LINE
  8
0
 62
7
 10
1.53274906E+02
 20
4.88607287E+01
 11
1.53274906E+02
 21
4.18607286E+01
  0
LINE
  8
0
 62
7
 10
1.26274906E+02
 20
4.98607287E+01
 11
1.25274906E+02
 21
4.88607287E+01
  0
LINE
  8
0
 62
7
 10
1.53274906E+02
 20
4.88607287E+01
 11
1.52274906E+02
 21
4.98607287E+01
  0
LINE
  8
0
 62
7
 10
1.52274906E+02
 20
4.98607287E+01
 11
1.26274906E+02
 21
4.98607287E+01
  0
LINE
  8
0
 62
7
 10
1.32074906E+02
 20
5.07607287E+01
 11
1.32074906E+02
 21
4.98607287E+01
  0
LINE
  8
0
 62
7
 10
1.46474906E+02
 20
5.07607287E+01
 11
1.46474906E+02
 21
4.98607287E+01
  0
LINE
  8
0
 62
7
 10
1.32274906E+02
 20
5.07607287E+01
 11
1.32317763E+02
 21
5.70035860E+01
  0
LINE
  8
0
 62
7
 10
1.46274906E+02
 20
5.07607287E+01
 11
1.46217763E+02
 21
5.70035860E+01
  0
LINE
  8
0
 62
7
 10
1.46474906E+02
 20
5.07607287E+01
 11
1.32074906E+02
 21
5.07607287E+01
  0
LINE
  8
0
 62
7
 10
1.37774906E+02
 20
4.38607286E+01
 11
1.33603477E+02
 21
4.38607286E+01
  0
LINE
  8
0
 62
7
 10
1.37632049E+02
 20
4.41464429E+01
 11
1.33989192E+02
 21
4.41464429E+01
  0
LINE
  8
0
 62
7
 10
1.25346334E+02
 20
4.88607287E+01
 11
1.25346334E+02
 21
4.38607286E+01
  0
LINE
  8
0
 62
7
 10
1.25874906E+02
 20
4.93607287E+01
 11
1.25874906E+02
 21
4.41464429E+01
  0
LINE
  8
0
 62
7
 10
1.26460620E+02
 20
4.88607287E+01
 11
1.26460620E+02
 21
4.38607286E+01
  0
LINE
  8
0
 62
7
 10
1.27960620E+02
 20
4.88607287E+01
 11
1.27960620E+02
 21
4.38607286E+01
  0
LINE
  8
0
 62
7
 10
1.28489192E+02
 20
4.93607287E+01
 11
1.28489192E+02
 21
4.41464429E+01
  0
LINE
  8
0
 62
7
 10
1.31003477E+02
 20
4.88607287E+01
 11
1.31003477E+02
 21
4.38607286E+01
  0
LINE
  8
0
 62
7
 10
1.33603477E+02
 20
4.88607287E+01
 11
1.33603477E+02
 21
4.38607286E+01
  0
LINE
  8
0
 62
7
 10
1.33989192E+02
 20
4.93607287E+01
 11
1.33989192E+02
 21
4.41464429E+01
  0
LINE
  8
0
 62
7
 10
1.37632049E+02
 20
4.93607287E+01
 11
1.37632049E+02
 21
4.41464429E+01
  0
LINE
  8
0
 62
7
 10
1.37774906E+02
 20
4.88607287E+01
 11
1.37774906E+02
 21
4.38607286E+01
  0
LINE
  8
0
 62
7
 10
1.40774906E+02
 20
4.88607287E+01
 11
1.37774906E+02
 21
4.88607287E+01
  0
LINE
  8
0
 62
7
 10
1.37632049E+02
 20
4.93607287E+01
 11
1.33989192E+02
 21
4.93607287E+01
  0
LINE
  8
0
 62
7
 10
1.33603477E+02
 20
4.88607287E+01
 11
1.31003477E+02
 21
4.88607287E+01
  0
LINE
  8
0
 62
7
 10
1.27960620E+02
 20
4.88607287E+01
 11
1.26460620E+02
 21
4.88607287E+01
  0
LINE
  8
0
 62
7
 10
1.31003477E+02
 20
4.41464429E+01
 11
1.28489192E+02
 21
4.41464429E+01
  0
LINE
  8
0
 62
7
 10
1.26460620E+02
 20
4.41464429E+01
 11
1.25874906E+02
 21
4.41464429E+01
  0
LINE
  8
0
 62
7
 10
1.31146335E+02
 20
4.93607287E+01
 11
1.28489192E+02
 21
4.93607287E+01
  0
LINE
  8
0
 62
7
 10
1.37774906E+02
 20
4.88607287E+01
 11
1.37632049E+02
 21
4.93607287E+01
  0
LINE
  8
0
 62
7
 10
1.37632049E+02
 20
4.41464429E+01
 11
1.37774906E+02
 21
4.38607286E+01
  0
LINE
  8
0
 62
7
 10
1.33603477E+02
 20
4.88607287E+01
 11
1.33989192E+02
 21
4.93607287E+01
  0
LINE
  8
0
 62
7
 10
1.33989192E+02
 20
4.41464429E+01
 11
1.33603477E+02
 21
4.38607286E+01
  0
LINE
  8
0
 62
7
 10
1.31003477E+02
 20
4.88607287E+01
 11
1.31146335E+02
 21
4.93607287E+01
  0
LINE
  8
0
 62
7
 10
1.28489192E+02
 20
4.41464429E+01
 11
1.27960620E+02
 21
4.38607286E+01
  0
LINE
  8
0
 62
7
 10
1.26460620E+02
 20
4.88607287E+01
 11
1.26846334E+02
 21
4.93607287E+01
  0
LINE
  8
0
 62
7
 10
1.27960620E+02
 20
4.88607287E+01
 11
1.28489192E+02
 21
4.93607287E+01
  0
LINE
  8
0
 62
7
 10
1.26846334E+02
 20
4.93607287E+01
 11
1.25874906E+02
 21
4.93607287E+01
  0
LINE
  8
0
 62
7
 10
1.31003477E+02
 20
4.38607286E+01
 11
1.27960620E+02
 21
4.38607286E+01
  0
LINE
  8
0
 62
7
 10
1.26432049E+02
 20
4.38607286E+01
 11
1.25346334E+02
 21
4.38607286E+01
  0
LINE
  8
0
 62
7
 10
1.25874906E+02
 20
4.41464429E+01
 11
1.25346334E+02
 21
4.38607286E+01
  0
LINE
  8
0
 62
7
 10
1.25346334E+02
 20
4.88607287E+01
 11
1.25274906E+02
 21
4.88607287E+01
  0
LINE
  8
0
 62
7
 10
1.25346334E+02
 20
4.88607287E+01
 11
1.25874906E+02
 21
4.93607287E+01
  0
LINE
  8
0
 62
7
 10
1.40774906E+02
 20
4.38607286E+01
 11
1.44932049E+02
 21
4.38607286E+01
  0
LINE
  8
0
 62
7
 10
1.40903478E+02
 20
4.41464429E+01
 11
1.44546335E+02
 21
4.41464429E+01
  0
LINE
  8
0
 62
7
 10
1.53189192E+02
 20
4.88607287E+01
 11
1.53189192E+02
 21
4.38607286E+01
  0
LINE
  8
0
 62
7
 10
1.52674906E+02
 20
4.93607287E+01
 11
1.52674906E+02
 21
4.41464429E+01
  0
LINE
  8
0
 62
7
 10
1.52074906E+02
 20
4.88607287E+01
 11
1.52074906E+02
 21
4.38607286E+01
  0
LINE
  8
0
 62
7
 10
1.50574906E+02
 20
4.88607287E+01
 11
1.50574906E+02
 21
4.38607286E+01
  0
LINE
  8
0
 62
7
 10
1.50060621E+02
 20
4.93607287E+01
 11
1.50060621E+02
 21
4.41464429E+01
  0
LINE
  8
0
 62
7
 10
1.47532049E+02
 20
4.88607287E+01
 11
1.47532049E+02
 21
4.38607286E+01
  0
LINE
  8
0
 62
7
 10
1.44932049E+02
 20
4.88607287E+01
 11
1.44932049E+02
 21
4.38607286E+01
  0
LINE
  8
0
 62
7
 10
1.44546335E+02
 20
4.93607287E+01
 11
1.44546335E+02
 21
4.41464429E+01
  0
LINE
  8
0
 62
7
 10
1.40903478E+02
 20
4.93607287E+01
 11
1.40903478E+02
 21
4.41464429E+01
  0
LINE
  8
0
 62
7
 10
1.40774906E+02
 20
4.88607287E+01
 11
1.40774906E+02
 21
4.38607286E+01
  0
LINE
  8
0
 62
7
 10
1.40903478E+02
 20
4.93607287E+01
 11
1.44546335E+02
 21
4.93607287E+01
  0
LINE
  8
0
 62
7
 10
1.44932049E+02
 20
4.88607287E+01
 11
1.47532049E+02
 21
4.88607287E+01
  0
LINE
  8
0
 62
7
 10
1.50574906E+02
 20
4.88607287E+01
 11
1.52074906E+02
 21
4.88607287E+01
  0
LINE
  8
0
 62
7
 10
1.47532049E+02
 20
4.41464429E+01
 11
1.50060621E+02
 21
4.41464429E+01
  0
LINE
  8
0
 62
7
 10
1.52074906E+02
 20
4.41464429E+01
 11
1.52674906E+02
 21
4.41464429E+01
  0
LINE
  8
0
 62
7
 10
1.47389192E+02
 20
4.93607287E+01
 11
1.50060621E+02
 21
4.93607287E+01
  0
LINE
  8
0
 62
7
 10
1.40774906E+02
 20
4.88607287E+01
 11
1.40903478E+02
 21
4.93607287E+01
  0
LINE
  8
0
 62
7
 10
1.40903478E+02
 20
4.41464429E+01
 11
1.40774906E+02
 21
4.38607286E+01
  0
LINE
  8
0
 62
7
 10
1.44932049E+02
 20
4.88607287E+01
 11
1.44546335E+02
 21
4.93607287E+01
  0
LINE
  8
0
 62
7
 10
1.44546335E+02
 20
4.41464429E+01
 11
1.44932049E+02
 21
4.38607286E+01
  0
LINE
  8
0
 62
7
 10
1.47532049E+02
 20
4.88607287E+01
 11
1.47389192E+02
 21
4.93607287E+01
  0
LINE
  8
0
 62
7
 10
1.50060621E+02
 20
4.41464429E+01
 11
1.50574906E+02
 21
4.38607286E+01
  0
LINE
  8
0
 62
7
 10
1.52074906E+02
 20
4.88607287E+01
 11
1.51689192E+02
 21
4.93607287E+01
  0
LINE
  8
0
 62
7
 10
1.50574906E+02
 20
4.88607287E+01
 11
1.50060621E+02
 21
4.93607287E+01
  0
LINE
  8
0
 62
7
 10
1.51689192E+02
 20
4.93607287E+01
 11
1.52674906E+02
 21
4.93607287E+01
  0
LINE
  8
0
 62
7
 10
1.47532049E+02
 20
4.38607286E+01
 11
1.50574906E+02
 21
4.38607286E+01
  0
LINE
  8
0
 62
7
 10
1.52103478E+02
 20
4.38607286E+01
 11
1.53189192E+02
 21
4.38607286E+01
  0
LINE
  8
0
 62
7
 10
1.52674906E+02
 20
4.41464429E+01
 11
1.53189192E+02
 21
4.38607286E+01
  0
LINE
  8
0
 62
7
 10
1.53189192E+02
 20
4.88607287E+01
 11
1.53274906E+02
 21
4.88607287E+01
  0
LINE
  8
0
 62
7
 10
1.53189192E+02
 20
4.88607287E+01
 11
1.52674906E+02
 21
4.93607287E+01
  0
LINE
  8
0
 62
7
 10
1.52774906E+02
 20
4.18607286E+01
 11
1.52774906E+02
 21
3.67607285E+01
  0
LINE
  8
0
 62
7
 10
9.81320482E+01
 20
4.32607286E+01
 11
9.82749054E+01
 21
4.32607286E+01
  0
LINE
  8
0
 62
7
 10
9.81320482E+01
 20
4.32607286E+01
 11
9.75891911E+01
 21
4.37607286E+01
  0
LINE
  8
0
 62
7
 10
9.68891911E+01
 20
3.77607285E+01
 11
9.81320482E+01
 21
3.77607285E+01
  0
LINE
  8
0
 62
7
 10
9.17749053E+01
 20
4.32607286E+01
 11
8.87749052E+01
 21
4.32607286E+01
  0
LINE
  8
0
 62
7
 10
9.81320482E+01
 20
3.77607285E+01
 11
9.75891911E+01
 21
3.81035857E+01
  0
LINE
  8
0
 62
7
 10
9.42749053E+01
 20
3.81035857E+01
 11
9.19177624E+01
 21
3.81035857E+01
  0
LINE
  8
0
 62
7
 10
9.77749054E+01
 20
4.37607286E+01
 11
8.27749051E+01
 21
4.37607286E+01
  0
LINE
  8
0
 62
7
 10
9.82749054E+01
 20
4.32607286E+01
 11
9.82749054E+01
 21
3.57607285E+01
  0
LINE
  8
0
 62
7
 10
8.22749051E+01
 20
4.32607286E+01
 11
8.22749051E+01
 21
3.57607285E+01
  0
LINE
  8
0
 62
7
 10
9.77749054E+01
 20
4.37607286E+01
 11
9.82749054E+01
 21
4.32607286E+01
  0
LINE
  8
0
 62
7
 10
8.22749051E+01
 20
4.32607286E+01
 11
8.27749051E+01
 21
4.37607286E+01
  0
LINE
  8
0
  6
CENTER
 62
2
 10
9.02749052E+01
 20
4.67607287E+01
 11
9.02749052E+01
 21
3.27607284E+01
  0
LINE
  8
0
 62
7
 10
8.87749052E+01
 20
3.77607285E+01
 11
8.57749052E+01
 21
3.77607285E+01
  0
LINE
  8
0
 62
7
 10
8.57749052E+01
 20
4.32607286E+01
 11
8.36463337E+01
 21
4.32607286E+01
  0
LINE
  8
0
 62
7
 10
8.24034765E+01
 20
4.32607286E+01
 11
8.24034765E+01
 21
3.77607285E+01
  0
LINE
  8
0
 62
7
 10
8.29463337E+01
 20
4.37607286E+01
 11
8.29463337E+01
 21
3.81035857E+01
  0
LINE
  8
0
 62
7
 10
8.36463337E+01
 20
4.32607286E+01
 11
8.36463337E+01
 21
3.77607285E+01
  0
LINE
  8
0
 62
7
 10
8.57749052E+01
 20
4.32607286E+01
 11
8.57749052E+01
 21
3.77607285E+01
  0
LINE
  8
0
 62
7
 10
8.62606195E+01
 20
4.37607286E+01
 11
8.62606195E+01
 21
3.81035857E+01
  0
LINE
  8
0
 62
7
 10
8.86177624E+01
 20
4.37607286E+01
 11
8.86177624E+01
 21
3.81035857E+01
  0
LINE
  8
0
 62
7
 10
8.87749052E+01
 20
4.32607286E+01
 11
8.87749052E+01
 21
3.77607285E+01
  0
LINE
  8
0
 62
7
 10
8.29463337E+01
 20
3.81035857E+01
 11
8.36463337E+01
 21
3.81035857E+01
  0
LINE
  8
0
 62
7
 10
8.87749052E+01
 20
4.32607286E+01
 11
8.86177624E+01
 21
4.37607286E+01
  0
LINE
  8
0
 62
7
 10
8.87749052E+01
 20
3.77607285E+01
 11
8.86177624E+01
 21
3.81035857E+01
  0
LINE
  8
0
 62
7
 10
8.62606195E+01
 20
3.81035857E+01
 11
8.57749052E+01
 21
3.77607285E+01
  0
LINE
  8
0
 62
7
 10
8.57749052E+01
 20
4.32607286E+01
 11
8.62606195E+01
 21
4.37607286E+01
  0
LINE
  8
0
 62
7
 10
8.36463337E+01
 20
4.32607286E+01
 11
8.39320480E+01
 21
4.37607286E+01
  0
LINE
  8
0
 62
7
 10
8.24034765E+01
 20
3.77607285E+01
 11
8.29463337E+01
 21
3.81035857E+01
  0
LINE
  8
0
 62
7
 10
8.24034765E+01
 20
4.32607286E+01
 11
8.29463337E+01
 21
4.37607286E+01
  0
LINE
  8
0
 62
7
 10
8.24034765E+01
 20
4.32607286E+01
 11
8.22749051E+01
 21
4.32607286E+01
  0
LINE
  8
0
 62
7
 10
8.62606195E+01
 20
3.81035857E+01
 11
8.86177624E+01
 21
3.81035857E+01
  0
LINE
  8
0
 62
7
 10
8.36463337E+01
 20
3.77607285E+01
 11
8.24034765E+01
 21
3.77607285E+01
  0
LINE
  8
0
 62
7
 10
9.17749053E+01
 20
3.77607285E+01
 11
9.47606196E+01
 21
3.77607285E+01
  0
LINE
  8
0
 62
7
 10
9.47606196E+01
 20
4.32607286E+01
 11
9.68891911E+01
 21
4.32607286E+01
  0
LINE
  8
0
 62
7
 10
9.81320482E+01
 20
4.32607286E+01
 11
9.81320482E+01
 21
3.77607285E+01
  0
LINE
  8
0
 62
7
 10
9.75891911E+01
 20
4.37607286E+01
 11
9.75891911E+01
 21
3.81035857E+01
  0
LINE
  8
0
 62
7
 10
9.68891911E+01
 20
4.32607286E+01
 11
9.68891911E+01
 21
3.77607285E+01
  0
LINE
  8
0
 62
7
 10
9.47606196E+01
 20
4.32607286E+01
 11
9.47606196E+01
 21
3.77607285E+01
  0
LINE
  8
0
 62
7
 10
9.42749053E+01
 20
4.37607286E+01
 11
9.42749053E+01
 21
3.81035857E+01
  0
LINE
  8
0
 62
7
 10
9.19177624E+01
 20
4.37607286E+01
 11
9.19177624E+01
 21
3.81035857E+01
  0
LINE
  8
0
 62
7
 10
9.17749053E+01
 20
4.32607286E+01
 11
9.17749053E+01
 21
3.77607285E+01
  0
LINE
  8
0
 62
7
 10
9.75891911E+01
 20
3.81035857E+01
 11
9.68891911E+01
 21
3.81035857E+01
  0
LINE
  8
0
 62
7
 10
9.17749053E+01
 20
4.32607286E+01
 11
9.19177624E+01
 21
4.37607286E+01
  0
LINE
  8
0
 62
7
 10
9.17749053E+01
 20
3.77607285E+01
 11
9.19177624E+01
 21
3.81035857E+01
  0
LINE
  8
0
 62
7
 10
9.42749053E+01
 20
3.81035857E+01
 11
9.47606196E+01
 21
3.77607285E+01
  0
LINE
  8
0
 62
7
 10
9.47606196E+01
 20
4.32607286E+01
 11
9.42749053E+01
 21
4.37607286E+01
  0
LINE
  8
0
 62
7
 10
9.68891911E+01
 20
4.32607286E+01
 11
9.66034768E+01
 21
4.37607286E+01
  0
LINE
  8
0
 62
7
 10
1.45274906E+02
 20
3.42607285E+01
 11
1.43774906E+02
 21
3.57607285E+01
  0
LINE
  8
0
 62
7
 10
7.92749051E+01
 20
3.42607285E+01
 11
1.61274906E+02
 21
3.42607285E+01
  0
LINE
  8
0
 62
7
 10
9.67749053E+01
 20
3.57607285E+01
 11
9.67749053E+01
 21
-1.52392724E+01
  0
LINE
  8
0
 62
7
 10
1.43774906E+02
 20
3.57607285E+01
 11
1.43774906E+02
 21
-1.52392724E+01
  0
LINE
  8
0
 62
7
 10
1.44774906E+02
 20
-1.42392724E+01
 11
1.64274906E+02
 21
-1.42392724E+01
  0
LINE
  8
0
 62
7
 10
7.92749051E+01
 20
3.42607285E+01
 11
7.73034764E+01
 21
-1.32678438E+01
  0
LINE
  8
0
 62
7
 10
8.93749052E+01
 20
3.42607285E+01
 11
8.63463337E+01
 21
-1.42392724E+01
  0
LINE
  8
0
 62
7
 10
1.51160621E+02
 20
3.42607285E+01
 11
1.54189192E+02
 21
-1.42392724E+01
  0
LINE
  8
0
 62
7
 10
1.61274906E+02
 20
3.41892999E+01
 11
1.63232049E+02
 21
-1.32678438E+01
  0
LINE
  8
0
 62
7
 10
1.61274906E+02
 20
3.42607285E+01
 11
1.59774906E+02
 21
3.57607285E+01
  0
LINE
  8
0
 62
7
 10
7.92749051E+01
 20
3.42607285E+01
 11
8.07749051E+01
 21
3.57607285E+01
  0
LINE
  8
0
 62
7
 10
9.01749052E+01
 20
3.57607285E+01
 11
8.93749052E+01
 21
3.42607285E+01
  0
LINE
  8
0
 62
7
 10
1.50374906E+02
 20
3.57607285E+01
 11
1.51160621E+02
 21
3.42607285E+01
  0
LINE
  8
0
 62
7
 10
1.16274906E+02
 20
3.67607285E+01
 11
1.24274906E+02
 21
3.67607285E+01
  0
LINE
  8
0
 62
7
 10
1.24274906E+02
 20
3.67607285E+01
 11
1.24274906E+02
 21
3.57607285E+01
  0
LINE
  8
0
 62
7
 10
1.16274906E+02
 20
3.67607285E+01
 11
1.16274906E+02
 21
3.57607285E+01
  0
LINE
  8
0
 62
7
 10
1.38274906E+02
 20
3.67607285E+01
 11
1.38274906E+02
 21
3.57607285E+01
  0
LINE
  8
0
 62
7
 10
1.40274906E+02
 20
3.67607285E+01
 11
1.40274906E+02
 21
3.57607285E+01
  0
LINE
  8
0
 62
7
 10
1.38274906E+02
 20
3.67607285E+01
 11
1.40274906E+02
 21
3.67607285E+01
  0
LINE
  8
0
 62
7
 10
1.20274906E+02
 20
3.67607285E+01
 11
1.20274906E+02
 21
3.57607285E+01
  0
LINE
  8
0
 62
7
 10
7.52749050E+01
 20
-2.92392726E+01
 11
7.52749050E+01
 21
-4.32392729E+01
  0
LINE
  8
0
 62
7
 10
1.65274907E+02
 20
-2.92392726E+01
 11
1.65274907E+02
 21
-4.32392729E+01
  0
LINE
  8
0
 62
7
 10
7.62749050E+01
 20
-4.42392729E+01
 11
1.64274906E+02
 21
-4.42392729E+01
  0
LINE
  8
0
 62
7
 10
1.59289192E+02
 20
-8.82392736E+01
 11
1.60417764E+02
 21
-4.52107015E+01
  0
LINE
  8
0
 62
7
 10
1.63374906E+02
 20
-2.02392725E+01
 11
1.63374906E+02
 21
-2.17392725E+01
  0
LINE
  8
0
 62
7
 10
1.51174906E+02
 20
-2.02392725E+01
 11
1.51174906E+02
 21
-2.17392725E+01
  0
LINE
  8
0
 62
7
 10
1.63374906E+02
 20
-2.02392725E+01
 11
1.51174906E+02
 21
-2.02392725E+01
  0
LINE
  8
0
 62
7
 10
1.62274906E+02
 20
-1.48392724E+01
 11
1.62274906E+02
 21
-2.02392725E+01
  0
LINE
  8
0
 62
7
 10
1.52274906E+02
 20
-1.48392724E+01
 11
1.52274906E+02
 21
-2.02392725E+01
  0
LINE
  8
0
 62
7
 10
1.52274906E+02
 20
-1.48392724E+01
 11
1.52874906E+02
 21
-1.42392724E+01
  0
LINE
  8
0
 62
7
 10
1.62274906E+02
 20
-1.48392724E+01
 11
1.61674906E+02
 21
-1.42392724E+01
  0
LINE
  8
0
 62
7
 10
1.52274906E+02
 20
-1.48392724E+01
 11
1.62274906E+02
 21
-1.48392724E+01
  0
LINE
  8
0
 62
7
 10
7.82749050E+01
 20
-1.48392724E+01
 11
7.82749050E+01
 21
-2.02392725E+01
  0
LINE
  8
0
 62
7
 10
8.82749052E+01
 20
-1.48392724E+01
 11
8.82749052E+01
 21
-2.02392725E+01
  0
LINE
  8
0
 62
7
 10
8.93749052E+01
 20
-2.02392725E+01
 11
7.71749050E+01
 21
-2.02392725E+01
  0
LINE
  8
0
 62
7
 10
8.93749052E+01
 20
-2.02392725E+01
 11
8.93749052E+01
 21
-2.17392725E+01
  0
LINE
  8
0
 62
7
 10
7.71749050E+01
 20
-2.02392725E+01
 11
7.71749050E+01
 21
-2.17392725E+01
  0
LINE
  8
0
 62
7
 10
7.82749050E+01
 20
-1.48392724E+01
 11
8.82749052E+01
 21
-1.48392724E+01
  0
LINE
  8
0
 62
7
 10
7.82749050E+01
 20
-1.48392724E+01
 11
7.88749050E+01
 21
-1.42392724E+01
  0
LINE
  8
0
 62
7
 10
8.82749052E+01
 20
-1.48392724E+01
 11
8.76749052E+01
 21
-1.42392724E+01
  0
LINE
  8
0
  6
PHANTOM
 62
6
 10
1.80274907E+02
 20
5.25607288E+01
 11
1.77074907E+02
 21
5.25607288E+01
  0
LINE
  8
0
  6
PHANTOM
 62
6
 10
1.80274907E+02
 20
5.25607288E+01
 11
1.80274907E+02
 21
-4.22392728E+01
  0
LINE
  8
0
  6
PHANTOM
 62
6
 10
1.80274907E+02
 20
4.75607287E+01
 11
1.77074907E+02
 21
4.75607287E+01
  0
LINE
  8
0
  6
PHANTOM
 62
6
 10
1.77074907E+02
 20
5.25607288E+01
 11
1.77074907E+02
 21
-4.22392728E+01
  0
LINE
  8
0
  6
PHANTOM
 62
6
 10
1.75074907E+02
 20
-4.42392729E+01
 11
1.64274906E+02
 21
-4.42392729E+01
  0
LINE
  8
0
  6
PHANTOM
 62
6
 10
1.75074907E+02
 20
-4.74392729E+01
 11
1.49274906E+02
 21
-4.74392729E+01
  0
LINE
  8
0
  6
PHANTOM
 62
6
 10
1.52274906E+02
 20
-4.42392729E+01
 11
1.52274906E+02
 21
-4.74392729E+01
  0
LINE
  8
0
  6
PHANTOM
 62
6
 10
1.49274906E+02
 20
-4.42392729E+01
 11
1.49274906E+02
 21
-4.74392729E+01
  0
LINE
  8
0
  6
PHANTOM
 62
6
 10
1.51517763E+02
 20
-4.89392730E+01
 11
1.51517763E+02
 21
-4.74392729E+01
  0
LINE
  8
0
  6
PHANTOM
 62
6
 10
1.51517763E+02
 20
-4.89392730E+01
 11
1.63017764E+02
 21
-4.89392730E+01
  0
LINE
  8
0
  6
PHANTOM
 62
6
 10
1.52274906E+02
 20
-5.46392731E+01
 11
1.52274906E+02
 21
-4.89392730E+01
  0
LINE
  8
0
  6
CENTER
 62
6
 10
1.57274906E+02
 20
-5.79392731E+01
 11
1.57274906E+02
 21
-4.12392728E+01
  0
LINE
  8
0
  6
PHANTOM
 62
6
 10
1.62274906E+02
 20
-5.46392731E+01
 11
1.62274906E+02
 21
-4.89392730E+01
  0
LINE
  8
0
  6
PHANTOM
 62
6
 10
1.63017764E+02
 20
-4.89392730E+01
 11
1.63017764E+02
 21
-4.74392729E+01
  0
LINE
  8
0
  6
PHANTOM
 62
6
 10
1.62274906E+02
 20
-5.46392731E+01
 11
1.61746335E+02
 21
-5.49392731E+01
  0
LINE
  8
0
  6
PHANTOM
 62
6
 10
1.52274906E+02
 20
-5.46392731E+01
 11
1.52789192E+02
 21
-5.49392731E+01
  0
LINE
  8
0
  6
PHANTOM
 62
6
 10
1.52274906E+02
 20
-5.46392731E+01
 11
1.62274906E+02
 21
-5.46392731E+01
  0
LINE
  8
0
  6
PHANTOM
 62
6
 10
1.52789192E+02
 20
-5.49392731E+01
 11
1.61746335E+02
 21
-5.49392731E+01
  0
LINE
  8
0
 62
7
 10
8.12463337E+01
 20
-8.82392736E+01
 11
8.01177622E+01
 21
-4.52107015E+01
  0
LINE
  8
0
  6
PHANTOM
 62
6
 10
1.67074907E+02
 20
-4.42392729E+01
 11
1.77074907E+02
 21
-3.42392727E+01
  0
CIRCLE
  8
0
 62
7
 10
1.20274906E+02
 20
1.07607281E+01
 40
1.20585008E+01
  0
ARC
  8
0
  6
PHANTOM
 62
6
 10
1.75074901E+02
 20
-4.22392667E+01
 40
5.20000619E+00
 50
2.70000000E+02
 51
3.59999933E+02
  0
CIRCLE
  8
0
 62
2
 10
1.20274906E+02
 20
1.07607281E+01
 40
1.32204998E+01
  0
CIRCLE
  8
0
 62
7
 10
1.20274906E+02
 20
1.07607499E+01
 40
2.10000001E+01
  0
ARC
  8
0
 62
7
 10
1.39267763E+02
 20
5.69607454E+01
 40
6.95013215E+00
 50
3.53173297E-01
 51
1.79646827E+02
  0
ARC
  8
0
 62
7
 10
7.62749006E+01
 20
-1.52392680E+01
 40
9.99995657E-01
 50
9.00000002E+01
 51
1.80000250E+02
  0
ARC
  8
0
 62
7
 10
7.63094084E+01
 20
-1.32449587E+01
 40
9.94331403E-01
 50
2.69658181E+02
 51
3.58681188E+02
  0
ARC
  8
0
 62
7
 10
1.64274911E+02
 20
-1.52392680E+01
 40
9.99995657E-01
 50
3.59999750E+02
 51
9.00000002E+01
  0
ARC
  8
0
 62
7
 10
1.64233006E+02
 20
-1.32378678E+01
 40
1.00140502E+00
 50
1.81715343E+02
 51
2.70000000E+02
  0
ARC
  8
0
 62
7
 10
1.64274911E+02
 20
-2.27392682E+01
 40
9.99995657E-01
 50
3.59999750E+02
 51
9.00000002E+01
  0
ARC
  8
0
 62
7
 10
1.49274911E+02
 20
-1.52392680E+01
 40
9.99995657E-01
 50
3.59999750E+02
 51
9.00000002E+01
  0
ARC
  8
0
 62
7
 10
9.12749009E+01
 20
-1.52392680E+01
 40
9.99995657E-01
 50
9.00000002E+01
 51
1.80000250E+02
  0
ARC
  8
0
 62
7
 10
7.62749006E+01
 20
-2.27392682E+01
 40
9.99995657E-01
 50
9.00000002E+01
 51
1.80000250E+02
  0
ARC
  8
0
 62
7
 10
8.97749074E+01
 20
-2.12392747E+01
 40
4.99997829E-01
 50
2.70000000E+02
 51
2.49777252E-04
  0
ARC
  8
0
 62
7
 10
1.50774904E+02
 20
-2.12392747E+01
 40
4.99997829E-01
 50
1.79999750E+02
 51
2.70000000E+02
  0
ARC
  8
0
 62
7
 10
1.53774913E+02
 20
3.67607350E+01
 40
1.00000656E+00
 50
1.80000375E+02
 51
2.70000000E+02
  0
ARC
  8
0
 62
7
 10
1.24774893E+02
 20
3.67607416E+01
 40
1.00001310E+00
 50
2.70000000E+02
 51
3.59999251E+02
  0
ARC
  8
0
 62
7
 10
7.62749224E+01
 20
-4.32392554E+01
 40
1.00001746E+00
 50
1.80000999E+02
 51
2.70000000E+02
  0
ARC
  8
0
 62
7
 10
1.64274911E+02
 20
-4.32392772E+01
 40
9.99995657E-01
 50
2.70000000E+02
 51
2.49790864E-04
  0
ARC
  8
0
 62
7
 10
7.91202069E+01
 20
-4.52371765E+01
 40
9.97906593E-01
 50
1.52026692E+00
 51
9.01403640E+01
  0
ARC
  8
0
 62
7
 10
1.61422244E+02
 20
-4.52443056E+01
 40
1.00504269E+00
 50
9.02554397E+01
 51
1.78083929E+02
  0
ARC
  8
0
 62
7
 10
1.44774900E+02
 20
-1.52392658E+01
 40
9.99993478E-01
 50
9.00000002E+01
 51
1.80000375E+02
  0
ARC
  8
0
 62
7
 10
9.57749010E+01
 20
-1.52392767E+01
 40
1.00000438E+00
 50
2.49790864E-04
 51
9.00000002E+01
  0
ARC
  8
0
  6
PHANTOM
 62
6
 10
1.75074901E+02
 20
-4.22392667E+01
 40
2.00000614E+00
 50
2.70000000E+02
 51
3.59999825E+02
  0
LINE
  8
0
 62
7
 10
1.38689192E+02
 20
-1.88439275E+02
 11
1.01846334E+02
 21
-1.88439275E+02
  0
LINE
  8
0
 62
7
 10
1.40232049E+02
 20
-1.70939275E+02
 11
1.47132049E+02
 21
-1.70939275E+02
  0
LINE
  8
0
 62
7
 10
1.40232049E+02
 20
-1.34939274E+02
 11
1.47132049E+02
 21
-1.34939274E+02
  0
LINE
  8
0
 62
7
 10
1.40232049E+02
 20
-1.28939274E+02
 11
1.47132049E+02
 21
-1.28939274E+02
  0
LINE
  8
0
 62
7
 10
1.47132049E+02
 20
-9.49392737E+01
 11
1.40232049E+02
 21
-9.49392737E+01
  0
LINE
  8
0
 62
7
 10
8.68463338E+01
 20
-1.73567847E+02
 11
8.61177623E+01
 21
-8.92392736E+01
  0
LINE
  8
0
 62
7
 10
1.53689192E+02
 20
-1.73567847E+02
 11
1.54417763E+02
 21
-8.92392736E+01
  0
LINE
  8
0
 62
7
 10
1.45303478E+02
 20
-9.54392738E+01
 11
1.40232049E+02
 21
-9.54392738E+01
  0
LINE
  8
0
 62
7
 10
1.40232049E+02
 20
-1.35439274E+02
 11
1.45303478E+02
 21
-1.35439274E+02
  0
LINE
  8
0
 62
7
 10
1.40232049E+02
 20
-1.28439274E+02
 11
1.45303478E+02
 21
-1.28439274E+02
  0
LINE
  8
0
 62
7
 10
1.40232049E+02
 20
-1.70439275E+02
 11
1.45303478E+02
 21
-1.70439275E+02
  0
LINE
  8
0
 62
7
 10
1.48132049E+02
 20
-1.35939274E+02
 11
1.48132049E+02
 21
-1.69939275E+02
  0
LINE
  8
0
 62
7
 10
1.46303478E+02
 20
-1.36439274E+02
 11
1.46303478E+02
 21
-1.69439275E+02
  0
LINE
  8
0
 62
7
 10
1.39232049E+02
 20
-1.35939274E+02
 11
1.39232049E+02
 21
-1.69939275E+02
  0
LINE
  8
0
 62
7
 10
1.39846335E+02
 20
-1.71439275E+02
 11
1.47389192E+02
 21
-1.71439275E+02
  0
LINE
  8
0
 62
7
 10
1.39846335E+02
 20
-1.71939275E+02
 11
1.47989192E+02
 21
-1.71939275E+02
  0
LINE
  8
0
 62
7
 10
1.47389192E+02
 20
-9.44392737E+01
 11
1.39846335E+02
 21
-9.44392737E+01
  0
LINE
  8
0
 62
7
 10
1.47989192E+02
 20
-9.39392737E+01
 11
1.39846335E+02
 21
-9.39392737E+01
  0
LINE
  8
0
 62
7
 10
1.38846335E+02
 20
-9.49392737E+01
 11
1.38846335E+02
 21
-1.70939275E+02
  0
LINE
  8
0
 62
7
 10
1.39232049E+02
 20
-9.59392738E+01
 11
1.39232049E+02
 21
-1.27939274E+02
  0
LINE
  8
0
 62
7
 10
1.46303478E+02
 20
-9.64392738E+01
 11
1.46303478E+02
 21
-1.27439274E+02
  0
LINE
  8
0
 62
7
 10
1.48132049E+02
 20
-9.59392738E+01
 11
1.48132049E+02
 21
-1.27939274E+02
  0
LINE
  8
0
 62
7
 10
1.48389192E+02
 20
-9.54392738E+01
 11
1.48389192E+02
 21
-1.70439275E+02
  0
LINE
  8
0
 62
7
 10
1.48989192E+02
 20
-9.49392737E+01
 11
1.48989192E+02
 21
-1.70939275E+02
  0
LINE
  8
0
 62
7
 10
1.00317763E+02
 20
-1.70939275E+02
 11
9.34034767E+01
 21
-1.70939275E+02
  0
LINE
  8
0
 62
7
 10
1.00317763E+02
 20
-1.34939274E+02
 11
9.34034767E+01
 21
-1.34939274E+02
  0
LINE
  8
0
 62
7
 10
1.00317763E+02
 20
-1.28939274E+02
 11
9.34034767E+01
 21
-1.28939274E+02
  0
LINE
  8
0
 62
7
 10
9.34034767E+01
 20
-9.49392737E+01
 11
1.00317763E+02
 21
-9.49392737E+01
  0
LINE
  8
0
 62
7
 10
9.52463339E+01
 20
-9.54392738E+01
 11
1.00317763E+02
 21
-9.54392738E+01
  0
LINE
  8
0
 62
7
 10
1.00317763E+02
 20
-1.35439274E+02
 11
9.52463339E+01
 21
-1.35439274E+02
  0
LINE
  8
0
 62
7
 10
1.00317763E+02
 20
-1.28439274E+02
 11
9.52463339E+01
 21
-1.28439274E+02
  0
LINE
  8
0
 62
7
 10
1.00317763E+02
 20
-1.70439275E+02
 11
9.52463339E+01
 21
-1.70439275E+02
  0
LINE
  8
0
 62
7
 10
9.24034767E+01
 20
-1.35939274E+02
 11
9.24034767E+01
 21
-1.69939275E+02
  0
LINE
  8
0
 62
7
 10
9.42463339E+01
 20
-1.36439274E+02
 11
9.42463339E+01
 21
-1.69439275E+02
  0
LINE
  8
0
 62
7
 10
1.01317763E+02
 20
-1.35939274E+02
 11
1.01317763E+02
 21
-1.69939275E+02
  0
LINE
  8
0
 62
7
 10
1.00689191E+02
 20
-1.71439275E+02
 11
9.31463339E+01
 21
-1.71439275E+02
  0
LINE
  8
0
 62
7
 10
1.00689191E+02
 20
-1.71939275E+02
 11
9.25463338E+01
 21
-1.71939275E+02
  0
LINE
  8
0
 62
7
 10
9.31463339E+01
 20
-9.44392737E+01
 11
1.00689191E+02
 21
-9.44392737E+01
  0
LINE
  8
0
 62
7
 10
9.25463338E+01
 20
-9.39392737E+01
 11
1.00689191E+02
 21
-9.39392737E+01
  0
LINE
  8
0
 62
7
 10
1.01689191E+02
 20
-9.49392737E+01
 11
1.01689191E+02
 21
-1.70939275E+02
  0
LINE
  8
0
 62
7
 10
1.01317763E+02
 20
-9.59392738E+01
 11
1.01317763E+02
 21
-1.27939274E+02
  0
LINE
  8
0
 62
7
 10
9.42463339E+01
 20
-9.64392738E+01
 11
9.42463339E+01
 21
-1.27439274E+02
  0
LINE
  8
0
 62
7
 10
9.24034767E+01
 20
-9.59392738E+01
 11
9.24034767E+01
 21
-1.27939274E+02
  0
LINE
  8
0
 62
7
 10
9.21463338E+01
 20
-9.54392738E+01
 11
9.21463338E+01
 21
-1.70439275E+02
  0
LINE
  8
0
 62
7
 10
9.15463338E+01
 20
-9.49392737E+01
 11
9.15463338E+01
 21
-1.70939275E+02
  0
ARC
  8
0
 62
7
 10
1.38690173E+02
 20
-1.73439709E+02
 40
1.49995662E+01
 50
2.70000000E+02
 51
3.59510531E+02
  0
ARC
  8
0
 62
7
 10
1.01852446E+02
 20
-1.73432554E+02
 40
1.50067225E+01
 50
1.80516554E+02
 51
2.69976663E+02
  0
ARC
  8
0
 62
7
 10
1.45303213E+02
 20
-1.36439539E+02
 40
1.00026473E+00
 50
1.51607367E-02
 51
9.00000002E+01
  0
ARC
  8
0
 62
7
 10
1.40231947E+02
 20
-1.36439172E+02
 40
9.99898009E-01
 50
9.00000002E+01
 51
1.80005846E+02
  0
ARC
  8
0
 62
7
 10
1.40231953E+02
 20
-1.35939179E+02
 40
9.99904548E-01
 50
9.00000002E+01
 51
1.80005471E+02
  0
ARC
  8
0
 62
7
 10
1.40231985E+02
 20
-1.69439339E+02
 40
9.99935938E-01
 50
1.79996328E+02
 51
2.70000000E+02
  0
ARC
  8
0
 62
7
 10
1.40231981E+02
 20
-1.69939343E+02
 40
9.99931578E-01
 50
1.79996078E+02
 51
2.70000000E+02
  0
ARC
  8
0
 62
7
 10
1.39847360E+02
 20
-1.70438250E+02
 40
1.00102597E+00
 50
1.80058692E+02
 51
2.69941307E+02
  0
ARC
  8
0
 62
7
 10
1.39847356E+02
 20
-1.70938254E+02
 40
1.00102161E+00
 50
1.80058444E+02
 51
2.69941557E+02
  0
ARC
  8
0
 62
7
 10
1.45303175E+02
 20
-1.69438972E+02
 40
1.00030266E+00
 50
2.70000000E+02
 51
3.59982668E+02
  0
ARC
  8
0
 62
7
 10
1.47134727E+02
 20
-1.35936596E+02
 40
9.97325536E-01
 50
3.59846146E+02
 51
9.01538542E+01
  0
ARC
  8
0
 62
7
 10
1.47134700E+02
 20
-1.69941926E+02
 40
9.97352566E-01
 50
2.69847707E+02
 51
1.52293012E-01
  0
ARC
  8
0
 62
7
 10
1.47391809E+02
 20
-1.70441892E+02
 40
9.97385992E-01
 50
2.69849638E+02
 51
1.50362634E-01
  0
ARC
  8
0
 62
7
 10
1.47990398E+02
 20
-1.70940481E+02
 40
9.98794335E-01
 50
2.69930794E+02
 51
6.92056767E-02
  0
ARC
  8
0
 62
7
 10
1.40231947E+02
 20
-9.64391718E+01
 40
9.99898009E-01
 50
9.00000002E+01
 51
1.80005846E+02
  0
ARC
  8
0
 62
7
 10
1.40231953E+02
 20
-9.59391783E+01
 40
9.99904548E-01
 50
9.00000002E+01
 51
1.80005471E+02
  0
ARC
  8
0
 62
7
 10
1.39847322E+02
 20
-9.54402613E+01
 40
1.00098804E+00
 50
9.00000002E+01
 51
1.79943474E+02
  0
ARC
  8
0
 62
7
 10
1.39847318E+02
 20
-9.49402569E+01
 40
1.00098368E+00
 50
9.00000002E+01
 51
1.79943723E+02
  0
ARC
  8
0
 62
7
 10
1.45303213E+02
 20
-9.64395384E+01
 40
1.00026473E+00
 50
1.51607367E-02
 51
9.00000002E+01
  0
ARC
  8
0
 62
7
 10
1.47134727E+02
 20
-9.59365957E+01
 40
9.97325536E-01
 50
3.59846146E+02
 51
9.01538542E+01
  0
ARC
  8
0
 62
7
 10
1.47391847E+02
 20
-9.54366183E+01
 40
9.97348063E-01
 50
3.59847447E+02
 51
9.01525531E+01
  0
ARC
  8
0
 62
7
 10
1.47990436E+02
 20
-9.49380294E+01
 40
9.98756406E-01
 50
3.59928613E+02
 51
9.00713867E+01
  0
ARC
  8
0
 62
7
 10
1.40231981E+02
 20
-1.27439343E+02
 40
9.99931578E-01
 50
1.79996078E+02
 51
2.70000000E+02
  0
ARC
  8
0
 62
7
 10
1.40231976E+02
 20
-1.27939347E+02
 40
9.99927218E-01
 50
1.79995829E+02
 51
2.70000000E+02
  0
ARC
  8
0
 62
7
 10
1.45303179E+02
 20
-1.27438976E+02
 40
1.00029830E+00
 50
2.70000000E+02
 51
3.59982917E+02
  0
ARC
  8
0
 62
7
 10
1.47134704E+02
 20
-1.27941930E+02
 40
9.97348206E-01
 50
2.69847455E+02
 51
1.52544805E-01
  0
ARC
  8
0
 62
7
 10
9.52465005E+01
 20
-1.36439441E+02
 40
1.00016659E+00
 50
9.00000002E+01
 51
1.79990458E+02
  0
ARC
  8
0
 62
7
 10
1.00317777E+02
 20
-1.36439260E+02
 40
9.99985194E-01
 50
3.59999150E+02
 51
9.00000002E+01
  0
ARC
  8
0
 62
7
 10
1.00317771E+02
 20
-1.35939266E+02
 40
9.99991734E-01
 50
3.59999525E+02
 51
9.00000002E+01
  0
ARC
  8
0
 62
7
 10
1.00317739E+02
 20
-1.69439252E+02
 40
1.00002312E+00
 50
2.70000000E+02
 51
3.59998676E+02
  0
ARC
  8
0
 62
7
 10
1.00317744E+02
 20
-1.69939256E+02
 40
1.00001876E+00
 50
2.70000000E+02
 51
3.59998926E+02
  0
ARC
  8
0
 62
7
 10
1.00695182E+02
 20
-1.70445266E+02
 40
9.94027504E-01
 50
2.69654702E+02
 51
3.45298412E-01
  0
ARC
  8
0
 62
7
 10
1.00695186E+02
 20
-1.70945270E+02
 40
9.94023145E-01
 50
2.69654447E+02
 51
3.45552744E-01
  0
ARC
  8
0
 62
7
 10
9.52465384E+01
 20
-1.69439071E+02
 40
1.00020452E+00
 50
1.80011713E+02
 51
2.70000000E+02
  0
ARC
  8
0
 62
7
 10
9.34079589E+01
 20
-1.35943757E+02
 40
1.00449223E+00
 50
9.02556643E+01
 51
1.79744336E+02
  0
ARC
  8
0
 62
7
 10
9.34079858E+01
 20
-1.69934766E+02
 40
1.00451926E+00
 50
1.80257193E+02
 51
2.69742808E+02
  0
ARC
  8
0
 62
7
 10
9.31508657E+01
 20
-1.70434743E+02
 40
1.00454208E+00
 50
1.80258482E+02
 51
2.69741518E+02
  0
ARC
  8
0
 62
7
 10
9.25522102E+01
 20
-1.70933399E+02
 40
1.00589349E+00
 50
1.80334717E+02
 51
2.69665283E+02
  0
ARC
  8
0
 62
7
 10
1.00317777E+02
 20
-9.64392589E+01
 40
9.99985194E-01
 50
3.59999150E+02
 51
9.00000002E+01
  0
ARC
  8
0
 62
7
 10
1.00317771E+02
 20
-9.59392655E+01
 40
9.99991734E-01
 50
3.59999525E+02
 51
9.00000002E+01
  0
ARC
  8
0
 62
7
 10
1.00695220E+02
 20
-9.54332450E+01
 40
9.93989578E-01
 50
3.59652489E+02
 51
9.03475111E+01
  0
ARC
  8
0
 62
7
 10
1.00695224E+02
 20
-9.49332406E+01
 40
9.93985218E-01
 50
3.59652234E+02
 51
9.03477655E+01
  0
ARC
  8
0
 62
7
 10
9.52465005E+01
 20
-9.64394403E+01
 40
1.00016659E+00
 50
9.00000002E+01
 51
1.79990458E+02
  0
ARC
  8
0
 62
7
 10
9.34079589E+01
 20
-9.59437560E+01
 40
1.00449223E+00
 50
9.02556643E+01
 51
1.79744336E+02
  0
ARC
  8
0
 62
7
 10
9.31508279E+01
 20
-9.54437678E+01
 40
1.00450415E+00
 50
9.02563381E+01
 51
1.79743662E+02
  0
ARC
  8
0
 62
7
 10
9.25521724E+01
 20
-9.49451123E+01
 40
1.00585556E+00
 50
9.03325816E+01
 51
1.79667418E+02
  0
ARC
  8
0
 62
7
 10
1.00317744E+02
 20
-1.27439256E+02
 40
1.00001876E+00
 50
2.70000000E+02
 51
3.59998926E+02
  0
ARC
  8
0
 62
7
 10
1.00317748E+02
 20
-1.27939260E+02
 40
1.00001440E+00
 50
2.70000000E+02
 51
3.59999176E+02
  0
ARC
  8
0
 62
7
 10
9.52465340E+01
 20
-1.27439074E+02
 40
1.00020016E+00
 50
1.80011464E+02
 51
2.70000000E+02
  0
ARC
  8
0
 62
7
 10
9.34079815E+01
 20
-1.27934770E+02
 40
1.00451490E+00
 50
1.80256946E+02
 51
2.69743054E+02
  0
LINE
  8
0
  6
CENTER
 62
2
 10
-2.97250977E+01
 20
7.05607302E+01
 11
-2.97250977E+01
 21
1.85560732E+02
  0
LINE
  8
0
  6
CENTER
 62
2
 10
-7.97250985E+01
 20
1.20560731E+02
 11
2.02749032E+01
 21
1.20560731E+02
  0
LINE
  8
0
 62
7
 10
-6.67250983E+01
 20
1.65560732E+02
 11
7.27490297E+00
 21
1.65560732E+02
  0
LINE
  8
0
 62
7
 10
-6.67250983E+01
 20
7.55607303E+01
 11
7.27490297E+00
 21
7.55607303E+01
  0
LINE
  8
0
 62
7
 10
-7.47250984E+01
 20
8.35607304E+01
 11
-7.47250984E+01
 21
1.57560732E+02
  0
LINE
  8
0
 62
7
 10
1.52749031E+01
 20
8.35607304E+01
 11
1.52749031E+01
 21
1.57560732E+02
  0
LINE
  8
0
 62
7
 10
-7.32250984E+01
 20
9.55607306E+01
 11
-5.77250981E+01
 21
9.55607306E+01
  0
LINE
  8
0
 62
7
 10
-7.32250984E+01
 20
9.55607306E+01
 11
-7.47250984E+01
 21
9.70607306E+01
  0
LINE
  8
0
 62
7
 10
1.37749031E+01
 20
9.55607306E+01
 11
1.52749031E+01
 21
9.70607306E+01
  0
LINE
  8
0
 62
7
 10
1.52749031E+01
 20
1.44060731E+02
 11
1.37749031E+01
 21
1.45560731E+02
  0
LINE
  8
0
 62
7
 10
-7.47250984E+01
 20
1.44060731E+02
 11
-7.32250984E+01
 21
1.45560731E+02
  0
LINE
  8
0
  6
CENTER
 62
2
 10
-7.58250984E+01
 20
8.35607304E+01
 11
-5.76250981E+01
 21
8.35607304E+01
  0
LINE
  8
0
  6
CENTER
 62
2
 10
-7.58250984E+01
 20
1.57560732E+02
 11
-5.76250981E+01
 21
1.57560732E+02
  0
LINE
  8
0
  6
CENTER
 62
2
 10
-1.82509718E+00
 20
1.57560732E+02
 11
1.63749031E+01
 21
1.57560732E+02
  0
LINE
  8
0
  6
CENTER
 62
2
 10
-1.82509718E+00
 20
8.35607304E+01
 11
1.63749031E+01
 21
8.35607304E+01
  0
LINE
  8
0
  6
CENTER
 62
2
 10
-6.67250983E+01
 20
7.44607302E+01
 11
-6.67250983E+01
 21
9.26607306E+01
  0
LINE
  8
0
  6
CENTER
 62
2
 10
-6.67250983E+01
 20
1.48460732E+02
 11
-6.67250983E+01
 21
1.66660732E+02
  0
LINE
  8
0
  6
CENTER
 62
2
 10
7.27490297E+00
 20
1.48460732E+02
 11
7.27490297E+00
 21
1.66660732E+02
  0
LINE
  8
0
  6
CENTER
 62
2
 10
7.27490297E+00
 20
7.44607302E+01
 11
7.27490297E+00
 21
9.26607306E+01
  0
LINE
  8
0
 62
7
 10
-5.61393838E+01
 20
1.54489303E+02
 11
-5.77250981E+01
 21
1.45560731E+02
  0
LINE
  8
0
 62
7
 10
-3.29652578E+00
 20
1.54489303E+02
 11
-1.72509718E+00
 21
1.45560731E+02
  0
LINE
  8
0
 62
7
 10
1.37749031E+01
 20
1.45560731E+02
 11
-1.72509718E+00
 21
1.45560731E+02
  0
LINE
  8
0
 62
7
 10
-5.20250980E+01
 20
1.31303588E+02
 11
-5.15108123E+01
 21
1.31446446E+02
  0
LINE
  8
0
 62
7
 10
-5.35250981E+01
 20
1.33903588E+02
 11
-5.31393838E+01
 21
1.34275017E+02
  0
LINE
  8
0
 62
7
 10
-5.46393838E+01
 20
1.38060731E+02
 11
-5.41250981E+01
 21
1.37917874E+02
  0
LINE
  8
0
 62
7
 10
-5.46393838E+01
 20
1.41060731E+02
 11
-5.41250981E+01
 21
1.41203589E+02
  0
LINE
  8
0
 62
7
 10
-5.35250981E+01
 20
1.45217874E+02
 11
-5.31393838E+01
 21
1.44846446E+02
  0
LINE
  8
0
 62
7
 10
-5.20250980E+01
 20
1.47817874E+02
 11
-5.15108123E+01
 21
1.47675017E+02
  0
LINE
  8
0
 62
7
 10
-4.89822408E+01
 20
1.50860732E+02
 11
-4.88393837E+01
 21
1.50346446E+02
  0
LINE
  8
0
 62
7
 10
-4.63822408E+01
 20
1.52360732E+02
 11
-4.59965265E+01
 21
1.51989303E+02
  0
LINE
  8
0
 62
7
 10
-4.22250979E+01
 20
1.53475017E+02
 11
-4.23536693E+01
 21
1.52960732E+02
  0
LINE
  8
0
 62
7
 10
-3.92250978E+01
 20
1.53475017E+02
 11
-3.90822407E+01
 21
1.52960732E+02
  0
LINE
  8
0
 62
7
 10
-3.50536692E+01
 20
1.52360732E+02
 11
-3.54393835E+01
 21
1.51989303E+02
  0
LINE
  8
0
 62
7
 10
-3.24536691E+01
 20
1.50860732E+02
 11
-3.25965263E+01
 21
1.50346446E+02
  0
LINE
  8
0
 62
7
 10
-2.94108119E+01
 20
1.47817874E+02
 11
-2.99393834E+01
 21
1.47675017E+02
  0
LINE
  8
0
 62
7
 10
-2.79108119E+01
 20
1.45217874E+02
 11
-2.82965262E+01
 21
1.44846446E+02
  0
LINE
  8
0
 62
7
 10
-2.67965262E+01
 20
1.41060731E+02
 11
-2.73250976E+01
 21
1.41203589E+02
  0
LINE
  8
0
 62
7
 10
-2.67965262E+01
 20
1.38060731E+02
 11
-2.73250976E+01
 21
1.37917874E+02
  0
LINE
  8
0
 62
7
 10
-2.79108119E+01
 20
1.33903588E+02
 11
-2.82965262E+01
 21
1.34275017E+02
  0
LINE
  8
0
 62
7
 10
-2.94108119E+01
 20
1.31303588E+02
 11
-2.99393834E+01
 21
1.31446446E+02
  0
LINE
  8
0
 62
7
 10
-3.24536691E+01
 20
1.28260731E+02
 11
-3.25965263E+01
 21
1.28775017E+02
  0
LINE
  8
0
 62
7
 10
-3.50536692E+01
 20
1.26760731E+02
 11
-3.54393835E+01
 21
1.27132160E+02
  0
LINE
  8
0
 62
7
 10
-3.92250978E+01
 20
1.25646445E+02
 11
-3.90822407E+01
 21
1.26160731E+02
  0
LINE
  8
0
 62
7
 10
-4.22108122E+01
 20
1.25646445E+02
 11
-4.23536693E+01
 21
1.26160731E+02
  0
LINE
  8
0
 62
7
 10
-4.63822408E+01
 20
1.26760731E+02
 11
-4.59965265E+01
 21
1.27132160E+02
  0
LINE
  8
0
 62
7
 10
-4.89822408E+01
 20
1.28260731E+02
 11
-4.88393837E+01
 21
1.28775017E+02
  0
LINE
  8
0
  6
CENTER
 62
2
 10
-4.07250978E+01
 20
1.22560731E+02
 11
-4.07250978E+01
 21
1.56560732E+02
  0
LINE
  8
0
  6
CENTER
 62
2
 10
-2.37250976E+01
 20
1.39560731E+02
 11
-5.77250981E+01
 21
1.39560731E+02
  0
LINE
  8
0
 62
7
 10
-1.72509718E+00
 20
9.55607306E+01
 11
1.37749031E+01
 21
9.55607306E+01
  0
LINE
  8
0
 62
7
 10
-5.77250981E+01
 20
1.45560731E+02
 11
-7.32250984E+01
 21
1.45560731E+02
  0
LINE
  8
0
 62
7
 10
1.52749031E+01
 20
1.44060731E+02
 11
-2.98224006E+00
 21
1.44060731E+02
  0
LINE
  8
0
 62
7
 10
-4.13938293E+00
 20
1.50660732E+02
 11
-2.98224006E+00
 21
1.44060731E+02
  0
LINE
  8
0
 62
7
 10
-7.32250984E+01
 20
9.55607306E+01
 11
-7.32250984E+01
 21
1.45560731E+02
  0
LINE
  8
0
 62
7
 10
1.37749031E+01
 20
9.55607306E+01
 11
1.37749031E+01
 21
1.45560731E+02
  0
LINE
  8
0
 62
7
 10
-1.72509718E+00
 20
1.45560731E+02
 11
-2.98224006E+00
 21
1.44060731E+02
  0
LINE
  8
0
 62
7
 10
1.52749031E+01
 20
9.70607306E+01
 11
-2.98224006E+00
 21
9.70607306E+01
  0
LINE
  8
0
 62
7
 10
-1.72509718E+00
 20
9.55607306E+01
 11
-2.98224006E+00
 21
9.70607306E+01
  0
LINE
  8
0
 62
7
 10
-7.47250984E+01
 20
1.44060731E+02
 11
-5.64536695E+01
 21
1.44060731E+02
  0
LINE
  8
0
 62
7
 10
-5.52965267E+01
 20
1.50660732E+02
 11
-5.64536695E+01
 21
1.44060731E+02
  0
LINE
  8
0
 62
7
 10
-5.77250981E+01
 20
1.45560731E+02
 11
-5.64536695E+01
 21
1.44060731E+02
  0
LINE
  8
0
 62
7
 10
-7.47250984E+01
 20
9.70607306E+01
 11
-5.64536695E+01
 21
9.70607306E+01
  0
LINE
  8
0
 62
7
 10
-5.77250981E+01
 20
9.55607306E+01
 11
-5.64536695E+01
 21
9.70607306E+01
  0
LINE
  8
0
 62
7
 10
-6.97250983E+01
 20
1.16560731E+02
 11
-6.97250983E+01
 21
1.24560731E+02
  0
LINE
  8
0
 62
7
 10
-6.67250983E+01
 20
1.50560732E+02
 11
-7.37250984E+01
 21
1.50560732E+02
  0
LINE
  8
0
 62
7
 10
-6.67250983E+01
 20
9.05607305E+01
 11
-7.37250984E+01
 21
9.05607305E+01
  0
LINE
  8
0
 62
7
 10
7.27490297E+00
 20
1.50560732E+02
 11
1.42749031E+01
 21
1.50560732E+02
  0
LINE
  8
0
 62
7
 10
7.27490297E+00
 20
9.05607305E+01
 11
1.42749031E+01
 21
9.05607305E+01
  0
LINE
  8
0
 62
7
 10
-5.97250982E+01
 20
8.35607304E+01
 11
-5.97250982E+01
 21
7.65607303E+01
  0
LINE
  8
0
 62
7
 10
2.74902855E-01
 20
8.35607304E+01
 11
2.74902855E-01
 21
7.65607303E+01
  0
LINE
  8
0
 62
7
 10
2.74902855E-01
 20
1.57560732E+02
 11
2.74902855E-01
 21
1.64560732E+02
  0
LINE
  8
0
 62
7
 10
-5.97250982E+01
 20
1.57560732E+02
 11
-5.97250982E+01
 21
1.64560732E+02
  0
LINE
  8
0
 62
7
 10
-6.97250983E+01
 20
1.24560731E+02
 11
-5.87250982E+01
 21
1.20560731E+02
  0
LINE
  8
0
 62
7
 10
-6.97250983E+01
 20
1.16560731E+02
 11
-5.87250982E+01
 21
1.20560731E+02
  0
LINE
  8
0
 62
7
 10
4.77490293E+00
 20
1.59003589E+02
 11
4.77490293E+00
 21
1.56117874E+02
  0
LINE
  8
0
 62
7
 10
9.77490302E+00
 20
1.59003589E+02
 11
9.77490302E+00
 21
1.56117874E+02
  0
LINE
  8
0
 62
7
 10
4.77490293E+00
 20
1.59003589E+02
 11
7.27490297E+00
 21
1.60446446E+02
  0
LINE
  8
0
 62
7
 10
7.27490297E+00
 20
1.54675017E+02
 11
9.77490302E+00
 21
1.56117874E+02
  0
LINE
  8
0
 62
7
 10
4.77490293E+00
 20
1.56117874E+02
 11
7.27490297E+00
 21
1.54675017E+02
  0
LINE
  8
0
 62
7
 10
7.27490297E+00
 20
1.60446446E+02
 11
9.77490302E+00
 21
1.59003589E+02
  0
LINE
  8
0
 62
7
 10
-6.67250983E+01
 20
1.54675017E+02
 11
-6.42250982E+01
 21
1.56117874E+02
  0
LINE
  8
0
 62
7
 10
-6.42250982E+01
 20
1.59003589E+02
 11
-6.42250982E+01
 21
1.56117874E+02
  0
LINE
  8
0
 62
7
 10
-6.67250983E+01
 20
1.60446446E+02
 11
-6.42250982E+01
 21
1.59003589E+02
  0
LINE
  8
0
 62
7
 10
-6.92250983E+01
 20
1.59003589E+02
 11
-6.67250983E+01
 21
1.60446446E+02
  0
LINE
  8
0
 62
7
 10
-6.92250983E+01
 20
1.59003589E+02
 11
-6.92250983E+01
 21
1.56117874E+02
  0
LINE
  8
0
 62
7
 10
-6.92250983E+01
 20
1.56117874E+02
 11
-6.67250983E+01
 21
1.54675017E+02
  0
LINE
  8
0
 62
7
 10
-6.67250983E+01
 20
8.06750161E+01
 11
-6.42250982E+01
 21
8.21178732E+01
  0
LINE
  8
0
 62
7
 10
-6.42250982E+01
 20
8.50035876E+01
 11
-6.42250982E+01
 21
8.21178732E+01
  0
LINE
  8
0
 62
7
 10
-6.67250983E+01
 20
8.64464447E+01
 11
-6.42250982E+01
 21
8.50035876E+01
  0
LINE
  8
0
 62
7
 10
-6.92250983E+01
 20
8.50035876E+01
 11
-6.67250983E+01
 21
8.64464447E+01
  0
LINE
  8
0
 62
7
 10
-6.92250983E+01
 20
8.50035876E+01
 11
-6.92250983E+01
 21
8.21178732E+01
  0
LINE
  8
0
 62
7
 10
-6.92250983E+01
 20
8.21178732E+01
 11
-6.67250983E+01
 21
8.06750161E+01
  0
LINE
  8
0
 62
7
 10
7.27490297E+00
 20
8.06750161E+01
 11
9.77490302E+00
 21
8.21178732E+01
  0
LINE
  8
0
 62
7
 10
9.77490302E+00
 20
8.50035876E+01
 11
9.77490302E+00
 21
8.21178732E+01
  0
LINE
  8
0
 62
7
 10
7.27490297E+00
 20
8.64464447E+01
 11
9.77490302E+00
 21
8.50035876E+01
  0
LINE
  8
0
 62
7
 10
4.77490293E+00
 20
8.50035876E+01
 11
7.27490297E+00
 21
8.64464447E+01
  0
LINE
  8
0
 62
7
 10
4.77490293E+00
 20
8.50035876E+01
 11
4.77490293E+00
 21
8.21178732E+01
  0
LINE
  8
0
 62
7
 10
4.77490293E+00
 20
8.21178732E+01
 11
7.27490297E+00
 21
8.06750161E+01
  0
LINE
  8
0
 62
7
 10
-2.07250975E+01
 20
1.38560731E+02
 11
-2.07250975E+01
 21
1.40560731E+02
  0
LINE
  8
0
 62
7
 10
-1.47250974E+01
 20
1.38560731E+02
 11
-1.47250974E+01
 21
1.40560731E+02
  0
LINE
  8
0
 62
7
 10
-1.47250974E+01
 20
1.40560731E+02
 11
-2.07250975E+01
 21
1.40560731E+02
  0
LINE
  8
0
 62
7
 10
-1.47250974E+01
 20
1.38560731E+02
 11
-2.07250975E+01
 21
1.38560731E+02
  0
LINE
  8
0
 62
7
 10
-2.26679547E+01
 20
9.15607305E+01
 11
-2.02250975E+01
 21
9.15607305E+01
  0
LINE
  8
0
 62
7
 10
-2.00965261E+01
 20
9.50607306E+01
 11
-2.03822404E+01
 21
9.45750163E+01
  0
LINE
  8
0
 62
7
 10
-2.22250975E+01
 20
9.71750163E+01
 11
-2.27108118E+01
 21
9.69035878E+01
  0
LINE
  8
0
 62
7
 10
-2.52250976E+01
 20
9.84178735E+01
 11
-2.50679547E+01
 21
9.78750164E+01
  0
LINE
  8
0
 62
7
 10
-2.82250976E+01
 20
9.84178735E+01
 11
-2.83679548E+01
 21
9.78750164E+01
  0
LINE
  8
0
 62
7
 10
-3.12108120E+01
 20
9.71750163E+01
 11
-3.07250977E+01
 21
9.69035878E+01
  0
LINE
  8
0
 62
7
 10
-3.33393834E+01
 20
9.50607306E+01
 11
-3.30536691E+01
 21
9.45750163E+01
  0
LINE
  8
0
 62
7
 10
-3.45822406E+01
 20
9.20607305E+01
 11
-3.40393834E+01
 21
9.22035877E+01
  0
LINE
  8
0
 62
7
 10
-3.45822406E+01
 20
8.90607305E+01
 11
-3.40393834E+01
 21
8.89178733E+01
  0
LINE
  8
0
 62
7
 10
-3.33393834E+01
 20
8.60607304E+01
 11
-3.30536691E+01
 21
8.65464447E+01
  0
LINE
  8
0
 62
7
 10
-3.12108120E+01
 20
8.39464447E+01
 11
-3.07250977E+01
 21
8.42321590E+01
  0
LINE
  8
0
 62
7
 10
-2.82250976E+01
 20
8.27035875E+01
 11
-2.83679548E+01
 21
8.32464447E+01
  0
LINE
  8
0
 62
7
 10
-2.52250976E+01
 20
8.27035875E+01
 11
-2.50679547E+01
 21
8.32464447E+01
  0
LINE
  8
0
 62
7
 10
-2.22250975E+01
 20
8.39464447E+01
 11
-2.27108118E+01
 21
8.42178733E+01
  0
LINE
  8
0
 62
7
 10
-2.00965261E+01
 20
8.60607304E+01
 11
-2.03822404E+01
 21
8.65464447E+01
  0
LINE
  8
0
 62
7
 10
-2.26679547E+01
 20
8.95607305E+01
 11
-2.02250975E+01
 21
8.95607305E+01
  0
LINE
  8
0
 62
7
 10
-3.32250977E+01
 20
8.95607305E+01
 11
-3.32250977E+01
 21
9.15607305E+01
  0
LINE
  8
0
 62
7
 10
-3.32250977E+01
 20
9.15607305E+01
 11
-3.07679548E+01
 21
9.15607305E+01
  0
LINE
  8
0
 62
7
 10
-3.32250977E+01
 20
8.95607305E+01
 11
-3.07679548E+01
 21
8.95607305E+01
  0
LINE
  8
0
 62
7
 10
-1.88679546E+01
 20
8.90607305E+01
 11
-1.93965261E+01
 21
8.89178733E+01
  0
LINE
  8
0
 62
7
 10
-1.88536689E+01
 20
9.20607305E+01
 11
-1.93965261E+01
 21
9.22035877E+01
  0
LINE
  8
0
  6
CENTER
 62
2
 10
-2.67250976E+01
 20
7.95607303E+01
 11
-2.67250976E+01
 21
1.01560731E+02
  0
LINE
  8
0
  6
CENTER
 62
2
 10
-3.77250978E+01
 20
9.05607305E+01
 11
-1.57250974E+01
 21
9.05607305E+01
  0
LINE
  8
0
 62
7
 10
-3.07679548E+01
 20
8.82178733E+01
 11
-3.07679548E+01
 21
9.29035877E+01
  0
LINE
  8
0
 62
7
 10
-2.26679547E+01
 20
8.82178733E+01
 11
-2.26679547E+01
 21
9.29035877E+01
  0
LINE
  8
0
 62
7
 10
-2.26679547E+01
 20
9.29035877E+01
 11
-2.67250976E+01
 21
9.52321592E+01
  0
LINE
  8
0
 62
7
 10
-2.67250976E+01
 20
8.58893019E+01
 11
-3.07679548E+01
 21
8.82178733E+01
  0
LINE
  8
0
 62
7
 10
-3.07679548E+01
 20
9.29035877E+01
 11
-2.67250976E+01
 21
9.52321592E+01
  0
LINE
  8
0
 62
7
 10
-2.67250976E+01
 20
8.58893019E+01
 11
-2.26679547E+01
 21
8.82178733E+01
  0
LINE
  8
0
 62
7
 10
-2.02250975E+01
 20
8.95607305E+01
 11
-2.02250975E+01
 21
9.15607305E+01
  0
LINE
  8
0
 62
7
 10
-5.52965267E+01
 20
1.50660732E+02
 11
-5.66822410E+01
 21
1.51446446E+02
  0
LINE
  8
0
 62
7
 10
-4.13938293E+00
 20
1.50660732E+02
 11
-2.75366863E+00
 21
1.51446446E+02
  0
LINE
  8
0
 62
7
 10
-5.61393838E+01
 20
8.66464447E+01
 11
-5.77250981E+01
 21
9.55607306E+01
  0
LINE
  8
0
 62
7
 10
-5.52965267E+01
 20
9.04607305E+01
 11
-5.64536695E+01
 21
9.70607306E+01
  0
LINE
  8
0
 62
7
 10
-5.52965267E+01
 20
9.04607305E+01
 11
-5.66822410E+01
 21
8.96750162E+01
  0
LINE
  8
0
 62
7
 10
-3.29652578E+00
 20
8.66464447E+01
 11
-1.72509718E+00
 21
9.55607306E+01
  0
LINE
  8
0
 62
7
 10
-4.13938293E+00
 20
9.04607305E+01
 11
-2.98224006E+00
 21
9.70607306E+01
  0
LINE
  8
0
 62
7
 10
-4.13938293E+00
 20
9.04607305E+01
 11
-2.75366863E+00
 21
8.96750162E+01
  0
LINE
  8
0
  6
PHANTOM
 62
6
 10
-7.37250984E+01
 20
1.80560732E+02
 11
1.42749031E+01
 21
1.80560732E+02
  0
LINE
  8
0
  6
PHANTOM
 62
6
 10
1.42749031E+01
 20
1.61432160E+02
 11
1.42749031E+01
 21
1.80560732E+02
  0
LINE
  8
0
  6
PHANTOM
 62
6
 10
-7.37250984E+01
 20
1.61432160E+02
 11
-7.37250984E+01
 21
1.80560732E+02
  0
LINE
  8
0
  6
PHANTOM
 62
6
 10
-7.37250984E+01
 20
1.77360732E+02
 11
1.42749031E+01
 21
1.77360732E+02
  0
LINE
  8
0
  6
PHANTOM
 62
6
 10
-6.87250983E+01
 20
1.77360732E+02
 11
-6.87250983E+01
 21
1.80560732E+02
  0
LINE
  8
0
  6
PHANTOM
 62
6
 10
9.27490301E+00
 20
1.77360732E+02
 11
9.27490301E+00
 21
1.80560732E+02
  0
ARC
  8
0
 62
7
 10
-4.07379234E+01
 20
1.39580155E+02
 40
1.34957497E+01
 50
3.68561661E+01
 51
5.37284797E+01
  0
ARC
  8
0
 62
7
 10
-4.07325547E+01
 20
1.39565480E+02
 40
1.34929896E+01
 50
9.69004684E+01
 51
1.12962366E+02
  0
ARC
  8
0
 62
7
 10
-4.07284655E+01
 20
1.39564099E+02
 40
1.34924422E+01
 50
1.26951968E+02
 51
1.43048032E+02
  0
CIRCLE
  8
0
 62
7
 10
-4.07250935E+01
 20
1.39567472E+02
 40
6.99999957E+00
  0
ARC
  8
0
 62
7
 10
-4.07285196E+01
 20
1.39580295E+02
 40
1.35013630E+01
 50
6.90548175E+00
 51
2.29573526E+01
  0
ARC
  8
0
 62
7
 10
-3.02258022E+01
 20
1.36564920E+02
 40
4.00486844E+00
 50
2.98101269E+02
 51
2.98906503E+01
  0
CIRCLE
  8
0
 62
7
 10
-4.07250935E+01
 20
1.39567472E+02
 40
1.40000005E+01
  0
ARC
  8
0
 62
7
 10
-4.07043069E+01
 20
1.39561912E+02
 40
1.34966468E+01
 50
6.70398246E+01
 51
8.30973410E+01
  0
CIRCLE
  8
0
 62
7
 10
-4.07250935E+01
 20
1.39567472E+02
 40
1.25000002E+01
  0
ARC
  8
0
 62
7
 10
-4.07318943E+01
 20
1.39542068E+02
 40
1.35048214E+01
 50
3.37044717E+02
 51
3.53092449E+02
  0
ARC
  8
0
 62
7
 10
-4.07502137E+01
 20
1.39542283E+02
 40
1.35061702E+01
 50
3.07135419E+02
 51
3.23171796E+02
  0
ARC
  8
0
 62
7
 10
-4.07076621E+01
 20
1.39572133E+02
 40
1.35095409E+01
 50
2.76910372E+02
 51
2.92952462E+02
  0
ARC
  8
0
 62
7
 10
-4.07291986E+01
 20
1.39568568E+02
 40
1.35058871E+01
 50
2.47045353E+02
 51
2.63091812E+02
  0
ARC
  8
0
 62
7
 10
-4.07217246E+01
 20
1.39564105E+02
 40
1.35018814E+01
 50
2.16957631E+02
 51
2.33042369E+02
  0
ARC
  8
0
 62
7
 10
-4.07304979E+01
 20
1.39587505E+02
 40
1.34982585E+01
 50
1.87105247E+02
 51
2.03176721E+02
  0
ARC
  8
0
 62
7
 10
-4.07338719E+01
 20
1.39534870E+02
 40
1.34947975E+01
 50
1.56821205E+02
 51
1.72896828E+02
  0
ARC
  8
0
 62
7
 10
-6.67284353E+01
 20
1.57564069E+02
 40
7.99666379E+00
 50
8.99760901E+01
 51
1.80023910E+02
  0
ARC
  8
0
 62
7
 10
-6.67217206E+01
 20
8.35641081E+01
 40
8.00337854E+00
 50
1.80024181E+02
 51
2.69975819E+02
  0
ARC
  8
0
 62
7
 10
7.27154707E+00
 20
8.35640863E+01
 40
8.00335674E+00
 50
2.70024025E+02
 51
3.59975975E+02
  0
ARC
  8
0
 62
7
 10
7.27826182E+00
 20
1.57564091E+02
 40
7.99664199E+00
 50
3.59975934E+02
 51
9.00240661E+01
  0
ARC
  8
0
 62
7
 10
-6.67284368E+01
 20
1.57564070E+02
 40
7.00333948E+00
 50
2.70027313E+02
 51
3.59972687E+02
  0
ARC
  8
0
 62
7
 10
7.27826332E+00
 20
1.57564092E+02
 40
7.00336127E+00
 50
1.80027491E+02
 51
2.69972508E+02
  0
ARC
  8
0
 62
7
 10
7.27153769E+00
 20
8.35640957E+01
 40
6.99663564E+00
 50
8.99724415E+01
 51
1.80027558E+02
  0
ARC
  8
0
 62
7
 10
-6.67217439E+01
 20
8.35640848E+01
 40
6.99664654E+00
 50
3.59972531E+02
 51
9.00274689E+01
  0
CIRCLE
  8
0
 62
7
 10
-6.67250678E+01
 20
1.57567438E+02
 40
5.00000009E+00
  0
CIRCLE
  8
0
 62
7
 10
-6.67250678E+01
 20
1.57567438E+02
 40
6.09999940E+00
  0
CIRCLE
  8
0
 62
7
 10
7.27491605E+00
 20
1.57567438E+02
 40
6.09999940E+00
  0
CIRCLE
  8
0
 62
7
 10
7.27491605E+00
 20
8.35674539E+01
 40
6.09999940E+00
  0
CIRCLE
  8
0
 62
7
 10
-6.67250678E+01
 20
8.35674539E+01
 40
6.09999940E+00
  0
CIRCLE
  8
0
 62
7
 10
-6.67250678E+01
 20
8.35674539E+01
 40
5.00000009E+00
  0
CIRCLE
  8
0
 62
7
 10
7.27491605E+00
 20
8.35674539E+01
 40
5.00000009E+00
  0
CIRCLE
  8
0
 62
7
 10
7.27491605E+00
 20
1.57567438E+02
 40
5.00000009E+00
  0
CIRCLE
  8
0
 62
7
 10
7.27491605E+00
 20
1.57567438E+02
 40
4.39999997E+00
  0
CIRCLE
  8
0
 62
7
 10
-6.67250678E+01
 20
1.57567438E+02
 40
4.39999997E+00
  0
CIRCLE
  8
0
 62
7
 10
-6.67250678E+01
 20
8.35674539E+01
 40
4.39999997E+00
  0
CIRCLE
  8
0
 62
7
 10
7.27491605E+00
 20
8.35674539E+01
 40
4.39999997E+00
  0
CIRCLE
  8
0
 62
7
 10
7.27491605E+00
 20
1.57567438E+02
 40
2.50000004E+00
  0
CIRCLE
  8
0
 62
7
 10
-6.67250678E+01
 20
1.57567438E+02
 40
2.50000004E+00
  0
CIRCLE
  8
0
 62
7
 10
-6.67250678E+01
 20
8.35674539E+01
 40
2.50000004E+00
  0
CIRCLE
  8
0
 62
7
 10
7.27491605E+00
 20
8.35674539E+01
 40
2.50000004E+00
  0
ARC
  8
0
 62
7
 10
-5.87284215E+01
 20
1.64564055E+02
 40
9.96682198E-01
 50
8.98089514E+01
 51
1.80191049E+02
  0
ARC
  8
0
 62
7
 10
-7.37284218E+01
 20
1.49564055E+02
 40
9.96682198E-01
 50
8.98089514E+01
 51
1.80191049E+02
  0
ARC
  8
0
 62
7
 10
-7.37217290E+01
 20
9.15641000E+01
 40
1.00337511E+00
 50
1.80192405E+02
 51
2.69807594E+02
  0
ARC
  8
0
 62
7
 10
-5.87217504E+01
 20
7.65640780E+01
 40
1.00335331E+00
 50
1.80191169E+02
 51
2.69808831E+02
  0
ARC
  8
0
 62
7
 10
-7.28455735E-01
 20
7.65640889E+01
 40
1.00336421E+00
 50
2.70191787E+02
 51
3.59808213E+02
  0
ARC
  8
0
 62
7
 10
1.42715554E+01
 20
9.15640782E+01
 40
1.00335331E+00
 50
2.70191169E+02
 51
3.59808831E+02
  0
ARC
  8
0
 62
7
 10
1.42782483E+01
 20
1.49564077E+02
 40
9.96660400E-01
 50
3.59807690E+02
 51
9.01923100E+01
  0
ARC
  8
0
 62
7
 10
-7.21751932E-01
 20
1.64564077E+02
 40
9.96660400E-01
 50
3.59807690E+02
 51
9.01923100E+01
  0
CIRCLE
  8
0
 62
7
 10
-2.67251107E+01
 20
9.05674889E+01
 40
7.99999932E+00
  0
CIRCLE
  8
0
 62
7
 10
-2.67251107E+01
 20
9.05674889E+01
 40
7.50000013E+00
  0
CIRCLE
  8
0
 62
7
 10
-2.67251107E+01
 20
9.05674889E+01
 40
4.05000012E+00
  0
CIRCLE
  8
0
 62
7
 10
-2.67251107E+01
 20
9.05674453E+01
 40
5.99999983E+00
  0
ARC
  8
0
 62
7
 10
-2.97179548E+01
 20
1.20567445E+02
 40
4.29974923E+01
 50
5.20852968E+01
 51
1.27914703E+02
  0
ARC
  8
0
 62
7
 10
-2.97179548E+01
 20
1.20567445E+02
 40
4.09949436E+01
 50
4.88717561E+01
 51
1.31128244E+02
  0
ARC
  8
0
 62
7
 10
-2.97179548E+01
 20
1.20567445E+02
 40
3.94951797E+01
 50
4.96362609E+01
 51
1.30363739E+02
  0
ARC
  8
0
 62
7
 10
-2.97179548E+01
 20
1.20567446E+02
 40
3.95054132E+01
 50
2.29648875E+02
 51
3.10351125E+02
  0
ARC
  8
0
 62
7
 10
-2.97179548E+01
 20
1.20567446E+02
 40
4.10050602E+01
 50
2.28884099E+02
 51
3.11115901E+02
  0
ARC
  8
0
 62
7
 10
-2.97179548E+01
 20
1.20567446E+02
 40
4.29968168E+01
 50
2.32084596E+02
 51
3.07915404E+02
  0
ARC
  8
0
  6
PHANTOM
 62
6
 10
-5.47179552E+01
 20
1.77367418E+02
 40
7.99874112E+00
 50
1.91587683E+02
 51
3.48412317E+02
  0
ARC
  8
0
  6
PHANTOM
 62
6
 10
-4.71795437E+00
 20
1.77367418E+02
 40
7.99874113E+00
 50
1.91587683E+02
 51
3.48412317E+02
  0
ARC
  8
0
  6
PHANTOM
 62
6
 10
-4.49277296E+01
 20
1.75366949E+02
 40
1.99378517E+00
 50
8.99243720E+01
 51
1.68608879E+02
  0
ARC
  8
0
  6
PHANTOM
 62
6
 10
-6.45139207E+01
 20
1.75359927E+02
 40
2.00080698E+00
 50
1.15557566E+01
 51
8.99109929E+01
  0
ARC
  8
0
  6
PHANTOM
 62
6
 10
-1.45139199E+01
 20
1.75359927E+02
 40
2.00080698E+00
 50
1.15557566E+01
 51
8.99109929E+01
  0
ARC
  8
0
  6
PHANTOM
 62
6
 10
5.07227122E+00
 20
1.75366949E+02
 40
1.99378517E+00
 50
8.99243720E+01
 51
1.68608879E+02
  0
ARC
  8
0
 62
7
 10
-6.02428116E+01
 20
1.48566657E+02
 40
3.00592707E+00
 50
2.70065335E+02
 51
3.50034121E+02
  0
ARC
  8
0
 62
7
 10
-6.02347882E+01
 20
9.25613575E+01
 40
2.99937665E+00
 50
1.01379094E+01
 51
9.00877899E+01
  0
ARC
  8
0
 62
7
 10
7.93175811E-01
 20
9.25681810E+01
 40
2.99256732E+00
 50
8.98028248E+01
 51
1.69971476E+02
  0
ARC
  8
0
 62
7
 10
8.01259967E-01
 20
1.48559945E+02
 40
2.99921388E+00
 50
1.89858243E+02
 51
2.70042301E+02
  0
LINE
  8
0
 62
4
 10
-2.06667948E+02
 20
4.28607286E+01
 11
-1.90510805E+02
 21
4.28607286E+01
  0
LINE
  8
0
 62
4
 10
-1.90839376E+02
 20
4.05750143E+01
 11
-2.06339377E+02
 21
4.05750143E+01
  0
LINE
  8
0
 62
4
 10
-2.04853662E+02
 20
2.80750141E+01
 11
-2.05596519E+02
 21
2.80750141E+01
  0
LINE
  8
0
 62
4
 10
-1.91582233E+02
 20
2.80750141E+01
 11
-1.92325091E+02
 21
2.80750141E+01
  0
LINE
  8
0
 62
4
 10
-2.00425091E+02
 20
2.80750141E+01
 11
-2.02239376E+02
 21
2.80750141E+01
  0
LINE
  8
0
 62
4
 10
-2.05025091E+02
 20
2.85750141E+01
 11
-2.04853662E+02
 21
2.80750141E+01
  0
LINE
  8
0
 62
4
 10
-1.92153662E+02
 20
2.85750141E+01
 11
-1.92325091E+02
 21
2.80750141E+01
  0
LINE
  8
0
 62
4
 10
-1.91582233E+02
 20
3.77750142E+01
 11
-1.90982233E+02
 21
3.80750142E+01
  0
LINE
  8
0
 62
4
 10
-1.94925091E+02
 20
3.77750142E+01
 11
-1.94267948E+02
 21
3.80750142E+01
  0
LINE
  8
0
 62
4
 10
-1.96739376E+02
 20
3.77750142E+01
 11
-1.97082233E+02
 21
3.80750142E+01
  0
LINE
  8
0
 62
4
 10
-2.00425091E+02
 20
3.77750142E+01
 11
-2.00082234E+02
 21
3.80750142E+01
  0
LINE
  8
0
 62
4
 10
-2.02239376E+02
 20
3.77750142E+01
 11
-2.02896519E+02
 21
3.80607285E+01
  0
LINE
  8
0
 62
4
 10
-2.05596519E+02
 20
3.77750142E+01
 11
-2.06196519E+02
 21
3.80607285E+01
  0
LINE
  8
0
 62
4
 10
-2.05596519E+02
 20
2.80750141E+01
 11
-2.06196519E+02
 21
2.85750141E+01
  0
LINE
  8
0
 62
4
 10
-2.02239376E+02
 20
2.80750141E+01
 11
-2.02896519E+02
 21
2.85750141E+01
  0
LINE
  8
0
 62
4
 10
-2.00082234E+02
 20
2.85750141E+01
 11
-2.00425091E+02
 21
2.80750141E+01
  0
LINE
  8
0
 62
4
 10
-1.96753662E+02
 20
2.80750141E+01
 11
-1.97082233E+02
 21
2.85750141E+01
  0
LINE
  8
0
 62
4
 10
-1.94925091E+02
 20
2.80750141E+01
 11
-1.94267948E+02
 21
2.85750141E+01
  0
LINE
  8
0
 62
4
 10
-1.91582233E+02
 20
2.80750141E+01
 11
-1.90982233E+02
 21
2.85750141E+01
  0
LINE
  8
0
 62
4
 10
-1.94925091E+02
 20
2.80750141E+01
 11
-1.96739376E+02
 21
2.80750141E+01
  0
LINE
  8
0
 62
4
 10
-1.92153662E+02
 20
2.85750141E+01
 11
-1.94267948E+02
 21
2.85750141E+01
  0
LINE
  8
0
 62
4
 10
-2.06196519E+02
 20
2.85750141E+01
 11
-2.06339377E+02
 21
2.85750141E+01
  0
LINE
  8
0
 62
4
 10
-2.02896519E+02
 20
2.85750141E+01
 11
-2.05025091E+02
 21
2.85750141E+01
  0
LINE
  8
0
 62
4
 10
-1.97082233E+02
 20
2.85750141E+01
 11
-2.00082234E+02
 21
2.85750141E+01
  0
LINE
  8
0
 62
4
 10
-2.05025091E+02
 20
3.77750142E+01
 11
-2.05596519E+02
 21
3.77750142E+01
  0
LINE
  8
0
 62
4
 10
-2.05025091E+02
 20
3.80750142E+01
 11
-2.06196519E+02
 21
3.80750142E+01
  0
LINE
  8
0
 62
4
 10
-1.94925091E+02
 20
3.77750142E+01
 11
-1.96739376E+02
 21
3.77750142E+01
  0
LINE
  8
0
 62
4
 10
-1.94267948E+02
 20
3.80750142E+01
 11
-1.97082233E+02
 21
3.80750142E+01
  0
LINE
  8
0
 62
4
 10
-2.00425091E+02
 20
3.77750142E+01
 11
-2.02239376E+02
 21
3.77750142E+01
  0
LINE
  8
0
 62
4
 10
-2.00082234E+02
 20
3.80750142E+01
 11
-2.02896519E+02
 21
3.80750142E+01
  0
LINE
  8
0
 62
4
 10
-1.90839376E+02
 20
2.85750141E+01
 11
-1.90982233E+02
 21
2.85750141E+01
  0
LINE
  8
0
 62
4
 10
-1.91582233E+02
 20
3.77750142E+01
 11
-1.92153662E+02
 21
3.77750142E+01
  0
LINE
  8
0
 62
4
 10
-1.90982233E+02
 20
3.80750142E+01
 11
-1.92153662E+02
 21
3.80750142E+01
  0
LINE
  8
0
 62
4
 10
-1.90982233E+02
 20
3.80750142E+01
 11
-1.90982233E+02
 21
2.85750141E+01
  0
LINE
  8
0
 62
4
 10
-1.91582233E+02
 20
3.77750142E+01
 11
-1.91582233E+02
 21
2.80750141E+01
  0
LINE
  8
0
 62
4
 10
-1.92153662E+02
 20
3.80750142E+01
 11
-1.92153662E+02
 21
2.85750141E+01
  0
LINE
  8
0
 62
4
 10
-1.94267948E+02
 20
3.80750142E+01
 11
-1.94267948E+02
 21
2.85750141E+01
  0
LINE
  8
0
 62
4
 10
-1.94925091E+02
 20
3.77750142E+01
 11
-1.94925091E+02
 21
2.80750141E+01
  0
LINE
  8
0
 62
4
 10
-2.06196519E+02
 20
3.80750142E+01
 11
-2.06196519E+02
 21
2.85750141E+01
  0
LINE
  8
0
 62
4
 10
-2.05596519E+02
 20
3.77750142E+01
 11
-2.05596519E+02
 21
2.80750141E+01
  0
LINE
  8
0
 62
4
 10
-2.05025091E+02
 20
3.80750142E+01
 11
-2.05025091E+02
 21
2.85750141E+01
  0
LINE
  8
0
 62
4
 10
-2.02896519E+02
 20
3.80750142E+01
 11
-2.02896519E+02
 21
2.85750141E+01
  0
LINE
  8
0
 62
4
 10
-2.02239376E+02
 20
3.77750142E+01
 11
-2.02239376E+02
 21
2.80750141E+01
  0
LINE
  8
0
 62
4
 10
-2.00425091E+02
 20
3.77750142E+01
 11
-2.00425091E+02
 21
2.80750141E+01
  0
LINE
  8
0
 62
4
 10
-1.96739376E+02
 20
3.77750142E+01
 11
-1.96739376E+02
 21
2.80750141E+01
  0
LINE
  8
0
 62
4
 10
-1.97082233E+02
 20
3.80750142E+01
 11
-1.97082233E+02
 21
2.85750141E+01
  0
LINE
  8
0
 62
4
 10
-2.00082234E+02
 20
3.80750142E+01
 11
-2.00082234E+02
 21
2.85750141E+01
  0
LINE
  8
0
 62
6
 10
-1.93339376E+02
 20
4.23607286E+01
 11
-1.93339376E+02
 21
4.10750143E+01
  0
LINE
  8
0
 62
6
 10
-2.03839376E+02
 20
4.23607286E+01
 11
-2.03839376E+02
 21
4.10750143E+01
  0
LINE
  8
0
 62
4
 10
-2.04582234E+02
 20
4.23607286E+01
 11
-2.04582234E+02
 21
4.10750143E+01
  0
LINE
  8
0
 62
4
 10
-1.92582233E+02
 20
4.23607286E+01
 11
-1.92582233E+02
 21
4.10750143E+01
  0
LINE
  8
0
 62
4
 10
-2.05839376E+02
 20
4.10750143E+01
 11
-2.06339377E+02
 21
4.05750143E+01
  0
LINE
  8
0
 62
4
 10
-1.91339376E+02
 20
4.10750143E+01
 11
-1.90839376E+02
 21
4.05750143E+01
  0
LINE
  8
0
 62
4
 10
-1.91339376E+02
 20
4.10750143E+01
 11
-2.05839376E+02
 21
4.10750143E+01
  0
LINE
  8
0
 62
4
 10
-2.05339376E+02
 20
2.75750141E+01
 11
-2.06339377E+02
 21
2.85750141E+01
  0
LINE
  8
0
 62
4
 10
-1.90839376E+02
 20
2.85750141E+01
 11
-1.91839376E+02
 21
2.75750141E+01
  0
LINE
  8
0
 62
4
 10
-2.06339377E+02
 20
4.05750143E+01
 11
-2.06339377E+02
 21
2.85750141E+01
  0
LINE
  8
0
 62
4
 10
-1.90839376E+02
 20
4.05750143E+01
 11
-1.90839376E+02
 21
2.85750141E+01
  0
LINE
  8
0
 62
4
 10
-1.91839376E+02
 20
2.75750141E+01
 11
-2.05339376E+02
 21
2.75750141E+01
  0
LINE
  8
0
 62
4
 10
-2.06167948E+02
 20
4.23607286E+01
 11
-2.06667948E+02
 21
4.28607286E+01
  0
LINE
  8
0
 62
4
 10
-1.91010805E+02
 20
4.23607286E+01
 11
-1.90510805E+02
 21
4.28607286E+01
  0
LINE
  8
0
 62
4
 10
-1.90510805E+02
 20
4.28607286E+01
 11
-1.90510805E+02
 21
4.38607286E+01
  0
LINE
  8
0
 62
4
 10
-2.06667948E+02
 20
4.28607286E+01
 11
-2.06667948E+02
 21
4.38607286E+01
  0
LINE
  8
0
 62
4
 10
-2.06167948E+02
 20
4.23607286E+01
 11
-1.91010805E+02
 21
4.23607286E+01
  0
LINE
  8
0
 62
4
 10
-2.06667948E+02
 20
-9.99821310E+01
 11
-1.90510805E+02
 21
-9.99821310E+01
  0
LINE
  8
0
 62
4
 10
-2.05082234E+02
 20
-1.16282131E+02
 11
-1.92082233E+02
 21
-1.16282131E+02
  0
LINE
  8
0
 62
4
 10
-2.01439376E+02
 20
-1.18582131E+02
 11
-2.01439376E+02
 21
-1.16782131E+02
  0
LINE
  8
0
 62
4
 10
-1.95739376E+02
 20
-1.18582131E+02
 11
-1.95739376E+02
 21
-1.16782131E+02
  0
LINE
  8
0
 62
4
 10
-1.95339376E+02
 20
-1.18782131E+02
 11
-1.95767948E+02
 21
-1.21182131E+02
  0
LINE
  8
0
 62
4
 10
-1.95339376E+02
 20
-1.21382131E+02
 11
-1.95767948E+02
 21
-1.23782131E+02
  0
LINE
  8
0
 62
4
 10
-2.01839376E+02
 20
-1.21382131E+02
 11
-2.01410805E+02
 21
-1.23782131E+02
  0
LINE
  8
0
 62
4
 10
-2.01839376E+02
 20
-1.18782131E+02
 11
-2.01410805E+02
 21
-1.21182131E+02
  0
LINE
  8
0
 62
4
 10
-1.95339376E+02
 20
-1.18782131E+02
 11
-1.95339376E+02
 21
-1.18582131E+02
  0
LINE
  8
0
 62
4
 10
-2.01839376E+02
 20
-1.18782131E+02
 11
-2.01839376E+02
 21
-1.18582131E+02
  0
LINE
  8
0
 62
4
 10
-1.95339376E+02
 20
-1.21382131E+02
 11
-2.01839376E+02
 21
-1.21382131E+02
  0
LINE
  8
0
 62
4
 10
-1.95339376E+02
 20
-1.18782131E+02
 11
-2.01839376E+02
 21
-1.18782131E+02
  0
LINE
  8
0
 62
4
 10
-1.95339376E+02
 20
-1.18582131E+02
 11
-2.01839376E+02
 21
-1.18582131E+02
  0
LINE
  8
0
 62
4
 10
-1.95339376E+02
 20
-1.21182131E+02
 11
-2.01839376E+02
 21
-1.21182131E+02
  0
LINE
  8
0
 62
4
 10
-1.95339376E+02
 20
-1.21382131E+02
 11
-1.95339376E+02
 21
-1.21182131E+02
  0
LINE
  8
0
 62
4
 10
-2.01839376E+02
 20
-1.21382131E+02
 11
-2.01839376E+02
 21
-1.21182131E+02
  0
LINE
  8
0
 62
4
 10
-1.95767948E+02
 20
-1.23782131E+02
 11
-2.01410805E+02
 21
-1.23782131E+02
  0
LINE
  8
0
 62
4
 10
-1.92582233E+02
 20
-1.16782131E+02
 11
-1.92082233E+02
 21
-1.16282131E+02
  0
LINE
  8
0
 62
4
 10
-2.05082234E+02
 20
-1.16282131E+02
 11
-2.04582234E+02
 21
-1.16782131E+02
  0
LINE
  8
0
 62
4
 10
-2.05082234E+02
 20
-1.16282131E+02
 11
-2.05082234E+02
 21
-1.15282131E+02
  0
LINE
  8
0
 62
4
 10
-1.92082233E+02
 20
-1.16282131E+02
 11
-1.92082233E+02
 21
-1.15282131E+02
  0
LINE
  8
0
 62
4
 10
-1.92582233E+02
 20
-1.16782131E+02
 11
-2.04582234E+02
 21
-1.16782131E+02
  0
LINE
  8
0
 62
4
 10
-1.90839376E+02
 20
-1.02282131E+02
 11
-2.06339377E+02
 21
-1.02282131E+02
  0
LINE
  8
0
 62
4
 10
-2.04853662E+02
 20
-1.14782131E+02
 11
-2.05596519E+02
 21
-1.14782131E+02
  0
LINE
  8
0
 62
4
 10
-1.91582233E+02
 20
-1.14782131E+02
 11
-1.92325091E+02
 21
-1.14782131E+02
  0
LINE
  8
0
 62
4
 10
-2.00425091E+02
 20
-1.14782131E+02
 11
-2.02239376E+02
 21
-1.14782131E+02
  0
LINE
  8
0
 62
4
 10
-2.05025091E+02
 20
-1.14282131E+02
 11
-2.04853662E+02
 21
-1.14782131E+02
  0
LINE
  8
0
 62
4
 10
-1.92153662E+02
 20
-1.14282131E+02
 11
-1.92325091E+02
 21
-1.14782131E+02
  0
LINE
  8
0
 62
4
 10
-1.91582233E+02
 20
-1.05067845E+02
 11
-1.90982233E+02
 21
-1.04782131E+02
  0
LINE
  8
0
 62
4
 10
-1.94925091E+02
 20
-1.05067845E+02
 11
-1.94267948E+02
 21
-1.04782131E+02
  0
LINE
  8
0
 62
4
 10
-1.96739376E+02
 20
-1.05067845E+02
 11
-1.97082233E+02
 21
-1.04782131E+02
  0
LINE
  8
0
 62
4
 10
-2.00425091E+02
 20
-1.05067845E+02
 11
-2.00082234E+02
 21
-1.04782131E+02
  0
LINE
  8
0
 62
4
 10
-2.02239376E+02
 20
-1.05067845E+02
 11
-2.02910805E+02
 21
-1.04782131E+02
  0
LINE
  8
0
 62
4
 10
-2.05596519E+02
 20
-1.05067845E+02
 11
-2.06196519E+02
 21
-1.04782131E+02
  0
LINE
  8
0
 62
4
 10
-2.05596519E+02
 20
-1.14782131E+02
 11
-2.06196519E+02
 21
-1.14282131E+02
  0
LINE
  8
0
 62
4
 10
-2.02239376E+02
 20
-1.14782131E+02
 11
-2.02896519E+02
 21
-1.14282131E+02
  0
LINE
  8
0
 62
4
 10
-2.00082234E+02
 20
-1.14282131E+02
 11
-2.00425091E+02
 21
-1.14782131E+02
  0
LINE
  8
0
 62
4
 10
-1.96753662E+02
 20
-1.14782131E+02
 11
-1.97082233E+02
 21
-1.14282131E+02
  0
LINE
  8
0
 62
4
 10
-1.94925091E+02
 20
-1.14782131E+02
 11
-1.94267948E+02
 21
-1.14282131E+02
  0
LINE
  8
0
 62
4
 10
-1.91582233E+02
 20
-1.14782131E+02
 11
-1.90982233E+02
 21
-1.14282131E+02
  0
LINE
  8
0
 62
4
 10
-1.94925091E+02
 20
-1.14782131E+02
 11
-1.96739376E+02
 21
-1.14782131E+02
  0
LINE
  8
0
 62
4
 10
-1.92153662E+02
 20
-1.14282131E+02
 11
-1.94267948E+02
 21
-1.14282131E+02
  0
LINE
  8
0
 62
4
 10
-2.06196519E+02
 20
-1.14282131E+02
 11
-2.06339377E+02
 21
-1.14282131E+02
  0
LINE
  8
0
 62
4
 10
-2.02896519E+02
 20
-1.14282131E+02
 11
-2.05025091E+02
 21
-1.14282131E+02
  0
LINE
  8
0
 62
4
 10
-1.97082233E+02
 20
-1.14282131E+02
 11
-2.00082234E+02
 21
-1.14282131E+02
  0
LINE
  8
0
 62
4
 10
-2.05025091E+02
 20
-1.05067845E+02
 11
-2.05596519E+02
 21
-1.05067845E+02
  0
LINE
  8
0
 62
4
 10
-2.05025091E+02
 20
-1.04782131E+02
 11
-2.06196519E+02
 21
-1.04782131E+02
  0
LINE
  8
0
 62
4
 10
-1.94925091E+02
 20
-1.05067845E+02
 11
-1.96739376E+02
 21
-1.05067845E+02
  0
LINE
  8
0
 62
4
 10
-1.94267948E+02
 20
-1.04782131E+02
 11
-1.97082233E+02
 21
-1.04782131E+02
  0
LINE
  8
0
 62
4
 10
-2.00425091E+02
 20
-1.05067845E+02
 11
-2.02239376E+02
 21
-1.05067845E+02
  0
LINE
  8
0
 62
4
 10
-2.00082234E+02
 20
-1.04782131E+02
 11
-2.02896519E+02
 21
-1.04782131E+02
  0
LINE
  8
0
 62
4
 10
-1.90839376E+02
 20
-1.14282131E+02
 11
-1.90982233E+02
 21
-1.14282131E+02
  0
LINE
  8
0
 62
4
 10
-1.91582233E+02
 20
-1.05067845E+02
 11
-1.92153662E+02
 21
-1.05067845E+02
  0
LINE
  8
0
 62
4
 10
-1.90982233E+02
 20
-1.04782131E+02
 11
-1.92153662E+02
 21
-1.04782131E+02
  0
LINE
  8
0
 62
4
 10
-1.90982233E+02
 20
-1.04782131E+02
 11
-1.90982233E+02
 21
-1.14282131E+02
  0
LINE
  8
0
 62
4
 10
-1.91582233E+02
 20
-1.05067845E+02
 11
-1.91582233E+02
 21
-1.14782131E+02
  0
LINE
  8
0
 62
4
 10
-1.92153662E+02
 20
-1.04782131E+02
 11
-1.92153662E+02
 21
-1.14282131E+02
  0
LINE
  8
0
 62
4
 10
-1.94267948E+02
 20
-1.04782131E+02
 11
-1.94267948E+02
 21
-1.14282131E+02
  0
LINE
  8
0
 62
4
 10
-1.94925091E+02
 20
-1.05067845E+02
 11
-1.94925091E+02
 21
-1.14782131E+02
  0
LINE
  8
0
 62
4
 10
-2.06196519E+02
 20
-1.04782131E+02
 11
-2.06196519E+02
 21
-1.14282131E+02
  0
LINE
  8
0
 62
4
 10
-2.05596519E+02
 20
-1.05067845E+02
 11
-2.05596519E+02
 21
-1.14782131E+02
  0
LINE
  8
0
 62
4
 10
-2.05025091E+02
 20
-1.04782131E+02
 11
-2.05025091E+02
 21
-1.14282131E+02
  0
LINE
  8
0
 62
4
 10
-2.02896519E+02
 20
-1.04782131E+02
 11
-2.02896519E+02
 21
-1.14282131E+02
  0
LINE
  8
0
 62
4
 10
-2.02239376E+02
 20
-1.05067845E+02
 11
-2.02239376E+02
 21
-1.14782131E+02
  0
LINE
  8
0
 62
4
 10
-2.00425091E+02
 20
-1.05067845E+02
 11
-2.00425091E+02
 21
-1.14782131E+02
  0
LINE
  8
0
 62
4
 10
-1.96739376E+02
 20
-1.05067845E+02
 11
-1.96739376E+02
 21
-1.14782131E+02
  0
LINE
  8
0
 62
4
 10
-1.97082233E+02
 20
-1.04782131E+02
 11
-1.97082233E+02
 21
-1.14282131E+02
  0
LINE
  8
0
 62
4
 10
-2.00082234E+02
 20
-1.04782131E+02
 11
-2.00082234E+02
 21
-1.14282131E+02
  0
LINE
  8
0
 62
6
 10
-1.93339376E+02
 20
-1.00482131E+02
 11
-1.93339376E+02
 21
-1.01782131E+02
  0
LINE
  8
0
 62
6
 10
-2.03839376E+02
 20
-1.00482131E+02
 11
-2.03839376E+02
 21
-1.01782131E+02
  0
LINE
  8
0
 62
4
 10
-2.04582234E+02
 20
-1.00482131E+02
 11
-2.04582234E+02
 21
-1.01782131E+02
  0
LINE
  8
0
 62
4
 10
-1.92582233E+02
 20
-1.00482131E+02
 11
-1.92582233E+02
 21
-1.01782131E+02
  0
LINE
  8
0
 62
4
 10
-2.05839376E+02
 20
-1.01782131E+02
 11
-2.06339377E+02
 21
-1.02282131E+02
  0
LINE
  8
0
 62
4
 10
-1.91339376E+02
 20
-1.01782131E+02
 11
-1.90839376E+02
 21
-1.02282131E+02
  0
LINE
  8
0
 62
4
 10
-1.91339376E+02
 20
-1.01782131E+02
 11
-2.05839376E+02
 21
-1.01782131E+02
  0
LINE
  8
0
 62
4
 10
-2.05339376E+02
 20
-1.15282131E+02
 11
-2.06339377E+02
 21
-1.14282131E+02
  0
LINE
  8
0
 62
4
 10
-1.90839376E+02
 20
-1.14282131E+02
 11
-1.91839376E+02
 21
-1.15282131E+02
  0
LINE
  8
0
 62
4
 10
-2.06339377E+02
 20
-1.02282131E+02
 11
-2.06339377E+02
 21
-1.14282131E+02
  0
LINE
  8
0
 62
4
 10
-1.90839376E+02
 20
-1.02282131E+02
 11
-1.90839376E+02
 21
-1.14282131E+02
  0
LINE
  8
0
 62
4
 10
-1.91839376E+02
 20
-1.15282131E+02
 11
-2.05339376E+02
 21
-1.15282131E+02
  0
LINE
  8
0
 62
4
 10
-2.06167948E+02
 20
-1.00482131E+02
 11
-2.06667948E+02
 21
-9.99821310E+01
  0
LINE
  8
0
 62
4
 10
-1.91010805E+02
 20
-1.00482131E+02
 11
-1.90510805E+02
 21
-9.99821310E+01
  0
LINE
  8
0
 62
4
 10
-1.90510805E+02
 20
-9.99821310E+01
 11
-1.90510805E+02
 21
-9.89821310E+01
  0
LINE
  8
0
 62
4
 10
-2.06667948E+02
 20
-9.99821310E+01
 11
-2.06667948E+02
 21
-9.89821310E+01
  0
LINE
  8
0
 62
4
 10
-2.06167948E+02
 20
-1.00482131E+02
 11
-1.91010805E+02
 21
-1.00482131E+02
  0
LINE
  8
0
 62
2
 10
-2.32219848E+02
 20
-5.99689594E+01
 11
-1.65116649E+02
 21
-7.79492073E+01
  0
LINE
  8
0
 62
2
 10
-2.32219848E+02
 20
8.28739002E+01
 11
-1.65116649E+02
 21
6.48936523E+01
  0
TEXT
  8
0
 62
7
 10
-2.29800561E+02
 20
1.37350000E+02
 40
6.30000019E+00
  1
LN902-06
 41
1.00000000E+00
  7
MONOTXT
  0
TEXT
  8
0
 62
7
 10
-2.29800561E+02
 20
1.47350000E+02
 40
6.30000019E+00
  1
LN901-06
 41
1.00000000E+00
  7
MONOTXT
  0
LINE
  8
0
 62
7
 10
-1.31250000E+02
 20
1.95500000E+02
 11
-1.31250000E+02
 21
1.75500000E+02
  0
TEXT
  8
0
 62
7
 10
-2.37060938E+02
 20
1.78350000E+02
 40
6.30000019E+00
  1
LUBRICATOR
 41
1.00000000E+00
  7
MONOTXT
  0
TEXT
  8
0
 62
7
 10
-2.78010939E+02
 20
1.86350000E+02
 40
6.30000019E+00
  1
F.R.L.LARGE FLOW SERIES
 41
1.05504587E+00
  7
MONOTXT
  0
TEXT
  8
0
 62
7
 10
-1.06911094E+02
 20
1.55472384E+01
 40
6.30000019E+00
  1
IN
 41
1.00000000E+00
  7
MONOTXT
  0
TEXT
  8
0
 62
7
 10
3.35103362E+01
 20
1.55472384E+01
 40
6.30000019E+00
  1
OUT
 41
1.00000000E+00
  7
MONOTXT
  0
TEXT
  8
0
 62
7
 10
-1.79974271E+02
 20
3.25303631E+00
 40
6.30000019E+00
  1
-D
 41
1.00000000E+00
  7
MONOTXT
  0
TEXT
  8
0
 62
7
 10
-1.83124271E+02
 20
-1.39589823E+02
 40
6.30000019E+00
  1
-F2
 41
1.00000000E+00
  7
MONOTXT
  0
ARC
  8
0
 62
7
 10
-2.26308661E+02
 20
-8.14799860E+01
 40
1.00214696E+00
 50
1.80122616E+02
 51
2.69877384E+02
  0
ARC
  8
0
 62
7
 10
-2.25710076E+02
 20
-8.09814016E+01
 40
1.00072933E+00
 50
1.80041741E+02
 51
2.70000000E+02
  0
ARC
  8
0
 62
7
 10
-2.25452857E+02
 20
-8.04813254E+01
 40
1.00080555E+00
 50
1.80046098E+02
 51
2.70000000E+02
  0
ARC
  8
0
 62
7
 10
-2.23614332E+02
 20
-7.99856577E+01
 40
9.96479156E-01
 50
1.79797197E+02
 51
2.70202802E+02
  0
ARC
  8
0
 62
7
 10
-2.18158052E+02
 20
-8.14920270E+01
 40
9.90153145E-01
 50
2.69427334E+02
 51
5.72666305E-01
  0
ARC
  8
0
 62
7
 10
-2.18158056E+02
 20
-8.09920226E+01
 40
9.90157471E-01
 50
2.69427589E+02
 51
5.72410931E-01
  0
ARC
  8
0
 62
7
 10
-2.18535538E+02
 20
-8.04859689E+01
 40
9.96169166E-01
 50
2.69779239E+02
 51
2.20761493E-01
  0
ARC
  8
0
 62
7
 10
-2.18535543E+02
 20
-7.99859645E+01
 40
9.96173493E-01
 50
2.69779489E+02
 51
2.20510718E-01
  0
ARC
  8
0
 62
7
 10
-1.70862901E+02
 20
-8.14871768E+01
 40
9.94966650E-01
 50
2.69709412E+02
 51
2.90587737E-01
  0
ARC
  8
0
 62
7
 10
-1.71461496E+02
 20
-8.09885823E+01
 40
9.93569296E-01
 50
2.69627952E+02
 51
3.72048491E-01
  0
ARC
  8
0
 62
7
 10
-1.71718594E+02
 20
-8.04886268E+01
 40
9.93525084E-01
 50
2.69625369E+02
 51
3.74631549E-01
  0
ARC
  8
0
 62
7
 10
-1.73550130E+02
 20
-7.99856621E+01
 40
9.96474794E-01
 50
2.69796945E+02
 51
2.03055182E-01
  0
ARC
  8
0
 62
7
 10
-1.79013545E+02
 20
-8.14848708E+01
 40
9.97263597E-01
 50
1.79842568E+02
 51
2.70157432E+02
  0
ARC
  8
0
 62
7
 10
-1.79013540E+02
 20
-8.09848665E+01
 40
9.97267924E-01
 50
1.79842818E+02
 51
2.70157182E+02
  0
ARC
  8
0
 62
7
 10
-1.78628924E+02
 20
-8.04859645E+01
 40
9.96173525E-01
 50
1.79779491E+02
 51
2.70220509E+02
  0
ARC
  8
0
 62
7
 10
-1.78628920E+02
 20
-7.99859602E+01
 40
9.96177852E-01
 50
1.79779742E+02
 51
2.70220258E+02
  0
ARC
  8
0
 62
7
 10
-2.17001314E+02
 20
-8.39864127E+01
 40
1.49957213E+01
 50
1.80474891E+02
 51
2.69963734E+02
  0
ARC
  8
0
 62
7
 10
-1.80163146E+02
 20
-8.39864175E+01
 40
1.49957142E+01
 50
2.69981656E+02
 51
3.59525126E+02
  0
LINE
  8
0
 62
7
 10
-2.27310805E+02
 20
-6.12843333E+01
 11
-2.27310805E+02
 21
-8.14821307E+01
  0
LINE
  8
0
 62
7
 10
-2.26710805E+02
 20
-6.14451028E+01
 11
-2.26710805E+02
 21
-8.09821307E+01
  0
LINE
  8
0
 62
7
 10
-2.17167948E+02
 20
-6.40021037E+01
 11
-2.17167948E+02
 21
-8.14821307E+01
  0
LINE
  8
0
 62
7
 10
-2.18167948E+02
 20
-8.24821307E+01
 11
-2.26310805E+02
 21
-8.24821307E+01
  0
LINE
  8
0
 62
7
 10
-2.18167948E+02
 20
-8.19821307E+01
 11
-2.25710805E+02
 21
-8.19821307E+01
  0
LINE
  8
0
 62
7
 10
-2.17539377E+02
 20
-6.39025797E+01
 11
-2.17539377E+02
 21
-8.04821306E+01
  0
LINE
  8
0
 62
7
 10
-2.24610805E+02
 20
-6.20077961E+01
 11
-2.24610805E+02
 21
-7.99821306E+01
  0
LINE
  8
0
 62
7
 10
-2.26453663E+02
 20
-6.15140040E+01
 11
-2.26453663E+02
 21
-8.04821306E+01
  0
LINE
  8
0
 62
7
 10
-2.18539377E+02
 20
-8.09821307E+01
 11
-2.23610805E+02
 21
-8.09821307E+01
  0
LINE
  8
0
 62
7
 10
-2.18539377E+02
 20
-8.14821307E+01
 11
-2.25453663E+02
 21
-8.14821307E+01
  0
LINE
  8
0
 62
7
 10
-1.69867947E+02
 20
-7.66761007E+01
 11
-1.69867947E+02
 21
-8.14821307E+01
  0
LINE
  8
0
 62
7
 10
-1.70467947E+02
 20
-7.65153312E+01
 11
-1.70467947E+02
 21
-8.09821307E+01
  0
LINE
  8
0
 62
7
 10
-1.80010805E+02
 20
-7.39583303E+01
 11
-1.80010805E+02
 21
-8.14821307E+01
  0
LINE
  8
0
 62
7
 10
-1.79010805E+02
 20
-8.24821307E+01
 11
-1.70867947E+02
 21
-8.24821307E+01
  0
LINE
  8
0
 62
7
 10
-1.79010805E+02
 20
-8.19821307E+01
 11
-1.71467947E+02
 21
-8.19821307E+01
  0
LINE
  8
0
 62
7
 10
-1.79625090E+02
 20
-7.40616822E+01
 11
-1.79625090E+02
 21
-8.04821306E+01
  0
LINE
  8
0
 62
7
 10
-1.72553662E+02
 20
-7.59564658E+01
 11
-1.72553662E+02
 21
-7.99821306E+01
  0
LINE
  8
0
 62
7
 10
-1.70725090E+02
 20
-7.64464300E+01
 11
-1.70725090E+02
 21
-8.04821306E+01
  0
LINE
  8
0
 62
7
 10
-1.78625090E+02
 20
-8.09821307E+01
 11
-1.73553662E+02
 21
-8.09821307E+01
  0
LINE
  8
0
 62
7
 10
-1.65167947E+02
 20
-8.41107021E+01
 11
-1.65116649E+02
 21
-7.79492073E+01
  0
LINE
  8
0
 62
7
 10
-2.31996520E+02
 20
-8.41107021E+01
 11
-2.32219848E+02
 21
-5.99689594E+01
  0
LINE
  8
0
 62
7
 10
-1.78625090E+02
 20
-8.14821307E+01
 11
-1.71725090E+02
 21
-8.14821307E+01
  0
LINE
  8
0
 62
7
 10
-1.80167947E+02
 20
-9.89821310E+01
 11
-2.17010805E+02
 21
-9.89821310E+01
  0
LINE
  8
0
  6
CENTER
 62
2
 10
-1.98582234E+02
 20
-6.55249875E+01
 11
-1.98582234E+02
 21
-1.30264358E+02
  0
ARC
  8
0
 62
7
 10
-2.26301561E+02
 20
6.13699728E+01
 40
1.00928627E+00
 50
1.80524772E+02
 51
2.69475228E+02
  0
ARC
  8
0
 62
7
 10
-2.25702847E+02
 20
6.18686874E+01
 40
1.00798988E+00
 50
1.80452376E+02
 51
2.69547625E+02
  0
ARC
  8
0
 62
7
 10
-2.25445749E+02
 20
6.23686429E+01
 40
1.00794502E+00
 50
1.80449866E+02
 51
2.69550134E+02
  0
ARC
  8
0
 62
7
 10
-2.23607193E+02
 20
6.28643414E+01
 40
1.00361896E+00
 50
1.80206232E+02
 51
2.69793768E+02
  0
ARC
  8
0
 62
7
 10
-2.18165237E+02
 20
6.13580176E+01
 40
9.97292347E-01
 50
2.69844229E+02
 51
1.55771215E-01
  0
ARC
  8
0
 62
7
 10
-2.18165241E+02
 20
6.18580220E+01
 40
9.97296736E-01
 50
2.69844482E+02
 51
1.55517690E-01
  0
ARC
  8
0
 62
7
 10
-2.18542680E+02
 20
6.23640324E+01
 40
1.00330891E+00
 50
2.70188650E+02
 51
3.59811350E+02
  0
ARC
  8
0
 62
7
 10
-2.18542685E+02
 20
6.28640368E+01
 40
1.00331330E+00
 50
2.70188899E+02
 51
3.59811101E+02
  0
ARC
  8
0
 62
7
 10
-1.70870051E+02
 20
6.13628331E+01
 40
1.00210639E+00
 50
2.70120307E+02
 51
3.59879693E+02
  0
ARC
  8
0
 62
7
 10
-1.71468656E+02
 20
6.18614377E+01
 40
1.00070901E+00
 50
2.70000000E+02
 51
3.59959420E+02
  0
ARC
  8
0
 62
7
 10
-1.71725755E+02
 20
6.23613934E+01
 40
1.00066471E+00
 50
2.70000000E+02
 51
3.59961954E+02
  0
ARC
  8
0
 62
7
 10
-1.73557270E+02
 20
6.28643370E+01
 40
1.00361460E+00
 50
2.70205985E+02
 51
3.59794016E+02
  0
ARC
  8
0
 62
7
 10
-1.79006411E+02
 20
6.13651227E+01
 40
1.00440336E+00
 50
1.80250640E+02
 51
2.69749360E+02
  0
ARC
  8
0
 62
7
 10
-1.79006407E+02
 20
6.18651270E+01
 40
1.00440775E+00
 50
1.80250888E+02
 51
2.69749112E+02
  0
ARC
  8
0
 62
7
 10
-1.78621783E+02
 20
6.23640367E+01
 40
1.00331327E+00
 50
1.80188897E+02
 51
2.69811103E+02
  0
ARC
  8
0
 62
7
 10
-1.78621778E+02
 20
6.28640411E+01
 40
1.00331766E+00
 50
1.80189146E+02
 51
2.69810853E+02
  0
ARC
  8
0
 62
7
 10
-2.16994055E+02
 20
5.88637707E+01
 40
1.50030423E+01
 50
1.80502630E+02
 51
2.69990587E+02
  0
ARC
  8
0
 62
7
 10
-1.80170289E+02
 20
5.88636465E+01
 40
1.50029181E+01
 50
2.70008943E+02
 51
3.59497840E+02
  0
LINE
  8
0
 62
7
 10
-2.27310805E+02
 20
8.15585263E+01
 11
-2.27310805E+02
 21
6.13607289E+01
  0
LINE
  8
0
 62
7
 10
-2.26710805E+02
 20
8.13977568E+01
 11
-2.26710805E+02
 21
6.18607289E+01
  0
LINE
  8
0
 62
7
 10
-2.17167948E+02
 20
7.88407558E+01
 11
-2.17167948E+02
 21
6.13607289E+01
  0
LINE
  8
0
 62
7
 10
-2.18167948E+02
 20
6.03607289E+01
 11
-2.26310805E+02
 21
6.03607289E+01
  0
LINE
  8
0
 62
7
 10
-2.18167948E+02
 20
6.08607289E+01
 11
-2.25710805E+02
 21
6.08607289E+01
  0
LINE
  8
0
 62
7
 10
-2.17539377E+02
 20
7.89402798E+01
 11
-2.17539377E+02
 21
6.23607289E+01
  0
LINE
  8
0
 62
7
 10
-2.24610805E+02
 20
8.08350634E+01
 11
-2.24610805E+02
 21
6.28607289E+01
  0
LINE
  8
0
 62
7
 10
-2.26453663E+02
 20
8.13288555E+01
 11
-2.26453663E+02
 21
6.23607289E+01
  0
LINE
  8
0
 62
7
 10
-2.18539377E+02
 20
6.18607289E+01
 11
-2.23610805E+02
 21
6.18607289E+01
  0
LINE
  8
0
 62
7
 10
-2.18539377E+02
 20
6.13607289E+01
 11
-2.25453663E+02
 21
6.13607289E+01
  0
LINE
  8
0
 62
7
 10
-1.69867947E+02
 20
6.61667588E+01
 11
-1.69867947E+02
 21
6.13607289E+01
  0
LINE
  8
0
 62
7
 10
-1.70467947E+02
 20
6.63275283E+01
 11
-1.70467947E+02
 21
6.18607289E+01
  0
LINE
  8
0
 62
7
 10
-1.80010805E+02
 20
6.88845293E+01
 11
-1.80010805E+02
 21
6.13607289E+01
  0
LINE
  8
0
 62
7
 10
-1.79010805E+02
 20
6.03607289E+01
 11
-1.70867947E+02
 21
6.03607289E+01
  0
LINE
  8
0
 62
7
 10
-1.79010805E+02
 20
6.08607289E+01
 11
-1.71467947E+02
 21
6.08607289E+01
  0
LINE
  8
0
 62
7
 10
-1.79625090E+02
 20
6.87811774E+01
 11
-1.79625090E+02
 21
6.23607289E+01
  0
LINE
  8
0
 62
7
 10
-1.72553662E+02
 20
6.68863938E+01
 11
-1.72553662E+02
 21
6.28607289E+01
  0
LINE
  8
0
 62
7
 10
-1.70725090E+02
 20
6.63964296E+01
 11
-1.70725090E+02
 21
6.23607289E+01
  0
LINE
  8
0
 62
7
 10
-1.78625090E+02
 20
6.18607289E+01
 11
-1.73553662E+02
 21
6.18607289E+01
  0
LINE
  8
0
 62
7
 10
-1.65167947E+02
 20
5.87321574E+01
 11
-1.65116649E+02
 21
6.48936523E+01
  0
LINE
  8
0
 62
7
 10
-2.31996520E+02
 20
5.87321574E+01
 11
-2.32219848E+02
 21
8.28739002E+01
  0
LINE
  8
0
 62
7
 10
-1.78625090E+02
 20
6.13607289E+01
 11
-1.71725090E+02
 21
6.13607289E+01
  0
LINE
  8
0
 62
7
 10
-1.80167947E+02
 20
4.38607286E+01
 11
-2.16996520E+02
 21
4.38607286E+01
  0
LINE
  8
0
  6
CENTER
 62
2
 10
-1.98582234E+02
 20
7.88607292E+01
 11
-1.98582234E+02
 21
1.88935852E+01
  0
LINE
  8
0
 62
7
 10
2.82099854E+02
 20
1.95500000E+02
 11
2.82099854E+02
 21
-1.95000000E+02
  0
LINE
  8
0
 62
7
 10
-2.81250000E+02
 20
1.95500000E+02
 11
2.82099854E+02
 21
1.95500000E+02
  0
LINE
  8
0
 62
7
 10
-2.81250000E+02
 20
1.95500000E+02
 11
-2.81250000E+02
 21
-1.95000000E+02
  0
LINE
  8
0
 62
7
 10
-2.81250000E+02
 20
-1.95000000E+02
 11
2.82099854E+02
 21
-1.95000000E+02
  0
LINE
  8
0
 62
7
 10
1.62099976E+02
 20
-1.75000000E+02
 11
1.62099976E+02
 21
-1.95000000E+02
  0
LINE
  8
0
 62
7
 10
1.62099976E+02
 20
-1.75000000E+02
 11
2.82099854E+02
 21
-1.75000000E+02
  0
LINE
  8
0
 62
7
 10
1.62099976E+02
 20
1.75500000E+02
 11
2.82099854E+02
 21
1.75500000E+02
  0
LINE
  8
0
 62
7
 10
-2.81250000E+02
 20
1.75500000E+02
 11
-1.31250000E+02
 21
1.75500000E+02
  0
LINE
  8
0
 62
7
 10
1.62099976E+02
 20
1.95500000E+02
 11
1.62099976E+02
 21
1.75500000E+02
  0
TEXT
  8
0
 62
7
 10
1.97799694E+02
 20
1.82350000E+02
 40
6.30000019E+00
  1
Ver. 1.0
 41
1.08108108E+00
  7
MONOTXT
  0
TEXT
  8
0
 62
7
 10
1.69885289E+02
 20
-1.89500000E+02
 40
9.00000000E+00
  1
KOGANEI CORP.
 41
1.04838710E+00
  7
MONOTXT
  0
TEXT
  8
0
 62
7
 10
-2.67600562E+02
 20
1.57350000E+02
 40
6.30000019E+00
  1
MODEL:LN900-06
 41
1.00000000E+00
  7
MONOTXT
  0
ENDSEC
  0
EOF
