  0
SECTION
  2
HEADER
  9
$ACADVER
  1
AC1012
  9
$DWGCODEPAGE
  3
dos932
  9
$INSBASE
 10
0.0
 20
0.0
 30
0.0
  9
$EXTMIN
 10
-138.39999389648437
 20
-94.800003051757812
 30
0.0
  9
$EXTMAX
 10
138.35000610351562
 20
94.5
 30
0.0
  9
$LIMMIN
 10
-138.39999389648437
 20
-94.800003051757812
  9
$LIMMAX
 10
138.35000610351562
 20
94.5
  9
$ORTHOMODE
 70
               0
  9
$REGENMODE
 70
               1
  9
$FILLMODE
 70
               1
  9
$QTEXTMODE
 70
               0
  9
$MIRRTEXT
 70
               1
  9
$DRAGMODE
 70
               2
  9
$LTSCALE
 40
1.0
  9
$OSMODE
 70
               0
  9
$ATTMODE
 70
               1
  9
$TEXTSIZE
 40
3.2000000476837158
  9
$TRACEWID
 40
0.05
  9
$TEXTSTYLE
  7
MX_NOTE_STANDARD
  9
$CLAYER
  8
0
  9
$CELTYPE
  6
CONTINUOUS
  9
$CECOLOR
 62
             256
  9
$CELTSCALE
 40
1.0
  9
$DELOBJ
 70
               1
  9
$DISPSILH
 70
               0
  9
$DIMSCALE
 40
1.0
  9
$DIMASZ
 40
2.5
  9
$DIMEXO
 40
1.5
  9
$DIMDLI
 40
3.75
  9
$DIMRND
 40
0.0
  9
$DIMDLE
 40
0.0
  9
$DIMEXE
 40
1.5
  9
$DIMTP
 40
0.0
  9
$DIMTM
 40
0.0
  9
$DIMTXT
 40
3.2000000476837158
  9
$DIMCEN
 40
2.5
  9
$DIMTSZ
 40
0.0
  9
$DIMTOL
 70
               0
  9
$DIMLIM
 70
               0
  9
$DIMTIH
 70
               0
  9
$DIMTOH
 70
               0
  9
$DIMSE1
 70
               0
  9
$DIMSE2
 70
               0
  9
$DIMTAD
 70
               1
  9
$DIMZIN
 70
               8
  9
$DIMBLK
  1

  9
$DIMASO
 70
               1
  9
$DIMSHO
 70
               1
  9
$DIMPOST
  1

  9
$DIMAPOST
  1

  9
$DIMALT
 70
               0
  9
$DIMALTD
 70
               4
  9
$DIMALTF
 40
0.0394
  9
$DIMLFAC
 40
1.0
  9
$DIMTOFL
 70
               1
  9
$DIMTVP
 40
0.0
  9
$DIMTIX
 70
               0
  9
$DIMSOXD
 70
               0
  9
$DIMSAH
 70
               0
  9
$DIMBLK1
  1

  9
$DIMBLK2
  1

  9
$DIMSTYLE
  2
MXDIMSTYLE
  9
$DIMCLRD
 70
               0
  9
$DIMCLRE
 70
               0
  9
$DIMCLRT
 70
               0
  9
$DIMTFAC
 40
1.0
  9
$DIMGAP
 40
1.0
  9
$DIMJUST
 70
               0
  9
$DIMSD1
 70
               0
  9
$DIMSD2
 70
               0
  9
$DIMTOLJ
 70
               1
  9
$DIMTZIN
 70
               0
  9
$DIMALTZ
 70
               0
  9
$DIMALTTZ
 70
               0
  9
$DIMFIT
 70
               3
  9
$DIMUPT
 70
               1
  9
$DIMUNIT
 70
               2
  9
$DIMDEC
 70
               4
  9
$DIMTDEC
 70
               4
  9
$DIMALTU
 70
               8
  9
$DIMALTTD
 70
               4
  9
$DIMTXSTY
  7
MX_NOTE_STANDARD
  9
$DIMAUNIT
 70
               0
  9
$LUNITS
 70
               2
  9
$LUPREC
 70
               4
  9
$SKETCHINC
 40
0.1
  9
$FILLETRAD
 40
0.0
  9
$AUNITS
 70
               0
  9
$AUPREC
 70
               0
  9
$MENU
  1
acad
  9
$ELEVATION
 40
0.0
  9
$PELEVATION
 40
0.0
  9
$THICKNESS
 40
0.0
  9
$LIMCHECK
 70
               0
  9
$BLIPMODE
 70
               1
  9
$CHAMFERA
 40
0.0
  9
$CHAMFERB
 40
0.0
  9
$CHAMFERC
 40
0.0
  9
$CHAMFERD
 40
0.0
  9
$SKPOLY
 70
               0
  9
$TDCREATE
 40
2452209.493240741
  9
$TDUPDATE
 40
2452209.493240741
  9
$TDINDWG
 40
0.0000000000
  9
$TDUSRTIMER
 40
0.0000000000
  9
$USRTIMER
 70
               1
  9
$ANGBASE
 50
0.0
  9
$ANGDIR
 70
               0
  9
$PDMODE
 70
               0
  9
$PDSIZE
 40
0.0
  9
$PLINEWID
 40
0.0
  9
$COORDS
 70
               1
  9
$SPLFRAME
 70
               0
  9
$SPLINETYPE
 70
               6
  9
$SPLINESEGS
 70
               8
  9
$ATTDIA
 70
               0
  9
$ATTREQ
 70
               1
  9
$HANDLING
 70
               1
  9
$HANDSEED
  5
32A
  9
$SURFTAB1
 70
               6
  9
$SURFTAB2
 70
               6
  9
$SURFTYPE
 70
               6
  9
$SURFU
 70
               6
  9
$SURFV
 70
               6
  9
$UCSNAME
  2

  9
$UCSORG
 10
0.0
 20
0.0
 30
0.0
  9
$UCSXDIR
 10
1.0
 20
0.0
 30
0.0
  9
$UCSYDIR
 10
0.0
 20
1.0
 30
0.0
  9
$PUCSNAME
  2

  9
$PUCSORG
 10
0.0
 20
0.0
 30
0.0
  9
$PUCSXDIR
 10
1.0
 20
0.0
 30
0.0
  9
$PUCSYDIR
 10
0.0
 20
1.0
 30
0.0
  9
$USERI1
 70
               0
  9
$USERI2
 70
               0
  9
$USERI3
 70
               0
  9
$USERI4
 70
               0
  9
$USERI5
 70
               0
  9
$USERR1
 40
0.0
  9
$USERR2
 40
0.0
  9
$USERR3
 40
0.0
  9
$USERR4
 40
0.0
  9
$USERR5
 40
0.0
  9
$WORLDVIEW
 70
               1
  9
$SHADEDGE
 70
               3
  9
$SHADEDIF
 70
              70
  9
$TILEMODE
 70
               1
  9
$MAXACTVP
 70
              16
  9
$PINSBASE
 10
0.0
 20
0.0
 30
0.0
  9
$PLIMCHECK
 70
               0
  9
$PEXTMIN
 10
1.0000000000000000E+20
 20
1.0000000000000000E+20
 30
1.0000000000000000E+20
  9
$PEXTMAX
 10
-1.0000000000000000E+20
 20
-1.0000000000000000E+20
 30
-1.0000000000000000E+20
  9
$PLIMMIN
 10
0.0
 20
0.0
  9
$PLIMMAX
 10
12.0
 20
9.0
  9
$UNITMODE
 70
               0
  9
$VISRETAIN
 70
               0
  9
$PLINEGEN
 70
               1
  9
$PSLTSCALE
 70
               0
  9
$TREEDEPTH
 70
            3020
  9
$PICKSTYLE
 70
               1
  9
$CMLSTYLE
  2
Standard
  9
$CMLJUST
 70
               0
  9
$CMLSCALE
 40
1.0
  9
$SAVEIMAGES
 70
               0
  0
ENDSEC
  0
SECTION
  2
CLASSES
  0
CLASS
  1
LWPOLYLINE
  2
AcDbPolyline
  3
"AutoCAD"
 90
        0
280
               0
281
               1
  0
CLASS
  1
IMAGE
  2
AcDbRasterImage
  3
ISM
 90
      127
280
               0
281
               1
  0
CLASS
  1
OLE2FRAME
  2
AcDbOle2Frame
  3
""
 90
        0
280
               0
281
               1
  0
CLASS
  1
HATCH
  2
AcDbHatch
  3
"ACAD_SEDONA"
 90
        0
280
               0
281
               1
  0
CLASS
  1
DICTIONARYVAR
  2
AcDbDictionaryVar
  3
"AutoCAD"
 90
        0
280
               0
281
               0
  0
CLASS
  1
RASTERVARIABLES
  2
AcDbRasterVariables
  3
ISM
 90
        0
280
               0
281
               0
  0
CLASS
  1
IMAGEDEF
  2
AcDbRasterImageDef
  3
ISM
 90
        0
280
               0
281
               0
  0
CLASS
  1
IMAGEDEF_REACTOR
  2
AcDbRasterImageDefReactor
  3
ISM
 90
        1
280
               0
281
               0
  0
CLASS
  1
IDBUFFER
  2
AcDbIdBuffer
  3
"Acad"
 90
        0
280
               0
281
               0
  0
CLASS
  1
SPATIAL_FILTER
  2
AcDbSpatialFilter
  3
"Acad"
 90
        0
280
               0
281
               0
  0
CLASS
  1
XRECORD
  2
AcDbXrecord
  3
"<Built In>"
 90
        0
280
               0
281
               0
  0
CLASS
  1
SORTENTSTABLE
  2
AcDbSortentsTable
  3
"AutoCAD"
 90
        0
280
               0
281
               0
  0
CLASS
  1
LAYER_INDEX
  2
AcDbLayerIndex
  3
"Acad"
 90
        0
280
               0
281
               0
  0
CLASS
  1
SPATIAL_INDEX
  2
AcDbSpatialIndex
  3
"Acad"
 90
        0
280
               0
281
               0
  0
CLASS
  1
OBJECT_PTR
  2
CAseDLPNTableRecord
  3
"ASE-LPNTableRecord"
 90
        1
280
               0
281
               0
  0
CLASS
  1
LAYOUT
  2
AcDbLayout
  3
"AutoCAD 2000"
 90
        1
280
               0
281
               0
  0
CLASS
  1
PLOTSETTINGS
  2
AcDbPlotSettings
  3
"AutoCAD 2000"
 90
        1
280
               0
281
               0
  0
CLASS
  1
ACDBDICTIONARYWDFLT
  2
AcDbDictionaryWithDefault
  3
"AutoCAD 2000"
 90
        1
280
               0
281
               0
  0
CLASS
  1
ACDBPLACEHOLDER
  2
AcDbPlaceHolder
  3
"AutoCAD 2000"
 90
        1
280
               0
281
               0
  0
CLASS
  1
VBA_PROJECT
  2
AcDbVbaProject
  3
"acadvba"
 90
        1
280
               0
281
               0
  0
CLASS
  1
WIPEOUT
  2
AcDbWipeout
  3
WipeOut|AutoCAD Express Tool|expresstools@autodesk.com
 90
      127
280
               0
281
               1
  0
CLASS
  1
WIPEOUTVARIABLES
  2
AcDbWipeoutVariables
  3
WipeOut|AutoCAD Express Tool|expresstools@autodesk.com
 90
        0
280
               0
281
               0
  0
CLASS
  1
RTEXT
  2
RText
  3
RText|AutoCAD Express Tool|expresstools@autodesk.com
 90
        0
280
               0
281
               1
  0
CLASS
  1
ARCALIGNEDTEXT
  2
AcDbArcAlignedText
  3
ATEXT|AutoCAD Express Tool|expresstools@autodesk.com
 90
        0
280
               0
281
               1
  0
ENDSEC
  0
SECTION
  2
TABLES
  0
TABLE
  2
VPORT
  5
7
100
AcDbSymbolTable
 70
               1
  0
VPORT
  5
15
100
AcDbSymbolTableRecord
100
AcDbViewportTableRecord
  2
*ACTIVE
 70
               0
 10
0.0
 20
0.0
 11
1.0
 21
1.0
 12
-0.024993896484375
 22
-0.1500015258789063
 13
0.0
 23
0.0
 14
1.0
 24
1.0
 15
0.0
 25
0.0
 16
0.0
 26
0.0
 36
1.0
 17
0.0
 27
0.0
 37
0.0
 40
191.1930030822754
 41
1.7320508075688772
 42
50.0
 43
0.0
 44
0.0
 50
0.0
 51
0.0
 71
               0
 72
             100
 73
               1
 74
               1
 75
               0
 76
               0
 77
               0
 78
               0
  0
ENDTAB
  0
TABLE
  2
LTYPE
  5
4
100
AcDbSymbolTable
 70
               6
  0
LTYPE
  5
11
100
AcDbSymbolTableRecord
100
AcDbLinetypeTableRecord
  2
BYBLOCK
 70
              64
  3

 72
              65
 73
               0
 40
0.0
  0
LTYPE
  5
12
100
AcDbSymbolTableRecord
100
AcDbLinetypeTableRecord
  2
BYLAYER
 70
              64
  3

 72
              65
 73
               0
 40
0.0
  0
LTYPE
  5
13
100
AcDbSymbolTableRecord
100
AcDbLinetypeTableRecord
  2
CONTINUOUS
 70
              64
  3
Solid line
 72
              65
 73
               0
 40
0.0
  0
LTYPE
  5
27
100
AcDbSymbolTableRecord
100
AcDbLinetypeTableRecord
  2
PHANTOM
 70
              64
  3
Phantom ______  __  __  ______  __  __  ______
 72
              65
 73
               6
 40
63.500000000000007
 49
31.75
 74
               0
 49
-6.3499999999999996
 74
               0
 49
6.3499999999999996
 74
               0
 49
-6.3499999999999996
 74
               0
 49
6.3499999999999996
 74
               0
 49
-6.3499999999999996
 74
               0
  0
LTYPE
  5
6D
100
AcDbSymbolTableRecord
100
AcDbLinetypeTableRecord
  2
CENTER
 70
              64
  3
Center ____ _ ____ _ ____ _ ____ _ ____ _ ____
 72
              65
 73
               4
 40
50.800000000000004
 49
31.75
 74
               0
 49
-6.3499999999999996
 74
               0
 49
6.3499999999999996
 74
               0
 49
-6.3499999999999996
 74
               0
  0
LTYPE
  5
114
100
AcDbSymbolTableRecord
100
AcDbLinetypeTableRecord
  2
DASHED
 70
              64
  3
Dashed __ __ __ __ __ __ __ __ __ __ __ __ __ _
 72
              65
 73
               2
 40
19.049999999999997
 49
12.699999999999999
 74
               0
 49
-6.3499999999999996
 74
               0
  0
ENDTAB
  0
TABLE
  2
LAYER
  5
2
100
AcDbSymbolTable
 70
               2
  0
LAYER
  5
14
100
AcDbSymbolTableRecord
100
AcDbLayerTableRecord
  2
0
 70
               0
 62
               7
  6
CONTINUOUS
  0
LAYER
  5
1D
100
AcDbSymbolTableRecord
100
AcDbLayerTableRecord
  2
DEFPOINTS
 70
               0
 62
               7
  6
CONTINUOUS
  0
ENDTAB
  0
TABLE
  2
STYLE
  5
3
100
AcDbSymbolTable
 70
               1
  0
STYLE
  5
17
100
AcDbSymbolTableRecord
100
AcDbTextStyleTableRecord
  2
MX_NOTE_STANDARD
 70
               0
 40
3.2000000476837158
 41
1.0
 50
0.0
 71
               0
 42
3.2000000476837158
  3
txt.shx
  4
extfont.shx
  0
ENDTAB
  0
TABLE
  2
VIEW
  5
5
100
AcDbSymbolTable
 70
               0
  0
ENDTAB
  0
TABLE
  2
UCS
  5
6
100
AcDbSymbolTable
 70
               0
  0
ENDTAB
  0
TABLE
  2
APPID
  5
8
100
AcDbSymbolTable
 70
               1
  0
APPID
  5
16
100
AcDbSymbolTableRecord
100
AcDbRegAppTableRecord
  2
ACAD
 70
               0
  0
ENDTAB
  0
TABLE
  2
DIMSTYLE
  5
9
100
AcDbSymbolTable
 70
               1
  0
DIMSTYLE
105
18
100
AcDbSymbolTableRecord
100
AcDbDimStyleTableRecord
  2
MXDIMSTYLE
 70
               0
  3

  4

  5

  6

  7

 40
1.0
 41
2.5
 42
1.5
 43
3.75
 44
1.5
 45
0.0
 46
0.0
 47
0.0
 48
0.0
 71
               0
 72
               0
 73
               0
 74
               0
 75
               0
 76
               0
 77
               1
 78
               8
140
3.2000000476837158
141
2.5
142
0.0
143
0.0394
144
1.0
145
0.0
146
1.0
147
1.0
170
               0
171
               4
172
               1
173
               0
174
               0
175
               0
176
               0
177
               0
178
               0
270
               2
271
               4
272
               4
273
               8
274
               4
275
               0
280
               0
281
               0
282
               0
283
               1
284
               0
285
               0
286
               0
287
               3
288
               1
340
17
  0
ENDTAB
  0
TABLE
  2
BLOCK_RECORD
  5
1
100
AcDbSymbolTable
 70
               9
  0
BLOCK_RECORD
  5
A
100
AcDbSymbolTableRecord
100
AcDbBlockTableRecord
  2
*MODEL_SPACE
  0
BLOCK_RECORD
  5
B
100
AcDbSymbolTableRecord
100
AcDbBlockTableRecord
  2
*PAPER_SPACE
  0
BLOCK_RECORD
  5
1E
100
AcDbSymbolTableRecord
100
AcDbBlockTableRecord
  2
MS_1
  0
BLOCK_RECORD
  5
1F
100
AcDbSymbolTableRecord
100
AcDbBlockTableRecord
  2
MS_2
  0
BLOCK_RECORD
  5
20
100
AcDbSymbolTableRecord
100
AcDbBlockTableRecord
  2
MS_3
  0
BLOCK_RECORD
  5
21
100
AcDbSymbolTableRecord
100
AcDbBlockTableRecord
  2
MS_4
  0
BLOCK_RECORD
  5
22
100
AcDbSymbolTableRecord
100
AcDbBlockTableRecord
  2
MS_5
  0
BLOCK_RECORD
  5
23
100
AcDbSymbolTableRecord
100
AcDbBlockTableRecord
  2
MS_6
  0
BLOCK_RECORD
  5
24
100
AcDbSymbolTableRecord
100
AcDbBlockTableRecord
  2
MS_7
  0
BLOCK_RECORD
  5
25
100
AcDbSymbolTableRecord
100
AcDbBlockTableRecord
  2
MS_8
  0
BLOCK_RECORD
  5
2EA
100
AcDbSymbolTableRecord
100
AcDbBlockTableRecord
  2
_OPEN30
  0
ENDTAB
  0
ENDSEC
  0
SECTION
  2
BLOCKS
  0
BLOCK
  5
D
100
AcDbEntity
  8
0
100
AcDbBlockBegin
  2
*MODEL_SPACE
 70
               0
 10
0.0
 20
0.0
 30
0.0
  3
*MODEL_SPACE
  1

  0
ENDBLK
  5
E
100
AcDbEntity
  8
0
100
AcDbBlockEnd
  0
BLOCK
  5
F
100
AcDbEntity
 67
               1
  8
0
100
AcDbBlockBegin
  2
*PAPER_SPACE
 70
               0
 10
0.0
 20
0.0
 30
0.0
  3
*PAPER_SPACE
  1

  0
ENDBLK
  5
10
100
AcDbEntity
 67
               1
  8
0
100
AcDbBlockEnd
  0
BLOCK
  5
26
100
AcDbEntity
  8
0
100
AcDbBlockBegin
  2
MS_1
 70
               0
 10
0.0
 20
0.0
 30
0.0
  3
MS_1
  1

  0
LINE
  5
28
100
AcDbEntity
  8
0
  6
PHANTOM
 62
               3
100
AcDbLine
 10
23.465975658075678
 20
1.8387301066918447
 30
0.0
 11
13.641402535141907
 21
1.8387301066918447
 31
0.0
  0
LINE
  5
29
100
AcDbEntity
  8
0
  6
PHANTOM
 62
               3
100
AcDbLine
 10
23.465975658075678
 20
33.0
 30
0.0
 11
23.465975658075678
 21
1.8387301066918447
 31
0.0
  0
LINE
  5
2A
100
AcDbEntity
  8
0
  6
PHANTOM
 62
               3
100
AcDbLine
 10
13.641402535141907
 20
1.8387301066918447
 30
0.0
 11
13.641402535141907
 21
-33.0
 31
0.0
  0
LINE
  5
2B
100
AcDbEntity
  8
0
  6
CONTINUOUS
 62
               4
100
AcDbLine
 10
6.0
 20
3.7902020285424314
 30
0.0
 11
6.6549588720742179
 21
3.7902020285424314
 31
0.0
  0
ELLIPSE
  5
2C
100
AcDbEntity
  8
0
  6
CONTINUOUS
 62
               4
100
AcDbEllipse
 10
8.0
 20
5.9822330502207066
 30
0.0
 11
-1.25
 21
0.0000000000000002
 31
0.0
210
0.0
220
0.0
230
1.0
 40
0.7071067811865476
 41
0.0
 42
6.2831853071795862
  0
LINE
  5
2D
100
AcDbEntity
  8
0
  6
CONTINUOUS
 62
               4
100
AcDbLine
 10
8.25
 20
6.8482584540051548
 30
0.0
 11
8.25
 21
5.1162076464362585
 31
0.0
  0
LINE
  5
2E
100
AcDbEntity
  8
0
  6
CONTINUOUS
 62
               4
100
AcDbLine
 10
7.75
 20
6.8482584540051548
 30
0.0
 11
7.75
 21
5.1162076464362585
 31
0.0
  0
LINE
  5
2F
100
AcDbEntity
  8
0
  6
CONTINUOUS
 62
               4
100
AcDbLine
 10
6.0
 20
7.042893222000508
 30
0.0
 11
6.0
 21
3.2104469831826705
 31
0.0
  0
LINE
  5
30
100
AcDbEntity
  8
0
  6
CONTINUOUS
 62
               4
100
AcDbLine
 10
21.5
 20
7.042893222000508
 30
0.0
 11
21.5
 21
4.7265981316103129
 31
0.0
  0
LINE
  5
31
100
AcDbEntity
  8
0
  6
CONTINUOUS
 62
               4
100
AcDbLine
 10
21.500000019764684
 20
5.7765981290939337
 30
0.0
 11
40.361731420217623
 21
5.7765981290939337
 31
0.0
  0
LINE
  5
32
100
AcDbEntity
  8
0
  6
CONTINUOUS
 62
               4
100
AcDbLine
 10
30.000000000000114
 20
3.076598129093945
 30
0.0
 11
39.638268608673982
 21
3.076598129093945
 31
0.0
  0
LINE
  5
33
100
AcDbEntity
  8
0
  6
CONTINUOUS
 62
               7
100
AcDbLine
 10
6.0336109698147595
 20
-6.7703526098149496
 30
0.0
 11
15.999999999999886
 21
-6.7703526098149496
 31
0.0
  0
LINE
  5
34
100
AcDbEntity
  8
0
  6
CONTINUOUS
 62
               7
100
AcDbLine
 10
7.031686840623081
 20
-4.7265981316103076
 30
0.0
 11
30.000000000000114
 21
-4.7265981316103076
 31
0.0
  0
LINE
  5
35
100
AcDbEntity
  8
0
  6
CONTINUOUS
 62
               7
100
AcDbLine
 10
6.7895530168173366
 20
-4.0
 30
0.0
 11
30.000000000000114
 21
-4.0
 31
0.0
  0
LINE
  5
36
100
AcDbEntity
  8
0
  6
CONTINUOUS
 62
               7
100
AcDbLine
 10
6.7895530168173366
 20
4.0
 30
0.0
 11
30.000000000000114
 21
4.0
 31
0.0
  0
LINE
  5
37
100
AcDbEntity
  8
0
  6
CONTINUOUS
 62
               7
100
AcDbLine
 10
7.031686840623081
 20
4.7265981316103129
 30
0.0
 11
30.000000000000114
 21
4.7265981316103129
 31
0.0
  0
LINE
  5
38
100
AcDbEntity
  8
0
  6
CONTINUOUS
 62
               7
100
AcDbLine
 10
21.5
 20
6.760050517385551
 30
0.0
 11
30.000000000000114
 21
6.760050517385551
 31
0.0
  0
LINE
  5
39
100
AcDbEntity
  8
0
  6
CONTINUOUS
 62
               7
100
AcDbLine
 10
0.0
 20
-6.7703526098149496
 30
0.0
 11
3.9663890301852405
 21
-6.7703526098149496
 31
0.0
  0
LINE
  5
3A
100
AcDbEntity
  8
0
  6
CONTINUOUS
 62
               7
100
AcDbLine
 10
0.0
 20
-4.7265981316103076
 30
0.0
 11
2.968313159376919
 21
-4.7265981316103076
 31
0.0
  0
LINE
  5
3B
100
AcDbEntity
  8
0
  6
CONTINUOUS
 62
               7
100
AcDbLine
 10
0.0
 20
-4.0
 30
0.0
 11
3.2104469831826634
 21
-4.0
 31
0.0
  0
LINE
  5
3C
100
AcDbEntity
  8
0
  6
CONTINUOUS
 62
               7
100
AcDbLine
 10
0.0
 20
4.0
 30
0.0
 11
3.2104469831826634
 21
4.0
 31
0.0
  0
LINE
  5
3D
100
AcDbEntity
  8
0
  6
CONTINUOUS
 62
               7
100
AcDbLine
 10
0.0
 20
6.760050517385551
 30
0.0
 11
3.9489423535072632
 21
6.760050517385551
 31
0.0
  0
LINE
  5
3E
100
AcDbEntity
  8
0
  6
CONTINUOUS
 62
               7
100
AcDbLine
 10
0.0
 20
4.7265981316103129
 30
0.0
 11
2.968313159376919
 21
4.7265981316103129
 31
0.0
  0
LINE
  5
3F
100
AcDbEntity
  8
0
  6
CONTINUOUS
 62
               7
100
AcDbLine
 10
-6.7000000000000171
 20
1.0
 30
0.0
 11
-5.2000000000000028
 21
1.0
 31
0.0
  0
LINE
  5
40
100
AcDbEntity
  8
0
  6
CONTINUOUS
 62
               7
100
AcDbLine
 10
-7.0
 20
0.7000000000000171
 30
0.0
 11
-7.0
 21
-0.6999999999999957
 31
0.0
  0
LINE
  5
41
100
AcDbEntity
  8
0
  6
CONTINUOUS
 62
               2
100
AcDbLine
 10
-7.0
 20
0.7000000000000171
 30
0.0
 11
-5.2000000000000028
 21
0.7000000000000171
 31
0.0
  0
LINE
  5
42
100
AcDbEntity
  8
0
  6
CONTINUOUS
 62
               7
100
AcDbLine
 10
-1.0
 20
1.0
 30
0.0
 11
-1.0
 21
-0.9999999999999929
 31
0.0
  0
LINE
  5
43
100
AcDbEntity
  8
0
  6
CONTINUOUS
 62
               7
100
AcDbLine
 10
-6.7000000000000171
 20
1.0
 30
0.0
 11
-7.0
 21
0.7000000000000171
 31
0.0
  0
LINE
  5
44
100
AcDbEntity
  8
0
  6
CONTINUOUS
 62
               7
100
AcDbLine
 10
-6.7000000000000171
 20
1.0
 30
0.0
 11
-6.7000000000000171
 21
-0.9999999999999929
 31
0.0
  0
LINE
  5
45
100
AcDbEntity
  8
0
  6
CONTINUOUS
 62
               2
100
AcDbLine
 10
-1.0
 20
0.7000000000000171
 30
0.0
 11
-0.4803847577293539
 21
1.0
 31
0.0
  0
LINE
  5
46
100
AcDbEntity
  8
0
  6
CONTINUOUS
 62
               7
100
AcDbLine
 10
-6.7000000000000171
 20
-0.9999999999999929
 30
0.0
 11
-5.2000000000000028
 21
-0.9999999999999929
 31
0.0
  0
LINE
  5
47
100
AcDbEntity
  8
0
  6
CONTINUOUS
 62
               2
100
AcDbLine
 10
-1.0
 20
-0.6999999999999957
 30
0.0
 11
-0.4803847577293539
 21
-0.9999999999999929
 31
0.0
  0
LINE
  5
48
100
AcDbEntity
  8
0
  6
CONTINUOUS
 62
               2
100
AcDbLine
 10
-7.0
 20
-0.6999999999999957
 30
0.0
 11
-5.2000000000000028
 21
-0.6999999999999957
 31
0.0
  0
LINE
  5
49
100
AcDbEntity
  8
0
  6
CONTINUOUS
 62
               7
100
AcDbLine
 10
-6.7000000000000171
 20
-0.9999999999999929
 30
0.0
 11
-7.0
 21
-0.6999999999999957
 31
0.0
  0
LINE
  5
4A
100
AcDbEntity
  8
0
  6
CONTINUOUS
 62
               7
100
AcDbLine
 10
-2.0
 20
1.0
 30
0.0
 11
0.0
 21
1.0
 31
0.0
  0
LINE
  5
4B
100
AcDbEntity
  8
0
  6
CONTINUOUS
 62
               2
100
AcDbLine
 10
-2.0
 20
0.7000000000000171
 30
0.0
 11
-1.0
 21
0.7000000000000171
 31
0.0
  0
LINE
  5
4C
100
AcDbEntity
  8
0
  6
CONTINUOUS
 62
               7
100
AcDbLine
 10
-2.0
 20
-0.9999999999999929
 30
0.0
 11
0.0
 21
-0.9999999999999929
 31
0.0
  0
LINE
  5
4D
100
AcDbEntity
  8
0
  6
CONTINUOUS
 62
               2
100
AcDbLine
 10
-2.0
 20
-0.6999999999999957
 30
0.0
 11
-1.0
 21
-0.6999999999999957
 31
0.0
  0
LINE
  5
4E
100
AcDbEntity
  8
0
  6
CONTINUOUS
 62
               7
100
AcDbLine
 10
-2.0
 20
-2.0000000379677303
 30
0.0
 11
-2.0
 21
2.0000000216369074
 31
0.0
  0
LINE
  5
4F
100
AcDbEntity
  8
0
  6
CONTINUOUS
 62
               7
100
AcDbLine
 10
-3.6000000000000085
 20
-2.0000000379677303
 30
0.0
 11
-3.6000000000000085
 21
2.0000000216369074
 31
0.0
  0
LINE
  5
50
100
AcDbEntity
  8
0
  6
CONTINUOUS
 62
               7
100
AcDbLine
 10
-5.2000000000000028
 20
-2.0000000379677303
 30
0.0
 11
-5.2000000000000028
 21
2.0000000216369074
 31
0.0
  0
LINE
  5
51
100
AcDbEntity
  8
0
  6
CONTINUOUS
 62
               7
100
AcDbLine
 10
-5.2000000306243521
 20
1.9999999620322626
 30
0.0
 11
-5.0213672944182974
 21
2.3094009377364557
 31
0.0
  0
LINE
  5
52
100
AcDbEntity
  8
0
  6
CONTINUOUS
 62
               7
100
AcDbLine
 10
-3.599999969375645
 20
1.9999999620322626
 30
0.0
 11
-3.7786327055816997
 21
2.3094009377364557
 31
0.0
  0
LINE
  5
53
100
AcDbEntity
  8
0
  6
CONTINUOUS
 62
               7
100
AcDbLine
 10
-3.7786327651863445
 20
1.1547004811809529
 30
0.0
 11
-5.0213672348136527
 21
1.1547004811809529
 31
0.0
  0
LINE
  5
54
100
AcDbEntity
  8
0
  6
CONTINUOUS
 62
               7
100
AcDbLine
 10
-3.7786327651863445
 20
2.3094010209507303
 30
0.0
 11
-5.0213672463745098
 21
2.3094010209507303
 31
0.0
  0
LINE
  5
55
100
AcDbEntity
  8
0
  6
CONTINUOUS
 62
               7
100
AcDbLine
 10
-3.4213672348136583
 20
2.3094010209507303
 30
0.0
 11
-2.1786327536254788
 21
2.3094010209507303
 31
0.0
  0
LINE
  5
56
100
AcDbEntity
  8
0
  6
CONTINUOUS
 62
               7
100
AcDbLine
 10
-3.4213672348136583
 20
1.1547004811809529
 30
0.0
 11
-2.1786327651863502
 21
1.1547004811809529
 31
0.0
  0
LINE
  5
57
100
AcDbEntity
  8
0
  6
CONTINUOUS
 62
               7
100
AcDbLine
 10
-3.6000000306243578
 20
1.9999999620322626
 30
0.0
 11
-3.4213672944183031
 21
2.3094009377364557
 31
0.0
  0
LINE
  5
58
100
AcDbEntity
  8
0
  6
CONTINUOUS
 62
               7
100
AcDbLine
 10
-1.9999999693756507
 20
1.9999999620322626
 30
0.0
 11
-2.1786327055817054
 21
2.3094009377364557
 31
0.0
  0
LINE
  5
59
100
AcDbEntity
  8
0
  6
CONTINUOUS
 62
               7
100
AcDbLine
 10
-5.2000000306243521
 20
-1.9999999620322555
 30
0.0
 11
-5.0213672944182974
 21
-2.3094009377364486
 31
0.0
  0
LINE
  5
5A
100
AcDbEntity
  8
0
  6
CONTINUOUS
 62
               7
100
AcDbLine
 10
-3.7786327651863445
 20
-1.1547004811809458
 30
0.0
 11
-5.0213672348136527
 21
-1.1547004811809458
 31
0.0
  0
LINE
  5
5B
100
AcDbEntity
  8
0
  6
CONTINUOUS
 62
               7
100
AcDbLine
 10
-3.599999969375645
 20
-1.9999999620322555
 30
0.0
 11
-3.7786327055816997
 21
-2.3094009377364486
 31
0.0
  0
LINE
  5
5C
100
AcDbEntity
  8
0
  6
CONTINUOUS
 62
               7
100
AcDbLine
 10
-3.7786327651863445
 20
-2.3094010569457382
 30
0.0
 11
-5.0213671974068035
 21
-2.3094010569457382
 31
0.0
  0
LINE
  5
5D
100
AcDbEntity
  8
0
  6
CONTINUOUS
 62
               7
100
AcDbLine
 10
-3.4213672348136583
 20
-2.3094010569457382
 30
0.0
 11
-2.1786328025931994
 21
-2.3094010569457382
 31
0.0
  0
LINE
  5
5E
100
AcDbEntity
  8
0
  6
CONTINUOUS
 62
               7
100
AcDbLine
 10
-3.6000000306243578
 20
-1.9999999620322555
 30
0.0
 11
-3.4213672944183031
 21
-2.3094009377364486
 31
0.0
  0
LINE
  5
5F
100
AcDbEntity
  8
0
  6
CONTINUOUS
 62
               7
100
AcDbLine
 10
-3.4213672348136583
 20
-1.1547004811809458
 30
0.0
 11
-2.1786327651863502
 21
-1.1547004811809458
 31
0.0
  0
LINE
  5
60
100
AcDbEntity
  8
0
  6
CONTINUOUS
 62
               7
100
AcDbLine
 10
-1.9999999693756507
 20
-1.9999999620322555
 30
0.0
 11
-2.1786327055817054
 21
-2.3094009377364486
 31
0.0
  0
SPLINE
  5
61
100
AcDbEntity
  8
0
  6
CONTINUOUS
 62
               7
100
AcDbSpline
210
0.0
220
0.0
230
1.0
 70
               0
 71
               3
 72
               0
 73
               0
 74
               5
 44
0.000001
 12
0.2955766966256462
 22
-0.9553190129019054
 32
0.0
 13
-0.2955766966256495
 23
-0.9553190129019044
 33
0.0
 11
-2.1786327651863502
 21
1.1547004811809529
 31
0.0
 11
-2.0461460731108998
 21
0.5845636058644737
 31
0.0
 11
-2.0
 21
0.0
 31
0.0
 11
-2.0461460731108994
 21
-0.5845636058644703
 31
0.0
 11
-2.1786327651863502
 21
-1.154700481180946
 31
0.0
  0
SPLINE
  5
62
100
AcDbEntity
  8
0
  6
CONTINUOUS
 62
               7
100
AcDbSpline
210
0.0
220
0.0
230
1.0
 70
               0
 71
               3
 72
               0
 73
               0
 74
               5
 44
0.000001
 12
-0.2955766966256463
 22
-0.9553190129019052
 32
0.0
 13
0.2955766966256496
 23
-0.9553190129019042
 33
0.0
 11
-3.4213672348136583
 21
1.1547004811809529
 31
0.0
 11
-3.5538539268891087
 21
0.5845636058644737
 31
0.0
 11
-3.6000000000000085
 21
0.0
 31
0.0
 11
-3.5538539268891092
 21
-0.5845636058644703
 31
0.0
 11
-3.4213672348136583
 21
-1.154700481180946
 31
0.0
  0
SPLINE
  5
63
100
AcDbEntity
  8
0
  6
CONTINUOUS
 62
               7
100
AcDbSpline
210
0.0
220
0.0
230
1.0
 70
               0
 71
               3
 72
               0
 73
               0
 74
               5
 44
0.000001
 12
0.2955766966256462
 22
-0.9553190129019054
 32
0.0
 13
-0.2955766966256495
 23
-0.9553190129019044
 33
0.0
 11
-3.7786327651863445
 21
1.1547004811809529
 31
0.0
 11
-3.6461460731109012
 21
0.5845636058644737
 31
0.0
 11
-3.6000000000000085
 21
0.0
 31
0.0
 11
-3.6461460731109008
 21
-0.5845636058644703
 31
0.0
 11
-3.7786327651863445
 21
-1.154700481180946
 31
0.0
  0
SPLINE
  5
64
100
AcDbEntity
  8
0
  6
CONTINUOUS
 62
               7
100
AcDbSpline
210
0.0
220
0.0
230
1.0
 70
               0
 71
               3
 72
               0
 73
               0
 74
               5
 44
0.000001
 12
-0.2955766966256463
 22
-0.9553190129019052
 32
0.0
 13
0.2955766966256496
 23
-0.9553190129019042
 33
0.0
 11
-5.0213672348136527
 21
1.1547004811809529
 31
0.0
 11
-5.153853926889103
 21
0.5845636058644737
 31
0.0
 11
-5.2000000000000028
 21
0.0
 31
0.0
 11
-5.1538539268891039
 21
-0.5845636058644703
 31
0.0
 11
-5.0213672348136527
 21
-1.154700481180946
 31
0.0
  0
SPLINE
  5
65
100
AcDbEntity
  8
0
  6
CONTINUOUS
 62
               7
100
AcDbSpline
210
0.0
220
0.0
230
1.0
 70
               0
 71
               3
 72
               0
 73
               0
 74
               5
 44
0.000001
 12
-0.526203566222449
 22
-0.8503586342801353
 32
0.0
 13
0.5262036381605767
 23
-0.8503585897646786
 33
0.0
 11
-5.0213672944182974
 21
2.3094009377364557
 31
0.0
 11
-5.1504352512823557
 21
2.0326195706433641
 31
0.0
 11
-5.2000000000000028
 21
1.7320507690633633
 31
0.0
 11
-5.1504352373563753
 21
1.4314819019278771
 31
0.0
 11
-5.0213672348136527
 21
1.1547004811809527
 31
0.0
  0
SPLINE
  5
66
100
AcDbEntity
  8
0
  6
CONTINUOUS
 62
               7
100
AcDbSpline
210
0.0
220
0.0
230
1.0
 70
               0
 71
               3
 72
               0
 73
               0
 74
               5
 44
0.000001
 12
0.5262035662224491
 22
-0.8503586342801351
 32
0.0
 13
-0.5262036381605768
 23
-0.8503585897646785
 33
0.0
 11
-3.7786327055816997
 21
2.3094009377364557
 31
0.0
 11
-3.6495647487176486
 21
2.0326195706433641
 31
0.0
 11
-3.6000000000000085
 21
1.7320507690633633
 31
0.0
 11
-3.6495647626436289
 21
1.4314819019278771
 31
0.0
 11
-3.7786327651863445
 21
1.1547004811809527
 31
0.0
  0
SPLINE
  5
67
100
AcDbEntity
  8
0
  6
CONTINUOUS
 62
               7
100
AcDbSpline
210
0.0
220
0.0
230
1.0
 70
               0
 71
               3
 72
               0
 73
               0
 74
               5
 44
0.000001
 12
-0.526203566222449
 22
-0.8503586342801353
 32
0.0
 13
0.5262036381605767
 23
-0.8503585897646786
 33
0.0
 11
-3.4213672944183031
 21
2.3094009377364557
 31
0.0
 11
-3.5504352512823614
 21
2.0326195706433641
 31
0.0
 11
-3.6000000000000085
 21
1.7320507690633633
 31
0.0
 11
-3.550435237356381
 21
1.4314819019278771
 31
0.0
 11
-3.4213672348136583
 21
1.1547004811809527
 31
0.0
  0
SPLINE
  5
68
100
AcDbEntity
  8
0
  6
CONTINUOUS
 62
               7
100
AcDbSpline
210
0.0
220
0.0
230
1.0
 70
               0
 71
               3
 72
               0
 73
               0
 74
               5
 44
0.000001
 12
0.5262035662224491
 22
-0.8503586342801351
 32
0.0
 13
-0.5262036381605768
 23
-0.8503585897646785
 33
0.0
 11
-2.1786327055817054
 21
2.3094009377364557
 31
0.0
 11
-2.0495647487176472
 21
2.0326195706433641
 31
0.0
 11
-2.0
 21
1.7320507690633633
 31
0.0
 11
-2.0495647626436275
 21
1.4314819019278771
 31
0.0
 11
-2.1786327651863502
 21
1.1547004811809527
 31
0.0
  0
SPLINE
  5
69
100
AcDbEntity
  8
0
  6
CONTINUOUS
 62
               7
100
AcDbSpline
210
0.0
220
0.0
230
1.0
 70
               0
 71
               3
 72
               0
 73
               0
 74
               5
 44
0.000001
 12
-0.526203566222449
 22
0.8503586342801353
 32
0.0
 13
0.5262036381605767
 23
0.8503585897646786
 33
0.0
 11
-5.0213672944182974
 21
-2.3094009377364486
 31
0.0
 11
-5.1504352512823557
 21
-2.032619570643357
 31
0.0
 11
-5.2000000000000028
 21
-1.7320507690633562
 31
0.0
 11
-5.1504352373563753
 21
-1.4314819019278699
 31
0.0
 11
-5.0213672348136527
 21
-1.1547004811809456
 31
0.0
  0
SPLINE
  5
6A
100
AcDbEntity
  8
0
  6
CONTINUOUS
 62
               7
100
AcDbSpline
210
0.0
220
0.0
230
1.0
 70
               0
 71
               3
 72
               0
 73
               0
 74
               5
 44
0.000001
 12
0.5262035662224491
 22
0.8503586342801351
 32
0.0
 13
-0.5262036381605768
 23
0.8503585897646785
 33
0.0
 11
-3.7786327055816997
 21
-2.3094009377364486
 31
0.0
 11
-3.6495647487176486
 21
-2.032619570643357
 31
0.0
 11
-3.6000000000000085
 21
-1.7320507690633562
 31
0.0
 11
-3.6495647626436289
 21
-1.4314819019278699
 31
0.0
 11
-3.7786327651863445
 21
-1.1547004811809456
 31
0.0
  0
SPLINE
  5
6B
100
AcDbEntity
  8
0
  6
CONTINUOUS
 62
               7
100
AcDbSpline
210
0.0
220
0.0
230
1.0
 70
               0
 71
               3
 72
               0
 73
               0
 74
               5
 44
0.000001
 12
-0.526203566222449
 22
0.8503586342801353
 32
0.0
 13
0.5262036381605767
 23
0.8503585897646786
 33
0.0
 11
-3.4213672944183031
 21
-2.3094009377364486
 31
0.0
 11
-3.5504352512823614
 21
-2.032619570643357
 31
0.0
 11
-3.6000000000000085
 21
-1.7320507690633562
 31
0.0
 11
-3.550435237356381
 21
-1.4314819019278699
 31
0.0
 11
-3.4213672348136583
 21
-1.1547004811809456
 31
0.0
  0
SPLINE
  5
6C
100
AcDbEntity
  8
0
  6
CONTINUOUS
 62
               7
100
AcDbSpline
210
0.0
220
0.0
230
1.0
 70
               0
 71
               3
 72
               0
 73
               0
 74
               5
 44
0.000001
 12
0.5262035662224491
 22
0.8503586342801351
 32
0.0
 13
-0.5262036381605768
 23
0.8503585897646785
 33
0.0
 11
-2.1786327055817054
 21
-2.3094009377364486
 31
0.0
 11
-2.0495647487176472
 21
-2.032619570643357
 31
0.0
 11
-2.0
 21
-1.7320507690633562
 31
0.0
 11
-2.0495647626436275
 21
-1.4314819019278699
 31
0.0
 11
-2.1786327651863502
 21
-1.1547004811809456
 31
0.0
  0
LINE
  5
6E
100
AcDbEntity
  8
0
  6
CENTER
 62
               2
100
AcDbLine
 10
27.0
 20
1.9547775518886965
 30
0.0
 11
27.0
 21
-1.9760956580291094
 31
0.0
  0
CIRCLE
  5
6F
100
AcDbEntity
  8
0
  6
CONTINUOUS
 62
               2
100
AcDbCircle
 10
27.0
 20
0.0000000000000142
 30
0.0
 40
1.5
  0
CIRCLE
  5
70
100
AcDbEntity
  8
0
  6
CONTINUOUS
 62
               7
100
AcDbCircle
 10
27.0
 20
0.0000000000000142
 30
0.0
 40
1.1999999999999886
  0
LINE
  5
71
100
AcDbEntity
  8
0
  6
CENTER
 62
               2
100
AcDbLine
 10
10.0
 20
1.9547775518886965
 30
0.0
 11
10.0
 21
-1.9760956580291094
 31
0.0
  0
CIRCLE
  5
72
100
AcDbEntity
  8
0
  6
CONTINUOUS
 62
               2
100
AcDbCircle
 10
10.0
 20
0.0000000000000142
 30
0.0
 40
1.5
  0
CIRCLE
  5
73
100
AcDbEntity
  8
0
  6
CONTINUOUS
 62
               7
100
AcDbCircle
 10
10.0
 20
0.0000000000000142
 30
0.0
 40
1.1999999999999886
  0
LINE
  5
74
100
AcDbEntity
  8
0
  6
CONTINUOUS
 62
               7
100
AcDbLine
 10
30.000000000000114
 20
7.5
 30
0.0
 11
30.000000000000114
 21
5.7765981290939337
 31
0.0
  0
LINE
  5
75
100
AcDbEntity
  8
0
  6
CENTER
 62
               2
100
AcDbLine
 10
-8.4923149014317687
 20
0.0
 30
0.0
 11
30.846416164038573
 21
0.0
 31
0.0
  0
LINE
  5
76
100
AcDbEntity
  8
0
  6
CONTINUOUS
 62
               7
100
AcDbLine
 10
0.0
 20
7.5
 30
0.0
 11
0.0
 21
-7.5
 31
0.0
  0
LINE
  5
77
100
AcDbEntity
  8
0
  6
CENTER
 62
               2
100
AcDbLine
 10
5.0
 20
-7.7999999999999972
 30
0.0
 11
5.0
 21
-2.2000000000000028
 31
0.0
  0
LINE
  5
78
100
AcDbEntity
  8
0
  6
CENTER
 62
               2
100
AcDbLine
 10
2.2000000000000171
 20
-5.0
 30
0.0
 11
7.7999999999999829
 21
-5.0
 31
0.0
  0
LINE
  5
79
100
AcDbEntity
  8
0
  6
CENTER
 62
               2
100
AcDbLine
 10
5.0
 20
7.7999999999999972
 30
0.0
 11
5.0
 21
2.2000000000000028
 31
0.0
  0
LINE
  5
7A
100
AcDbEntity
  8
0
  6
CENTER
 62
               2
100
AcDbLine
 10
2.2000000000000171
 20
5.0
 30
0.0
 11
7.7999999999999829
 21
5.0
 31
0.0
  0
LINE
  5
7B
100
AcDbEntity
  8
0
  6
CONTINUOUS
 62
               7
100
AcDbLine
 10
0.0
 20
-7.5
 30
0.0
 11
30.000000000000114
 21
-7.5
 31
0.0
  0
LINE
  5
7C
100
AcDbEntity
  8
0
  6
CONTINUOUS
 62
               7
100
AcDbLine
 10
0.0
 20
7.5
 30
0.0
 11
30.000000000000114
 21
7.5
 31
0.0
  0
ARC
  5
7D
100
AcDbEntity
  8
0
  6
CONTINUOUS
 62
               7
100
AcDbCircle
 10
5.0
 20
5.0
 30
0.0
 40
2.0499999999999998
100
AcDbArc
 50
60.803595590367721
 51
352.33581158045979
  0
ARC
  5
7E
100
AcDbEntity
  8
0
  6
CONTINUOUS
 62
               7
100
AcDbCircle
 10
5.0
 20
5.0
 30
0.0
 40
1.1000000000000001
100
AcDbArc
 50
24.619977328656994
 51
335.3800226713422
  0
CIRCLE
  5
7F
100
AcDbEntity
  8
0
  6
CONTINUOUS
 62
               7
100
AcDbCircle
 10
5.0
 20
-5.0
 30
0.0
 40
2.0499999999999998
  0
CIRCLE
  5
80
100
AcDbEntity
  8
0
  6
CONTINUOUS
 62
               7
100
AcDbCircle
 10
5.0
 20
-5.0
 30
0.0
 40
1.1000000000000001
  0
LINE
  5
81
100
AcDbEntity
  8
0
  6
CONTINUOUS
 62
               4
100
AcDbLine
 10
31.500000000000114
 20
-3.0765981290939663
 30
0.0
 11
40.361731420217623
 21
-3.0765981290939663
 31
0.0
  0
LINE
  5
82
100
AcDbEntity
  8
0
  6
CONTINUOUS
 62
             200
100
AcDbLine
 10
39.304332834218371
 20
-7.0228634196434001
 30
0.0
 11
40.713301720596633
 21
-1.7645198911013864
 31
0.0
  0
LINE
  5
83
100
AcDbEntity
  8
0
  6
CONTINUOUS
 62
               4
100
AcDbLine
 10
31.500000000000114
 20
-5.776598129093955
 30
0.0
 11
39.638268608673982
 21
-5.776598129093955
 31
0.0
  0
LINE
  5
84
100
AcDbEntity
  8
0
  6
CONTINUOUS
 62
               4
100
AcDbLine
 10
30.000000000000114
 20
-3.7902020285424243
 30
0.0
 11
31.500000000000114
 21
-3.7902020285424243
 31
0.0
  0
LINE
  5
85
100
AcDbEntity
  8
0
  6
CONTINUOUS
 62
               4
100
AcDbLine
 10
30.000000000000114
 20
-2.0437554080204876
 30
0.0
 11
31.500000019764798
 21
-2.0437554080204876
 31
0.0
  0
LINE
  5
86
100
AcDbEntity
  8
0
  6
CONTINUOUS
 62
               4
100
AcDbLine
 10
31.500000000000114
 20
-2.0437554080204876
 30
0.0
 11
31.500000000000114
 21
-7.0428932220005578
 31
0.0
  0
LINE
  5
87
100
AcDbEntity
  8
0
  6
CONTINUOUS
 62
               4
100
AcDbLine
 10
17.749999999999886
 20
-6.8482584540051761
 30
0.0
 11
17.749999999999886
 21
-5.1162076464362798
 31
0.0
  0
LINE
  5
88
100
AcDbEntity
  8
0
  6
CONTINUOUS
 62
               4
100
AcDbLine
 10
18.249999999999886
 20
-6.8482584540051761
 30
0.0
 11
18.249999999999886
 21
-5.1162076464362798
 31
0.0
  0
ELLIPSE
  5
89
100
AcDbEntity
  8
0
  6
CONTINUOUS
 62
               4
100
AcDbEllipse
 10
17.999999999999886
 20
-5.9822330502207279
 30
0.0
 11
-1.25
 21
0.0000000000000002
 31
0.0
210
0.0
220
0.0
230
1.0
 40
0.7071067811865476
 41
0.0
 42
6.2831853071795862
  0
LINE
  5
8A
100
AcDbEntity
  8
0
  6
CONTINUOUS
 62
               4
100
AcDbLine
 10
15.999999999999886
 20
-4.7265981316103076
 30
0.0
 11
15.999999999999886
 21
-7.0428932220005578
 31
0.0
  0
LINE
  5
8B
100
AcDbEntity
  8
0
  6
CONTINUOUS
 62
             200
100
AcDbLine
 10
39.304332834218371
 20
1.8303328385444999
 30
0.0
 11
40.713301720596633
 21
7.0886763670865136
 31
0.0
  0
LINE
  5
8C
100
AcDbEntity
  8
0
  6
CONTINUOUS
 62
               7
100
AcDbLine
 10
30.000000000000114
 20
4.7265981316103129
 30
0.0
 11
30.000000000000114
 21
-4.7265981316103076
 31
0.0
  0
LINE
  5
8D
100
AcDbEntity
  8
0
  6
CONTINUOUS
 62
               7
100
AcDbLine
 10
30.000000000000114
 20
-7.0428932220005578
 30
0.0
 11
30.000000000000114
 21
-7.5
 31
0.0
  0
LINE
  5
8E
100
AcDbEntity
  8
0
  6
CONTINUOUS
 62
               4
100
AcDbLine
 10
5.9999999987406056
 20
7.042893222000508
 30
0.0
 11
21.5
 21
7.042893222000508
 31
0.0
  0
LINE
  5
8F
100
AcDbEntity
  8
0
  6
CONTINUOUS
 62
               4
100
AcDbLine
 10
5.9999999987406056
 20
4.9215728784409052
 30
0.0
 11
21.499999998740606
 21
4.9215728784409052
 31
0.0
  0
LINE
  5
90
100
AcDbEntity
  8
0
  6
CONTINUOUS
 62
               4
100
AcDbLine
 10
15.999999998740606
 20
-7.0428932220005578
 30
0.0
 11
31.500000000000114
 21
-7.0428932220005578
 31
0.0
  0
LINE
  5
91
100
AcDbEntity
  8
0
  6
CONTINUOUS
 62
               4
100
AcDbLine
 10
15.999999998740606
 20
-4.9215728784408981
 30
0.0
 11
31.500000000000114
 21
-4.9215728784408981
 31
0.0
  0
ENDBLK
  5
92
100
AcDbEntity
  8
0
100
AcDbBlockEnd
  0
BLOCK
  5
93
100
AcDbEntity
  8
0
100
AcDbBlockBegin
  2
MS_2
 70
               0
 10
0.0
 20
0.0
 30
0.0
  3
MS_2
  1

  0
LINE
  5
94
100
AcDbEntity
  8
0
  6
CONTINUOUS
 62
               4
100
AcDbLine
 10
5.377177179213092
 20
4.1114305377100138
 30
0.0
 11
5.377177179213092
 21
3.4043237565234605
 31
0.0
  0
LINE
  5
95
100
AcDbEntity
  8
0
  6
CONTINUOUS
 62
               4
100
AcDbLine
 10
6.2964159947555771
 20
5.0306693532525273
 30
0.0
 11
5.377177179213092
 21
4.1114305377100138
 31
0.0
  0
ARC
  5
96
100
AcDbEntity
  8
0
  6
CONTINUOUS
 62
               4
100
AcDbCircle
 10
7.2164964266226406
 20
4.180120910739582
 30
0.0
 40
2.0520237703338058
100
AcDbArc
 50
135.01661649434493
 51
224.98338350565427
  0
LINE
  5
97
100
AcDbEntity
  8
0
  6
CONTINUOUS
 62
               4
100
AcDbLine
 10
10.078427121559159
 20
4.9215728784408483
 30
0.0
 11
9.7612392225696993
 21
4.6043849794515026
 31
0.0
  0
LINE
  5
98
100
AcDbEntity
  8
0
  6
CONTINUOUS
 62
               4
100
AcDbLine
 10
6.8600811146157383
 20
6.7257053230111339
 30
0.0
 11
7.6399188790101533
 21
6.7257053230111339
 31
0.0
  0
LINE
  5
99
100
AcDbEntity
  8
0
  6
CONTINUOUS
 62
               4
100
AcDbLine
 10
7.9571067779993854
 20
7.042893222000508
 30
0.0
 11
7.6399188790101533
 21
6.7257053230111339
 31
0.0
  0
LINE
  5
9A
100
AcDbEntity
  8
0
  6
CONTINUOUS
 62
               4
100
AcDbLine
 10
10.078427121559159
 20
4.9215728784409052
 30
0.0
 11
7.9571067779993854
 21
7.0428932220005365
 31
0.0
  0
LINE
  5
9B
100
AcDbEntity
  8
0
  6
CONTINUOUS
 62
               4
100
AcDbLine
 10
9.7592189174807089
 20
3.8265675201463054
 30
0.0
 11
9.7612392225696993
 21
4.6043849794515026
 31
0.0
  0
LINE
  5
9C
100
AcDbEntity
  8
0
  6
CONTINUOUS
 62
               4
100
AcDbLine
 10
6.437837350992865
 20
2.3436635847436591
 30
0.0
 11
7.1449441321795319
 21
2.3436635847436591
 31
0.0
  0
LINE
  5
9D
100
AcDbEntity
  8
0
  6
CONTINUOUS
 62
               4
100
AcDbLine
 10
8.064182947722017
 20
3.2629024002861442
 30
0.0
 11
7.1449441321795319
 21
2.3436635847436591
 31
0.0
  0
LINE
  5
9E
100
AcDbEntity
  8
0
  6
CONTINUOUS
 62
               4
100
AcDbLine
 10
9.7592189174807089
 20
3.8265675201463054
 30
0.0
 11
8.6642135591860523
 21
2.7315621618517056
 31
0.0
  0
LINE
  5
9F
100
AcDbEntity
  8
0
  6
CONTINUOUS
 62
             200
100
AcDbLine
 10
7.9237717440292244
 20
3.4033136039789085
 30
0.0
 11
6.8641217247939466
 21
2.3436635847436591
 31
0.0
  0
ARC
  5
A0
100
AcDbEntity
  8
0
  6
CONTINUOUS
 62
               4
100
AcDbCircle
 10
7.2136338525458967
 20
4.181057482345885
 30
0.0
 40
2.0506628609917015
100
AcDbArc
 50
225.05843089091513
 51
315.02142384112307
  0
LINE
  5
A1
100
AcDbEntity
  8
0
  6
CONTINUOUS
 62
             200
100
AcDbLine
 10
6.4388475035375876
 20
4.8882378444706589
 30
0.0
 11
5.377177179213092
 21
3.8265675201463054
 31
0.0
  0
LINE
  5
A2
100
AcDbEntity
  8
0
  6
CONTINUOUS
 62
               4
100
AcDbLine
 10
6.8600811146157383
 20
6.7257053230111339
 30
0.0
 11
5.7650757563213091
 21
5.6306999647165341
 31
0.0
  0
LINE
  5
A3
100
AcDbEntity
  8
0
  6
CONTINUOUS
 62
               4
100
AcDbLine
 10
7.1449441321795319
 20
2.3436635847436591
 30
0.0
 11
5.377177179213092
 21
4.1114305377100138
 31
0.0
  0
LINE
  5
A4
100
AcDbEntity
  8
0
  6
CONTINUOUS
 62
               4
100
AcDbLine
 10
8.6298683726711687
 20
2.6972169753369357
 30
0.0
 11
5.7307305698064255
 21
5.5963547782017642
 31
0.0
  0
LINE
  5
A5
100
AcDbEntity
  8
0
  6
CONTINUOUS
 62
               4
100
AcDbLine
 10
6.437837350992865
 20
2.3436635847436591
 30
0.0
 11
5.377177179213092
 21
3.4043237565234605
 31
0.0
  0
LINE
  5
A6
100
AcDbEntity
  8
0
  6
CENTER
 62
             200
100
AcDbLine
 10
10.036264480820179
 20
7.0007305812616423
 30
0.0
 11
5.1228262064678773
 21
2.0872923069091982
 31
0.0
  0
LINE
  5
A7
100
AcDbEntity
  8
0
  6
CONTINUOUS
 62
               4
100
AcDbLine
 10
9.1935334925313299
 20
3.2608820951970401
 30
0.0
 11
6.2943956896665867
 21
6.160019898061897
 31
0.0
  0
ARC
  5
A8
100
AcDbEntity
  8
0
  6
CONTINUOUS
 62
               7
100
AcDbCircle
 10
3.0
 20
0.0
 30
0.0
 40
2.2999999999999998
100
AcDbArc
 50
330.40815420604849
 51
29.59184579395064
  0
LINE
  5
A9
100
AcDbEntity
  8
0
  6
CONTINUOUS
 62
               7
100
AcDbLine
 10
5.0
 20
-1.1547003993572034
 30
0.0
 11
5.0
 21
1.1547003993572034
 31
0.0
  0
CIRCLE
  5
AA
100
AcDbEntity
  8
0
  6
CONTINUOUS
 62
               7
100
AcDbCircle
 10
3.0
 20
0.0
 30
0.0
 40
1.0
  0
CIRCLE
  5
AB
100
AcDbEntity
  8
0
  6
CONTINUOUS
 62
               2
100
AcDbCircle
 10
3.0
 20
0.0
 30
0.0
 40
0.7
  0
LINE
  5
AC
100
AcDbEntity
  8
0
  6
CONTINUOUS
 62
               7
100
AcDbLine
 10
1.0
 20
-1.1547003993572105
 30
0.0
 11
1.0
 21
1.1547003993572105
 31
0.0
  0
CIRCLE
  5
AD
100
AcDbEntity
  8
0
  6
CONTINUOUS
 62
               7
100
AcDbCircle
 10
3.0
 20
0.0
 30
0.0
 40
2.0
  0
ARC
  5
AE
100
AcDbEntity
  8
0
  6
CONTINUOUS
 62
               7
100
AcDbCircle
 10
3.0
 20
0.0
 30
0.0
 40
2.2999999999999998
100
AcDbArc
 50
90.408148132507023
 51
149.59185186749238
  0
ARC
  5
AF
100
AcDbEntity
  8
0
  6
CONTINUOUS
 62
               7
100
AcDbCircle
 10
3.0
 20
0.0
 30
0.0
 40
2.2999999999999998
100
AcDbArc
 50
150.07034004984791
 51
209.59184579395028
  0
ARC
  5
B0
100
AcDbEntity
  8
0
  6
CONTINUOUS
 62
               7
100
AcDbCircle
 10
3.0
 20
0.0
 30
0.0
 40
2.2999999999999998
100
AcDbArc
 50
210.40814813250682
 51
269.59185186749215
  0
ARC
  5
B1
100
AcDbEntity
  8
0
  6
CONTINUOUS
 62
               7
100
AcDbCircle
 10
3.0
 20
0.0
 30
0.0
 40
2.2999999999999998
100
AcDbArc
 50
270.40814813250665
 51
329.59185186749215
  0
LINE
  5
B2
100
AcDbEntity
  8
0
  6
CONTINUOUS
 62
               7
100
AcDbLine
 10
3.0
 20
-2.3094009377364557
 30
0.0
 11
1.0
 21
-1.1547003993572105
 31
0.0
  0
LINE
  5
B3
100
AcDbEntity
  8
0
  6
CONTINUOUS
 62
               7
100
AcDbLine
 10
3.0
 20
-2.3094009377364557
 30
0.0
 11
5.0
 21
-1.1547003993572034
 31
0.0
  0
LINE
  5
B4
100
AcDbEntity
  8
0
  6
CONTINUOUS
 62
               7
100
AcDbLine
 10
3.0
 20
2.3094009377364557
 30
0.0
 11
5.0
 21
1.1547003993572034
 31
0.0
  0
LINE
  5
B5
100
AcDbEntity
  8
0
  6
CONTINUOUS
 62
               7
100
AcDbLine
 10
3.0
 20
2.3094009377364557
 30
0.0
 11
1.0
 21
1.1547003993572105
 31
0.0
  0
ARC
  5
B6
100
AcDbEntity
  8
0
  6
CONTINUOUS
 62
               7
100
AcDbCircle
 10
3.0
 20
0.0
 30
0.0
 40
2.2999999999999998
100
AcDbArc
 50
30.408148132507041
 51
89.591851867492579
  0
CIRCLE
  5
B7
100
AcDbEntity
  8
0
  6
CONTINUOUS
 62
               7
100
AcDbCircle
 10
3.0
 20
0.0
 30
0.0
 40
2.5
  0
ARC
  5
B8
100
AcDbEntity
  8
0
  6
CONTINUOUS
 62
               7
100
AcDbCircle
 10
7.4621320311688919
 20
-7.1136039001191946
 30
0.0
 40
0.3
100
AcDbArc
 50
314.99999999999937
 51
44.999999999997151
  0
ARC
  5
B9
100
AcDbEntity
  8
0
  6
CONTINUOUS
 62
               7
100
AcDbCircle
 10
10.149137799677774
 20
-4.4265981316103069
 30
0.0
 40
0.3
100
AcDbArc
 50
224.99999999999662
 51
314.99999999999903
  0
ARC
  5
BA
100
AcDbEntity
  8
0
  6
CONTINUOUS
 62
               7
100
AcDbCircle
 10
10.14913779967776
 20
4.4265981316103122
 30
0.0
 40
0.3
100
AcDbArc
 50
44.999999999999893
 51
135.00000000000281
  0
ARC
  5
BB
100
AcDbEntity
  8
0
  6
CONTINUOUS
 62
               7
100
AcDbCircle
 10
7.4621320311688777
 20
7.1136039001191875
 30
0.0
 40
0.3
100
AcDbArc
 50
-44.999999999997172
 51
44.99999999999978
  0
LINE
  5
BC
100
AcDbEntity
  8
0
  6
CONTINUOUS
 62
               7
100
AcDbLine
 10
7.5328427171471901
 20
6.760050517385551
 30
0.0
 11
6.8257359359606369
 21
6.760050517385551
 31
0.0
  0
LINE
  5
BD
100
AcDbEntity
  8
0
  6
CONTINUOUS
 62
               7
100
AcDbLine
 10
7.6742640655248522
 20
6.9014718657632343
 30
0.0
 11
7.5328427171471901
 21
6.760050517385551
 31
0.0
  0
LINE
  5
BE
100
AcDbEntity
  8
0
  6
CONTINUOUS
 62
               7
100
AcDbLine
 10
6.8257359359606369
 20
6.760050517385551
 30
0.0
 11
5.6943650860621631
 21
5.6286796674870772
 31
0.0
  0
ARC
  5
BF
100
AcDbEntity
  8
0
  6
CONTINUOUS
 62
               7
100
AcDbCircle
 10
7.1792893265539135
 20
4.1437554269953267
 30
0.0
 40
2.1000000111152071
100
AcDbArc
 50
134.99999999999969
 51
314.99999999999932
  0
LINE
  5
C0
100
AcDbEntity
  8
0
  6
CONTINUOUS
 62
               7
100
AcDbLine
 10
9.7955844169441377
 20
3.7902020364020501
 30
0.0
 11
8.6642135670456639
 21
2.6588311865035621
 31
0.0
  0
LINE
  5
C1
100
AcDbEntity
  8
0
  6
CONTINUOUS
 62
               7
100
AcDbLine
 10
9.9370057653217998
 20
4.6387301659662619
 30
0.0
 11
9.7955844169441377
 21
4.4973088175885891
 31
0.0
  0
LINE
  5
C2
100
AcDbEntity
  8
0
  6
CONTINUOUS
 62
               7
100
AcDbLine
 10
9.7955844169441377
 20
3.7902020364020501
 30
0.0
 11
9.7955844169441377
 21
4.4973088175885891
 31
0.0
  0
LINE
  5
C3
100
AcDbEntity
  8
0
  6
CONTINUOUS
 62
               7
100
AcDbLine
 10
7.6742640655248522
 20
7.3257359344751514
 30
0.0
 11
7.5
 21
7.5
 31
0.0
  0
LINE
  5
C4
100
AcDbEntity
  8
0
  6
CONTINUOUS
 62
               7
100
AcDbLine
 10
7.6742640655248522
 20
-7.3257359344751549
 30
0.0
 11
7.5
 21
-7.5
 31
0.0
  0
LINE
  5
C5
100
AcDbEntity
  8
0
  6
CONTINUOUS
 62
               7
100
AcDbLine
 10
11.0
 20
-4.0
 30
0.0
 11
10.361269834033735
 21
-4.6387301659662725
 31
0.0
  0
LINE
  5
C6
100
AcDbEntity
  8
0
  6
CONTINUOUS
 62
               7
100
AcDbLine
 10
11.0
 20
4.0
 30
0.0
 11
10.36126983403372
 21
4.6387301659662761
 31
0.0
  0
ARC
  5
C7
100
AcDbEntity
  8
0
  6
CONTINUOUS
 62
               7
100
AcDbCircle
 10
0.4000000000000057
 20
7.1000000000000014
 30
0.0
 40
0.4
100
AcDbArc
 50
89.999999999999801
 51
179.9999999999996
  0
ARC
  5
C8
100
AcDbEntity
  8
0
  6
CONTINUOUS
 62
               7
100
AcDbCircle
 10
0.4000000000000057
 20
-7.1000000000000014
 30
0.0
 40
0.4
100
AcDbArc
 50
179.9999999999996
 51
269.99999999999937
  0
LINE
  5
C9
100
AcDbEntity
  8
0
  6
CENTER
 62
               2
100
AcDbLine
 10
5.25
 20
-5.0
 30
0.0
 11
-1.0
 21
-5.0
 31
0.0
  0
CIRCLE
  5
CA
100
AcDbEntity
  8
0
  6
CONTINUOUS
 62
               7
100
AcDbCircle
 10
3.0
 20
-5.0
 30
0.0
 40
1.0
  0
CIRCLE
  5
CB
100
AcDbEntity
  8
0
  6
CONTINUOUS
 62
               2
100
AcDbCircle
 10
3.0
 20
-5.0
 30
0.0
 40
1.25
  0
CIRCLE
  5
CC
100
AcDbEntity
  8
0
  6
CONTINUOUS
 62
               7
100
AcDbCircle
 10
3.0
 20
5.0
 30
0.0
 40
1.0
  0
CIRCLE
  5
CD
100
AcDbEntity
  8
0
  6
CONTINUOUS
 62
               2
100
AcDbCircle
 10
3.0
 20
5.0
 30
0.0
 40
1.25
  0
LINE
  5
CE
100
AcDbEntity
  8
0
  6
CONTINUOUS
 62
               7
100
AcDbLine
 10
7.6742640655248522
 20
-6.9014718657632415
 30
0.0
 11
7.5328427171471901
 21
-6.760050517385551
 31
0.0
  0
LINE
  5
CF
100
AcDbEntity
  8
0
  6
CONTINUOUS
 62
               7
100
AcDbLine
 10
7.5328427171471901
 20
-6.760050517385551
 30
0.0
 11
6.8257359359606369
 21
-6.760050517385551
 31
0.0
  0
LINE
  5
D0
100
AcDbEntity
  8
0
  6
CONTINUOUS
 62
               7
100
AcDbLine
 10
6.8257359359606369
 20
-6.760050517385551
 30
0.0
 11
5.6943650860621631
 21
-5.6286796674870772
 31
0.0
  0
ARC
  5
D1
100
AcDbEntity
  8
0
  6
CONTINUOUS
 62
               7
100
AcDbCircle
 10
7.1792893265539135
 20
-4.1437554269953267
 30
0.0
 40
2.1000000111152071
100
AcDbArc
 50
44.999999999999901
 51
224.99999999999949
  0
LINE
  5
D2
100
AcDbEntity
  8
0
  6
CONTINUOUS
 62
               7
100
AcDbLine
 10
9.9370057653217998
 20
-4.6387301659662636
 30
0.0
 11
9.7955844169441377
 21
-4.4973088175885891
 31
0.0
  0
LINE
  5
D3
100
AcDbEntity
  8
0
  6
CONTINUOUS
 62
               7
100
AcDbLine
 10
9.7955844169441377
 20
-3.7902020364020501
 30
0.0
 11
9.7955844169441377
 21
-4.4973088175885891
 31
0.0
  0
LINE
  5
D4
100
AcDbEntity
  8
0
  6
CONTINUOUS
 62
               7
100
AcDbLine
 10
9.7955844169441377
 20
-3.7902020364020501
 30
0.0
 11
8.6642135670456639
 21
-2.6588311865035621
 31
0.0
  0
LINE
  5
D5
100
AcDbEntity
  8
0
  6
CONTINUOUS
 62
               7
100
AcDbLine
 10
11.0
 20
-4.0
 30
0.0
 11
11.0
 21
4.0
 31
0.0
  0
LINE
  5
D6
100
AcDbEntity
  8
0
  6
CONTINUOUS
 62
               7
100
AcDbLine
 10
7.5
 20
7.5
 30
0.0
 11
0.4000000000000057
 21
7.5
 31
0.0
  0
LINE
  5
D7
100
AcDbEntity
  8
0
  6
CENTER
 62
               2
100
AcDbLine
 10
12.172825329495623
 20
0.0
 30
0.0
 11
-1.0
 21
0.0
 31
0.0
  0
LINE
  5
D8
100
AcDbEntity
  8
0
  6
CONTINUOUS
 62
               7
100
AcDbLine
 10
0.0
 20
-7.1000000000000014
 30
0.0
 11
0.0
 21
7.1000000000000014
 31
0.0
  0
LINE
  5
D9
100
AcDbEntity
  8
0
  6
CENTER
 62
               2
100
AcDbLine
 10
3.0
 20
-7.25
 30
0.0
 11
3.0
 21
7.25
 31
0.0
  0
LINE
  5
DA
100
AcDbEntity
  8
0
  6
CONTINUOUS
 62
               7
100
AcDbLine
 10
7.5
 20
-7.5
 30
0.0
 11
0.4000000000000057
 21
-7.5
 31
0.0
  0
LINE
  5
DB
100
AcDbEntity
  8
0
  6
CENTER
 62
               2
100
AcDbLine
 10
5.25
 20
5.0
 30
0.0
 11
-1.0
 21
5.0
 31
0.0
  0
LINE
  5
DC
100
AcDbEntity
  8
0
  6
CONTINUOUS
 62
               4
100
AcDbLine
 10
10.078427121559173
 20
-4.9215728784408981
 30
0.0
 11
9.7612392225697135
 21
-4.6043849794515239
 31
0.0
  0
LINE
  5
DD
100
AcDbEntity
  8
0
  6
CONTINUOUS
 62
             200
100
AcDbLine
 10
6.4388475035376018
 20
-4.8882378444706802
 30
0.0
 11
5.3771771792131062
 21
-3.8265675201462983
 31
0.0
  0
LINE
  5
DE
100
AcDbEntity
  8
0
  6
CONTINUOUS
 62
               4
100
AcDbLine
 10
6.2964159947555913
 20
-5.0306693532525486
 30
0.0
 11
5.3771771792131062
 21
-4.1114305377100351
 31
0.0
  0
LINE
  5
DF
100
AcDbEntity
  8
0
  6
CONTINUOUS
 62
               4
100
AcDbLine
 10
9.1935334925313441
 20
-3.2608820951970898
 30
0.0
 11
6.2943956896666009
 21
-6.1600198980619183
 31
0.0
  0
LINE
  5
E0
100
AcDbEntity
  8
0
  6
CENTER
 62
             200
100
AcDbLine
 10
10.036264480820194
 20
-7.0007305812616352
 30
0.0
 11
5.1228262064678916
 21
-2.0872923069092195
 31
0.0
  0
LINE
  5
E1
100
AcDbEntity
  8
0
  6
CONTINUOUS
 62
               4
100
AcDbLine
 10
8.6298683726711829
 20
-2.6972169753369286
 30
0.0
 11
5.7307305698064397
 21
-5.5963547782017855
 31
0.0
  0
ARC
  5
E2
100
AcDbEntity
  8
0
  6
CONTINUOUS
 62
               4
100
AcDbCircle
 10
7.2164964266226548
 20
-4.1801209107395749
 30
0.0
 40
2.0520237703338058
100
AcDbArc
 50
135.01661649434493
 51
224.98338350565427
  0
ARC
  5
E3
100
AcDbEntity
  8
0
  6
CONTINUOUS
 62
               4
100
AcDbCircle
 10
7.2136338525459109
 20
-4.1810574823459064
 30
0.0
 40
2.0506628609917015
100
AcDbArc
 50
44.978576158876109
 51
134.94156910908407
  0
LINE
  5
E4
100
AcDbEntity
  8
0
  6
CONTINUOUS
 62
               4
100
AcDbLine
 10
6.4378373509928792
 20
-2.343663584743652
 30
0.0
 11
5.3771771792131062
 21
-3.4043237565234818
 31
0.0
  0
LINE
  5
E5
100
AcDbEntity
  8
0
  6
CONTINUOUS
 62
               4
100
AcDbLine
 10
7.1449441321795462
 20
-2.343663584743652
 30
0.0
 11
5.3771771792131062
 21
-4.1114305377100351
 31
0.0
  0
LINE
  5
E6
100
AcDbEntity
  8
0
  6
CONTINUOUS
 62
               4
100
AcDbLine
 10
5.3771771792131062
 20
-4.1114305377100351
 30
0.0
 11
5.3771771792131062
 21
-3.4043237565234818
 31
0.0
  0
LINE
  5
E7
100
AcDbEntity
  8
0
  6
CONTINUOUS
 62
               4
100
AcDbLine
 10
6.4378373509928792
 20
-2.343663584743652
 30
0.0
 11
7.1449441321795462
 21
-2.343663584743652
 31
0.0
  0
LINE
  5
E8
100
AcDbEntity
  8
0
  6
CONTINUOUS
 62
               4
100
AcDbLine
 10
8.0641829477220313
 20
-3.2629024002861939
 30
0.0
 11
7.1449441321795462
 21
-2.343663584743652
 31
0.0
  0
LINE
  5
E9
100
AcDbEntity
  8
0
  6
CONTINUOUS
 62
             200
100
AcDbLine
 10
7.9237717440292386
 20
-3.4033136039789298
 30
0.0
 11
6.8641217247939608
 21
-2.343663584743652
 31
0.0
  0
LINE
  5
EA
100
AcDbEntity
  8
0
  6
CONTINUOUS
 62
               4
100
AcDbLine
 10
9.7592189174807231
 20
-3.8265675201462983
 30
0.0
 11
9.7612392225697135
 21
-4.6043849794515239
 31
0.0
  0
LINE
  5
EB
100
AcDbEntity
  8
0
  6
CONTINUOUS
 62
               4
100
AcDbLine
 10
9.7592189174807231
 20
-3.8265675201462983
 30
0.0
 11
8.6642135591860665
 21
-2.7315621618516985
 31
0.0
  0
LINE
  5
EC
100
AcDbEntity
  8
0
  6
CONTINUOUS
 62
               4
100
AcDbLine
 10
10.078427121559173
 20
-4.9215728784408981
 30
0.0
 11
7.9571067779993996
 21
-7.0428932220005578
 31
0.0
  0
LINE
  5
ED
100
AcDbEntity
  8
0
  6
CONTINUOUS
 62
               4
100
AcDbLine
 10
6.8600811146157525
 20
-6.7257053230111552
 30
0.0
 11
5.7650757563213233
 21
-5.6306999647165554
 31
0.0
  0
LINE
  5
EE
100
AcDbEntity
  8
0
  6
CONTINUOUS
 62
               4
100
AcDbLine
 10
7.9571067779993996
 20
-7.0428932220005578
 30
0.0
 11
7.6399188790101675
 21
-6.7257053230111552
 31
0.0
  0
LINE
  5
EF
100
AcDbEntity
  8
0
  6
CONTINUOUS
 62
               4
100
AcDbLine
 10
6.8600811146157525
 20
-6.7257053230111552
 30
0.0
 11
7.6399188790101675
 21
-6.7257053230111552
 31
0.0
  0
ENDBLK
  5
F0
100
AcDbEntity
  8
0
100
AcDbBlockEnd
  0
BLOCK
  5
F1
100
AcDbEntity
  8
0
100
AcDbBlockBegin
  2
MS_3
 70
               0
 10
0.0
 20
0.0
 30
0.0
  3
MS_3
  1

  0
LINE
  5
F2
100
AcDbEntity
  8
0
  6
PHANTOM
 62
               3
100
AcDbLine
 10
23.465975658075678
 20
16.0
 30
0.0
 11
23.465975658075678
 21
-5.0
 31
0.0
  0
LINE
  5
F3
100
AcDbEntity
  8
0
  6
CENTER
 62
               2
100
AcDbLine
 10
-7.8441166040813073
 20
8.0
 30
0.0
 11
1.3683377634497305
 21
8.0
 31
0.0
  0
LINE
  5
F4
100
AcDbEntity
  8
0
  6
CONTINUOUS
 62
               7
100
AcDbLine
 10
-2.0
 20
9.0
 30
0.0
 11
0.0
 21
9.0
 31
0.0
  0
LINE
  5
F5
100
AcDbEntity
  8
0
  6
CONTINUOUS
 62
               7
100
AcDbLine
 10
-2.0
 20
7.0
 30
0.0
 11
0.0
 21
7.0
 31
0.0
  0
ARC
  5
F6
100
AcDbEntity
  8
0
  6
CONTINUOUS
 62
               7
100
AcDbCircle
 10
-0.7116456127252633
 20
8.9999999999999858
 30
0.0
 40
2.8883543872747346
100
AcDbArc
 50
159.74384115127785
 51
200.25615884872064
  0
ARC
  5
F7
100
AcDbEntity
  8
0
  6
CONTINUOUS
 62
               7
100
AcDbCircle
 10
-0.7116456127252633
 20
7.0000000000000142
 30
0.0
 40
2.8883543872747346
100
AcDbArc
 50
159.74384115127856
 51
200.25615884872136
  0
ARC
  5
F8
100
AcDbEntity
  8
0
  6
CONTINUOUS
 62
               7
100
AcDbCircle
 10
-6.4883543872747396
 20
8.9999999999999858
 30
0.0
 40
2.8883543872747346
100
AcDbArc
 50
-20.256158848721032
 51
20.256158848721746
  0
ARC
  5
F9
100
AcDbEntity
  8
0
  6
CONTINUOUS
 62
               7
100
AcDbCircle
 10
-6.4883543872747396
 20
7.0000000000000142
 30
0.0
 40
2.8883543872747346
100
AcDbArc
 50
339.74384115127742
 51
20.256158848721032
  0
ARC
  5
FA
100
AcDbEntity
  8
0
  6
CONTINUOUS
 62
               7
100
AcDbCircle
 10
-4.8883543872747452
 20
7.0000000000000142
 30
0.0
 40
2.8883543872747346
100
AcDbArc
 50
339.74384115127742
 51
20.256158848721032
  0
ARC
  5
FB
100
AcDbEntity
  8
0
  6
CONTINUOUS
 62
               7
100
AcDbCircle
 10
-4.8883543872747452
 20
8.9999999999999858
 30
0.0
 40
2.8883543872747346
100
AcDbArc
 50
-20.256158848721032
 51
20.256158848721746
  0
ARC
  5
FC
100
AcDbEntity
  8
0
  6
CONTINUOUS
 62
               7
100
AcDbCircle
 10
-2.3116456127252718
 20
7.0000000000000142
 30
0.0
 40
2.8883543872747346
100
AcDbArc
 50
159.74384115127856
 51
200.25615884872136
  0
ARC
  5
FD
100
AcDbEntity
  8
0
  6
CONTINUOUS
 62
               7
100
AcDbCircle
 10
-2.3116456127252718
 20
8.9999999999999858
 30
0.0
 40
2.8883543872747346
100
AcDbArc
 50
159.74384115127785
 51
200.25615884872064
  0
LINE
  5
FE
100
AcDbEntity
  8
0
  6
CONTINUOUS
 62
               7
100
AcDbLine
 10
-3.4213671974068376
 20
8.0
 30
0.0
 11
-2.1786328025931709
 21
8.0
 31
0.0
  0
LINE
  5
FF
100
AcDbEntity
  8
0
  6
CONTINUOUS
 62
               7
100
AcDbLine
 10
-5.0213671974068177
 20
8.0
 30
0.0
 11
-3.7786328025931653
 21
8.0
 31
0.0
  0
LINE
  5
100
100
AcDbEntity
  8
0
  6
CONTINUOUS
 62
               7
100
AcDbLine
 10
-5.2000000000000028
 20
6.0
 30
0.0
 11
-2.0
 21
6.0
 31
0.0
  0
LINE
  5
101
100
AcDbEntity
  8
0
  6
CONTINUOUS
 62
               7
100
AcDbLine
 10
-5.2000000000000028
 20
10.0
 30
0.0
 11
-2.0
 21
10.0
 31
0.0
  0
LINE
  5
102
100
AcDbEntity
  8
0
  6
CONTINUOUS
 62
               7
100
AcDbLine
 10
-5.2000000000000028
 20
5.9999999620322626
 30
0.0
 11
-5.2000000000000028
 21
10.000000021636907
 31
0.0
  0
LINE
  5
103
100
AcDbEntity
  8
0
  6
CONTINUOUS
 62
               7
100
AcDbLine
 10
-3.6000000000000085
 20
5.9999999620322626
 30
0.0
 11
-3.6000000000000085
 21
10.000000021636907
 31
0.0
  0
LINE
  5
104
100
AcDbEntity
  8
0
  6
CONTINUOUS
 62
               7
100
AcDbLine
 10
-2.0
 20
5.9999999620322626
 30
0.0
 11
-2.0
 21
10.000000021636907
 31
0.0
  0
LINE
  5
105
100
AcDbEntity
  8
0
  6
CONTINUOUS
 62
               2
100
AcDbLine
 10
-2.0
 20
7.2999999999999972
 30
0.0
 11
-1.0
 21
7.2999999999999972
 31
0.0
  0
LINE
  5
106
100
AcDbEntity
  8
0
  6
CONTINUOUS
 62
               2
100
AcDbLine
 10
-2.0
 20
8.7000000000000028
 30
0.0
 11
-1.0
 21
8.7000000000000028
 31
0.0
  0
LINE
  5
107
100
AcDbEntity
  8
0
  6
CONTINUOUS
 62
               7
100
AcDbLine
 10
-6.7000000000000171
 20
7.0
 30
0.0
 11
-7.0
 21
7.2999999999999972
 31
0.0
  0
LINE
  5
108
100
AcDbEntity
  8
0
  6
CONTINUOUS
 62
               2
100
AcDbLine
 10
-7.0
 20
7.2999999999999972
 30
0.0
 11
-5.2000000000000028
 21
7.2999999999999972
 31
0.0
  0
LINE
  5
109
100
AcDbEntity
  8
0
  6
CONTINUOUS
 62
               7
100
AcDbLine
 10
-6.7000000000000171
 20
7.0
 30
0.0
 11
-5.2000000000000028
 21
7.0
 31
0.0
  0
LINE
  5
10A
100
AcDbEntity
  8
0
  6
CONTINUOUS
 62
               7
100
AcDbLine
 10
-6.7000000000000171
 20
9.0
 30
0.0
 11
-6.7000000000000171
 21
7.0
 31
0.0
  0
LINE
  5
10B
100
AcDbEntity
  8
0
  6
CONTINUOUS
 62
               7
100
AcDbLine
 10
-6.7000000000000171
 20
9.0
 30
0.0
 11
-7.0
 21
8.7000000000000028
 31
0.0
  0
LINE
  5
10C
100
AcDbEntity
  8
0
  6
CONTINUOUS
 62
               7
100
AcDbLine
 10
-1.0
 20
9.0
 30
0.0
 11
-1.0
 21
7.0
 31
0.0
  0
LINE
  5
10D
100
AcDbEntity
  8
0
  6
CONTINUOUS
 62
               2
100
AcDbLine
 10
-7.0
 20
8.7000000000000028
 30
0.0
 11
-5.2000000000000028
 21
8.7000000000000028
 31
0.0
  0
LINE
  5
10E
100
AcDbEntity
  8
0
  6
CONTINUOUS
 62
               7
100
AcDbLine
 10
-7.0
 20
8.7000000000000028
 30
0.0
 11
-7.0
 21
7.2999999999999972
 31
0.0
  0
LINE
  5
10F
100
AcDbEntity
  8
0
  6
CONTINUOUS
 62
               7
100
AcDbLine
 10
-6.7000000000000171
 20
9.0
 30
0.0
 11
-5.2000000000000028
 21
9.0
 31
0.0
  0
LINE
  5
110
100
AcDbEntity
  8
0
  6
CONTINUOUS
 62
               2
100
AcDbLine
 10
-1.0
 20
8.7000000000000028
 30
0.0
 11
-0.4803847577293539
 21
9.0
 31
0.0
  0
LINE
  5
111
100
AcDbEntity
  8
0
  6
CONTINUOUS
 62
               2
100
AcDbLine
 10
-1.0
 20
7.2999999999999972
 30
0.0
 11
-0.4803847577293539
 21
7.0
 31
0.0
  0
LINE
  5
112
100
AcDbEntity
  8
0
  6
CONTINUOUS
 62
               7
100
AcDbLine
 10
0.0
 20
3.3636038766828165
 30
0.0
 11
30.000000000000114
 21
3.3636038766828165
 31
0.0
  0
LINE
  5
113
100
AcDbEntity
  8
0
  6
CENTER
 62
               2
100
AcDbLine
 10
10.0
 20
6.0452224481113035
 30
0.0
 11
10.0
 21
9.9760956580291094
 31
0.0
  0
CIRCLE
  5
115
100
AcDbEntity
  8
0
  6
DASHED
 62
               2
100
AcDbCircle
 10
10.0
 20
8.1999999999999886
 30
0.0
 40
1.5
  0
CIRCLE
  5
116
100
AcDbEntity
  8
0
  6
DASHED
 62
               7
100
AcDbCircle
 10
10.0
 20
8.1999999999999886
 30
0.0
 40
1.1999999999999886
  0
LINE
  5
117
100
AcDbEntity
  8
0
  6
CENTER
 62
               2
100
AcDbLine
 10
27.0
 20
6.0452224481113035
 30
0.0
 11
27.0
 21
9.9760956580291094
 31
0.0
  0
CIRCLE
  5
118
100
AcDbEntity
  8
0
  6
DASHED
 62
               2
100
AcDbCircle
 10
27.0
 20
8.1999999999999886
 30
0.0
 40
1.5
  0
CIRCLE
  5
119
100
AcDbEntity
  8
0
  6
DASHED
 62
               7
100
AcDbCircle
 10
27.0
 20
8.1999999999999886
 30
0.0
 40
1.1999999999999886
  0
LINE
  5
11A
100
AcDbEntity
  8
0
  6
CONTINUOUS
 62
               7
100
AcDbLine
 10
0.0
 20
11.0
 30
0.0
 11
30.000000000000114
 21
11.0
 31
0.0
  0
LINE
  5
11B
100
AcDbEntity
  8
0
  6
CONTINUOUS
 62
               7
100
AcDbLine
 10
30.000000000000114
 20
0.0
 30
0.0
 11
30.000000000000114
 21
2.2878679564463056
 31
0.0
  0
LINE
  5
11C
100
AcDbEntity
  8
0
  6
CONTINUOUS
 62
               7
100
AcDbLine
 10
0.0
 20
0.0
 30
0.0
 11
0.0
 21
11.0
 31
0.0
  0
LINE
  5
11D
100
AcDbEntity
  8
0
  6
CONTINUOUS
 62
               7
100
AcDbLine
 10
0.0
 20
0.0
 30
0.0
 11
30.000000000000114
 21
0.0
 31
0.0
  0
LINE
  5
11E
100
AcDbEntity
  8
0
  6
CONTINUOUS
 62
               7
100
AcDbLine
 10
0.0
 20
1.1008622114557483
 30
0.0
 11
6.0
 21
1.1008622114557483
 31
0.0
  0
LINE
  5
11F
100
AcDbEntity
  8
0
  6
CENTER
 62
               2
100
AcDbLine
 10
7.1035058011123908
 20
8.2000000000000028
 30
0.0
 11
30.846416164038573
 21
8.2000000000000028
 31
0.0
  0
LINE
  5
120
100
AcDbEntity
  8
0
  6
CONTINUOUS
 62
               7
100
AcDbLine
 10
30.000000000000114
 20
3.3636038766828165
 30
0.0
 11
30.000000000000114
 21
11.0
 31
0.0
  0
LINE
  5
121
100
AcDbEntity
  8
0
  6
CONTINUOUS
 62
               4
100
AcDbLine
 10
21.500000000000227
 20
2.2878679564463056
 30
0.0
 11
39.638268608674068
 21
2.2878679564463056
 31
0.0
  0
LINE
  5
122
100
AcDbEntity
  8
0
  6
CONTINUOUS
 62
               4
100
AcDbLine
 10
30.000000000000114
 20
4.7878679564463056
 30
0.0
 11
40.30814158232559
 21
4.7878679564463056
 31
0.0
  0
LINE
  5
123
100
AcDbEntity
  8
0
  6
CONTINUOUS
 62
             200
100
AcDbLine
 10
39.27753791527239
 20
0.9416026658968377
 30
0.0
 11
40.686506801650651
 21
6.1999461944388514
 31
0.0
  0
LINE
  5
124
100
AcDbEntity
  8
0
  6
CONTINUOUS
 62
               4
100
AcDbLine
 10
21.500000000000227
 20
3.3636038766828165
 30
0.0
 11
21.500000000000227
 21
0.921572878440827
 31
0.0
  0
LINE
  5
125
100
AcDbEntity
  8
0
  6
CONTINUOUS
 62
               4
100
AcDbLine
 10
6.0
 20
3.3636038766828165
 30
0.0
 11
6.0
 21
0.921572878440827
 31
0.0
  0
ELLIPSE
  5
126
100
AcDbEntity
  8
0
  6
CONTINUOUS
 62
               4
100
AcDbEllipse
 10
8.0
 20
1.9822330353195383
 30
0.0
 11
-1.25
 21
0.0000000000000002
 31
0.0
210
0.0
220
0.0
230
1.0
 40
0.7071067811865476
 41
0.0
 42
6.2831853071795862
  0
LINE
  5
127
100
AcDbEntity
  8
0
  6
CONTINUOUS
 62
               4
100
AcDbLine
 10
8.25
 20
1.1162076315350902
 30
0.0
 11
8.25
 21
2.8482584391039865
 31
0.0
  0
LINE
  5
128
100
AcDbEntity
  8
0
  6
CONTINUOUS
 62
               4
100
AcDbLine
 10
7.75
 20
1.1162076315350902
 30
0.0
 11
7.75
 21
2.8482584391039865
 31
0.0
  0
LINE
  5
129
100
AcDbEntity
  8
0
  6
CONTINUOUS
 62
               7
100
AcDbLine
 10
21.500000000000227
 20
1.1008622114557483
 30
0.0
 11
30.000000000000114
 21
1.1008622114557483
 31
0.0
  0
LINE
  5
12A
100
AcDbEntity
  8
0
  6
CONTINUOUS
 62
               4
100
AcDbLine
 10
21.500000000000227
 20
0.921572878440827
 30
0.0
 11
6.0
 21
0.921572878440827
 31
0.0
  0
LINE
  5
12B
100
AcDbEntity
  8
0
  6
CONTINUOUS
 62
               4
100
AcDbLine
 10
21.500000000000227
 20
3.0428932220006004
 30
0.0
 11
6.0
 21
3.0428932220006004
 31
0.0
  0
LINE
  5
12C
100
AcDbEntity
  8
0
  6
CENTER
 62
               2
100
AcDbLine
 10
5.0
 20
12.5
 30
0.0
 11
5.0
 21
9.5
 31
0.0
  0
ENDBLK
  5
12D
100
AcDbEntity
  8
0
100
AcDbBlockEnd
  0
BLOCK
  5
12E
100
AcDbEntity
  8
0
100
AcDbBlockBegin
  2
MS_4
 70
               0
 10
0.0
 20
0.0
 30
0.0
  3
MS_4
  1

  0
LINE
  5
12F
100
AcDbEntity
  8
0
  6
PHANTOM
 62
               3
100
AcDbLine
 10
13.641402521868343
 20
16.0
 30
0.0
 11
13.641402521868343
 21
-5.0
 31
0.0
  0
LINE
  5
130
100
AcDbEntity
  8
0
  6
CENTER
 62
               2
100
AcDbLine
 10
-8.1724203807038691
 20
3.0
 30
0.0
 11
1.3683377634497305
 21
3.0
 31
0.0
  0
LINE
  5
131
100
AcDbEntity
  8
0
  6
CONTINUOUS
 62
               2
100
AcDbLine
 10
-1.0
 20
2.2999999999999972
 30
0.0
 11
-0.4803847577293539
 21
2.0
 31
0.0
  0
LINE
  5
132
100
AcDbEntity
  8
0
  6
CONTINUOUS
 62
               2
100
AcDbLine
 10
-1.0
 20
3.7000000000000028
 30
0.0
 11
-0.4803847577293539
 21
4.0
 31
0.0
  0
LINE
  5
133
100
AcDbEntity
  8
0
  6
CONTINUOUS
 62
               7
100
AcDbLine
 10
-6.7000000000000171
 20
4.0
 30
0.0
 11
-5.2000000000000028
 21
4.0
 31
0.0
  0
LINE
  5
134
100
AcDbEntity
  8
0
  6
CONTINUOUS
 62
               7
100
AcDbLine
 10
-7.0
 20
3.7000000000000028
 30
0.0
 11
-7.0
 21
2.2999999999999972
 31
0.0
  0
LINE
  5
135
100
AcDbEntity
  8
0
  6
CONTINUOUS
 62
               2
100
AcDbLine
 10
-7.0
 20
3.7000000000000028
 30
0.0
 11
-5.2000000000000028
 21
3.7000000000000028
 31
0.0
  0
LINE
  5
136
100
AcDbEntity
  8
0
  6
CONTINUOUS
 62
               7
100
AcDbLine
 10
-1.0
 20
4.0
 30
0.0
 11
-1.0
 21
2.0
 31
0.0
  0
LINE
  5
137
100
AcDbEntity
  8
0
  6
CONTINUOUS
 62
               7
100
AcDbLine
 10
-6.7000000000000171
 20
4.0
 30
0.0
 11
-7.0
 21
3.7000000000000028
 31
0.0
  0
LINE
  5
138
100
AcDbEntity
  8
0
  6
CONTINUOUS
 62
               7
100
AcDbLine
 10
-6.7000000000000171
 20
4.0
 30
0.0
 11
-6.7000000000000171
 21
2.0
 31
0.0
  0
LINE
  5
139
100
AcDbEntity
  8
0
  6
CONTINUOUS
 62
               7
100
AcDbLine
 10
-6.7000000000000171
 20
2.0
 30
0.0
 11
-5.2000000000000028
 21
2.0
 31
0.0
  0
LINE
  5
13A
100
AcDbEntity
  8
0
  6
CONTINUOUS
 62
               2
100
AcDbLine
 10
-7.0
 20
2.2999999999999972
 30
0.0
 11
-5.2000000000000028
 21
2.2999999999999972
 31
0.0
  0
LINE
  5
13B
100
AcDbEntity
  8
0
  6
CONTINUOUS
 62
               7
100
AcDbLine
 10
-6.7000000000000171
 20
2.0
 30
0.0
 11
-7.0
 21
2.2999999999999972
 31
0.0
  0
LINE
  5
13C
100
AcDbEntity
  8
0
  6
CONTINUOUS
 62
               2
100
AcDbLine
 10
-2.0
 20
3.7000000000000028
 30
0.0
 11
-1.0
 21
3.7000000000000028
 31
0.0
  0
LINE
  5
13D
100
AcDbEntity
  8
0
  6
CONTINUOUS
 62
               2
100
AcDbLine
 10
-2.0
 20
2.2999999999999972
 30
0.0
 11
-1.0
 21
2.2999999999999972
 31
0.0
  0
LINE
  5
13E
100
AcDbEntity
  8
0
  6
CONTINUOUS
 62
               7
100
AcDbLine
 10
-2.0
 20
0.9999999620322626
 30
0.0
 11
-2.0
 21
5.0000000216369074
 31
0.0
  0
LINE
  5
13F
100
AcDbEntity
  8
0
  6
CONTINUOUS
 62
               7
100
AcDbLine
 10
-3.6000000000000085
 20
0.9999999620322626
 30
0.0
 11
-3.6000000000000085
 21
5.0000000216369074
 31
0.0
  0
LINE
  5
140
100
AcDbEntity
  8
0
  6
CONTINUOUS
 62
               7
100
AcDbLine
 10
-5.2000000000000028
 20
0.9999999620322626
 30
0.0
 11
-5.2000000000000028
 21
5.0000000216369074
 31
0.0
  0
LINE
  5
141
100
AcDbEntity
  8
0
  6
CONTINUOUS
 62
               7
100
AcDbLine
 10
-5.2000000000000028
 20
5.0
 30
0.0
 11
-2.0
 21
5.0
 31
0.0
  0
LINE
  5
142
100
AcDbEntity
  8
0
  6
CONTINUOUS
 62
               7
100
AcDbLine
 10
-5.2000000000000028
 20
1.0
 30
0.0
 11
-2.0
 21
1.0
 31
0.0
  0
LINE
  5
143
100
AcDbEntity
  8
0
  6
CONTINUOUS
 62
               7
100
AcDbLine
 10
-5.0213671974068177
 20
3.0
 30
0.0
 11
-3.6000000000000085
 21
3.0
 31
0.0
  0
LINE
  5
144
100
AcDbEntity
  8
0
  6
CONTINUOUS
 62
               7
100
AcDbLine
 10
-3.6000000000000085
 20
3.0
 30
0.0
 11
-2.1376445576398027
 21
3.0
 31
0.0
  0
ARC
  5
145
100
AcDbEntity
  8
0
  6
CONTINUOUS
 62
               7
100
AcDbCircle
 10
-2.3116456127252718
 20
3.9999999999999858
 30
0.0
 40
2.8883543872747346
100
AcDbArc
 50
159.74384115127785
 51
200.25615884872064
  0
ARC
  5
146
100
AcDbEntity
  8
0
  6
CONTINUOUS
 62
               7
100
AcDbCircle
 10
-2.3116456127252718
 20
2.0000000000000142
 30
0.0
 40
2.8883543872747346
100
AcDbArc
 50
159.74384115127856
 51
200.25615884872136
  0
ARC
  5
147
100
AcDbEntity
  8
0
  6
CONTINUOUS
 62
               7
100
AcDbCircle
 10
-4.8883543872747452
 20
3.9999999999999858
 30
0.0
 40
2.8883543872747346
100
AcDbArc
 50
-20.256158848721032
 51
20.256158848721746
  0
ARC
  5
148
100
AcDbEntity
  8
0
  6
CONTINUOUS
 62
               7
100
AcDbCircle
 10
-4.8883543872747452
 20
2.0000000000000142
 30
0.0
 40
2.8883543872747346
100
AcDbArc
 50
339.74384115127742
 51
20.256158848721032
  0
ARC
  5
149
100
AcDbEntity
  8
0
  6
CONTINUOUS
 62
               7
100
AcDbCircle
 10
-6.4883543872747396
 20
2.0000000000000142
 30
0.0
 40
2.8883543872747346
100
AcDbArc
 50
339.74384115127742
 51
20.256158848721032
  0
ARC
  5
14A
100
AcDbEntity
  8
0
  6
CONTINUOUS
 62
               7
100
AcDbCircle
 10
-6.4883543872747396
 20
3.9999999999999858
 30
0.0
 40
2.8883543872747346
100
AcDbArc
 50
-20.256158848721032
 51
20.256158848721746
  0
ARC
  5
14B
100
AcDbEntity
  8
0
  6
CONTINUOUS
 62
               7
100
AcDbCircle
 10
-0.7116456127252633
 20
2.0000000000000142
 30
0.0
 40
2.8883543872747346
100
AcDbArc
 50
159.74384115127856
 51
200.25615884872136
  0
ARC
  5
14C
100
AcDbEntity
  8
0
  6
CONTINUOUS
 62
               7
100
AcDbCircle
 10
-0.7116456127252633
 20
3.9999999999999858
 30
0.0
 40
2.8883543872747346
100
AcDbArc
 50
159.74384115127785
 51
200.25615884872064
  0
LINE
  5
14D
100
AcDbEntity
  8
0
  6
CONTINUOUS
 62
               7
100
AcDbLine
 10
-2.0
 20
2.0
 30
0.0
 11
0.0
 21
2.0
 31
0.0
  0
LINE
  5
14E
100
AcDbEntity
  8
0
  6
CONTINUOUS
 62
               7
100
AcDbLine
 10
-2.0
 20
4.0
 30
0.0
 11
0.0
 21
4.0
 31
0.0
  0
LINE
  5
14F
100
AcDbEntity
  8
0
  6
CONTINUOUS
 62
               7
100
AcDbLine
 10
0.0
 20
7.6363961233171835
 30
0.0
 11
30.000000000000114
 21
7.6363961233171835
 31
0.0
  0
LINE
  5
150
100
AcDbEntity
  8
0
  6
CONTINUOUS
 62
               7
100
AcDbLine
 10
0.0
 20
9.8991377885442517
 30
0.0
 11
15.999999999999886
 21
9.8991377885442517
 31
0.0
  0
LINE
  5
151
100
AcDbEntity
  8
0
  6
CONTINUOUS
 62
               7
100
AcDbLine
 10
0.0
 20
11.0
 30
0.0
 11
30.000000000000114
 21
11.0
 31
0.0
  0
LINE
  5
152
100
AcDbEntity
  8
0
  6
CONTINUOUS
 62
               7
100
AcDbLine
 10
0.0
 20
11.0
 30
0.0
 11
0.0
 21
0.0
 31
0.0
  0
LINE
  5
153
100
AcDbEntity
  8
0
  6
CENTER
 62
               2
100
AcDbLine
 10
6.7435799919589385
 20
2.7999999999999972
 30
0.0
 11
30.846416164038573
 21
2.7999999999999972
 31
0.0
  0
LINE
  5
154
100
AcDbEntity
  8
0
  6
CONTINUOUS
 62
               7
100
AcDbLine
 10
30.000000000000114
 20
11.0
 30
0.0
 11
30.000000000000114
 21
10.078427121559173
 31
0.0
  0
LINE
  5
155
100
AcDbEntity
  8
0
  6
CONTINUOUS
 62
               7
100
AcDbLine
 10
0.0
 20
0.0
 30
0.0
 11
30.000000000000114
 21
0.0
 31
0.0
  0
CIRCLE
  5
156
100
AcDbEntity
  8
0
  6
DASHED
 62
               7
100
AcDbCircle
 10
27.0
 20
2.8000000000000114
 30
0.0
 40
1.1999999999999886
  0
CIRCLE
  5
157
100
AcDbEntity
  8
0
  6
DASHED
 62
               2
100
AcDbCircle
 10
27.0
 20
2.8000000000000114
 30
0.0
 40
1.5
  0
LINE
  5
158
100
AcDbEntity
  8
0
  6
CENTER
 62
               2
100
AcDbLine
 10
27.0
 20
4.9547775518886965
 30
0.0
 11
27.0
 21
1.0239043419708906
 31
0.0
  0
CIRCLE
  5
159
100
AcDbEntity
  8
0
  6
DASHED
 62
               7
100
AcDbCircle
 10
10.0
 20
2.8000000000000114
 30
0.0
 40
1.1999999999999886
  0
CIRCLE
  5
15A
100
AcDbEntity
  8
0
  6
DASHED
 62
               2
100
AcDbCircle
 10
10.0
 20
2.8000000000000114
 30
0.0
 40
1.5
  0
LINE
  5
15B
100
AcDbEntity
  8
0
  6
CENTER
 62
               2
100
AcDbLine
 10
10.0
 20
4.9547775518886965
 30
0.0
 11
10.0
 21
1.0239043419708906
 31
0.0
  0
LINE
  5
15C
100
AcDbEntity
  8
0
  6
CONTINUOUS
 62
               4
100
AcDbLine
 10
30.000000000000114
 20
5.0792893224802214
 30
0.0
 11
31.500000019764798
 21
5.0792893224802214
 31
0.0
  0
LINE
  5
15D
100
AcDbEntity
  8
0
  6
CONTINUOUS
 62
               4
100
AcDbLine
 10
30.000000000000114
 20
6.8257359430021864
 30
0.0
 11
31.500000000000114
 21
6.8257359430021864
 31
0.0
  0
LINE
  5
15E
100
AcDbEntity
  8
0
  6
CONTINUOUS
 62
               4
100
AcDbLine
 10
31.500000000000114
 20
5.0792893224802214
 30
0.0
 11
31.500000000000114
 21
10.078427121559173
 31
0.0
  0
LINE
  5
15F
100
AcDbEntity
  8
0
  6
CONTINUOUS
 62
             200
100
AcDbLine
 10
39.27753791527239
 20
4.8658667530042266
 30
0.0
 11
40.686506801650651
 21
10.12421028154624
 31
0.0
  0
LINE
  5
160
100
AcDbEntity
  8
0
  6
CONTINUOUS
 62
               4
100
AcDbLine
 10
31.500000000000114
 20
6.2121320435536944
 30
0.0
 11
39.638268608674068
 21
6.2121320435536944
 31
0.0
  0
LINE
  5
161
100
AcDbEntity
  8
0
  6
CONTINUOUS
 62
               4
100
AcDbLine
 10
31.500000000000114
 20
8.7121320435536944
 30
0.0
 11
40.30814158232559
 21
8.7121320435536944
 31
0.0
  0
LINE
  5
162
100
AcDbEntity
  8
0
  6
CONTINUOUS
 62
               4
100
AcDbLine
 10
15.999999999999886
 20
7.6363961233171835
 30
0.0
 11
15.999999999999886
 21
10.078427121559173
 31
0.0
  0
ELLIPSE
  5
163
100
AcDbEntity
  8
0
  6
CONTINUOUS
 62
               4
100
AcDbEllipse
 10
17.999999999999886
 20
9.0177669646804617
 30
0.0
 11
-1.25
 21
0.0000000000000002
 31
0.0
210
0.0
220
0.0
230
1.0
 40
0.7071067811865476
 41
0.0
 42
6.2831853071795862
  0
LINE
  5
164
100
AcDbEntity
  8
0
  6
CONTINUOUS
 62
               4
100
AcDbLine
 10
18.249999999999886
 20
9.8837923684649098
 30
0.0
 11
18.249999999999886
 21
8.1517415608960135
 31
0.0
  0
LINE
  5
165
100
AcDbEntity
  8
0
  6
CONTINUOUS
 62
               4
100
AcDbLine
 10
17.749999999999886
 20
9.8837923684649098
 30
0.0
 11
17.749999999999886
 21
8.1517415608960135
 31
0.0
  0
LINE
  5
166
100
AcDbEntity
  8
0
  6
CONTINUOUS
 62
               7
100
AcDbLine
 10
30.000000000000114
 20
7.6363961233171835
 30
0.0
 11
30.000000000000114
 21
0.0
 31
0.0
  0
LINE
  5
167
100
AcDbEntity
  8
0
  6
CONTINUOUS
 62
               4
100
AcDbLine
 10
31.499999998740606
 20
7.9571067779993996
 30
0.0
 11
15.999999998740606
 21
7.9571067779993996
 31
0.0
  0
LINE
  5
168
100
AcDbEntity
  8
0
  6
CONTINUOUS
 62
               4
100
AcDbLine
 10
31.499999998740606
 20
10.078427121559173
 30
0.0
 11
15.999999998740606
 21
10.078427121559173
 31
0.0
  0
LINE
  5
169
100
AcDbEntity
  8
0
  6
CENTER
 62
               2
100
AcDbLine
 10
5.0
 20
1.5
 30
0.0
 11
5.0
 21
-1.5
 31
0.0
  0
ENDBLK
  5
16A
100
AcDbEntity
  8
0
100
AcDbBlockEnd
  0
BLOCK
  5
16B
100
AcDbEntity
  8
0
100
AcDbBlockBegin
  2
MS_5
 70
               0
 10
0.0
 20
0.0
 30
0.0
  3
MS_5
  1

  0
LINE
  5
16C
100
AcDbEntity
  8
0
  6
PHANTOM
 62
               3
100
AcDbLine
 10
12.241402535141912
 20
1.8387301066918447
 30
0.0
 11
12.241402535141912
 21
-17.685730659025786
 31
0.0
  0
LINE
  5
16D
100
AcDbEntity
  8
0
  6
PHANTOM
 62
               3
100
AcDbLine
 10
23.465975658075678
 20
1.8387301066918447
 30
0.0
 11
12.241402535141912
 21
1.8387301066918447
 31
0.0
  0
LINE
  5
16E
100
AcDbEntity
  8
0
  6
PHANTOM
 62
               3
100
AcDbLine
 10
23.465975658075678
 20
17.262120343839541
 30
0.0
 11
23.465975658075678
 21
1.8387301066918447
 31
0.0
  0
CIRCLE
  5
16F
100
AcDbEntity
  8
0
  6
CONTINUOUS
 62
               7
100
AcDbCircle
 10
5.0
 20
-5.0
 30
0.0
 40
1.1000000000000001
  0
CIRCLE
  5
170
100
AcDbEntity
  8
0
  6
CONTINUOUS
 62
               7
100
AcDbCircle
 10
5.0
 20
-5.0
 30
0.0
 40
2.0499999999999998
  0
ARC
  5
171
100
AcDbEntity
  8
0
  6
CONTINUOUS
 62
               7
100
AcDbCircle
 10
5.0
 20
5.0
 30
0.0
 40
1.1000000000000001
100
AcDbArc
 50
24.619977328656994
 51
335.3800226713422
  0
ARC
  5
172
100
AcDbEntity
  8
0
  6
CONTINUOUS
 62
               7
100
AcDbCircle
 10
5.0
 20
5.0
 30
0.0
 40
2.0499999999999998
100
AcDbArc
 50
60.803595590367721
 51
352.33581158045985
  0
LINE
  5
173
100
AcDbEntity
  8
0
  6
CONTINUOUS
 62
               7
100
AcDbLine
 10
0.0
 20
7.5
 30
0.0
 11
16.400000000000091
 21
7.5
 31
0.0
  0
LINE
  5
174
100
AcDbEntity
  8
0
  6
CONTINUOUS
 62
               7
100
AcDbLine
 10
0.0
 20
-7.5
 30
0.0
 11
13.000000000000114
 21
-7.5
 31
0.0
  0
LINE
  5
175
100
AcDbEntity
  8
0
  6
CENTER
 62
               2
100
AcDbLine
 10
2.1999999999999886
 20
5.0
 30
0.0
 11
7.7999999999999545
 21
5.0
 31
0.0
  0
LINE
  5
176
100
AcDbEntity
  8
0
  6
CENTER
 62
               2
100
AcDbLine
 10
5.0
 20
7.7999999999999972
 30
0.0
 11
5.0
 21
2.2000000000000028
 31
0.0
  0
LINE
  5
177
100
AcDbEntity
  8
0
  6
CENTER
 62
               2
100
AcDbLine
 10
2.1999999999999886
 20
-5.0
 30
0.0
 11
7.7999999999999545
 21
-5.0
 31
0.0
  0
LINE
  5
178
100
AcDbEntity
  8
0
  6
CENTER
 62
               2
100
AcDbLine
 10
5.0
 20
-7.7999999999999972
 30
0.0
 11
5.0
 21
-2.2000000000000028
 31
0.0
  0
LINE
  5
179
100
AcDbEntity
  8
0
  6
CONTINUOUS
 62
               7
100
AcDbLine
 10
0.0
 20
7.5
 30
0.0
 11
0.0
 21
-7.5
 31
0.0
  0
LINE
  5
17A
100
AcDbEntity
  8
0
  6
CENTER
 62
               2
100
AcDbLine
 10
-8.4923149014317687
 20
0.0
 30
0.0
 11
30.846416164038544
 21
0.0
 31
0.0
  0
LINE
  5
17B
100
AcDbEntity
  8
0
  6
CONTINUOUS
 62
               7
100
AcDbLine
 10
30.000000000000114
 20
-7.5
 30
0.0
 11
30.000000000000114
 21
7.5
 31
0.0
  0
CIRCLE
  5
17C
100
AcDbEntity
  8
0
  6
CONTINUOUS
 62
               7
100
AcDbCircle
 10
10.0
 20
0.0000000000000142
 30
0.0
 40
1.1999999999999886
  0
CIRCLE
  5
17D
100
AcDbEntity
  8
0
  6
CONTINUOUS
 62
               2
100
AcDbCircle
 10
10.0
 20
0.0000000000000142
 30
0.0
 40
1.5
  0
LINE
  5
17E
100
AcDbEntity
  8
0
  6
CENTER
 62
               2
100
AcDbLine
 10
10.0
 20
1.9547775518886965
 30
0.0
 11
10.0
 21
-1.9760956580291094
 31
0.0
  0
CIRCLE
  5
17F
100
AcDbEntity
  8
0
  6
CONTINUOUS
 62
               7
100
AcDbCircle
 10
27.0
 20
0.0000000000000142
 30
0.0
 40
1.1999999999999886
  0
CIRCLE
  5
180
100
AcDbEntity
  8
0
  6
CONTINUOUS
 62
               2
100
AcDbCircle
 10
27.0
 20
0.0000000000000142
 30
0.0
 40
1.5
  0
LINE
  5
181
100
AcDbEntity
  8
0
  6
CENTER
 62
               2
100
AcDbLine
 10
27.0
 20
1.9547775518886965
 30
0.0
 11
27.0
 21
-1.9760956580291094
 31
0.0
  0
SPLINE
  5
182
100
AcDbEntity
  8
0
  6
CONTINUOUS
 62
               7
100
AcDbSpline
210
0.0
220
0.0
230
1.0
 70
               0
 71
               3
 72
               0
 73
               0
 74
               5
 44
0.000001
 12
0.5262035662224491
 22
0.8503586342801351
 32
0.0
 13
-0.5262036381605768
 23
0.8503585897646785
 33
0.0
 11
-2.1786327055817196
 21
-2.3094009377364486
 31
0.0
 11
-2.0495647487176543
 21
-2.032619570643357
 31
0.0
 11
-2.0
 21
-1.7320507690633562
 31
0.0
 11
-2.0495647626436346
 21
-1.4314819019278699
 31
0.0
 11
-2.1786327651863644
 21
-1.1547004811809456
 31
0.0
  0
SPLINE
  5
183
100
AcDbEntity
  8
0
  6
CONTINUOUS
 62
               7
100
AcDbSpline
210
0.0
220
0.0
230
1.0
 70
               0
 71
               3
 72
               0
 73
               0
 74
               5
 44
0.000001
 12
-0.526203566222449
 22
0.8503586342801353
 32
0.0
 13
0.5262036381605767
 23
0.8503585897646786
 33
0.0
 11
-3.42136729441836
 21
-2.3094009377364486
 31
0.0
 11
-3.5504352512823969
 21
-2.032619570643357
 31
0.0
 11
-3.6000000000000227
 21
-1.7320507690633562
 31
0.0
 11
-3.5504352373564165
 21
-1.4314819019278699
 31
0.0
 11
-3.4213672348137152
 21
-1.1547004811809456
 31
0.0
  0
SPLINE
  5
184
100
AcDbEntity
  8
0
  6
CONTINUOUS
 62
               7
100
AcDbSpline
210
0.0
220
0.0
230
1.0
 70
               0
 71
               3
 72
               0
 73
               0
 74
               5
 44
0.000001
 12
0.5262035662224491
 22
0.8503586342801351
 32
0.0
 13
-0.5262036381605768
 23
0.8503585897646785
 33
0.0
 11
-3.7786327055817424
 21
-2.3094009377364486
 31
0.0
 11
-3.649564748717677
 21
-2.032619570643357
 31
0.0
 11
-3.6000000000000227
 21
-1.7320507690633562
 31
0.0
 11
-3.6495647626436574
 21
-1.4314819019278699
 31
0.0
 11
-3.7786327651863871
 21
-1.1547004811809456
 31
0.0
  0
SPLINE
  5
185
100
AcDbEntity
  8
0
  6
CONTINUOUS
 62
               7
100
AcDbSpline
210
0.0
220
0.0
230
1.0
 70
               0
 71
               3
 72
               0
 73
               0
 74
               5
 44
0.000001
 12
-0.526203566222449
 22
0.8503586342801353
 32
0.0
 13
0.5262036381605767
 23
0.8503585897646786
 33
0.0
 11
-5.0213672944183259
 21
-2.3094009377364486
 31
0.0
 11
-5.1504352512823912
 21
-2.032619570643357
 31
0.0
 11
-5.2000000000000455
 21
-1.7320507690633562
 31
0.0
 11
-5.1504352373564108
 21
-1.4314819019278699
 31
0.0
 11
-5.0213672348136811
 21
-1.1547004811809456
 31
0.0
  0
SPLINE
  5
186
100
AcDbEntity
  8
0
  6
CONTINUOUS
 62
               7
100
AcDbSpline
210
0.0
220
0.0
230
1.0
 70
               0
 71
               3
 72
               0
 73
               0
 74
               5
 44
0.000001
 12
0.5262035662224491
 22
-0.8503586342801351
 32
0.0
 13
-0.5262036381605768
 23
-0.8503585897646785
 33
0.0
 11
-2.1786327055817196
 21
2.3094009377364557
 31
0.0
 11
-2.0495647487176543
 21
2.0326195706433641
 31
0.0
 11
-2.0
 21
1.7320507690633633
 31
0.0
 11
-2.0495647626436346
 21
1.4314819019278771
 31
0.0
 11
-2.1786327651863644
 21
1.1547004811809527
 31
0.0
  0
SPLINE
  5
187
100
AcDbEntity
  8
0
  6
CONTINUOUS
 62
               7
100
AcDbSpline
210
0.0
220
0.0
230
1.0
 70
               0
 71
               3
 72
               0
 73
               0
 74
               5
 44
0.000001
 12
-0.526203566222449
 22
-0.8503586342801353
 32
0.0
 13
0.5262036381605767
 23
-0.8503585897646786
 33
0.0
 11
-3.42136729441836
 21
2.3094009377364557
 31
0.0
 11
-3.5504352512823969
 21
2.0326195706433641
 31
0.0
 11
-3.6000000000000227
 21
1.7320507690633633
 31
0.0
 11
-3.5504352373564165
 21
1.4314819019278771
 31
0.0
 11
-3.4213672348137152
 21
1.1547004811809527
 31
0.0
  0
SPLINE
  5
188
100
AcDbEntity
  8
0
  6
CONTINUOUS
 62
               7
100
AcDbSpline
210
0.0
220
0.0
230
1.0
 70
               0
 71
               3
 72
               0
 73
               0
 74
               5
 44
0.000001
 12
0.5262035662224491
 22
-0.8503586342801351
 32
0.0
 13
-0.5262036381605768
 23
-0.8503585897646785
 33
0.0
 11
-3.7786327055817424
 21
2.3094009377364557
 31
0.0
 11
-3.649564748717677
 21
2.0326195706433641
 31
0.0
 11
-3.6000000000000227
 21
1.7320507690633633
 31
0.0
 11
-3.6495647626436574
 21
1.4314819019278771
 31
0.0
 11
-3.7786327651863871
 21
1.1547004811809527
 31
0.0
  0
SPLINE
  5
189
100
AcDbEntity
  8
0
  6
CONTINUOUS
 62
               7
100
AcDbSpline
210
0.0
220
0.0
230
1.0
 70
               0
 71
               3
 72
               0
 73
               0
 74
               5
 44
0.000001
 12
-0.526203566222449
 22
-0.8503586342801353
 32
0.0
 13
0.5262036381605767
 23
-0.8503585897646786
 33
0.0
 11
-5.0213672944183259
 21
2.3094009377364557
 31
0.0
 11
-5.1504352512823912
 21
2.0326195706433641
 31
0.0
 11
-5.2000000000000455
 21
1.7320507690633633
 31
0.0
 11
-5.1504352373564108
 21
1.4314819019278771
 31
0.0
 11
-5.0213672348136811
 21
1.1547004811809527
 31
0.0
  0
SPLINE
  5
18A
100
AcDbEntity
  8
0
  6
CONTINUOUS
 62
               7
100
AcDbSpline
210
0.0
220
0.0
230
1.0
 70
               0
 71
               3
 72
               0
 73
               0
 74
               5
 44
0.000001
 12
-0.2955766966256463
 22
-0.9553190129019052
 32
0.0
 13
0.2955766966256496
 23
-0.9553190129019042
 33
0.0
 11
-5.0213672348136811
 21
1.1547004811809529
 31
0.0
 11
-5.1538539268891386
 21
0.5845636058644737
 31
0.0
 11
-5.2000000000000455
 21
0.0
 31
0.0
 11
-5.1538539268891395
 21
-0.5845636058644703
 31
0.0
 11
-5.0213672348136811
 21
-1.154700481180946
 31
0.0
  0
SPLINE
  5
18B
100
AcDbEntity
  8
0
  6
CONTINUOUS
 62
               7
100
AcDbSpline
210
0.0
220
0.0
230
1.0
 70
               0
 71
               3
 72
               0
 73
               0
 74
               5
 44
0.000001
 12
0.2955766966256462
 22
-0.9553190129019054
 32
0.0
 13
-0.2955766966256495
 23
-0.9553190129019044
 33
0.0
 11
-3.7786327651863871
 21
1.1547004811809529
 31
0.0
 11
-3.6461460731109296
 21
0.5845636058644737
 31
0.0
 11
-3.6000000000000227
 21
0.0
 31
0.0
 11
-3.6461460731109292
 21
-0.5845636058644703
 31
0.0
 11
-3.7786327651863871
 21
-1.154700481180946
 31
0.0
  0
SPLINE
  5
18C
100
AcDbEntity
  8
0
  6
CONTINUOUS
 62
               7
100
AcDbSpline
210
0.0
220
0.0
230
1.0
 70
               0
 71
               3
 72
               0
 73
               0
 74
               5
 44
0.000001
 12
-0.2955766966256463
 22
-0.9553190129019052
 32
0.0
 13
0.2955766966256496
 23
-0.9553190129019042
 33
0.0
 11
-3.4213672348137152
 21
1.1547004811809529
 31
0.0
 11
-3.5538539268891443
 21
0.5845636058644737
 31
0.0
 11
-3.6000000000000227
 21
0.0
 31
0.0
 11
-3.5538539268891447
 21
-0.5845636058644703
 31
0.0
 11
-3.4213672348137152
 21
-1.154700481180946
 31
0.0
  0
SPLINE
  5
18D
100
AcDbEntity
  8
0
  6
CONTINUOUS
 62
               7
100
AcDbSpline
210
0.0
220
0.0
230
1.0
 70
               0
 71
               3
 72
               0
 73
               0
 74
               5
 44
0.000001
 12
0.2955766966256462
 22
-0.9553190129019054
 32
0.0
 13
-0.2955766966256495
 23
-0.9553190129019044
 33
0.0
 11
-2.1786327651863644
 21
1.1547004811809529
 31
0.0
 11
-2.0461460731109069
 21
0.5845636058644737
 31
0.0
 11
-2.0
 21
0.0
 31
0.0
 11
-2.0461460731109065
 21
-0.5845636058644703
 31
0.0
 11
-2.1786327651863644
 21
-1.154700481180946
 31
0.0
  0
LINE
  5
18E
100
AcDbEntity
  8
0
  6
CONTINUOUS
 62
               7
100
AcDbLine
 10
-1.9999999693756649
 20
-1.9999999620322555
 30
0.0
 11
-2.1786327055817196
 21
-2.3094009377364486
 31
0.0
  0
LINE
  5
18F
100
AcDbEntity
  8
0
  6
CONTINUOUS
 62
               7
100
AcDbLine
 10
-3.4213672348137152
 20
-1.1547004811809458
 30
0.0
 11
-2.1786327651863644
 21
-1.1547004811809458
 31
0.0
  0
LINE
  5
190
100
AcDbEntity
  8
0
  6
CONTINUOUS
 62
               7
100
AcDbLine
 10
-3.6000000306244146
 20
-1.9999999620322555
 30
0.0
 11
-3.42136729441836
 21
-2.3094009377364486
 31
0.0
  0
LINE
  5
191
100
AcDbEntity
  8
0
  6
CONTINUOUS
 62
               7
100
AcDbLine
 10
-3.4213672348137152
 20
-2.3094010569457382
 30
0.0
 11
-2.1786328025932562
 21
-2.3094010569457382
 31
0.0
  0
LINE
  5
192
100
AcDbEntity
  8
0
  6
CONTINUOUS
 62
               7
100
AcDbLine
 10
-3.7786327651863871
 20
-2.3094010569457382
 30
0.0
 11
-5.0213671974068461
 21
-2.3094010569457382
 31
0.0
  0
LINE
  5
193
100
AcDbEntity
  8
0
  6
CONTINUOUS
 62
               7
100
AcDbLine
 10
-3.5999999693756877
 20
-1.9999999620322555
 30
0.0
 11
-3.7786327055817424
 21
-2.3094009377364486
 31
0.0
  0
LINE
  5
194
100
AcDbEntity
  8
0
  6
CONTINUOUS
 62
               7
100
AcDbLine
 10
-3.7786327651863871
 20
-1.1547004811809458
 30
0.0
 11
-5.0213672348136811
 21
-1.1547004811809458
 31
0.0
  0
LINE
  5
195
100
AcDbEntity
  8
0
  6
CONTINUOUS
 62
               7
100
AcDbLine
 10
-5.2000000306243805
 20
-1.9999999620322555
 30
0.0
 11
-5.0213672944183259
 21
-2.3094009377364486
 31
0.0
  0
LINE
  5
196
100
AcDbEntity
  8
0
  6
CONTINUOUS
 62
               7
100
AcDbLine
 10
-1.9999999693756649
 20
1.9999999620322626
 30
0.0
 11
-2.1786327055817196
 21
2.3094009377364557
 31
0.0
  0
LINE
  5
197
100
AcDbEntity
  8
0
  6
CONTINUOUS
 62
               7
100
AcDbLine
 10
-3.6000000306244146
 20
1.9999999620322626
 30
0.0
 11
-3.42136729441836
 21
2.3094009377364557
 31
0.0
  0
LINE
  5
198
100
AcDbEntity
  8
0
  6
CONTINUOUS
 62
               7
100
AcDbLine
 10
-3.4213672348137152
 20
1.1547004811809529
 30
0.0
 11
-2.1786327651863644
 21
1.1547004811809529
 31
0.0
  0
LINE
  5
199
100
AcDbEntity
  8
0
  6
CONTINUOUS
 62
               7
100
AcDbLine
 10
-3.4213672348137152
 20
2.3094010209507303
 30
0.0
 11
-2.178632753625493
 21
2.3094010209507303
 31
0.0
  0
LINE
  5
19A
100
AcDbEntity
  8
0
  6
CONTINUOUS
 62
               7
100
AcDbLine
 10
-3.7786327651863871
 20
2.3094010209507303
 30
0.0
 11
-5.0213672463745525
 21
2.3094010209507303
 31
0.0
  0
LINE
  5
19B
100
AcDbEntity
  8
0
  6
CONTINUOUS
 62
               7
100
AcDbLine
 10
-3.7786327651863871
 20
1.1547004811809529
 30
0.0
 11
-5.0213672348136811
 21
1.1547004811809529
 31
0.0
  0
LINE
  5
19C
100
AcDbEntity
  8
0
  6
CONTINUOUS
 62
               7
100
AcDbLine
 10
-3.5999999693756877
 20
1.9999999620322626
 30
0.0
 11
-3.7786327055817424
 21
2.3094009377364557
 31
0.0
  0
LINE
  5
19D
100
AcDbEntity
  8
0
  6
CONTINUOUS
 62
               7
100
AcDbLine
 10
-5.2000000306243805
 20
1.9999999620322626
 30
0.0
 11
-5.0213672944183259
 21
2.3094009377364557
 31
0.0
  0
LINE
  5
19E
100
AcDbEntity
  8
0
  6
CONTINUOUS
 62
               7
100
AcDbLine
 10
-5.2000000000000455
 20
-2.0000000379677303
 30
0.0
 11
-5.2000000000000455
 21
2.0000000216369074
 31
0.0
  0
LINE
  5
19F
100
AcDbEntity
  8
0
  6
CONTINUOUS
 62
               7
100
AcDbLine
 10
-3.6000000000000227
 20
-2.0000000379677303
 30
0.0
 11
-3.6000000000000227
 21
2.0000000216369074
 31
0.0
  0
LINE
  5
1A0
100
AcDbEntity
  8
0
  6
CONTINUOUS
 62
               7
100
AcDbLine
 10
-2.0
 20
-2.0000000379677303
 30
0.0
 11
-2.0
 21
2.0000000216369074
 31
0.0
  0
LINE
  5
1A1
100
AcDbEntity
  8
0
  6
CONTINUOUS
 62
               2
100
AcDbLine
 10
-2.0
 20
-0.6999999999999957
 30
0.0
 11
-1.0
 21
-0.6999999999999957
 31
0.0
  0
LINE
  5
1A2
100
AcDbEntity
  8
0
  6
CONTINUOUS
 62
               7
100
AcDbLine
 10
-2.0
 20
-0.9999999999999929
 30
0.0
 11
0.0
 21
-0.9999999999999929
 31
0.0
  0
LINE
  5
1A3
100
AcDbEntity
  8
0
  6
CONTINUOUS
 62
               2
100
AcDbLine
 10
-2.0
 20
0.7000000000000171
 30
0.0
 11
-1.0
 21
0.7000000000000171
 31
0.0
  0
LINE
  5
1A4
100
AcDbEntity
  8
0
  6
CONTINUOUS
 62
               7
100
AcDbLine
 10
-2.0
 20
1.0
 30
0.0
 11
0.0
 21
1.0
 31
0.0
  0
LINE
  5
1A5
100
AcDbEntity
  8
0
  6
CONTINUOUS
 62
               7
100
AcDbLine
 10
-6.7000000000000455
 20
-0.9999999999999929
 30
0.0
 11
-7.0
 21
-0.6999999999999957
 31
0.0
  0
LINE
  5
1A6
100
AcDbEntity
  8
0
  6
CONTINUOUS
 62
               2
100
AcDbLine
 10
-7.0
 20
-0.6999999999999957
 30
0.0
 11
-5.2000000000000455
 21
-0.6999999999999957
 31
0.0
  0
LINE
  5
1A7
100
AcDbEntity
  8
0
  6
CONTINUOUS
 62
               2
100
AcDbLine
 10
-1.0
 20
-0.6999999999999957
 30
0.0
 11
-0.4803847577293823
 21
-0.9999999999999929
 31
0.0
  0
LINE
  5
1A8
100
AcDbEntity
  8
0
  6
CONTINUOUS
 62
               7
100
AcDbLine
 10
-6.7000000000000455
 20
-0.9999999999999929
 30
0.0
 11
-5.2000000000000455
 21
-0.9999999999999929
 31
0.0
  0
LINE
  5
1A9
100
AcDbEntity
  8
0
  6
CONTINUOUS
 62
               2
100
AcDbLine
 10
-1.0
 20
0.7000000000000171
 30
0.0
 11
-0.4803847577293823
 21
1.0
 31
0.0
  0
LINE
  5
1AA
100
AcDbEntity
  8
0
  6
CONTINUOUS
 62
               7
100
AcDbLine
 10
-6.7000000000000455
 20
1.0
 30
0.0
 11
-6.7000000000000455
 21
-0.9999999999999929
 31
0.0
  0
LINE
  5
1AB
100
AcDbEntity
  8
0
  6
CONTINUOUS
 62
               7
100
AcDbLine
 10
-6.7000000000000455
 20
1.0
 30
0.0
 11
-7.0
 21
0.7000000000000171
 31
0.0
  0
LINE
  5
1AC
100
AcDbEntity
  8
0
  6
CONTINUOUS
 62
               7
100
AcDbLine
 10
-1.0
 20
1.0
 30
0.0
 11
-1.0
 21
-0.9999999999999929
 31
0.0
  0
LINE
  5
1AD
100
AcDbEntity
  8
0
  6
CONTINUOUS
 62
               2
100
AcDbLine
 10
-7.0
 20
0.7000000000000171
 30
0.0
 11
-5.2000000000000455
 21
0.7000000000000171
 31
0.0
  0
LINE
  5
1AE
100
AcDbEntity
  8
0
  6
CONTINUOUS
 62
               7
100
AcDbLine
 10
-7.0
 20
0.7000000000000171
 30
0.0
 11
-7.0
 21
-0.6999999999999957
 31
0.0
  0
LINE
  5
1AF
100
AcDbEntity
  8
0
  6
CONTINUOUS
 62
               7
100
AcDbLine
 10
-6.7000000000000455
 20
1.0
 30
0.0
 11
-5.2000000000000455
 21
1.0
 31
0.0
  0
LINE
  5
1B0
100
AcDbEntity
  8
0
  6
CONTINUOUS
 62
               7
100
AcDbLine
 10
0.0
 20
4.7265981316103129
 30
0.0
 11
2.9683131593768621
 21
4.7265981316103129
 31
0.0
  0
LINE
  5
1B1
100
AcDbEntity
  8
0
  6
CONTINUOUS
 62
               7
100
AcDbLine
 10
0.0
 20
6.760050517385551
 30
0.0
 11
3.9489423535072206
 21
6.760050517385551
 31
0.0
  0
LINE
  5
1B2
100
AcDbEntity
  8
0
  6
CONTINUOUS
 62
               7
100
AcDbLine
 10
0.0
 20
4.0
 30
0.0
 11
3.210446983182635
 21
4.0
 31
0.0
  0
LINE
  5
1B3
100
AcDbEntity
  8
0
  6
CONTINUOUS
 62
               7
100
AcDbLine
 10
0.0
 20
-4.0
 30
0.0
 11
3.210446983182635
 21
-4.0
 31
0.0
  0
LINE
  5
1B4
100
AcDbEntity
  8
0
  6
CONTINUOUS
 62
               7
100
AcDbLine
 10
0.0
 20
-4.7265981316103076
 30
0.0
 11
2.9683131593768621
 21
-4.7265981316103076
 31
0.0
  0
LINE
  5
1B5
100
AcDbEntity
  8
0
  6
CONTINUOUS
 62
               7
100
AcDbLine
 10
0.0
 20
-6.7703526098149496
 30
0.0
 11
3.9663890301852121
 21
-6.7703526098149496
 31
0.0
  0
LINE
  5
1B6
100
AcDbEntity
  8
0
  6
CONTINUOUS
 62
               7
100
AcDbLine
 10
21.0
 20
6.760050517385551
 30
0.0
 11
30.000000000000114
 21
6.760050517385551
 31
0.0
  0
LINE
  5
1B7
100
AcDbEntity
  8
0
  6
CONTINUOUS
 62
               7
100
AcDbLine
 10
7.0316868406230242
 20
4.7265981316103129
 30
0.0
 11
30.000000000000114
 21
4.7265981316103129
 31
0.0
  0
LINE
  5
1B8
100
AcDbEntity
  8
0
  6
CONTINUOUS
 62
               7
100
AcDbLine
 10
6.7895530168173082
 20
4.0
 30
0.0
 11
30.000000000000114
 21
4.0
 31
0.0
  0
LINE
  5
1B9
100
AcDbEntity
  8
0
  6
CONTINUOUS
 62
               7
100
AcDbLine
 10
6.7895530168173082
 20
-4.0
 30
0.0
 11
30.000000000000114
 21
-4.0
 31
0.0
  0
LINE
  5
1BA
100
AcDbEntity
  8
0
  6
CONTINUOUS
 62
               7
100
AcDbLine
 10
7.0316868406230242
 20
-4.7265981316103076
 30
0.0
 11
30.000000000000114
 21
-4.7265981316103076
 31
0.0
  0
LINE
  5
1BB
100
AcDbEntity
  8
0
  6
CONTINUOUS
 62
               7
100
AcDbLine
 10
6.0336109698147311
 20
-6.7703526098149496
 30
0.0
 11
13.000000000000114
 21
-6.7703526098149496
 31
0.0
  0
LINE
  5
1BC
100
AcDbEntity
  8
0
  6
CONTINUOUS
 62
               4
100
AcDbLine
 10
28.000000000000114
 20
-7.0428931921981066
 30
0.0
 11
28.000000000000114
 21
-4.7265981316103076
 31
0.0
  0
ELLIPSE
  5
1BD
100
AcDbEntity
  8
0
  6
CONTINUOUS
 62
               4
100
AcDbEllipse
 10
26.000000000000114
 20
-5.9822330204183416
 30
0.0
 11
1.25
 21
0.0
 31
0.0
210
0.0
220
0.0
230
1.0
 40
0.7071067811865476
 41
0.0
 42
6.2831853071795862
  0
LINE
  5
1BE
100
AcDbEntity
  8
0
  6
CONTINUOUS
 62
               4
100
AcDbLine
 10
25.750000000000114
 20
-6.8482584242027613
 30
0.0
 11
25.750000000000114
 21
-5.1162076166339219
 31
0.0
  0
LINE
  5
1BF
100
AcDbEntity
  8
0
  6
CONTINUOUS
 62
               4
100
AcDbLine
 10
26.250000000000114
 20
-6.8482584242027613
 30
0.0
 11
26.250000000000114
 21
-5.1162076166339219
 31
0.0
  0
ELLIPSE
  5
1C0
100
AcDbEntity
  8
0
  6
CONTINUOUS
 62
               4
100
AcDbEllipse
 10
15.499999980235657
 20
-5.9822330204183416
 30
0.0
 11
2.10000001976465
 21
0.0
 31
0.0
210
0.0
220
0.0
230
1.0
 40
0.6902708989473664
 41
0.0
 42
0.7956029495296795
  0
LINE
  5
1C1
100
AcDbEntity
  8
0
  6
CONTINUOUS
 62
               4
100
AcDbLine
 10
16.969693845670122
 20
-4.9215728486385135
 30
0.0
 11
16.969693845670122
 21
-5.5933242037018047
 31
0.0
  0
LINE
  5
1C2
100
AcDbEntity
  8
0
  6
CONTINUOUS
 62
               4
100
AcDbLine
 10
13.000000000000114
 20
-4.7265981316103076
 30
0.0
 11
13.000000000000114
 21
-10.89662506124575
 31
0.0
  0
LINE
  5
1C3
100
AcDbEntity
  8
0
  6
CONTINUOUS
 62
               4
100
AcDbLine
 10
16.969693845670122
 20
-5.5933242267025278
 30
0.0
 11
13.000000000000114
 21
-5.5933242267025278
 31
0.0
  0
ELLIPSE
  5
1C4
100
AcDbEntity
  8
0
  6
CONTINUOUS
 62
               4
100
AcDbEllipse
 10
15.500000000000114
 20
-9.4470561872125884
 30
0.0
 11
-2.0999999840018688
 21
0.0000000000000003
 31
0.0
210
0.0
220
0.0
230
1.0
 40
0.6902709107026028
 41
4.7123889803846897
 42
0.0
  0
LINE
  5
1C5
100
AcDbEntity
  8
0
  6
CONTINUOUS
 62
               4
100
AcDbLine
 10
17.60000000000025
 20
-10.154162968399142
 30
0.0
 11
17.60000000000025
 21
-5.9822330204183416
 31
0.0
  0
LINE
  5
1C6
100
AcDbEntity
  8
0
  6
CONTINUOUS
 62
               4
100
AcDbLine
 10
15.500000000000114
 20
-7.997487266274284
 30
0.0
 11
15.500000000000114
 21
-8.7045940669667132
 31
0.0
  0
ELLIPSE
  5
1C7
100
AcDbEntity
  8
0
  6
CONTINUOUS
 62
               4
100
AcDbEllipse
 10
15.500000000000114
 20
-13.154162968399142
 30
0.0
 11
-1.3500000000000016
 21
0.0000000000000002
 31
0.0
210
0.0
220
0.0
230
1.0
 40
0.713092870339449
 41
0.0
 42
6.2831853071795862
  0
ELLIPSE
  5
1C8
100
AcDbEntity
  8
0
  6
CONTINUOUS
 62
               4
100
AcDbEllipse
 10
15.500000000000114
 20
-10.154162968399142
 30
0.0
 11
-1.3500000000000016
 21
0.0000000000000002
 31
0.0
210
0.0
220
0.0
230
1.0
 40
0.713092870339449
 41
3.1415926535897931
 42
0.0
  0
LINE
  5
1C9
100
AcDbEntity
  8
0
  6
CONTINUOUS
 62
               4
100
AcDbLine
 10
16.85000000000025
 20
-10.15416296264727
 30
0.0
 11
16.85000000000025
 21
-13.15416296264727
 31
0.0
  0
LINE
  5
1CA
100
AcDbEntity
  8
0
  6
CONTINUOUS
 62
               4
100
AcDbLine
 10
14.150000000000205
 20
-10.15416296264727
 30
0.0
 11
14.150000000000205
 21
-13.15416296264727
 31
0.0
  0
LINE
  5
1CB
100
AcDbEntity
  8
0
  6
CONTINUOUS
 62
               4
100
AcDbLine
 10
13.696374873424134
 20
-10.896625088645017
 30
0.0
 11
13.000000000000114
 21
-10.896625088645017
 31
0.0
  0
ELLIPSE
  5
1CC
100
AcDbEntity
  8
0
  6
CONTINUOUS
 62
               4
100
AcDbEllipse
 10
15.500000000000114
 20
-10.154162968399142
 30
0.0
 11
-2.0999999999999943
 21
0.0000000000000003
 31
0.0
210
0.0
220
0.0
230
1.0
 40
0.690270905444012
 41
2.2690212382307813
 42
0.8725714153590118
  0
LINE
  5
1CD
100
AcDbEntity
  8
0
  6
CONTINUOUS
 62
               4
100
AcDbLine
 10
13.400000015998444
 20
-9.4470561872125884
 30
0.0
 11
13.400000015998444
 21
-10.15416296264727
 31
0.0
  0
LINE
  5
1CE
100
AcDbEntity
  8
0
  6
CONTINUOUS
 62
               4
100
AcDbLine
 10
15.500000000000114
 20
-7.9974872857802168
 30
0.0
 11
12.999999980235657
 21
-7.9974872857802168
 31
0.0
  0
ELLIPSE
  5
1CF
100
AcDbEntity
  8
0
  6
CONTINUOUS
 62
               4
100
AcDbEllipse
 10
18.5
 20
9.4470562170149197
 30
0.0
 11
2.0999999840018688
 21
0.0
 31
0.0
210
0.0
220
0.0
230
1.0
 40
0.6902709107026028
 41
4.7123889803846897
 42
0.0
  0
LINE
  5
1D0
100
AcDbEntity
  8
0
  6
CONTINUOUS
 62
               4
100
AcDbLine
 10
16.400000000000091
 20
10.154162998201471
 30
0.0
 11
16.400000000000091
 21
5.9822330502206729
 31
0.0
  0
LINE
  5
1D1
100
AcDbEntity
  8
0
  6
CONTINUOUS
 62
               4
100
AcDbLine
 10
18.5
 20
7.9974872960765584
 30
0.0
 11
18.5
 21
8.7045940967690445
 31
0.0
  0
LINE
  5
1D2
100
AcDbEntity
  8
0
  6
CONTINUOUS
 62
               4
100
AcDbLine
 10
21.0
 20
4.7265981316103129
 30
0.0
 11
21.0
 21
10.896625091048023
 31
0.0
  0
LINE
  5
1D3
100
AcDbEntity
  8
0
  6
CONTINUOUS
 62
               4
100
AcDbLine
 10
20.599999984001897
 20
9.4470562170149197
 30
0.0
 11
20.599999984001897
 21
10.154162992449542
 31
0.0
  0
ELLIPSE
  5
1D4
100
AcDbEntity
  8
0
  6
CONTINUOUS
 62
               4
100
AcDbEllipse
 10
18.5
 20
10.154162998201471
 30
0.0
 11
2.0999999999999943
 21
0.0
 31
0.0
210
0.0
220
0.0
230
1.0
 40
0.690270905444012
 41
2.2690212382307813
 42
0.8725714153590118
  0
LINE
  5
1D5
100
AcDbEntity
  8
0
  6
CONTINUOUS
 62
               4
100
AcDbLine
 10
20.303625126576208
 20
10.896625118447346
 30
0.0
 11
21.0
 21
10.896625118447346
 31
0.0
  0
LINE
  5
1D6
100
AcDbEntity
  8
0
  6
CONTINUOUS
 62
               4
100
AcDbLine
 10
19.850000000000136
 20
10.154162992449542
 30
0.0
 11
19.850000000000136
 21
13.154162992449542
 31
0.0
  0
LINE
  5
1D7
100
AcDbEntity
  8
0
  6
CONTINUOUS
 62
               4
100
AcDbLine
 10
17.150000000000091
 20
10.154162992449542
 30
0.0
 11
17.150000000000091
 21
13.154162992449542
 31
0.0
  0
ELLIPSE
  5
1D8
100
AcDbEntity
  8
0
  6
CONTINUOUS
 62
               4
100
AcDbEllipse
 10
18.5
 20
10.154162998201471
 30
0.0
 11
1.3500000000000016
 21
0.0
 31
0.0
210
0.0
220
0.0
230
1.0
 40
0.713092870339449
 41
3.1415926535897931
 42
0.0
  0
ELLIPSE
  5
1D9
100
AcDbEntity
  8
0
  6
CONTINUOUS
 62
               4
100
AcDbEllipse
 10
18.5
 20
13.154162998201471
 30
0.0
 11
1.3500000000000016
 21
0.0
 31
0.0
210
0.0
220
0.0
230
1.0
 40
0.713092870339449
 41
0.0
 42
6.2831853071795862
  0
ELLIPSE
  5
1DA
100
AcDbEntity
  8
0
  6
CONTINUOUS
 62
               4
100
AcDbEllipse
 10
18.500000019764684
 20
5.9822330502206729
 30
0.0
 11
-2.10000001976465
 21
0.0000000000000003
 31
0.0
210
0.0
220
0.0
230
1.0
 40
0.6902708989473664
 41
0.0
 42
0.7956029495296795
  0
LINE
  5
1DB
100
AcDbEntity
  8
0
  6
CONTINUOUS
 62
               4
100
AcDbLine
 10
17.030306154330219
 20
4.921572878440851
 30
0.0
 11
17.030306154330219
 21
5.5933242335040791
 31
0.0
  0
LINE
  5
1DC
100
AcDbEntity
  8
0
  6
CONTINUOUS
 62
               4
100
AcDbLine
 10
17.030306154330219
 20
5.5933242565048591
 30
0.0
 11
21.0
 21
5.5933242565048591
 31
0.0
  0
LINE
  5
1DD
100
AcDbEntity
  8
0
  6
CONTINUOUS
 62
               4
100
AcDbLine
 10
18.5
 20
7.9974873155824913
 30
0.0
 11
21.000000019764684
 21
7.9974873155824913
 31
0.0
  0
ELLIPSE
  5
1DE
100
AcDbEntity
  8
0
  6
CONTINUOUS
 62
               4
100
AcDbEllipse
 10
8.0
 20
5.9822330502206729
 30
0.0
 11
-1.25
 21
0.0000000000000002
 31
0.0
210
0.0
220
0.0
230
1.0
 40
0.7071067811865476
 41
0.0
 42
6.2831853071795862
  0
LINE
  5
1DF
100
AcDbEntity
  8
0
  6
CONTINUOUS
 62
               4
100
AcDbLine
 10
8.25
 20
6.8482584540050926
 30
0.0
 11
8.25
 21
5.1162076464361963
 31
0.0
  0
LINE
  5
1E0
100
AcDbEntity
  8
0
  6
CONTINUOUS
 62
               4
100
AcDbLine
 10
7.75
 20
6.8482584540050926
 30
0.0
 11
7.75
 21
5.1162076464361963
 31
0.0
  0
LINE
  5
1E1
100
AcDbEntity
  8
0
  6
CONTINUOUS
 62
               4
100
AcDbLine
 10
6.0
 20
7.0428932220004441
 30
0.0
 11
6.0
 21
3.2104469831826723
 31
0.0
  0
LINE
  5
1E2
100
AcDbEntity
  8
0
  6
CONTINUOUS
 62
               4
100
AcDbLine
 10
6.0
 20
3.7902020285423692
 30
0.0
 11
6.654958872074161
 21
3.7902020285423692
 31
0.0
  0
LINE
  5
1E3
100
AcDbEntity
  8
0
  6
CONTINUOUS
 62
               7
100
AcDbLine
 10
28.000000000000114
 20
-6.7703526098149496
 30
0.0
 11
30.000000000000114
 21
-6.7703526098149496
 31
0.0
  0
LINE
  5
1E4
100
AcDbEntity
  8
0
  6
CONTINUOUS
 62
               7
100
AcDbLine
 10
17.60000000000025
 20
-7.5
 30
0.0
 11
30.000000000000114
 21
-7.5
 31
0.0
  0
LINE
  5
1E5
100
AcDbEntity
  8
0
  6
CONTINUOUS
 62
               7
100
AcDbLine
 10
21.0
 20
7.5
 30
0.0
 11
30.000000000000114
 21
7.5
 31
0.0
  0
LINE
  5
1E6
100
AcDbEntity
  8
0
  6
CONTINUOUS
 62
               4
100
AcDbLine
 10
5.9999999987405772
 20
7.0428932220004441
 30
0.0
 11
16.400000000000091
 21
7.0428932220004441
 31
0.0
  0
LINE
  5
1E7
100
AcDbEntity
  8
0
  6
CONTINUOUS
 62
               4
100
AcDbLine
 10
5.9999999987405772
 20
4.921572878440851
 30
0.0
 11
21.0
 21
4.921572878440851
 31
0.0
  0
LINE
  5
1E8
100
AcDbEntity
  8
0
  6
CONTINUOUS
 62
               4
100
AcDbLine
 10
17.600000022582435
 20
-7.0428931921981066
 30
0.0
 11
27.999999998740577
 21
-7.0428931921981066
 31
0.0
  0
LINE
  5
1E9
100
AcDbEntity
  8
0
  6
CONTINUOUS
 62
               4
100
AcDbLine
 10
12.999999998740577
 20
-4.9215728486385135
 30
0.0
 11
28.000000000000114
 21
-4.9215728486385135
 31
0.0
  0
ENDBLK
  5
1EA
100
AcDbEntity
  8
0
100
AcDbBlockEnd
  0
BLOCK
  5
1EB
100
AcDbEntity
  8
0
100
AcDbBlockBegin
  2
MS_6
 70
               0
 10
0.0
 20
0.0
 30
0.0
  3
MS_6
  1

  0
LINE
  5
1EC
100
AcDbEntity
  8
0
  6
CONTINUOUS
 62
               7
100
AcDbLine
 10
7.5
 20
-7.5
 30
0.0
 11
0.3999999999999773
 21
-7.5
 31
0.0
  0
LINE
  5
1ED
100
AcDbEntity
  8
0
  6
CENTER
 62
               2
100
AcDbLine
 10
3.0
 20
-7.25
 30
0.0
 11
3.0
 21
7.25
 31
0.0
  0
LINE
  5
1EE
100
AcDbEntity
  8
0
  6
CONTINUOUS
 62
               7
100
AcDbLine
 10
0.0
 20
-7.1000000000000014
 30
0.0
 11
0.0
 21
7.1000000000000014
 31
0.0
  0
LINE
  5
1EF
100
AcDbEntity
  8
0
  6
CENTER
 62
               2
100
AcDbLine
 10
12.172825329495595
 20
0.0
 30
0.0
 11
-1.0
 21
0.0
 31
0.0
  0
LINE
  5
1F0
100
AcDbEntity
  8
0
  6
CONTINUOUS
 62
               7
100
AcDbLine
 10
7.5
 20
7.5
 30
0.0
 11
0.3999999999999773
 21
7.5
 31
0.0
  0
LINE
  5
1F1
100
AcDbEntity
  8
0
  6
CONTINUOUS
 62
               7
100
AcDbLine
 10
11.0
 20
-4.0
 30
0.0
 11
11.0
 21
4.0
 31
0.0
  0
LINE
  5
1F2
100
AcDbEntity
  8
0
  6
CONTINUOUS
 62
               7
100
AcDbLine
 10
9.7955844169441662
 20
-3.7902020364020501
 30
0.0
 11
8.6642135670456355
 21
-2.6588311865035621
 31
0.0
  0
LINE
  5
1F3
100
AcDbEntity
  8
0
  6
CONTINUOUS
 62
               7
100
AcDbLine
 10
9.7955844169441662
 20
-3.7902020364020501
 30
0.0
 11
9.7955844169441662
 21
-4.4973088175885891
 31
0.0
  0
LINE
  5
1F4
100
AcDbEntity
  8
0
  6
CONTINUOUS
 62
               7
100
AcDbLine
 10
9.9370057653218282
 20
-4.6387301659662636
 30
0.0
 11
9.7955844169441662
 21
-4.4973088175885891
 31
0.0
  0
ARC
  5
1F5
100
AcDbEntity
  8
0
  6
CONTINUOUS
 62
               7
100
AcDbCircle
 10
7.1792893265538851
 20
-4.1437554269953267
 30
0.0
 40
2.1000000111152071
100
AcDbArc
 50
44.999999999999901
 51
224.99999999999949
  0
LINE
  5
1F6
100
AcDbEntity
  8
0
  6
CONTINUOUS
 62
               7
100
AcDbLine
 10
6.8257359359606653
 20
-6.760050517385551
 30
0.0
 11
5.6943650860621347
 21
-5.6286796674870772
 31
0.0
  0
LINE
  5
1F7
100
AcDbEntity
  8
0
  6
CONTINUOUS
 62
               7
100
AcDbLine
 10
7.5328427171472185
 20
-6.760050517385551
 30
0.0
 11
6.8257359359606653
 21
-6.760050517385551
 31
0.0
  0
LINE
  5
1F8
100
AcDbEntity
  8
0
  6
CONTINUOUS
 62
               7
100
AcDbLine
 10
7.6742640655248806
 20
-6.9014718657632415
 30
0.0
 11
7.5328427171472185
 21
-6.760050517385551
 31
0.0
  0
CIRCLE
  5
1F9
100
AcDbEntity
  8
0
  6
CONTINUOUS
 62
               2
100
AcDbCircle
 10
3.0
 20
5.0
 30
0.0
 40
1.25
  0
CIRCLE
  5
1FA
100
AcDbEntity
  8
0
  6
CONTINUOUS
 62
               7
100
AcDbCircle
 10
3.0
 20
5.0
 30
0.0
 40
1.0
  0
CIRCLE
  5
1FB
100
AcDbEntity
  8
0
  6
CONTINUOUS
 62
               2
100
AcDbCircle
 10
3.0
 20
-5.0
 30
0.0
 40
1.25
  0
CIRCLE
  5
1FC
100
AcDbEntity
  8
0
  6
CONTINUOUS
 62
               7
100
AcDbCircle
 10
3.0
 20
-5.0
 30
0.0
 40
1.0
  0
ARC
  5
1FD
100
AcDbEntity
  8
0
  6
CONTINUOUS
 62
               7
100
AcDbCircle
 10
0.3999999999999773
 20
-7.1000000000000014
 30
0.0
 40
0.4
100
AcDbArc
 50
179.9999999999996
 51
269.99999999999937
  0
ARC
  5
1FE
100
AcDbEntity
  8
0
  6
CONTINUOUS
 62
               7
100
AcDbCircle
 10
0.3999999999999773
 20
7.1000000000000014
 30
0.0
 40
0.4
100
AcDbArc
 50
89.999999999999801
 51
179.9999999999996
  0
LINE
  5
1FF
100
AcDbEntity
  8
0
  6
CONTINUOUS
 62
               7
100
AcDbLine
 10
11.0
 20
4.0
 30
0.0
 11
10.361269834033692
 21
4.6387301659662761
 31
0.0
  0
LINE
  5
200
100
AcDbEntity
  8
0
  6
CONTINUOUS
 62
               7
100
AcDbLine
 10
11.0
 20
-4.0
 30
0.0
 11
10.361269834033749
 21
-4.6387301659662725
 31
0.0
  0
LINE
  5
201
100
AcDbEntity
  8
0
  6
CONTINUOUS
 62
               7
100
AcDbLine
 10
7.6742640655248806
 20
-7.3257359344751549
 30
0.0
 11
7.5
 21
-7.5
 31
0.0
  0
LINE
  5
202
100
AcDbEntity
  8
0
  6
CONTINUOUS
 62
               7
100
AcDbLine
 10
7.6742640655248806
 20
7.3257359344751514
 30
0.0
 11
7.5
 21
7.5
 31
0.0
  0
LINE
  5
203
100
AcDbEntity
  8
0
  6
CONTINUOUS
 62
               7
100
AcDbLine
 10
9.7955844169441662
 20
3.7902020364020501
 30
0.0
 11
9.7955844169441662
 21
4.4973088175885891
 31
0.0
  0
LINE
  5
204
100
AcDbEntity
  8
0
  6
CONTINUOUS
 62
               7
100
AcDbLine
 10
9.9370057653218282
 20
4.6387301659662619
 30
0.0
 11
9.7955844169441662
 21
4.4973088175885891
 31
0.0
  0
LINE
  5
205
100
AcDbEntity
  8
0
  6
CONTINUOUS
 62
               7
100
AcDbLine
 10
9.7955844169441662
 20
3.7902020364020501
 30
0.0
 11
8.6642135670456355
 21
2.6588311865035621
 31
0.0
  0
ARC
  5
206
100
AcDbEntity
  8
0
  6
CONTINUOUS
 62
               7
100
AcDbCircle
 10
7.1792893265538851
 20
4.1437554269953267
 30
0.0
 40
2.1000000111152071
100
AcDbArc
 50
134.99999999999969
 51
314.99999999999932
  0
LINE
  5
207
100
AcDbEntity
  8
0
  6
CONTINUOUS
 62
               7
100
AcDbLine
 10
6.8257359359606653
 20
6.760050517385551
 30
0.0
 11
5.6943650860621347
 21
5.6286796674870772
 31
0.0
  0
LINE
  5
208
100
AcDbEntity
  8
0
  6
CONTINUOUS
 62
               7
100
AcDbLine
 10
7.6742640655248806
 20
6.9014718657632343
 30
0.0
 11
7.5328427171472185
 21
6.760050517385551
 31
0.0
  0
LINE
  5
209
100
AcDbEntity
  8
0
  6
CONTINUOUS
 62
               7
100
AcDbLine
 10
7.5328427171472185
 20
6.760050517385551
 30
0.0
 11
6.8257359359606653
 21
6.760050517385551
 31
0.0
  0
ARC
  5
20A
100
AcDbEntity
  8
0
  6
CONTINUOUS
 62
               7
100
AcDbCircle
 10
7.4621320311688919
 20
7.1136039001191875
 30
0.0
 40
0.3
100
AcDbArc
 50
-44.999999999997172
 51
44.99999999999978
  0
ARC
  5
20B
100
AcDbEntity
  8
0
  6
CONTINUOUS
 62
               7
100
AcDbCircle
 10
10.14913779967776
 20
4.4265981316103122
 30
0.0
 40
0.3
100
AcDbArc
 50
44.999999999999893
 51
135.00000000000281
  0
ARC
  5
20C
100
AcDbEntity
  8
0
  6
CONTINUOUS
 62
               7
100
AcDbCircle
 10
10.14913779967776
 20
-4.4265981316103069
 30
0.0
 40
0.3
100
AcDbArc
 50
224.99999999999662
 51
314.99999999999903
  0
ARC
  5
20D
100
AcDbEntity
  8
0
  6
CONTINUOUS
 62
               7
100
AcDbCircle
 10
7.4621320311688919
 20
-7.1136039001191946
 30
0.0
 40
0.3
100
AcDbArc
 50
314.99999999999937
 51
44.999999999997151
  0
CIRCLE
  5
20E
100
AcDbEntity
  8
0
  6
CONTINUOUS
 62
               7
100
AcDbCircle
 10
3.0
 20
0.0
 30
0.0
 40
2.5
  0
ARC
  5
20F
100
AcDbEntity
  8
0
  6
CONTINUOUS
 62
               7
100
AcDbCircle
 10
3.0
 20
0.0
 30
0.0
 40
2.2999999999999998
100
AcDbArc
 50
30.408148132507041
 51
89.591851867492579
  0
LINE
  5
210
100
AcDbEntity
  8
0
  6
CONTINUOUS
 62
               7
100
AcDbLine
 10
3.0
 20
2.3094009377364557
 30
0.0
 11
1.0
 21
1.1547003993572105
 31
0.0
  0
LINE
  5
211
100
AcDbEntity
  8
0
  6
CONTINUOUS
 62
               7
100
AcDbLine
 10
3.0
 20
2.3094009377364557
 30
0.0
 11
5.0
 21
1.1547003993572034
 31
0.0
  0
LINE
  5
212
100
AcDbEntity
  8
0
  6
CONTINUOUS
 62
               7
100
AcDbLine
 10
3.0
 20
-2.3094009377364557
 30
0.0
 11
5.0
 21
-1.1547003993572034
 31
0.0
  0
LINE
  5
213
100
AcDbEntity
  8
0
  6
CONTINUOUS
 62
               7
100
AcDbLine
 10
3.0
 20
-2.3094009377364557
 30
0.0
 11
1.0
 21
-1.1547003993572105
 31
0.0
  0
ARC
  5
214
100
AcDbEntity
  8
0
  6
CONTINUOUS
 62
               7
100
AcDbCircle
 10
3.0
 20
0.0
 30
0.0
 40
2.2999999999999998
100
AcDbArc
 50
270.40814813250665
 51
329.59185186749215
  0
ARC
  5
215
100
AcDbEntity
  8
0
  6
CONTINUOUS
 62
               7
100
AcDbCircle
 10
3.0
 20
0.0
 30
0.0
 40
2.2999999999999998
100
AcDbArc
 50
210.40814813250682
 51
269.59185186749215
  0
ARC
  5
216
100
AcDbEntity
  8
0
  6
CONTINUOUS
 62
               7
100
AcDbCircle
 10
3.0
 20
0.0
 30
0.0
 40
2.2999999999999998
100
AcDbArc
 50
150.07034004984791
 51
209.59184579395028
  0
ARC
  5
217
100
AcDbEntity
  8
0
  6
CONTINUOUS
 62
               7
100
AcDbCircle
 10
3.0
 20
0.0
 30
0.0
 40
2.2999999999999998
100
AcDbArc
 50
90.408148132507023
 51
149.59185186749238
  0
CIRCLE
  5
218
100
AcDbEntity
  8
0
  6
CONTINUOUS
 62
               7
100
AcDbCircle
 10
3.0
 20
0.0
 30
0.0
 40
2.0
  0
LINE
  5
219
100
AcDbEntity
  8
0
  6
CONTINUOUS
 62
               7
100
AcDbLine
 10
1.0
 20
-1.1547003993572105
 30
0.0
 11
1.0
 21
1.1547003993572105
 31
0.0
  0
CIRCLE
  5
21A
100
AcDbEntity
  8
0
  6
CONTINUOUS
 62
               2
100
AcDbCircle
 10
3.0
 20
0.0
 30
0.0
 40
0.7
  0
CIRCLE
  5
21B
100
AcDbEntity
  8
0
  6
CONTINUOUS
 62
               7
100
AcDbCircle
 10
3.0
 20
0.0
 30
0.0
 40
1.0
  0
LINE
  5
21C
100
AcDbEntity
  8
0
  6
CONTINUOUS
 62
               7
100
AcDbLine
 10
5.0
 20
-1.1547003993572034
 30
0.0
 11
5.0
 21
1.1547003993572034
 31
0.0
  0
ARC
  5
21D
100
AcDbEntity
  8
0
  6
CONTINUOUS
 62
               7
100
AcDbCircle
 10
3.0
 20
0.0
 30
0.0
 40
2.2999999999999998
100
AcDbArc
 50
330.40815420604849
 51
29.59184579395064
  0
LINE
  5
21E
100
AcDbEntity
  8
0
  6
CONTINUOUS
 62
               4
100
AcDbLine
 10
14.639265799192486
 20
8.7045940967690427
 30
0.0
 11
11.527995961971698
 21
5.5933242595481971
 31
0.0
  0
LINE
  5
21F
100
AcDbEntity
  8
0
  6
CONTINUOUS
 62
               4
100
AcDbLine
 10
11.740127996327516
 20
11.603731899633843
 30
0.0
 11
8.628858159106727
 21
8.492462062413054
 31
0.0
  0
LINE
  5
220
100
AcDbEntity
  8
0
  6
CENTER
 62
             200
100
AcDbLine
 10
16.426223946081706
 20
13.390690046523119
 30
0.0
 11
5.1228262064677494
 21
2.0872923069091627
 31
0.0
  0
LINE
  5
221
100
AcDbEntity
  8
0
  6
CONTINUOUS
 62
               4
100
AcDbLine
 10
14.639265804972553
 20
8.7045940909888628
 30
0.0
 11
11.740127996327516
 21
11.603731899633843
 31
0.0
  0
LINE
  5
222
100
AcDbEntity
  8
0
  6
PHANTOM
 62
             200
100
AcDbLine
 10
16.88412911217543
 20
10.231914282920414
 30
0.0
 11
13.86854407765523
 21
14.538616039131867
 31
0.0
  0
LINE
  5
223
100
AcDbEntity
  8
0
  6
CONTINUOUS
 62
               4
100
AcDbLine
 10
14.152372272718281
 20
9.1914876232431908
 30
0.0
 11
16.248361284887693
 21
11.287476635412489
 31
0.0
  0
LINE
  5
224
100
AcDbEntity
  8
0
  6
CONTINUOUS
 62
               4
100
AcDbLine
 10
12.243183963514554
 20
11.100675932446862
 30
0.0
 11
14.615030695238517
 21
13.472522664170711
 31
0.0
  0
LINE
  5
225
100
AcDbEntity
  8
0
  6
CONTINUOUS
 62
               4
100
AcDbLine
 10
10.078427121559031
 20
4.9215728784408412
 30
0.0
 11
7.9571067779994848
 21
7.0428932220004441
 31
0.0
  0
LINE
  5
226
100
AcDbEntity
  8
0
  6
CONTINUOUS
 62
               4
100
AcDbLine
 10
8.6288581628070062
 20
7.7146446068079655
 30
0.0
 11
7.6399188790100254
 21
6.7257053230110984
 31
0.0
  0
LINE
  5
227
100
AcDbEntity
  8
0
  6
CONTINUOUS
 62
               4
100
AcDbLine
 10
10.750178499623104
 20
5.5933242565048573
 30
0.0
 11
9.7612392225695714
 21
4.6043849794514387
 31
0.0
  0
LINE
  5
228
100
AcDbEntity
  8
0
  6
CONTINUOUS
 62
               4
100
AcDbLine
 10
8.6288581507648416
 20
7.714644588022523
 30
0.0
 11
8.6288581628070062
 21
8.492462064186455
 31
0.0
  0
LINE
  5
229
100
AcDbEntity
  8
0
  6
CONTINUOUS
 62
               4
100
AcDbLine
 10
11.527995970488433
 20
5.5933242565048573
 30
0.0
 11
10.750178506366552
 21
5.5933242565048573
 31
0.0
  0
LINE
  5
22A
100
AcDbEntity
  8
0
  6
CONTINUOUS
 62
             200
100
AcDbLine
 10
7.9237717440290965
 20
3.4033136039788729
 30
0.0
 11
6.8641217247938187
 21
2.3436635847435952
 31
0.0
  0
LINE
  5
22B
100
AcDbEntity
  8
0
  6
CONTINUOUS
 62
               4
100
AcDbLine
 10
9.759218917480581
 20
3.8265675201462415
 30
0.0
 11
8.6642135591859244
 21
2.7315621618516417
 31
0.0
  0
LINE
  5
22C
100
AcDbEntity
  8
0
  6
CONTINUOUS
 62
               4
100
AcDbLine
 10
8.0641829477218891
 20
3.2629024002860803
 30
0.0
 11
7.1449441321794041
 21
2.3436635847435952
 31
0.0
  0
LINE
  5
22D
100
AcDbEntity
  8
0
  6
CONTINUOUS
 62
               4
100
AcDbLine
 10
8.6294744161068309
 20
2.6976109319013055
 30
0.0
 11
5.7307305698062976
 21
5.5963547782017287
 31
0.0
  0
LINE
  5
22E
100
AcDbEntity
  8
0
  6
CONTINUOUS
 62
               4
100
AcDbLine
 10
9.193533492531202
 20
3.2608820951969761
 30
0.0
 11
6.2943956896664588
 21
6.160019898061833
 31
0.0
  0
LINE
  5
22F
100
AcDbEntity
  8
0
  6
CONTINUOUS
 62
               4
100
AcDbLine
 10
9.759218917480581
 20
3.8265675201462415
 30
0.0
 11
9.7612392225695714
 21
4.6043849794514387
 31
0.0
  0
ARC
  5
230
100
AcDbEntity
  8
0
  6
CONTINUOUS
 62
               4
100
AcDbCircle
 10
7.2136338525457688
 20
4.1810574823458211
 30
0.0
 40
2.0506628609917015
100
AcDbArc
 50
225.05843089091513
 51
315.02142384112307
  0
LINE
  5
231
100
AcDbEntity
  8
0
  6
CONTINUOUS
 62
               4
100
AcDbLine
 10
7.1449441321794041
 20
2.3436635847435952
 30
0.0
 11
5.3771771792129641
 21
4.1114305377099214
 31
0.0
  0
LINE
  5
232
100
AcDbEntity
  8
0
  6
CONTINUOUS
 62
               4
100
AcDbLine
 10
6.4378373509929645
 20
2.3436635847435952
 30
0.0
 11
5.3771771792129641
 21
3.404323756523425
 31
0.0
  0
LINE
  5
233
100
AcDbEntity
  8
0
  6
CONTINUOUS
 62
               4
100
AcDbLine
 10
6.8600811146156104
 20
6.7257053230110984
 30
0.0
 11
7.6399188790100254
 21
6.7257053230110984
 31
0.0
  0
ARC
  5
234
100
AcDbEntity
  8
0
  6
CONTINUOUS
 62
               4
100
AcDbCircle
 10
7.2164964266225127
 20
4.1801209107395181
 30
0.0
 40
2.0520237703338058
100
AcDbArc
 50
135.01661649434493
 51
224.98338350565427
  0
LINE
  5
235
100
AcDbEntity
  8
0
  6
CONTINUOUS
 62
               4
100
AcDbLine
 10
5.3771771792129641
 20
4.1114305377099214
 30
0.0
 11
5.3771771792129641
 21
3.404323756523425
 31
0.0
  0
LINE
  5
236
100
AcDbEntity
  8
0
  6
CONTINUOUS
 62
               4
100
AcDbLine
 10
6.2964159947554492
 20
5.0306693532524633
 30
0.0
 11
5.3771771792129641
 21
4.1114305377099214
 31
0.0
  0
LINE
  5
237
100
AcDbEntity
  8
0
  6
CONTINUOUS
 62
               4
100
AcDbLine
 10
6.8600811146156104
 20
6.7257053230110984
 30
0.0
 11
5.7650757563211812
 21
5.6306999647164986
 31
0.0
  0
LINE
  5
238
100
AcDbEntity
  8
0
  6
CONTINUOUS
 62
             200
100
AcDbLine
 10
6.4388475035374597
 20
4.8882378444706234
 30
0.0
 11
5.3771771792129641
 21
3.8265675201462415
 31
0.0
  0
LINE
  5
239
100
AcDbEntity
  8
0
  6
CONTINUOUS
 62
               4
100
AcDbLine
 10
6.4378373509929645
 20
2.3436635847435952
 30
0.0
 11
7.1449441321794041
 21
2.3436635847435952
 31
0.0
  0
LINE
  5
23A
100
AcDbEntity
  8
0
  6
CONTINUOUS
 62
               4
100
AcDbLine
 10
9.761239222569543
 20
-3.8245472150571302
 30
0.0
 11
8.6662338642751138
 21
-2.7295418567625305
 31
0.0
  0
LINE
  5
23B
100
AcDbEntity
  8
0
  6
CENTER
 62
             200
100
AcDbLine
 10
16.426223946081677
 20
-13.390690046523169
 30
0.0
 11
5.122826206467721
 21
-2.0872923069091556
 31
0.0
  0
ARC
  5
23C
100
AcDbEntity
  8
0
  6
CONTINUOUS
 62
               4
100
AcDbCircle
 10
7.2164964266224843
 20
-4.180120910739511
 30
0.0
 40
2.0520237703338058
100
AcDbArc
 50
135.01661649434493
 51
224.98338350565427
  0
ARC
  5
23D
100
AcDbEntity
  8
0
  6
CONTINUOUS
 62
               4
100
AcDbCircle
 10
7.2136338525457404
 20
-4.181057482345814
 30
0.0
 40
2.0506628609917015
100
AcDbArc
 50
44.978576158876109
 51
134.94156910908407
  0
LINE
  5
23E
100
AcDbEntity
  8
0
  6
CONTINUOUS
 62
               4
100
AcDbLine
 10
8.6288581628069778
 20
-7.7146446068080152
 30
0.0
 11
7.639918879009997
 21
-6.7257053230110913
 31
0.0
  0
LINE
  5
23F
100
AcDbEntity
  8
0
  6
CONTINUOUS
 62
               4
100
AcDbLine
 10
10.750178499623075
 20
-5.5933242565048502
 30
0.0
 11
9.761239222569543
 21
-4.6043849794514315
 31
0.0
  0
LINE
  5
240
100
AcDbEntity
  8
0
  6
CONTINUOUS
 62
               4
100
AcDbLine
 10
9.7592189174805526
 20
-3.8265675201462344
 30
0.0
 11
9.761239222569543
 21
-4.6043849794514315
 31
0.0
  0
LINE
  5
241
100
AcDbEntity
  8
0
  6
CONTINUOUS
 62
               4
100
AcDbLine
 10
6.860081114615582
 20
-6.7257053230110913
 30
0.0
 11
7.639918879009997
 21
-6.7257053230110913
 31
0.0
  0
LINE
  5
242
100
AcDbEntity
  8
0
  6
CONTINUOUS
 62
               4
100
AcDbLine
 10
6.860081114615582
 20
-6.7257053230110913
 30
0.0
 11
5.7650757563211528
 21
-5.6306999647164915
 31
0.0
  0
LINE
  5
243
100
AcDbEntity
  8
0
  6
CONTINUOUS
 62
               4
100
AcDbLine
 10
13.932159023786085
 20
-7.9974873098023593
 30
0.0
 11
11.033021215141048
 21
-10.896625118447339
 31
0.0
  0
LINE
  5
244
100
AcDbEntity
  8
0
  6
CONTINUOUS
 62
               4
100
AcDbLine
 10
11.740127996327487
 20
-11.603731899633893
 30
0.0
 11
8.6288581591066986
 21
-8.4924620624131038
 31
0.0
  0
LINE
  5
245
100
AcDbEntity
  8
0
  6
CONTINUOUS
 62
               4
100
AcDbLine
 10
14.639265804972524
 20
-8.7045940909889126
 30
0.0
 11
11.740127996327487
 21
-11.603731899633893
 31
0.0
  0
LINE
  5
246
100
AcDbEntity
  8
0
  6
CONTINUOUS
 62
               4
100
AcDbLine
 10
14.152372272718253
 20
-9.1914876232432405
 30
0.0
 11
16.248361284887665
 21
-11.287476635412538
 31
0.0
  0
LINE
  5
247
100
AcDbEntity
  8
0
  6
CONTINUOUS
 62
               4
100
AcDbLine
 10
11.527995970488405
 20
-5.5933242565048502
 30
0.0
 11
10.750178506366524
 21
-5.5933242565048502
 31
0.0
  0
LINE
  5
248
100
AcDbEntity
  8
0
  6
CONTINUOUS
 62
               4
100
AcDbLine
 10
14.639265799192458
 20
-8.7045940967690356
 30
0.0
 11
11.527995961971669
 21
-5.5933242595482469
 31
0.0
  0
LINE
  5
249
100
AcDbEntity
  8
0
  6
CONTINUOUS
 62
               4
100
AcDbLine
 10
8.6288581507648132
 20
-7.7146445880225158
 30
0.0
 11
8.6288581628069778
 21
-8.4924620641865047
 31
0.0
  0
LINE
  5
24A
100
AcDbEntity
  8
0
  6
PHANTOM
 62
             200
100
AcDbLine
 10
16.884129112175401
 20
-10.231914282920464
 30
0.0
 11
13.868544077655201
 21
-14.53861603913186
 31
0.0
  0
LINE
  5
24B
100
AcDbEntity
  8
0
  6
CONTINUOUS
 62
               4
100
AcDbLine
 10
12.243183963514525
 20
-11.100675932446912
 30
0.0
 11
14.615030695238488
 21
-13.472522664170761
 31
0.0
  0
LINE
  5
24C
100
AcDbEntity
  8
0
  6
CENTER
 62
               2
100
AcDbLine
 10
5.25
 20
-5.0
 30
0.0
 11
-1.0
 21
-5.0
 31
0.0
  0
LINE
  5
24D
100
AcDbEntity
  8
0
  6
CENTER
 62
               2
100
AcDbLine
 10
5.25
 20
5.0
 30
0.0
 11
-1.0
 21
5.0
 31
0.0
  0
ENDBLK
  5
24E
100
AcDbEntity
  8
0
100
AcDbBlockEnd
  0
BLOCK
  5
24F
100
AcDbEntity
  8
0
100
AcDbBlockBegin
  2
MS_7
 70
               0
 10
0.0
 20
0.0
 30
0.0
  3
MS_7
  1

  0
LINE
  5
250
100
AcDbEntity
  8
0
  6
CONTINUOUS
 62
               7
100
AcDbLine
 10
30.000000000000114
 20
0.0
 30
0.0
 11
30.000000000000114
 21
11.0
 31
0.0
  0
LINE
  5
251
100
AcDbEntity
  8
0
  6
CENTER
 62
               2
100
AcDbLine
 10
7.1035058011123624
 20
8.2000000000000028
 30
0.0
 11
30.846416164038544
 21
8.2000000000000028
 31
0.0
  0
LINE
  5
252
100
AcDbEntity
  8
0
  6
CONTINUOUS
 62
               7
100
AcDbLine
 10
0.0
 20
0.0
 30
0.0
 11
16.399999999999864
 21
0.0
 31
0.0
  0
LINE
  5
253
100
AcDbEntity
  8
0
  6
CONTINUOUS
 62
               7
100
AcDbLine
 10
0.0
 20
0.0
 30
0.0
 11
0.0
 21
11.0
 31
0.0
  0
LINE
  5
254
100
AcDbEntity
  8
0
  6
CONTINUOUS
 62
               7
100
AcDbLine
 10
0.0
 20
11.0
 30
0.0
 11
30.000000000000114
 21
11.0
 31
0.0
  0
CIRCLE
  5
255
100
AcDbEntity
  8
0
  6
DASHED
 62
               7
100
AcDbCircle
 10
27.0
 20
8.1999999999999886
 30
0.0
 40
1.1999999999999886
  0
CIRCLE
  5
256
100
AcDbEntity
  8
0
  6
DASHED
 62
               2
100
AcDbCircle
 10
27.0
 20
8.1999999999999886
 30
0.0
 40
1.5
  0
LINE
  5
257
100
AcDbEntity
  8
0
  6
CENTER
 62
               2
100
AcDbLine
 10
27.0
 20
6.0452224481113035
 30
0.0
 11
27.0
 21
9.9760956580291094
 31
0.0
  0
CIRCLE
  5
258
100
AcDbEntity
  8
0
  6
DASHED
 62
               7
100
AcDbCircle
 10
10.0
 20
8.1999999999999886
 30
0.0
 40
1.1999999999999886
  0
CIRCLE
  5
259
100
AcDbEntity
  8
0
  6
DASHED
 62
               2
100
AcDbCircle
 10
10.0
 20
8.1999999999999886
 30
0.0
 40
1.5
  0
LINE
  5
25A
100
AcDbEntity
  8
0
  6
CENTER
 62
               2
100
AcDbLine
 10
10.0
 20
6.0452224481113035
 30
0.0
 11
10.0
 21
9.9760956580291094
 31
0.0
  0
LINE
  5
25B
100
AcDbEntity
  8
0
  6
CONTINUOUS
 62
               7
100
AcDbLine
 10
0.0
 20
3.3636038766828165
 30
0.0
 11
30.000000000000114
 21
3.3636038766828165
 31
0.0
  0
LINE
  5
25C
100
AcDbEntity
  8
0
  6
CONTINUOUS
 62
               7
100
AcDbLine
 10
0.0
 20
1.1008621768858688
 30
0.0
 11
6.0
 21
1.1008621768858688
 31
0.0
  0
LINE
  5
25D
100
AcDbEntity
  8
0
  6
CONTINUOUS
 62
               2
100
AcDbLine
 10
-1.0
 20
7.2999999999999972
 30
0.0
 11
-0.4803847577293823
 21
7.0
 31
0.0
  0
LINE
  5
25E
100
AcDbEntity
  8
0
  6
CONTINUOUS
 62
               2
100
AcDbLine
 10
-1.0
 20
8.7000000000000028
 30
0.0
 11
-0.4803847577293823
 21
9.0
 31
0.0
  0
LINE
  5
25F
100
AcDbEntity
  8
0
  6
CONTINUOUS
 62
               7
100
AcDbLine
 10
-6.7000000000000455
 20
9.0
 30
0.0
 11
-5.2000000000000455
 21
9.0
 31
0.0
  0
LINE
  5
260
100
AcDbEntity
  8
0
  6
CONTINUOUS
 62
               7
100
AcDbLine
 10
-7.0
 20
8.7000000000000028
 30
0.0
 11
-7.0
 21
7.2999999999999972
 31
0.0
  0
LINE
  5
261
100
AcDbEntity
  8
0
  6
CONTINUOUS
 62
               2
100
AcDbLine
 10
-7.0
 20
8.7000000000000028
 30
0.0
 11
-5.2000000000000455
 21
8.7000000000000028
 31
0.0
  0
LINE
  5
262
100
AcDbEntity
  8
0
  6
CONTINUOUS
 62
               7
100
AcDbLine
 10
-1.0
 20
9.0
 30
0.0
 11
-1.0
 21
7.0
 31
0.0
  0
LINE
  5
263
100
AcDbEntity
  8
0
  6
CONTINUOUS
 62
               7
100
AcDbLine
 10
-6.7000000000000455
 20
9.0
 30
0.0
 11
-7.0
 21
8.7000000000000028
 31
0.0
  0
LINE
  5
264
100
AcDbEntity
  8
0
  6
CONTINUOUS
 62
               7
100
AcDbLine
 10
-6.7000000000000455
 20
9.0
 30
0.0
 11
-6.7000000000000455
 21
7.0
 31
0.0
  0
LINE
  5
265
100
AcDbEntity
  8
0
  6
CONTINUOUS
 62
               7
100
AcDbLine
 10
-6.7000000000000455
 20
7.0
 30
0.0
 11
-5.2000000000000455
 21
7.0
 31
0.0
  0
LINE
  5
266
100
AcDbEntity
  8
0
  6
CONTINUOUS
 62
               2
100
AcDbLine
 10
-7.0
 20
7.2999999999999972
 30
0.0
 11
-5.2000000000000455
 21
7.2999999999999972
 31
0.0
  0
LINE
  5
267
100
AcDbEntity
  8
0
  6
CONTINUOUS
 62
               7
100
AcDbLine
 10
-6.7000000000000455
 20
7.0
 30
0.0
 11
-7.0
 21
7.2999999999999972
 31
0.0
  0
LINE
  5
268
100
AcDbEntity
  8
0
  6
CONTINUOUS
 62
               2
100
AcDbLine
 10
-2.0
 20
8.7000000000000028
 30
0.0
 11
-1.0
 21
8.7000000000000028
 31
0.0
  0
LINE
  5
269
100
AcDbEntity
  8
0
  6
CONTINUOUS
 62
               2
100
AcDbLine
 10
-2.0
 20
7.2999999999999972
 30
0.0
 11
-1.0
 21
7.2999999999999972
 31
0.0
  0
LINE
  5
26A
100
AcDbEntity
  8
0
  6
CONTINUOUS
 62
               7
100
AcDbLine
 10
-2.0
 20
5.9999999620322626
 30
0.0
 11
-2.0
 21
10.000000021636907
 31
0.0
  0
LINE
  5
26B
100
AcDbEntity
  8
0
  6
CONTINUOUS
 62
               7
100
AcDbLine
 10
-3.6000000000000227
 20
5.9999999620322626
 30
0.0
 11
-3.6000000000000227
 21
10.000000021636907
 31
0.0
  0
LINE
  5
26C
100
AcDbEntity
  8
0
  6
CONTINUOUS
 62
               7
100
AcDbLine
 10
-5.2000000000000455
 20
5.9999999620322626
 30
0.0
 11
-5.2000000000000455
 21
10.000000021636907
 31
0.0
  0
LINE
  5
26D
100
AcDbEntity
  8
0
  6
CONTINUOUS
 62
               7
100
AcDbLine
 10
-5.2000000000000455
 20
10.0
 30
0.0
 11
-2.0
 21
10.0
 31
0.0
  0
LINE
  5
26E
100
AcDbEntity
  8
0
  6
CONTINUOUS
 62
               7
100
AcDbLine
 10
-5.2000000000000455
 20
6.0
 30
0.0
 11
-2.0
 21
6.0
 31
0.0
  0
LINE
  5
26F
100
AcDbEntity
  8
0
  6
CONTINUOUS
 62
               7
100
AcDbLine
 10
-5.0213671974068461
 20
8.0
 30
0.0
 11
-3.7786328025931653
 21
8.0
 31
0.0
  0
LINE
  5
270
100
AcDbEntity
  8
0
  6
CONTINUOUS
 62
               7
100
AcDbLine
 10
-3.4213671974068802
 20
8.0
 30
0.0
 11
-2.1786328025931994
 21
8.0
 31
0.0
  0
ARC
  5
271
100
AcDbEntity
  8
0
  6
CONTINUOUS
 62
               7
100
AcDbCircle
 10
-2.3116456127253286
 20
8.9999999999999858
 30
0.0
 40
2.8883543872747346
100
AcDbArc
 50
159.74384115127785
 51
200.25615884872064
  0
ARC
  5
272
100
AcDbEntity
  8
0
  6
CONTINUOUS
 62
               7
100
AcDbCircle
 10
-2.3116456127253286
 20
7.0000000000000142
 30
0.0
 40
2.8883543872747346
100
AcDbArc
 50
159.74384115127856
 51
200.25615884872136
  0
ARC
  5
273
100
AcDbEntity
  8
0
  6
CONTINUOUS
 62
               7
100
AcDbCircle
 10
-4.8883543872747737
 20
8.9999999999999858
 30
0.0
 40
2.8883543872747346
100
AcDbArc
 50
-20.256158848721032
 51
20.256158848721746
  0
ARC
  5
274
100
AcDbEntity
  8
0
  6
CONTINUOUS
 62
               7
100
AcDbCircle
 10
-4.8883543872747737
 20
7.0000000000000142
 30
0.0
 40
2.8883543872747346
100
AcDbArc
 50
339.74384115127742
 51
20.256158848721032
  0
ARC
  5
275
100
AcDbEntity
  8
0
  6
CONTINUOUS
 62
               7
100
AcDbCircle
 10
-6.4883543872747396
 20
7.0000000000000142
 30
0.0
 40
2.8883543872747346
100
AcDbArc
 50
339.74384115127742
 51
20.256158848721032
  0
ARC
  5
276
100
AcDbEntity
  8
0
  6
CONTINUOUS
 62
               7
100
AcDbCircle
 10
-6.4883543872747396
 20
8.9999999999999858
 30
0.0
 40
2.8883543872747346
100
AcDbArc
 50
-20.256158848721032
 51
20.256158848721746
  0
ARC
  5
277
100
AcDbEntity
  8
0
  6
CONTINUOUS
 62
               7
100
AcDbCircle
 10
-0.7116456127253059
 20
7.0000000000000142
 30
0.0
 40
2.8883543872747346
100
AcDbArc
 50
159.74384115127856
 51
200.25615884872136
  0
ARC
  5
278
100
AcDbEntity
  8
0
  6
CONTINUOUS
 62
               7
100
AcDbCircle
 10
-0.7116456127253059
 20
8.9999999999999858
 30
0.0
 40
2.8883543872747346
100
AcDbArc
 50
159.74384115127785
 51
200.25615884872064
  0
LINE
  5
279
100
AcDbEntity
  8
0
  6
CONTINUOUS
 62
               7
100
AcDbLine
 10
-2.0
 20
7.0
 30
0.0
 11
0.0
 21
7.0
 31
0.0
  0
LINE
  5
27A
100
AcDbEntity
  8
0
  6
CONTINUOUS
 62
               7
100
AcDbLine
 10
-2.0
 20
9.0
 30
0.0
 11
0.0
 21
9.0
 31
0.0
  0
LINE
  5
27B
100
AcDbEntity
  8
0
  6
CENTER
 62
               2
100
AcDbLine
 10
-7.8441166040813641
 20
8.0
 30
0.0
 11
1.3683377634496878
 21
8.0
 31
0.0
  0
ELLIPSE
  5
27C
100
AcDbEntity
  8
0
  6
CONTINUOUS
 62
               4
100
AcDbEllipse
 10
18.500000019764457
 20
1.9822330502206569
 30
0.0
 11
-2.10000001976465
 21
0.0000000000000003
 31
0.0
210
0.0
220
0.0
230
1.0
 40
0.6902708989473664
 41
5.4875823576499068
 42
0.0
  0
LINE
  5
27D
100
AcDbEntity
  8
0
  6
CONTINUOUS
 62
               4
100
AcDbLine
 10
17.030306154329992
 20
3.0428932220006004
 30
0.0
 11
17.030306154329992
 21
2.3711418669372506
 31
0.0
  0
LINE
  5
27E
100
AcDbEntity
  8
0
  6
CONTINUOUS
 62
               4
100
AcDbLine
 10
21.0
 20
3.3636038766828165
 30
0.0
 11
21.0
 21
-2.9321589906066947
 31
0.0
  0
LINE
  5
27F
100
AcDbEntity
  8
0
  6
CONTINUOUS
 62
               4
100
AcDbLine
 10
6.0
 20
0.921572878440827
 30
0.0
 11
6.0
 21
3.3636038766828165
 31
0.0
  0
ELLIPSE
  5
280
100
AcDbEntity
  8
0
  6
CONTINUOUS
 62
               4
100
AcDbEllipse
 10
15.500000000000114
 20
-2.1896968977601432
 30
0.0
 11
-2.0999999999999943
 21
0.0000000000000003
 31
0.0
210
0.0
220
0.0
230
1.0
 40
0.690270905444012
 41
0.5377386764774563
 42
2.3663992802793974
  0
LINE
  5
281
100
AcDbEntity
  8
0
  6
CONTINUOUS
 62
               4
100
AcDbLine
 10
14.150000000000205
 20
-3.3000465163534543
 30
0.0
 11
14.150000000000205
 21
-5.1896968920082145
 31
0.0
  0
ELLIPSE
  5
282
100
AcDbEntity
  8
0
  6
CONTINUOUS
 62
               4
100
AcDbEllipse
 10
15.500000000000114
 20
-5.1896968977601432
 30
0.0
 11
-1.3500000000000016
 21
0.0000000000000002
 31
0.0
210
0.0
220
0.0
230
1.0
 40
0.713092870339449
 41
0.0
 42
3.1415926535897931
  0
LINE
  5
283
100
AcDbEntity
  8
0
  6
CONTINUOUS
 62
               4
100
AcDbLine
 10
16.85000000000025
 20
-3.3000465163533264
 30
0.0
 11
16.85000000000025
 21
-5.1896968920082145
 31
0.0
  0
LINE
  5
284
100
AcDbEntity
  8
0
  6
CONTINUOUS
 62
               4
100
AcDbLine
 10
15.500000000000114
 20
-2.9321590180060184
 30
0.0
 11
13.000000000000114
 21
-2.9321590180060184
 31
0.0
  0
LINE
  5
285
100
AcDbEntity
  8
0
  6
CONTINUOUS
 62
               4
100
AcDbLine
 10
15.500000000000114
 20
-2.9321590180060184
 30
0.0
 11
15.500000000000114
 21
-3.6392657991925645
 31
0.0
  0
LINE
  5
286
100
AcDbEntity
  8
0
  6
CONTINUOUS
 62
               4
100
AcDbLine
 10
13.000000000000114
 20
0.0
 30
0.0
 11
13.000000000000114
 21
-2.9321589906066947
 31
0.0
  0
LINE
  5
287
100
AcDbEntity
  8
0
  6
CONTINUOUS
 62
               4
100
AcDbLine
 10
20.59999998400167
 20
-1.48259011657359
 30
0.0
 11
20.59999998400167
 21
-2.1896968920082145
 31
0.0
  0
LINE
  5
288
100
AcDbEntity
  8
0
  6
CONTINUOUS
 62
               4
100
AcDbLine
 10
20.30362512657598
 20
-2.9321590180060184
 30
0.0
 11
21.0
 21
-2.9321590180060184
 31
0.0
  0
LINE
  5
289
100
AcDbEntity
  8
0
  6
CONTINUOUS
 62
               4
100
AcDbLine
 10
17.149999999999864
 20
-2.1896968920082145
 30
0.0
 11
17.149999999999864
 21
-5.1896968920082145
 31
0.0
  0
ELLIPSE
  5
28A
100
AcDbEntity
  8
0
  6
CONTINUOUS
 62
               4
100
AcDbEllipse
 10
18.5
 20
-5.1896968977601432
 30
0.0
 11
1.3500000000000016
 21
0.0
 31
0.0
210
0.0
220
0.0
230
1.0
 40
0.713092870339449
 41
0.0
 42
6.2831853071795862
  0
LINE
  5
28B
100
AcDbEntity
  8
0
  6
CONTINUOUS
 62
               4
100
AcDbLine
 10
18.5
 20
-0.0330211956352287
 30
0.0
 11
18.5
 21
-0.7401279963277148
 31
0.0
  0
ELLIPSE
  5
28C
100
AcDbEntity
  8
0
  6
CONTINUOUS
 62
               4
100
AcDbEllipse
 10
18.5
 20
-2.1896968977601432
 30
0.0
 11
2.0999999999999943
 21
0.0
 31
0.0
210
0.0
220
0.0
230
1.0
 40
0.690270905444012
 41
-0.8725714153590118
 42
4.014164068948805
  0
ELLIPSE
  5
28D
100
AcDbEntity
  8
0
  6
CONTINUOUS
 62
               4
100
AcDbEllipse
 10
18.5
 20
-1.48259011657359
 30
0.0
 11
2.0999999840018688
 21
0.0
 31
0.0
210
0.0
220
0.0
230
1.0
 40
0.6902709107026028
 41
0.0
 42
1.5707963267948966
  0
ELLIPSE
  5
28E
100
AcDbEntity
  8
0
  6
CONTINUOUS
 62
               4
100
AcDbEllipse
 10
18.5
 20
-2.1896968977601432
 30
0.0
 11
1.3500000000000016
 21
0.0
 31
0.0
210
0.0
220
0.0
230
1.0
 40
0.713092870339449
 41
0.0
 42
3.1415926535897931
  0
LINE
  5
28F
100
AcDbEntity
  8
0
  6
CONTINUOUS
 62
               4
100
AcDbLine
 10
19.849999999999909
 20
-2.1896968920082145
 30
0.0
 11
19.849999999999909
 21
-5.1896968920082145
 31
0.0
  0
LINE
  5
290
100
AcDbEntity
  8
0
  6
CONTINUOUS
 62
               4
100
AcDbLine
 10
18.5
 20
-0.0330212151411615
 30
0.0
 11
21.000000019764457
 21
-0.0330212151411615
 31
0.0
  0
LINE
  5
291
100
AcDbEntity
  8
0
  6
CONTINUOUS
 62
               4
100
AcDbLine
 10
16.399999999999864
 20
-2.1896968977601432
 30
0.0
 11
16.399999999999864
 21
1.9822330502206569
 31
0.0
  0
LINE
  5
292
100
AcDbEntity
  8
0
  6
CONTINUOUS
 62
               4
100
AcDbLine
 10
17.030306154329992
 20
2.3711418439364707
 30
0.0
 11
21.0
 21
2.3711418439364707
 31
0.0
  0
LINE
  5
293
100
AcDbEntity
  8
0
  6
CONTINUOUS
 62
               4
100
AcDbLine
 10
7.75
 20
1.1162076464362372
 30
0.0
 11
7.75
 21
2.8482584540051334
 31
0.0
  0
LINE
  5
294
100
AcDbEntity
  8
0
  6
CONTINUOUS
 62
               4
100
AcDbLine
 10
8.25
 20
1.1162076464362372
 30
0.0
 11
8.25
 21
2.8482584540051334
 31
0.0
  0
ELLIPSE
  5
295
100
AcDbEntity
  8
0
  6
CONTINUOUS
 62
               4
100
AcDbEllipse
 10
8.0
 20
1.9822330502206569
 30
0.0
 11
-1.25
 21
0.0000000000000002
 31
0.0
210
0.0
220
0.0
230
1.0
 40
0.7071067811865476
 41
0.0
 42
6.2831853071795862
  0
LINE
  5
296
100
AcDbEntity
  8
0
  6
CONTINUOUS
 62
               7
100
AcDbLine
 10
21.0
 20
1.1008621768858688
 30
0.0
 11
30.000000000000114
 21
1.1008621768858688
 31
0.0
  0
LINE
  5
297
100
AcDbEntity
  8
0
  6
CONTINUOUS
 62
               4
100
AcDbLine
 10
5.9999999987405772
 20
0.921572878440827
 30
0.0
 11
16.399999999999864
 21
0.921572878440827
 31
0.0
  0
LINE
  5
298
100
AcDbEntity
  8
0
  6
CONTINUOUS
 62
               4
100
AcDbLine
 10
5.9999999987405772
 20
3.0428932220006004
 30
0.0
 11
21.0
 21
3.0428932220006004
 31
0.0
  0
LINE
  5
299
100
AcDbEntity
  8
0
  6
CONTINUOUS
 62
               7
100
AcDbLine
 10
21.0
 20
0.0
 30
0.0
 11
30.000000000000114
 21
0.0
 31
0.0
  0
LINE
  5
29A
100
AcDbEntity
  8
0
  6
CENTER
 62
               2
100
AcDbLine
 10
5.0
 20
12.5
 30
0.0
 11
5.0
 21
9.5
 31
0.0
  0
ENDBLK
  5
29B
100
AcDbEntity
  8
0
100
AcDbBlockEnd
  0
BLOCK
  5
29C
100
AcDbEntity
  8
0
100
AcDbBlockBegin
  2
MS_8
 70
               0
 10
0.0
 20
0.0
 30
0.0
  3
MS_8
  1

  0
LINE
  5
29D
100
AcDbEntity
  8
0
  6
CENTER
 62
               2
100
AcDbLine
 10
10.0
 20
4.9547775518886965
 30
0.0
 11
10.0
 21
1.0239043419708906
 31
0.0
  0
CIRCLE
  5
29E
100
AcDbEntity
  8
0
  6
DASHED
 62
               2
100
AcDbCircle
 10
10.0
 20
2.8000000000000114
 30
0.0
 40
1.5
  0
CIRCLE
  5
29F
100
AcDbEntity
  8
0
  6
DASHED
 62
               7
100
AcDbCircle
 10
10.0
 20
2.8000000000000114
 30
0.0
 40
1.1999999999999886
  0
LINE
  5
2A0
100
AcDbEntity
  8
0
  6
CENTER
 62
               2
100
AcDbLine
 10
27.0
 20
4.9547775518886965
 30
0.0
 11
27.0
 21
1.0239043419708906
 31
0.0
  0
CIRCLE
  5
2A1
100
AcDbEntity
  8
0
  6
DASHED
 62
               2
100
AcDbCircle
 10
27.0
 20
2.8000000000000114
 30
0.0
 40
1.5
  0
CIRCLE
  5
2A2
100
AcDbEntity
  8
0
  6
DASHED
 62
               7
100
AcDbCircle
 10
27.0
 20
2.8000000000000114
 30
0.0
 40
1.1999999999999886
  0
LINE
  5
2A3
100
AcDbEntity
  8
0
  6
CONTINUOUS
 62
               7
100
AcDbLine
 10
0.0
 20
0.0
 30
0.0
 11
30.000000000000114
 21
0.0
 31
0.0
  0
LINE
  5
2A4
100
AcDbEntity
  8
0
  6
CONTINUOUS
 62
               7
100
AcDbLine
 10
30.000000000000114
 20
0.0
 30
0.0
 11
30.000000000000114
 21
11.0
 31
0.0
  0
LINE
  5
2A5
100
AcDbEntity
  8
0
  6
CENTER
 62
               2
100
AcDbLine
 10
6.7435799919588817
 20
2.7999999999999972
 30
0.0
 11
30.846416164038544
 21
2.7999999999999972
 31
0.0
  0
LINE
  5
2A6
100
AcDbEntity
  8
0
  6
CONTINUOUS
 62
               7
100
AcDbLine
 10
0.0
 20
11.0
 30
0.0
 11
0.0
 21
0.0
 31
0.0
  0
LINE
  5
2A7
100
AcDbEntity
  8
0
  6
CONTINUOUS
 62
               7
100
AcDbLine
 10
0.0
 20
11.0
 30
0.0
 11
13.000000000000114
 21
11.0
 31
0.0
  0
LINE
  5
2A8
100
AcDbEntity
  8
0
  6
CONTINUOUS
 62
               7
100
AcDbLine
 10
0.0
 20
9.8991377885442517
 30
0.0
 11
13.000000000000114
 21
9.8991377885442517
 31
0.0
  0
LINE
  5
2A9
100
AcDbEntity
  8
0
  6
CONTINUOUS
 62
               7
100
AcDbLine
 10
0.0
 20
7.6363961233171835
 30
0.0
 11
30.000000000000114
 21
7.6363961233171835
 31
0.0
  0
LINE
  5
2AA
100
AcDbEntity
  8
0
  6
CONTINUOUS
 62
               7
100
AcDbLine
 10
-2.0
 20
4.0
 30
0.0
 11
0.0
 21
4.0
 31
0.0
  0
LINE
  5
2AB
100
AcDbEntity
  8
0
  6
CONTINUOUS
 62
               7
100
AcDbLine
 10
-2.0
 20
2.0
 30
0.0
 11
0.0
 21
2.0
 31
0.0
  0
ARC
  5
2AC
100
AcDbEntity
  8
0
  6
CONTINUOUS
 62
               7
100
AcDbCircle
 10
-0.7116456127253059
 20
3.9999999999999858
 30
0.0
 40
2.8883543872747346
100
AcDbArc
 50
159.74384115127785
 51
200.25615884872064
  0
ARC
  5
2AD
100
AcDbEntity
  8
0
  6
CONTINUOUS
 62
               7
100
AcDbCircle
 10
-0.7116456127253059
 20
2.0000000000000142
 30
0.0
 40
2.8883543872747346
100
AcDbArc
 50
159.74384115127856
 51
200.25615884872136
  0
ARC
  5
2AE
100
AcDbEntity
  8
0
  6
CONTINUOUS
 62
               7
100
AcDbCircle
 10
-6.4883543872747396
 20
3.9999999999999858
 30
0.0
 40
2.8883543872747346
100
AcDbArc
 50
-20.256158848721032
 51
20.256158848721746
  0
ARC
  5
2AF
100
AcDbEntity
  8
0
  6
CONTINUOUS
 62
               7
100
AcDbCircle
 10
-6.4883543872747396
 20
2.0000000000000142
 30
0.0
 40
2.8883543872747346
100
AcDbArc
 50
339.74384115127742
 51
20.256158848721032
  0
ARC
  5
2B0
100
AcDbEntity
  8
0
  6
CONTINUOUS
 62
               7
100
AcDbCircle
 10
-4.8883543872747737
 20
2.0000000000000142
 30
0.0
 40
2.8883543872747346
100
AcDbArc
 50
339.74384115127742
 51
20.256158848721032
  0
ARC
  5
2B1
100
AcDbEntity
  8
0
  6
CONTINUOUS
 62
               7
100
AcDbCircle
 10
-4.8883543872747737
 20
3.9999999999999858
 30
0.0
 40
2.8883543872747346
100
AcDbArc
 50
-20.256158848721032
 51
20.256158848721746
  0
ARC
  5
2B2
100
AcDbEntity
  8
0
  6
CONTINUOUS
 62
               7
100
AcDbCircle
 10
-2.3116456127253286
 20
2.0000000000000142
 30
0.0
 40
2.8883543872747346
100
AcDbArc
 50
159.74384115127856
 51
200.25615884872136
  0
ARC
  5
2B3
100
AcDbEntity
  8
0
  6
CONTINUOUS
 62
               7
100
AcDbCircle
 10
-2.3116456127253286
 20
3.9999999999999858
 30
0.0
 40
2.8883543872747346
100
AcDbArc
 50
159.74384115127785
 51
200.25615884872064
  0
LINE
  5
2B4
100
AcDbEntity
  8
0
  6
CONTINUOUS
 62
               7
100
AcDbLine
 10
-3.4213671974068802
 20
3.0
 30
0.0
 11
-2.1786328025931994
 21
3.0
 31
0.0
  0
LINE
  5
2B5
100
AcDbEntity
  8
0
  6
CONTINUOUS
 62
               7
100
AcDbLine
 10
-5.0213671974068461
 20
3.0
 30
0.0
 11
-3.7786328025931653
 21
3.0
 31
0.0
  0
LINE
  5
2B6
100
AcDbEntity
  8
0
  6
CONTINUOUS
 62
               7
100
AcDbLine
 10
-5.2000000000000455
 20
1.0
 30
0.0
 11
-2.0
 21
1.0
 31
0.0
  0
LINE
  5
2B7
100
AcDbEntity
  8
0
  6
CONTINUOUS
 62
               7
100
AcDbLine
 10
-5.2000000000000455
 20
5.0
 30
0.0
 11
-2.0
 21
5.0
 31
0.0
  0
LINE
  5
2B8
100
AcDbEntity
  8
0
  6
CONTINUOUS
 62
               7
100
AcDbLine
 10
-5.2000000000000455
 20
0.9999999620322626
 30
0.0
 11
-5.2000000000000455
 21
5.0000000216369074
 31
0.0
  0
LINE
  5
2B9
100
AcDbEntity
  8
0
  6
CONTINUOUS
 62
               7
100
AcDbLine
 10
-3.6000000000000227
 20
0.9999999620322626
 30
0.0
 11
-3.6000000000000227
 21
5.0000000216369074
 31
0.0
  0
LINE
  5
2BA
100
AcDbEntity
  8
0
  6
CONTINUOUS
 62
               7
100
AcDbLine
 10
-2.0
 20
0.9999999620322626
 30
0.0
 11
-2.0
 21
5.0000000216369074
 31
0.0
  0
LINE
  5
2BB
100
AcDbEntity
  8
0
  6
CONTINUOUS
 62
               2
100
AcDbLine
 10
-2.0
 20
2.2999999999999972
 30
0.0
 11
-1.0
 21
2.2999999999999972
 31
0.0
  0
LINE
  5
2BC
100
AcDbEntity
  8
0
  6
CONTINUOUS
 62
               2
100
AcDbLine
 10
-2.0
 20
3.7000000000000028
 30
0.0
 11
-1.0
 21
3.7000000000000028
 31
0.0
  0
LINE
  5
2BD
100
AcDbEntity
  8
0
  6
CONTINUOUS
 62
               7
100
AcDbLine
 10
-6.7000000000000455
 20
2.0
 30
0.0
 11
-7.0
 21
2.2999999999999972
 31
0.0
  0
LINE
  5
2BE
100
AcDbEntity
  8
0
  6
CONTINUOUS
 62
               2
100
AcDbLine
 10
-7.0
 20
2.2999999999999972
 30
0.0
 11
-5.2000000000000455
 21
2.2999999999999972
 31
0.0
  0
LINE
  5
2BF
100
AcDbEntity
  8
0
  6
CONTINUOUS
 62
               7
100
AcDbLine
 10
-6.7000000000000455
 20
2.0
 30
0.0
 11
-5.2000000000000455
 21
2.0
 31
0.0
  0
LINE
  5
2C0
100
AcDbEntity
  8
0
  6
CONTINUOUS
 62
               7
100
AcDbLine
 10
-6.7000000000000455
 20
4.0
 30
0.0
 11
-6.7000000000000455
 21
2.0
 31
0.0
  0
LINE
  5
2C1
100
AcDbEntity
  8
0
  6
CONTINUOUS
 62
               7
100
AcDbLine
 10
-6.7000000000000455
 20
4.0
 30
0.0
 11
-7.0
 21
3.7000000000000028
 31
0.0
  0
LINE
  5
2C2
100
AcDbEntity
  8
0
  6
CONTINUOUS
 62
               7
100
AcDbLine
 10
-1.0
 20
4.0
 30
0.0
 11
-1.0
 21
2.0
 31
0.0
  0
LINE
  5
2C3
100
AcDbEntity
  8
0
  6
CONTINUOUS
 62
               2
100
AcDbLine
 10
-7.0
 20
3.7000000000000028
 30
0.0
 11
-5.2000000000000455
 21
3.7000000000000028
 31
0.0
  0
LINE
  5
2C4
100
AcDbEntity
  8
0
  6
CONTINUOUS
 62
               7
100
AcDbLine
 10
-7.0
 20
3.7000000000000028
 30
0.0
 11
-7.0
 21
2.2999999999999972
 31
0.0
  0
LINE
  5
2C5
100
AcDbEntity
  8
0
  6
CONTINUOUS
 62
               7
100
AcDbLine
 10
-6.7000000000000455
 20
4.0
 30
0.0
 11
-5.2000000000000455
 21
4.0
 31
0.0
  0
LINE
  5
2C6
100
AcDbEntity
  8
0
  6
CONTINUOUS
 62
               2
100
AcDbLine
 10
-1.0
 20
3.7000000000000028
 30
0.0
 11
-0.4803847577293823
 21
4.0
 31
0.0
  0
LINE
  5
2C7
100
AcDbEntity
  8
0
  6
CONTINUOUS
 62
               2
100
AcDbLine
 10
-1.0
 20
2.2999999999999972
 30
0.0
 11
-0.4803847577293823
 21
2.0
 31
0.0
  0
LINE
  5
2C8
100
AcDbEntity
  8
0
  6
CENTER
 62
               2
100
AcDbLine
 10
-8.1724203807038975
 20
3.0
 30
0.0
 11
1.3683377634496878
 21
3.0
 31
0.0
  0
ELLIPSE
  5
2C9
100
AcDbEntity
  8
0
  6
CONTINUOUS
 62
               4
100
AcDbEllipse
 10
15.499999980235657
 20
9.0177669497793431
 30
0.0
 11
2.10000001976465
 21
0.0
 31
0.0
210
0.0
220
0.0
230
1.0
 40
0.6902708989473664
 41
5.4875823576499068
 42
0.0
  0
LINE
  5
2CA
100
AcDbEntity
  8
0
  6
CONTINUOUS
 62
               4
100
AcDbLine
 10
16.969693845670122
 20
7.9571067779993996
 30
0.0
 11
16.969693845670122
 21
8.6288581330627494
 31
0.0
  0
LINE
  5
2CB
100
AcDbEntity
  8
0
  6
CONTINUOUS
 62
               4
100
AcDbLine
 10
13.000000000000114
 20
7.6363961233171835
 30
0.0
 11
13.000000000000114
 21
13.932158990606695
 31
0.0
  0
ELLIPSE
  5
2CC
100
AcDbEntity
  8
0
  6
CONTINUOUS
 62
               4
100
AcDbEllipse
 10
26.000000000000114
 20
9.0177669497793431
 30
0.0
 11
1.25
 21
0.0
 31
0.0
210
0.0
220
0.0
230
1.0
 40
0.7071067811865476
 41
0.0
 42
6.2831853071795862
  0
LINE
  5
2CD
100
AcDbEntity
  8
0
  6
CONTINUOUS
 62
               4
100
AcDbLine
 10
25.750000000000114
 20
9.8837923535637628
 30
0.0
 11
25.750000000000114
 21
8.1517415459948666
 31
0.0
  0
LINE
  5
2CE
100
AcDbEntity
  8
0
  6
CONTINUOUS
 62
               4
100
AcDbLine
 10
26.250000000000114
 20
9.8837923535637628
 30
0.0
 11
26.250000000000114
 21
8.1517415459948666
 31
0.0
  0
LINE
  5
2CF
100
AcDbEntity
  8
0
  6
CONTINUOUS
 62
               4
100
AcDbLine
 10
28.000000000000114
 20
10.078427121559173
 30
0.0
 11
28.000000000000114
 21
7.6363961233171835
 31
0.0
  0
LINE
  5
2D0
100
AcDbEntity
  8
0
  6
CONTINUOUS
 62
               4
100
AcDbLine
 10
16.969693845670122
 20
8.6288581560635293
 30
0.0
 11
13.000000000000114
 21
8.6288581560635293
 31
0.0
  0
LINE
  5
2D1
100
AcDbEntity
  8
0
  6
CONTINUOUS
 62
               4
100
AcDbLine
 10
17.60000000000025
 20
13.189696897760143
 30
0.0
 11
17.60000000000025
 21
9.0177669497793431
 31
0.0
  0
LINE
  5
2D2
100
AcDbEntity
  8
0
  6
CONTINUOUS
 62
               4
100
AcDbLine
 10
15.500000000000114
 20
11.033021215141162
 30
0.0
 11
12.999999980235657
 21
11.033021215141162
 31
0.0
  0
LINE
  5
2D3
100
AcDbEntity
  8
0
  6
CONTINUOUS
 62
               4
100
AcDbLine
 10
14.150000000000205
 20
13.189696892008214
 30
0.0
 11
14.150000000000205
 21
16.189696892008214
 31
0.0
  0
ELLIPSE
  5
2D4
100
AcDbEntity
  8
0
  6
CONTINUOUS
 62
               4
100
AcDbEllipse
 10
15.500000000000114
 20
13.189696897760143
 30
0.0
 11
-1.3500000000000016
 21
0.0000000000000002
 31
0.0
210
0.0
220
0.0
230
1.0
 40
0.713092870339449
 41
0.0
 42
3.1415926535897931
  0
ELLIPSE
  5
2D5
100
AcDbEntity
  8
0
  6
CONTINUOUS
 62
               4
100
AcDbEllipse
 10
15.500000000000114
 20
12.48259011657359
 30
0.0
 11
-2.0999999840018688
 21
0.0000000000000003
 31
0.0
210
0.0
220
0.0
230
1.0
 40
0.6902709107026028
 41
0.0
 42
1.5707963267948966
  0
ELLIPSE
  5
2D6
100
AcDbEntity
  8
0
  6
CONTINUOUS
 62
               4
100
AcDbEllipse
 10
15.500000000000114
 20
13.189696897760143
 30
0.0
 11
-2.0999999999999943
 21
0.0000000000000003
 31
0.0
210
0.0
220
0.0
230
1.0
 40
0.690270905444012
 41
-0.8725714153590118
 42
4.014164068948805
  0
LINE
  5
2D7
100
AcDbEntity
  8
0
  6
CONTINUOUS
 62
               4
100
AcDbLine
 10
15.500000000000114
 20
11.033021195635229
 30
0.0
 11
15.500000000000114
 21
11.740127996327715
 31
0.0
  0
ELLIPSE
  5
2D8
100
AcDbEntity
  8
0
  6
CONTINUOUS
 62
               4
100
AcDbEllipse
 10
15.500000000000114
 20
16.189696897760143
 30
0.0
 11
-1.3500000000000016
 21
0.0000000000000002
 31
0.0
210
0.0
220
0.0
230
1.0
 40
0.713092870339449
 41
0.0
 42
6.2831853071795862
  0
LINE
  5
2D9
100
AcDbEntity
  8
0
  6
CONTINUOUS
 62
               4
100
AcDbLine
 10
16.85000000000025
 20
13.189696892008214
 30
0.0
 11
16.85000000000025
 21
16.189696892008214
 31
0.0
  0
LINE
  5
2DA
100
AcDbEntity
  8
0
  6
CONTINUOUS
 62
               4
100
AcDbLine
 10
13.696374873424134
 20
13.932159018006018
 30
0.0
 11
13.000000000000114
 21
13.932159018006018
 31
0.0
  0
LINE
  5
2DB
100
AcDbEntity
  8
0
  6
CONTINUOUS
 62
               4
100
AcDbLine
 10
13.400000015998444
 20
12.48259011657359
 30
0.0
 11
13.400000015998444
 21
13.189696892008214
 31
0.0
  0
LINE
  5
2DC
100
AcDbEntity
  8
0
  6
CONTINUOUS
 62
               7
100
AcDbLine
 10
17.60000000000025
 20
11.0
 30
0.0
 11
30.000000000000114
 21
11.0
 31
0.0
  0
LINE
  5
2DD
100
AcDbEntity
  8
0
  6
CONTINUOUS
 62
               7
100
AcDbLine
 10
28.000000000000114
 20
9.8991377885442517
 30
0.0
 11
30.000000000000114
 21
9.8991377885442517
 31
0.0
  0
LINE
  5
2DE
100
AcDbEntity
  8
0
  6
CONTINUOUS
 62
               4
100
AcDbLine
 10
21.0
 20
11.0
 30
0.0
 11
21.0
 21
13.932158990606695
 31
0.0
  0
LINE
  5
2DF
100
AcDbEntity
  8
0
  6
CONTINUOUS
 62
               4
100
AcDbLine
 10
18.5
 20
13.932159018006018
 30
0.0
 11
18.5
 21
14.639265799192565
 31
0.0
  0
LINE
  5
2E0
100
AcDbEntity
  8
0
  6
CONTINUOUS
 62
               4
100
AcDbLine
 10
18.5
 20
13.932159018006018
 30
0.0
 11
21.0
 21
13.932159018006018
 31
0.0
  0
LINE
  5
2E1
100
AcDbEntity
  8
0
  6
CONTINUOUS
 62
               4
100
AcDbLine
 10
17.149999999999864
 20
14.300046516353326
 30
0.0
 11
17.149999999999864
 21
16.189696892008214
 31
0.0
  0
ELLIPSE
  5
2E2
100
AcDbEntity
  8
0
  6
CONTINUOUS
 62
               4
100
AcDbEllipse
 10
18.5
 20
16.189696897760143
 30
0.0
 11
1.3500000000000016
 21
0.0
 31
0.0
210
0.0
220
0.0
230
1.0
 40
0.713092870339449
 41
0.0
 42
3.1415926535897931
  0
LINE
  5
2E3
100
AcDbEntity
  8
0
  6
CONTINUOUS
 62
               4
100
AcDbLine
 10
19.849999999999909
 20
14.300046516353454
 30
0.0
 11
19.849999999999909
 21
16.189696892008214
 31
0.0
  0
ELLIPSE
  5
2E4
100
AcDbEntity
  8
0
  6
CONTINUOUS
 62
               4
100
AcDbEllipse
 10
18.5
 20
13.189696897760143
 30
0.0
 11
2.0999999999999943
 21
0.0
 31
0.0
210
0.0
220
0.0
230
1.0
 40
0.690270905444012
 41
0.5377386764774563
 42
2.3663992802793974
  0
LINE
  5
2E5
100
AcDbEntity
  8
0
  6
CONTINUOUS
 62
               4
100
AcDbLine
 10
17.600000022582435
 20
10.078427121559173
 30
0.0
 11
27.999999998740577
 21
10.078427121559173
 31
0.0
  0
LINE
  5
2E6
100
AcDbEntity
  8
0
  6
CONTINUOUS
 62
               4
100
AcDbLine
 10
12.999999998740577
 20
7.9571067779993996
 30
0.0
 11
27.999999998740577
 21
7.9571067779993996
 31
0.0
  0
LINE
  5
2E7
100
AcDbEntity
  8
0
  6
CENTER
 62
               2
100
AcDbLine
 10
5.0
 20
1.5
 30
0.0
 11
5.0
 21
-1.5
 31
0.0
  0
ENDBLK
  5
2E8
100
AcDbEntity
  8
0
100
AcDbBlockEnd
  0
BLOCK
  5
2EB
100
AcDbEntity
  8
0
  6
ByBlock
 62
               0
100
AcDbBlockBegin
  2
_OPEN30
 70
               2
 10
0.0
 20
0.0
 30
0.0
  3
_OPEN30
  1

  0
LINE
  5
2EC
100
AcDbEntity
  8
0
  6
ByBlock
 62
               0
100
AcDbLine
 10
-1.0
 20
0.267949
 30
0.0
 11
0.0
 21
0.0
 31
0.0
  0
LINE
  5
2ED
100
AcDbEntity
  8
0
  6
ByBlock
 62
               0
100
AcDbLine
 10
0.0
 20
0.0
 30
0.0
 11
-1.0
 21
-0.267949
 31
0.0
  0
LINE
  5
2EE
100
AcDbEntity
  8
0
  6
ByBlock
 62
               0
100
AcDbLine
 10
0.0
 20
0.0
 30
0.0
 11
-1.0
 21
0.0
 31
0.0
  0
ENDBLK
  5
2EF
100
AcDbEntity
  8
0
  6
ByBlock
 62
               0
100
AcDbBlockEnd
  0
ENDSEC
  0
SECTION
  2
ENTITIES
  0
LEADER
  5
2E9
100
AcDbEntity
  8
0
 62
               2
100
AcDbLeader
  3
MXDIMSTYLE
 73
               3
 74
               0
 75
               0
 40
0.0
 76
               3
 10
77.324957789249993
 20
-47.682196320070844
 30
0.0
 10
84.693975862463816
 20
-60.445710024770563
 30
0.0
 10
89.693975862463816
 20
-60.445710024770563
 30
0.0
 77
               2
1001
ACAD
1000
DSTYLE
1002
{
1070
               6
1000
_OPEN30
1070
               7
1000
_OPEN30
1070
              41
1040
2.77
1070
             173
1070
               1
1002
}
  0
MTEXT
  5
2F0
100
AcDbEntity
  8
0
 62
               2
100
AcDbMText
 10
84.693975862463816
 20
-57.414460024770563
 30
0.0
 40
2.5
 41
0.0
 71
               4
 72
               1
  1
\A1;-R
  7
MX_NOTE_STANDARD
  0
LEADER
  5
2F1
100
AcDbEntity
  8
0
 62
               2
100
AcDbLeader
  3
MXDIMSTYLE
 73
               3
 74
               0
 75
               0
 40
0.0
 76
               3
 10
75.824957789249993
 20
47.315879891282464
 30
0.0
 10
71.069891504123376
 20
55.55189629047959
 30
0.0
 10
65.952982603683637
 20
55.55189629047959
 30
0.0
 77
               2
1001
ACAD
1000
DSTYLE
1002
{
1070
               6
1000
_OPEN30
1070
               7
1000
_OPEN30
1070
              41
1040
2.77
1070
             173
1070
               1
1002
}
  0
MTEXT
  5
2F2
100
AcDbEntity
  8
0
 62
               2
100
AcDbMText
 10
65.952982603683637
 20
58.58314629047959
 30
0.0
 40
2.5
 41
0.0
 71
               4
 72
               1
  1
\A1;-L
  7
MX_NOTE_STANDARD
  0
LINE
  5
2F3
100
AcDbEntity
  8
0
  6
CONTINUOUS
 62
               7
100
AcDbLine
 10
-0.024993896484375
 20
84.5
 30
0.0
 11
-0.024993896484375
 21
-84.800003051757813
 31
0.0
  0
MTEXT
  5
2F4
100
AcDbEntity
  8
0
  6
CONTINUOUS
 62
               3
100
AcDbMText
 10
72.320882650460604
 20
21.538624290582916
 30
0.0
 40
3.2000000476837158
 41
0.0
 71
               4
 72
               1
  1
\W1.065;\A1;STRETCH LINE
  7
MX_NOTE_STANDARD
  0
LEADER
  5
2F5
100
AcDbEntity
  8
0
 62
               2
100
AcDbLeader
  3
MXDIMSTYLE
 73
               3
 74
               0
 75
               0
 40
0.0
 76
               3
 10
-52.675042217386824
 20
-47.682196331566089
 30
0.0
 10
-45.306024144172987
 20
-60.445710036265808
 30
0.0
 10
-40.306024144172987
 20
-60.445710036265808
 30
0.0
 77
               2
1001
ACAD
1000
DSTYLE
1002
{
1070
               6
1000
_OPEN30
1070
               7
1000
_OPEN30
1070
              41
1040
2.77
1070
             173
1070
               1
1002
}
  0
MTEXT
  5
2F6
100
AcDbEntity
  8
0
 62
               2
100
AcDbMText
 10
-45.306024144172987
 20
-57.414460036265808
 30
0.0
 40
2.5
 41
0.0
 71
               4
 72
               1
  1
\A1;-R
  7
MX_NOTE_STANDARD
  0
LEADER
  5
2F7
100
AcDbEntity
  8
0
 62
               2
100
AcDbLeader
  3
MXDIMSTYLE
 73
               3
 74
               0
 75
               0
 40
0.0
 76
               3
 10
-54.175042217386817
 20
47.315879879787218
 30
0.0
 10
-58.930108502513434
 20
55.551896278984344
 30
0.0
 10
-64.047017402953173
 20
55.551896278984344
 30
0.0
 77
               2
1001
ACAD
1000
DSTYLE
1002
{
1070
               6
1000
_OPEN30
1070
               7
1000
_OPEN30
1070
              41
1040
2.77
1070
             173
1070
               1
1002
}
  0
MTEXT
  5
2F8
100
AcDbEntity
  8
0
 62
               2
100
AcDbMText
 10
-64.047017402953173
 20
58.583146278984344
 30
0.0
 40
2.5
 41
0.0
 71
               4
 72
               1
  1
\A1;-L
  7
MX_NOTE_STANDARD
  0
INSERT
  5
2F9
100
AcDbEntity
  8
0
100
AcDbBlockReference
  2
MS_8
 10
66.574957789249993
 20
-49.183158214394197
 30
0.0
  0
INSERT
  5
2FA
100
AcDbEntity
  8
0
100
AcDbBlockReference
  2
MS_7
 10
66.574957789249993
 20
37.816841785605803
 30
0.0
  0
INSERT
  5
2FB
100
AcDbEntity
  8
0
100
AcDbBlockReference
  2
MS_6
 10
26.697488489748395
 20
-0.1831582028989516
 30
0.0
  0
INSERT
  5
2FC
100
AcDbEntity
  8
0
100
AcDbBlockReference
  2
MS_5
 10
66.574957789249993
 20
-0.1831581914037095
 30
0.0
  0
INSERT
  5
2FD
100
AcDbEntity
  8
0
100
AcDbBlockReference
  2
MS_4
 10
-63.425042217386817
 20
-49.183158225889443
 30
0.0
  0
INSERT
  5
2FE
100
AcDbEntity
  8
0
100
AcDbBlockReference
  2
MS_3
 10
-63.425042217386817
 20
37.816841774110557
 30
0.0
  0
INSERT
  5
2FF
100
AcDbEntity
  8
0
100
AcDbBlockReference
  2
MS_2
 10
-103.30251151688842
 20
-0.1831582143941972
 30
0.0
  0
INSERT
  5
300
100
AcDbEntity
  8
0
100
AcDbBlockReference
  2
MS_1
 10
-63.425042217386817
 20
-0.1831582028989551
 30
0.0
  0
MTEXT
  5
301
100
AcDbEntity
  8
0
  6
CONTINUOUS
 62
               7
100
AcDbMText
 10
-78.423993985366835
 20
-75.800003051757813
 30
0.0
 40
3.2000000476837158
 41
0.0
 71
               4
 72
               1
  1
\W1.200;\A1;(mm)
  7
MX_NOTE_STANDARD
  0
MTEXT
  5
302
100
AcDbEntity
  8
0
  6
CONTINUOUS
 62
               7
100
AcDbMText
 10
-120.03194683784572
 20
-74.800003051757813
 30
0.0
 40
3.2000000476837158
 41
0.0
 71
               4
 72
               1
  1
\W1.065;\A1;STRETCH LIST
  7
MX_NOTE_STANDARD
  0
MTEXT
  5
303
100
AcDbEntity
  8
0
  6
CONTINUOUS
 62
               7
100
AcDbMText
 10
-105.66666060288748
 20
-86.800003051757813
 30
0.0
 40
3.2000000476837158
 41
0.0
 71
               4
 72
               1
  1
\A1;-6
  7
MX_NOTE_STANDARD
  0
MTEXT
  5
304
100
AcDbEntity
  8
0
  6
CONTINUOUS
 62
               7
100
AcDbMText
 10
-96.066660602887481
 20
-86.800003051757813
 30
0.0
 40
3.2000000476837158
 41
0.0
 71
               4
 72
               1
  1
\A1;-4
  7
MX_NOTE_STANDARD
  0
MTEXT
  5
305
100
AcDbEntity
  8
0
  6
CONTINUOUS
 62
               7
100
AcDbMText
 10
-86.466660602887487
 20
-86.800003051757813
 30
0.0
 40
3.2000000476837158
 41
0.0
 71
               4
 72
               1
  1
\A1;-2
  7
MX_NOTE_STANDARD
  0
MTEXT
  5
306
100
AcDbEntity
  8
0
  6
CONTINUOUS
 62
               7
100
AcDbMText
 10
-75.159993895530732
 20
-86.800003051757813
 30
0.0
 40
3.2000000476837158
 41
0.0
 71
               4
 72
               1
  1
\W1.200;\A1;0
  7
MX_NOTE_STANDARD
  0
MTEXT
  5
307
100
AcDbEntity
  8
0
  6
CONTINUOUS
 62
               7
100
AcDbMText
 10
-76.688882822460627
 20
-80.800003051757813
 30
0.0
 40
3.2000000476837158
 41
0.0
 71
               4
 72
               1
  1
\W1.333;\A1;10
  7
MX_NOTE_STANDARD
  0
MTEXT
  5
308
100
AcDbEntity
  8
0
  6
CONTINUOUS
 62
               7
100
AcDbMText
 10
-84.866660579045629
 20
-80.800003051757813
 30
0.0
 40
3.2000000476837158
 41
0.0
 71
               4
 72
               1
  1
\A1;8
  7
MX_NOTE_STANDARD
  0
MTEXT
  5
309
100
AcDbEntity
  8
0
  6
CONTINUOUS
 62
               7
100
AcDbMText
 10
-94.466660579045623
 20
-80.800003051757813
 30
0.0
 40
3.2000000476837158
 41
0.0
 71
               4
 72
               1
  1
\A1;6
  7
MX_NOTE_STANDARD
  0
MTEXT
  5
30A
100
AcDbEntity
  8
0
  6
CONTINUOUS
 62
               7
100
AcDbMText
 10
-104.06666057904562
 20
-80.800003051757813
 30
0.0
 40
3.2000000476837158
 41
0.0
 71
               4
 72
               1
  1
\A1;4
  7
MX_NOTE_STANDARD
  0
LINE
  5
30B
100
AcDbEntity
  8
0
  6
CONTINUOUS
 62
               7
100
AcDbLine
 10
-69.399993896484375
 20
-77.800003051757812
 30
0.0
 11
-69.399993896484375
 21
-89.800003051757812
 31
0.0
  0
LINE
  5
30C
100
AcDbEntity
  8
0
  6
CONTINUOUS
 62
               7
100
AcDbLine
 10
-78.999993896484384
 20
-77.800003051757812
 30
0.0
 11
-78.999993896484384
 21
-89.800003051757812
 31
0.0
  0
LINE
  5
30D
100
AcDbEntity
  8
0
  6
CONTINUOUS
 62
               7
100
AcDbLine
 10
-88.599993896484378
 20
-77.800003051757812
 30
0.0
 11
-88.599993896484378
 21
-89.800003051757812
 31
0.0
  0
LINE
  5
30E
100
AcDbEntity
  8
0
  6
CONTINUOUS
 62
               7
100
AcDbLine
 10
-98.199993896484386
 20
-77.800003051757812
 30
0.0
 11
-98.199993896484386
 21
-89.800003051757812
 31
0.0
  0
LINE
  5
30F
100
AcDbEntity
  8
0
  6
CONTINUOUS
 62
               7
100
AcDbLine
 10
-107.79999389648438
 20
-77.800003051757812
 30
0.0
 11
-107.79999389648438
 21
-89.800003051757812
 31
0.0
  0
MTEXT
  5
310
100
AcDbEntity
  8
0
  6
CONTINUOUS
 62
               7
100
AcDbMText
 10
-131.26666072209676
 20
-86.800003051757813
 30
0.0
 40
3.2000000476837158
 41
0.0
 71
               4
 72
               1
  1
\A1;STRETCH
  7
MX_NOTE_STANDARD
  0
MTEXT
  5
311
100
AcDbEntity
  8
0
  6
CONTINUOUS
 62
               7
100
AcDbMText
 10
-129.6666606982549
 20
-80.800003051757813
 30
0.0
 40
3.2000000476837158
 41
0.0
 71
               4
 72
               1
  1
\A1;STROKE
  7
MX_NOTE_STANDARD
  0
LINE
  5
312
100
AcDbEntity
  8
0
  6
CONTINUOUS
 62
               7
100
AcDbLine
 10
-133.39999389648437
 20
-77.800003051757812
 30
0.0
 11
-69.399993896484375
 21
-77.800003051757812
 31
0.0
  0
LINE
  5
313
100
AcDbEntity
  8
0
  6
CONTINUOUS
 62
               7
100
AcDbLine
 10
-133.39999389648437
 20
-83.800003051757813
 30
0.0
 11
-69.399993896484375
 21
-83.800003051757813
 31
0.0
  0
MTEXT
  5
314
100
AcDbEntity
  8
0
  6
CONTINUOUS
 62
               3
100
AcDbMText
 10
-52.724622513521396
 20
58.630701176823791
 30
0.0
 40
3.2000000476837158
 41
0.0
 71
               4
 72
               1
  1
\W1.065;\A1;STRETCH LINE
  7
MX_NOTE_STANDARD
  0
LINE
  5
315
100
AcDbEntity
  8
0
  6
CONTINUOUS
 62
               7
100
AcDbLine
 10
-133.39999389648437
 20
-77.800003051757812
 30
0.0
 11
-133.39999389648437
 21
-89.800003051757812
 31
0.0
  0
LINE
  5
316
100
AcDbEntity
  8
0
  6
CONTINUOUS
 62
               7
100
AcDbLine
 10
-133.39999389648437
 20
-89.800003051757812
 30
0.0
 11
-69.399993896484375
 21
-89.800003051757812
 31
0.0
  0
MTEXT
  5
317
100
AcDbEntity
  8
0
  6
CONTINUOUS
 62
               7
100
AcDbMText
 10
-59.028569462348003
 20
68.5
 30
0.0
 40
3.1999998092651367
 41
0.0
 71
               4
 72
               1
  1
\W1.071;\A1;ZE155
  7
MX_NOTE_STANDARD
  0
MTEXT
  5
318
100
AcDbEntity
  8
0
  6
CONTINUOUS
 62
               7
100
AcDbMText
 10
8.9627612644610224
 20
74.5
 30
0.0
 40
3.1999998092651367
 41
0.0
 71
               4
 72
               1
  1
\W1.102;\A1;MODEL:MBDAS4.5*ST(10)-ZE235
  7
MX_NOTE_STANDARD
  0
MTEXT
  5
319
100
AcDbEntity
  8
0
  6
CONTINUOUS
 62
               7
100
AcDbMText
 10
79.308335304260254
 20
68.5
 30
0.0
 40
3.1999998092651367
 41
0.0
 71
               4
 72
               1
  1
\A1;ZE255
  7
MX_NOTE_STANDARD
  0
LINE
  5
31A
100
AcDbEntity
  8
0
  6
CONTINUOUS
 62
               7
100
AcDbLine
 10
-138.39999389648437
 20
94.5
 30
0.0
 11
138.35000610351562
 21
94.5
 31
0.0
  0
LINE
  5
31B
100
AcDbEntity
  8
0
  6
CONTINUOUS
 62
               7
100
AcDbLine
 10
138.35000610351562
 20
94.5
 30
0.0
 11
138.35000610351562
 21
-94.800003051757812
 31
0.0
  0
LINE
  5
31C
100
AcDbEntity
  8
0
  6
CONTINUOUS
 62
               7
100
AcDbLine
 10
-138.39999389648437
 20
-94.800003051757812
 30
0.0
 11
138.35000610351562
 21
-94.800003051757812
 31
0.0
  0
LINE
  5
31D
100
AcDbEntity
  8
0
  6
CONTINUOUS
 62
               7
100
AcDbLine
 10
-138.39999389648437
 20
94.5
 30
0.0
 11
-138.39999389648437
 21
-94.800003051757812
 31
0.0
  0
LINE
  5
31E
100
AcDbEntity
  8
0
  6
CONTINUOUS
 62
               7
100
AcDbLine
 10
73.350006103515625
 20
-84.800003051757813
 30
0.0
 11
138.35000610351562
 21
-84.800003051757813
 31
0.0
  0
LINE
  5
31F
100
AcDbEntity
  8
0
  6
CONTINUOUS
 62
               7
100
AcDbLine
 10
-138.39999389648437
 20
84.5
 30
0.0
 11
-73.399993896484375
 21
84.5
 31
0.0
  0
LINE
  5
320
100
AcDbEntity
  8
0
  6
CONTINUOUS
 62
               7
100
AcDbLine
 10
73.350006103515625
 20
84.5
 30
0.0
 11
138.35000610351562
 21
84.5
 31
0.0
  0
LINE
  5
321
100
AcDbEntity
  8
0
  6
CONTINUOUS
 62
               7
100
AcDbLine
 10
73.350006103515625
 20
-84.800003051757813
 30
0.0
 11
73.350006103515625
 21
-94.800003051757812
 31
0.0
  0
LINE
  5
322
100
AcDbEntity
  8
0
  6
CONTINUOUS
 62
               7
100
AcDbLine
 10
73.350006103515625
 20
94.5
 30
0.0
 11
73.350006103515625
 21
84.5
 31
0.0
  0
LINE
  5
323
100
AcDbEntity
  8
0
  6
CONTINUOUS
 62
               7
100
AcDbLine
 10
-73.399993896484375
 20
94.5
 30
0.0
 11
-73.399993896484375
 21
84.5
 31
0.0
  0
MTEXT
  5
324
100
AcDbEntity
  8
0
  6
CONTINUOUS
 62
               7
100
AcDbMText
 10
77.440529363489745
 20
-89.800003051757812
 30
0.0
 40
4.5
 41
0.0
 71
               4
 72
               1
  1
\W1.121;\A1;KOGANEI CORP.
  7
MX_NOTE_STANDARD
  0
MTEXT
  5
325
100
AcDbEntity
  8
0
  6
CONTINUOUS
 62
               7
100
AcDbMText
 10
93.749460369842424
 20
89.5
 30
0.0
 40
3.1999998092651367
 41
0.0
 71
               4
 72
               1
  1
\W1.311;\A1;Ver. 1.0
  7
MX_NOTE_STANDARD
  0
MTEXT
  5
326
100
AcDbEntity
  8
0
  6
CONTINUOUS
 62
               7
100
AcDbMText
 10
-130.90186156846724
 20
91.099999904632568
 30
0.0
 40
3.1999998092651367
 41
0.0
 71
               1
 72
               1
  1
\W1.121;\A1;MINIBIT CYLINDER
  7
MX_NOTE_STANDARD
  0
MTEXT
  5
327
100
AcDbEntity
  8
0
  6
CONTINUOUS
 62
               7
100
AcDbMText
 10
-129.40413176962707
 20
74.5
 30
0.0
 40
3.1999998092651367
 41
0.0
 71
               4
 72
               1
  1
\W1.117;\A1;MODEL:MBDAS4.5*ST(10)-ZE135
  7
MX_NOTE_STANDARD
  0
ENDSEC
  0
SECTION
  2
OBJECTS
  0
DICTIONARY
  5
19
100
AcDbDictionary
  3
ACAD_GROUP
350
1A
  3
ACAD_MLINESTYLE
350
1B
  0
DICTIONARY
  5
1A
102
{ACAD_REACTORS
330
19
102
}
100
AcDbDictionary
  0
DICTIONARY
  5
1B
102
{ACAD_REACTORS
330
19
102
}
100
AcDbDictionary
  3
STANDARD
350
1C
  0
MLINESTYLE
  5
1C
102
{ACAD_REACTORS
330
1B
102
}
100
AcDbMlineStyle
  2
Standard
 70
               0
  3

 62
               0
 51
90.0
 52
90.0
 71
               2
 49
0.5
 62
             256
  6
ByLayer
 49
-0.5
 62
             256
  6
ByLayer
  0
ENDSEC
  0
EOF
