  0
SECTION
  2
HEADER
  9
$ACADVER
  1
AC1012
  9
$DWGCODEPAGE
  3
dos932
  9
$INSBASE
 10
0.0
 20
0.0
 30
0.0
  9
$EXTMIN
 10
-138.39999389648437
 20
-94.800003051757812
 30
0.0
  9
$EXTMAX
 10
138.35000610351562
 20
94.5
 30
0.0
  9
$LIMMIN
 10
-138.39999389648437
 20
-94.800003051757812
  9
$LIMMAX
 10
138.35000610351562
 20
94.5
  9
$ORTHOMODE
 70
               0
  9
$REGENMODE
 70
               1
  9
$FILLMODE
 70
               1
  9
$QTEXTMODE
 70
               0
  9
$MIRRTEXT
 70
               1
  9
$DRAGMODE
 70
               2
  9
$LTSCALE
 40
1.0
  9
$OSMODE
 70
               0
  9
$ATTMODE
 70
               1
  9
$TEXTSIZE
 40
3.2000000476837158
  9
$TRACEWID
 40
0.05
  9
$TEXTSTYLE
  7
MX_NOTE_STANDARD
  9
$CLAYER
  8
0
  9
$CELTYPE
  6
CONTINUOUS
  9
$CECOLOR
 62
             256
  9
$CELTSCALE
 40
1.0
  9
$DELOBJ
 70
               1
  9
$DISPSILH
 70
               0
  9
$DIMSCALE
 40
1.0
  9
$DIMASZ
 40
2.5
  9
$DIMEXO
 40
1.5
  9
$DIMDLI
 40
3.75
  9
$DIMRND
 40
0.0
  9
$DIMDLE
 40
0.0
  9
$DIMEXE
 40
1.5
  9
$DIMTP
 40
0.0
  9
$DIMTM
 40
0.0
  9
$DIMTXT
 40
3.2000000476837158
  9
$DIMCEN
 40
2.5
  9
$DIMTSZ
 40
0.0
  9
$DIMTOL
 70
               0
  9
$DIMLIM
 70
               0
  9
$DIMTIH
 70
               0
  9
$DIMTOH
 70
               0
  9
$DIMSE1
 70
               0
  9
$DIMSE2
 70
               0
  9
$DIMTAD
 70
               1
  9
$DIMZIN
 70
               8
  9
$DIMBLK
  1

  9
$DIMASO
 70
               1
  9
$DIMSHO
 70
               1
  9
$DIMPOST
  1

  9
$DIMAPOST
  1

  9
$DIMALT
 70
               0
  9
$DIMALTD
 70
               4
  9
$DIMALTF
 40
0.0394
  9
$DIMLFAC
 40
1.0
  9
$DIMTOFL
 70
               1
  9
$DIMTVP
 40
0.0
  9
$DIMTIX
 70
               0
  9
$DIMSOXD
 70
               0
  9
$DIMSAH
 70
               0
  9
$DIMBLK1
  1

  9
$DIMBLK2
  1

  9
$DIMSTYLE
  2
MXDIMSTYLE
  9
$DIMCLRD
 70
               0
  9
$DIMCLRE
 70
               0
  9
$DIMCLRT
 70
               0
  9
$DIMTFAC
 40
1.0
  9
$DIMGAP
 40
1.0
  9
$DIMJUST
 70
               0
  9
$DIMSD1
 70
               0
  9
$DIMSD2
 70
               0
  9
$DIMTOLJ
 70
               1
  9
$DIMTZIN
 70
               0
  9
$DIMALTZ
 70
               0
  9
$DIMALTTZ
 70
               0
  9
$DIMFIT
 70
               3
  9
$DIMUPT
 70
               1
  9
$DIMUNIT
 70
               2
  9
$DIMDEC
 70
               4
  9
$DIMTDEC
 70
               4
  9
$DIMALTU
 70
               8
  9
$DIMALTTD
 70
               4
  9
$DIMTXSTY
  7
MX_NOTE_STANDARD
  9
$DIMAUNIT
 70
               0
  9
$LUNITS
 70
               2
  9
$LUPREC
 70
               4
  9
$SKETCHINC
 40
0.1
  9
$FILLETRAD
 40
0.0
  9
$AUNITS
 70
               0
  9
$AUPREC
 70
               0
  9
$MENU
  1
acad
  9
$ELEVATION
 40
0.0
  9
$PELEVATION
 40
0.0
  9
$THICKNESS
 40
0.0
  9
$LIMCHECK
 70
               0
  9
$BLIPMODE
 70
               1
  9
$CHAMFERA
 40
0.0
  9
$CHAMFERB
 40
0.0
  9
$CHAMFERC
 40
0.0
  9
$CHAMFERD
 40
0.0
  9
$SKPOLY
 70
               0
  9
$TDCREATE
 40
2452209.493252315
  9
$TDUPDATE
 40
2452209.493252315
  9
$TDINDWG
 40
0.0000000000
  9
$TDUSRTIMER
 40
0.0000000000
  9
$USRTIMER
 70
               1
  9
$ANGBASE
 50
0.0
  9
$ANGDIR
 70
               0
  9
$PDMODE
 70
               0
  9
$PDSIZE
 40
0.0
  9
$PLINEWID
 40
0.0
  9
$COORDS
 70
               1
  9
$SPLFRAME
 70
               0
  9
$SPLINETYPE
 70
               6
  9
$SPLINESEGS
 70
               8
  9
$ATTDIA
 70
               0
  9
$ATTREQ
 70
               1
  9
$HANDLING
 70
               1
  9
$HANDSEED
  5
338
  9
$SURFTAB1
 70
               6
  9
$SURFTAB2
 70
               6
  9
$SURFTYPE
 70
               6
  9
$SURFU
 70
               6
  9
$SURFV
 70
               6
  9
$UCSNAME
  2

  9
$UCSORG
 10
0.0
 20
0.0
 30
0.0
  9
$UCSXDIR
 10
1.0
 20
0.0
 30
0.0
  9
$UCSYDIR
 10
0.0
 20
1.0
 30
0.0
  9
$PUCSNAME
  2

  9
$PUCSORG
 10
0.0
 20
0.0
 30
0.0
  9
$PUCSXDIR
 10
1.0
 20
0.0
 30
0.0
  9
$PUCSYDIR
 10
0.0
 20
1.0
 30
0.0
  9
$USERI1
 70
               0
  9
$USERI2
 70
               0
  9
$USERI3
 70
               0
  9
$USERI4
 70
               0
  9
$USERI5
 70
               0
  9
$USERR1
 40
0.0
  9
$USERR2
 40
0.0
  9
$USERR3
 40
0.0
  9
$USERR4
 40
0.0
  9
$USERR5
 40
0.0
  9
$WORLDVIEW
 70
               1
  9
$SHADEDGE
 70
               3
  9
$SHADEDIF
 70
              70
  9
$TILEMODE
 70
               1
  9
$MAXACTVP
 70
              16
  9
$PINSBASE
 10
0.0
 20
0.0
 30
0.0
  9
$PLIMCHECK
 70
               0
  9
$PEXTMIN
 10
1.0000000000000000E+20
 20
1.0000000000000000E+20
 30
1.0000000000000000E+20
  9
$PEXTMAX
 10
-1.0000000000000000E+20
 20
-1.0000000000000000E+20
 30
-1.0000000000000000E+20
  9
$PLIMMIN
 10
0.0
 20
0.0
  9
$PLIMMAX
 10
12.0
 20
9.0
  9
$UNITMODE
 70
               0
  9
$VISRETAIN
 70
               0
  9
$PLINEGEN
 70
               1
  9
$PSLTSCALE
 70
               0
  9
$TREEDEPTH
 70
            3020
  9
$PICKSTYLE
 70
               1
  9
$CMLSTYLE
  2
Standard
  9
$CMLJUST
 70
               0
  9
$CMLSCALE
 40
1.0
  9
$SAVEIMAGES
 70
               0
  0
ENDSEC
  0
SECTION
  2
CLASSES
  0
CLASS
  1
LWPOLYLINE
  2
AcDbPolyline
  3
"AutoCAD"
 90
        0
280
               0
281
               1
  0
CLASS
  1
IMAGE
  2
AcDbRasterImage
  3
ISM
 90
      127
280
               0
281
               1
  0
CLASS
  1
OLE2FRAME
  2
AcDbOle2Frame
  3
""
 90
        0
280
               0
281
               1
  0
CLASS
  1
HATCH
  2
AcDbHatch
  3
"ACAD_SEDONA"
 90
        0
280
               0
281
               1
  0
CLASS
  1
DICTIONARYVAR
  2
AcDbDictionaryVar
  3
"AutoCAD"
 90
        0
280
               0
281
               0
  0
CLASS
  1
RASTERVARIABLES
  2
AcDbRasterVariables
  3
ISM
 90
        0
280
               0
281
               0
  0
CLASS
  1
IMAGEDEF
  2
AcDbRasterImageDef
  3
ISM
 90
        0
280
               0
281
               0
  0
CLASS
  1
IMAGEDEF_REACTOR
  2
AcDbRasterImageDefReactor
  3
ISM
 90
        1
280
               0
281
               0
  0
CLASS
  1
IDBUFFER
  2
AcDbIdBuffer
  3
"Acad"
 90
        0
280
               0
281
               0
  0
CLASS
  1
SPATIAL_FILTER
  2
AcDbSpatialFilter
  3
"Acad"
 90
        0
280
               0
281
               0
  0
CLASS
  1
XRECORD
  2
AcDbXrecord
  3
"<Built In>"
 90
        0
280
               0
281
               0
  0
CLASS
  1
SORTENTSTABLE
  2
AcDbSortentsTable
  3
"AutoCAD"
 90
        0
280
               0
281
               0
  0
CLASS
  1
LAYER_INDEX
  2
AcDbLayerIndex
  3
"Acad"
 90
        0
280
               0
281
               0
  0
CLASS
  1
SPATIAL_INDEX
  2
AcDbSpatialIndex
  3
"Acad"
 90
        0
280
               0
281
               0
  0
CLASS
  1
OBJECT_PTR
  2
CAseDLPNTableRecord
  3
"ASE-LPNTableRecord"
 90
        1
280
               0
281
               0
  0
CLASS
  1
LAYOUT
  2
AcDbLayout
  3
"AutoCAD 2000"
 90
        1
280
               0
281
               0
  0
CLASS
  1
PLOTSETTINGS
  2
AcDbPlotSettings
  3
"AutoCAD 2000"
 90
        1
280
               0
281
               0
  0
CLASS
  1
ACDBDICTIONARYWDFLT
  2
AcDbDictionaryWithDefault
  3
"AutoCAD 2000"
 90
        1
280
               0
281
               0
  0
CLASS
  1
ACDBPLACEHOLDER
  2
AcDbPlaceHolder
  3
"AutoCAD 2000"
 90
        1
280
               0
281
               0
  0
CLASS
  1
VBA_PROJECT
  2
AcDbVbaProject
  3
"acadvba"
 90
        1
280
               0
281
               0
  0
CLASS
  1
WIPEOUT
  2
AcDbWipeout
  3
WipeOut|AutoCAD Express Tool|expresstools@autodesk.com
 90
      127
280
               0
281
               1
  0
CLASS
  1
WIPEOUTVARIABLES
  2
AcDbWipeoutVariables
  3
WipeOut|AutoCAD Express Tool|expresstools@autodesk.com
 90
        0
280
               0
281
               0
  0
CLASS
  1
RTEXT
  2
RText
  3
RText|AutoCAD Express Tool|expresstools@autodesk.com
 90
        0
280
               0
281
               1
  0
CLASS
  1
ARCALIGNEDTEXT
  2
AcDbArcAlignedText
  3
ATEXT|AutoCAD Express Tool|expresstools@autodesk.com
 90
        0
280
               0
281
               1
  0
ENDSEC
  0
SECTION
  2
TABLES
  0
TABLE
  2
VPORT
  5
7
100
AcDbSymbolTable
 70
               1
  0
VPORT
  5
15
100
AcDbSymbolTableRecord
100
AcDbViewportTableRecord
  2
*ACTIVE
 70
               0
 10
0.0
 20
0.0
 11
1.0
 21
1.0
 12
-0.024993896484375
 22
-0.1500015258789063
 13
0.0
 23
0.0
 14
1.0
 24
1.0
 15
0.0
 25
0.0
 16
0.0
 26
0.0
 36
1.0
 17
0.0
 27
0.0
 37
0.0
 40
191.1930030822754
 41
1.7320508075688772
 42
50.0
 43
0.0
 44
0.0
 50
0.0
 51
0.0
 71
               0
 72
             100
 73
               1
 74
               1
 75
               0
 76
               0
 77
               0
 78
               0
  0
ENDTAB
  0
TABLE
  2
LTYPE
  5
4
100
AcDbSymbolTable
 70
               6
  0
LTYPE
  5
11
100
AcDbSymbolTableRecord
100
AcDbLinetypeTableRecord
  2
BYBLOCK
 70
              64
  3

 72
              65
 73
               0
 40
0.0
  0
LTYPE
  5
12
100
AcDbSymbolTableRecord
100
AcDbLinetypeTableRecord
  2
BYLAYER
 70
              64
  3

 72
              65
 73
               0
 40
0.0
  0
LTYPE
  5
13
100
AcDbSymbolTableRecord
100
AcDbLinetypeTableRecord
  2
CONTINUOUS
 70
              64
  3
Solid line
 72
              65
 73
               0
 40
0.0
  0
LTYPE
  5
27
100
AcDbSymbolTableRecord
100
AcDbLinetypeTableRecord
  2
PHANTOM
 70
              64
  3
Phantom ______  __  __  ______  __  __  ______
 72
              65
 73
               6
 40
63.500000000000007
 49
31.75
 74
               0
 49
-6.3499999999999996
 74
               0
 49
6.3499999999999996
 74
               0
 49
-6.3499999999999996
 74
               0
 49
6.3499999999999996
 74
               0
 49
-6.3499999999999996
 74
               0
  0
LTYPE
  5
5C
100
AcDbSymbolTableRecord
100
AcDbLinetypeTableRecord
  2
CENTER
 70
              64
  3
Center ____ _ ____ _ ____ _ ____ _ ____ _ ____
 72
              65
 73
               4
 40
50.800000000000004
 49
31.75
 74
               0
 49
-6.3499999999999996
 74
               0
 49
6.3499999999999996
 74
               0
 49
-6.3499999999999996
 74
               0
  0
LTYPE
  5
F3
100
AcDbSymbolTableRecord
100
AcDbLinetypeTableRecord
  2
DASHED
 70
              64
  3
Dashed __ __ __ __ __ __ __ __ __ __ __ __ __ _
 72
              65
 73
               2
 40
19.049999999999997
 49
12.699999999999999
 74
               0
 49
-6.3499999999999996
 74
               0
  0
ENDTAB
  0
TABLE
  2
LAYER
  5
2
100
AcDbSymbolTable
 70
               2
  0
LAYER
  5
14
100
AcDbSymbolTableRecord
100
AcDbLayerTableRecord
  2
0
 70
               0
 62
               7
  6
CONTINUOUS
  0
LAYER
  5
1D
100
AcDbSymbolTableRecord
100
AcDbLayerTableRecord
  2
DEFPOINTS
 70
               0
 62
               7
  6
CONTINUOUS
  0
ENDTAB
  0
TABLE
  2
STYLE
  5
3
100
AcDbSymbolTable
 70
               1
  0
STYLE
  5
17
100
AcDbSymbolTableRecord
100
AcDbTextStyleTableRecord
  2
MX_NOTE_STANDARD
 70
               0
 40
3.2000000476837158
 41
1.0
 50
0.0
 71
               0
 42
3.2000000476837158
  3
txt.shx
  4
extfont.shx
  0
ENDTAB
  0
TABLE
  2
VIEW
  5
5
100
AcDbSymbolTable
 70
               0
  0
ENDTAB
  0
TABLE
  2
UCS
  5
6
100
AcDbSymbolTable
 70
               0
  0
ENDTAB
  0
TABLE
  2
APPID
  5
8
100
AcDbSymbolTable
 70
               1
  0
APPID
  5
16
100
AcDbSymbolTableRecord
100
AcDbRegAppTableRecord
  2
ACAD
 70
               0
  0
ENDTAB
  0
TABLE
  2
DIMSTYLE
  5
9
100
AcDbSymbolTable
 70
               1
  0
DIMSTYLE
105
18
100
AcDbSymbolTableRecord
100
AcDbDimStyleTableRecord
  2
MXDIMSTYLE
 70
               0
  3

  4

  5

  6

  7

 40
1.0
 41
2.5
 42
1.5
 43
3.75
 44
1.5
 45
0.0
 46
0.0
 47
0.0
 48
0.0
 71
               0
 72
               0
 73
               0
 74
               0
 75
               0
 76
               0
 77
               1
 78
               8
140
3.2000000476837158
141
2.5
142
0.0
143
0.0394
144
1.0
145
0.0
146
1.0
147
1.0
170
               0
171
               4
172
               1
173
               0
174
               0
175
               0
176
               0
177
               0
178
               0
270
               2
271
               4
272
               4
273
               8
274
               4
275
               0
280
               0
281
               0
282
               0
283
               1
284
               0
285
               0
286
               0
287
               3
288
               1
340
17
  0
ENDTAB
  0
TABLE
  2
BLOCK_RECORD
  5
1
100
AcDbSymbolTable
 70
               9
  0
BLOCK_RECORD
  5
A
100
AcDbSymbolTableRecord
100
AcDbBlockTableRecord
  2
*MODEL_SPACE
  0
BLOCK_RECORD
  5
B
100
AcDbSymbolTableRecord
100
AcDbBlockTableRecord
  2
*PAPER_SPACE
  0
BLOCK_RECORD
  5
1E
100
AcDbSymbolTableRecord
100
AcDbBlockTableRecord
  2
MS_1
  0
BLOCK_RECORD
  5
1F
100
AcDbSymbolTableRecord
100
AcDbBlockTableRecord
  2
MS_2
  0
BLOCK_RECORD
  5
20
100
AcDbSymbolTableRecord
100
AcDbBlockTableRecord
  2
MS_3
  0
BLOCK_RECORD
  5
21
100
AcDbSymbolTableRecord
100
AcDbBlockTableRecord
  2
MS_4
  0
BLOCK_RECORD
  5
22
100
AcDbSymbolTableRecord
100
AcDbBlockTableRecord
  2
MS_5
  0
BLOCK_RECORD
  5
23
100
AcDbSymbolTableRecord
100
AcDbBlockTableRecord
  2
MS_6
  0
BLOCK_RECORD
  5
24
100
AcDbSymbolTableRecord
100
AcDbBlockTableRecord
  2
MS_7
  0
BLOCK_RECORD
  5
25
100
AcDbSymbolTableRecord
100
AcDbBlockTableRecord
  2
MS_8
  0
BLOCK_RECORD
  5
2F5
100
AcDbSymbolTableRecord
100
AcDbBlockTableRecord
  2
_OPEN30
  0
ENDTAB
  0
ENDSEC
  0
SECTION
  2
BLOCKS
  0
BLOCK
  5
D
100
AcDbEntity
  8
0
100
AcDbBlockBegin
  2
*MODEL_SPACE
 70
               0
 10
0.0
 20
0.0
 30
0.0
  3
*MODEL_SPACE
  1

  0
ENDBLK
  5
E
100
AcDbEntity
  8
0
100
AcDbBlockEnd
  0
BLOCK
  5
F
100
AcDbEntity
 67
               1
  8
0
100
AcDbBlockBegin
  2
*PAPER_SPACE
 70
               0
 10
0.0
 20
0.0
 30
0.0
  3
*PAPER_SPACE
  1

  0
ENDBLK
  5
10
100
AcDbEntity
 67
               1
  8
0
100
AcDbBlockEnd
  0
BLOCK
  5
26
100
AcDbEntity
  8
0
100
AcDbBlockBegin
  2
MS_1
 70
               0
 10
0.0
 20
0.0
 30
0.0
  3
MS_1
  1

  0
LINE
  5
28
100
AcDbEntity
  8
0
  6
PHANTOM
 62
               3
100
AcDbLine
 10
23.376913946366713
 20
2.0940777761922682
 30
0.0
 11
14.048499372902967
 21
2.0940777761922682
 31
0.0
  0
LINE
  5
29
100
AcDbEntity
  8
0
  6
PHANTOM
 62
               3
100
AcDbLine
 10
23.376913946366713
 20
30.670000000000005
 30
0.0
 11
23.376913946366713
 21
2.0940777761922682
 31
0.0
  0
LINE
  5
2A
100
AcDbEntity
  8
0
  6
PHANTOM
 62
               3
100
AcDbLine
 10
14.048499372902967
 20
2.0940777761922682
 30
0.0
 11
14.048499372902967
 21
-30.669999999999998
 31
0.0
  0
LINE
  5
2B
100
AcDbEntity
  8
0
  6
CONTINUOUS
 62
               7
100
AcDbLine
 10
0.0
 20
1.5
 30
0.0
 11
-2.5
 21
1.5
 31
0.0
  0
LINE
  5
2C
100
AcDbEntity
  8
0
  6
CONTINUOUS
 62
               7
100
AcDbLine
 10
0.0
 20
-1.5
 30
0.0
 11
-2.5
 21
-1.5
 31
0.0
  0
LINE
  5
2D
100
AcDbEntity
  8
0
  6
CONTINUOUS
 62
               2
100
AcDbLine
 10
-1.0
 20
-1.2000000000000028
 30
0.0
 11
-0.4803847577293539
 21
-1.5
 31
0.0
  0
LINE
  5
2E
100
AcDbEntity
  8
0
  6
CONTINUOUS
 62
               2
100
AcDbLine
 10
-1.0
 20
1.2000000000000028
 30
0.0
 11
-0.4803847577293539
 21
1.5
 31
0.0
  0
SPLINE
  5
2F
100
AcDbEntity
  8
0
  6
CONTINUOUS
 62
               7
100
AcDbSpline
210
0.0
220
0.0
230
1.0
 70
               0
 71
               3
 72
               0
 73
               0
 74
               5
 44
0.000001
 12
-0.5262037598477771
 22
0.8503585144643775
 32
0.0
 13
0.5262037751704171
 23
0.8503585049826933
 33
0.0
 11
-5.8543798819169126
 21
-3.1754265238809296
 31
0.0
 11
-6.0318484367291623
 21
-2.794852077955797
 31
0.0
 11
-6.0999999999999943
 21
-2.3815698774887011
 31
0.0
 11
-6.0318484162285726
 21
-1.9682877574118116
 31
0.0
 11
-5.8543798798272633
 21
-1.5877133879722152
 31
0.0
  0
SPLINE
  5
30
100
AcDbEntity
  8
0
  6
CONTINUOUS
 62
               7
100
AcDbSpline
210
0.0
220
0.0
230
1.0
 70
               0
 71
               3
 72
               0
 73
               0
 74
               5
 44
0.000001
 12
0.526203759847777
 22
0.8503585144643776
 32
0.0
 13
-0.5262037751704169
 23
0.8503585049826934
 33
0.0
 11
-2.7456201180830533
 21
-3.1754265238809296
 31
0.0
 11
-2.5681515632708178
 21
-2.794852077955797
 31
0.0
 11
-2.5
 21
-2.3815698774887011
 31
0.0
 11
-2.568151583771408
 21
-1.9682877574118116
 31
0.0
 11
-2.7456201201727026
 21
-1.5877133879722152
 31
0.0
  0
SPLINE
  5
31
100
AcDbEntity
  8
0
  6
CONTINUOUS
 62
               7
100
AcDbSpline
210
0.0
220
0.0
230
1.0
 70
               0
 71
               3
 72
               0
 73
               0
 74
               5
 44
0.000001
 12
-0.5262037598477771
 22
0.8503585144643775
 32
0.0
 13
0.5262037751704171
 23
0.8503585049826933
 33
0.0
 11
-4.0543798819169297
 21
-3.1754265238809296
 31
0.0
 11
-4.2318484367291651
 21
-2.794852077955797
 31
0.0
 11
-4.2999999999999829
 21
-2.3815698774887011
 31
0.0
 11
-4.2318484162285754
 21
-1.9682877574118116
 31
0.0
 11
-4.0543798798272803
 21
-1.5877133879722152
 31
0.0
  0
SPLINE
  5
32
100
AcDbEntity
  8
0
  6
CONTINUOUS
 62
               7
100
AcDbSpline
210
0.0
220
0.0
230
1.0
 70
               0
 71
               3
 72
               0
 73
               0
 74
               5
 44
0.000001
 12
0.526203759847777
 22
0.8503585144643776
 32
0.0
 13
-0.5262037751704169
 23
0.8503585049826934
 33
0.0
 11
-4.5456201180830647
 21
-3.1754265238809296
 31
0.0
 11
-4.368151563270815
 21
-2.794852077955797
 31
0.0
 11
-4.2999999999999829
 21
-2.3815698774887011
 31
0.0
 11
-4.3681515837714047
 21
-1.9682877574118116
 31
0.0
 11
-4.545620120172714
 21
-1.5877133879722152
 31
0.0
  0
SPLINE
  5
33
100
AcDbEntity
  8
0
  6
CONTINUOUS
 62
               7
100
AcDbSpline
210
0.0
220
0.0
230
1.0
 70
               0
 71
               3
 72
               0
 73
               0
 74
               5
 44
0.000001
 12
-0.2955767328958228
 22
-0.9553190016798742
 32
0.0
 13
0.2955767328958227
 23
-0.9553190016798742
 33
0.0
 11
-5.8543798798272633
 21
1.5877133879722152
 31
0.0
 11
-6.0365491313846542
 21
0.803775075127956
 31
0.0
 11
-6.0999999999999943
 21
0.0
 31
0.0
 11
-6.0365491313846542
 21
-0.8037750751279561
 31
0.0
 11
-5.8543798798272633
 21
-1.5877133879722152
 31
0.0
  0
SPLINE
  5
34
100
AcDbEntity
  8
0
  6
CONTINUOUS
 62
               7
100
AcDbSpline
210
0.0
220
0.0
230
1.0
 70
               0
 71
               3
 72
               0
 73
               0
 74
               5
 44
0.000001
 12
0.2955767328958229
 22
-0.9553190016798742
 32
0.0
 13
-0.2955767328958228
 23
-0.9553190016798742
 33
0.0
 11
-2.7456201201727026
 21
1.5877133879722152
 31
0.0
 11
-2.5634508686153259
 21
0.803775075127956
 31
0.0
 11
-2.5
 21
0.0
 31
0.0
 11
-2.5634508686153259
 21
-0.8037750751279561
 31
0.0
 11
-2.7456201201727026
 21
-1.5877133879722152
 31
0.0
  0
SPLINE
  5
35
100
AcDbEntity
  8
0
  6
CONTINUOUS
 62
               7
100
AcDbSpline
210
0.0
220
0.0
230
1.0
 70
               0
 71
               3
 72
               0
 73
               0
 74
               5
 44
0.000001
 12
0.2955767328958229
 22
-0.9553190016798742
 32
0.0
 13
-0.2955767328958228
 23
-0.9553190016798742
 33
0.0
 11
-4.545620120172714
 21
1.5877133879722152
 31
0.0
 11
-4.3634508686153231
 21
0.803775075127956
 31
0.0
 11
-4.2999999999999829
 21
0.0
 31
0.0
 11
-4.3634508686153231
 21
-0.8037750751279561
 31
0.0
 11
-4.545620120172714
 21
-1.5877133879722152
 31
0.0
  0
SPLINE
  5
36
100
AcDbEntity
  8
0
  6
CONTINUOUS
 62
               7
100
AcDbSpline
210
0.0
220
0.0
230
1.0
 70
               0
 71
               3
 72
               0
 73
               0
 74
               5
 44
0.000001
 12
-0.2955767328958228
 22
-0.9553190016798742
 32
0.0
 13
0.2955767328958229
 23
-0.9553190016798742
 33
0.0
 11
-4.0543798798272803
 21
1.5877133879722152
 31
0.0
 11
-4.2365491313846571
 21
0.803775075127956
 31
0.0
 11
-4.2999999999999829
 21
0.0
 31
0.0
 11
-4.2365491313846571
 21
-0.8037750751279561
 31
0.0
 11
-4.0543798798272803
 21
-1.5877133879722152
 31
0.0
  0
SPLINE
  5
37
100
AcDbEntity
  8
0
  6
CONTINUOUS
 62
               7
100
AcDbSpline
210
0.0
220
0.0
230
1.0
 70
               0
 71
               3
 72
               0
 73
               0
 74
               5
 44
0.000001
 12
0.526203759847777
 22
-0.8503585144643776
 32
0.0
 13
-0.5262037751704169
 23
-0.8503585049826934
 33
0.0
 11
-4.5456201180830647
 21
3.1754265238809296
 31
0.0
 11
-4.368151563270815
 21
2.794852077955797
 31
0.0
 11
-4.2999999999999829
 21
2.3815698774887011
 31
0.0
 11
-4.3681515837714047
 21
1.9682877574118116
 31
0.0
 11
-4.545620120172714
 21
1.5877133879722152
 31
0.0
  0
SPLINE
  5
38
100
AcDbEntity
  8
0
  6
CONTINUOUS
 62
               7
100
AcDbSpline
210
0.0
220
0.0
230
1.0
 70
               0
 71
               3
 72
               0
 73
               0
 74
               5
 44
0.000001
 12
-0.5262037598477771
 22
-0.8503585144643775
 32
0.0
 13
0.5262037751704171
 23
-0.8503585049826933
 33
0.0
 11
-5.8543798819169126
 21
3.1754265238809296
 31
0.0
 11
-6.0318484367291623
 21
2.794852077955797
 31
0.0
 11
-6.0999999999999943
 21
2.3815698774887011
 31
0.0
 11
-6.0318484162285726
 21
1.9682877574118116
 31
0.0
 11
-5.8543798798272633
 21
1.5877133879722152
 31
0.0
  0
SPLINE
  5
39
100
AcDbEntity
  8
0
  6
CONTINUOUS
 62
               7
100
AcDbSpline
210
0.0
220
0.0
230
1.0
 70
               0
 71
               3
 72
               0
 73
               0
 74
               5
 44
0.000001
 12
0.526203759847777
 22
-0.8503585144643776
 32
0.0
 13
-0.5262037751704169
 23
-0.8503585049826934
 33
0.0
 11
-2.7456201180830533
 21
3.1754265238809296
 31
0.0
 11
-2.5681515632708178
 21
2.794852077955797
 31
0.0
 11
-2.5
 21
2.3815698774887011
 31
0.0
 11
-2.568151583771408
 21
1.9682877574118116
 31
0.0
 11
-2.7456201201727026
 21
1.5877133879722152
 31
0.0
  0
SPLINE
  5
3A
100
AcDbEntity
  8
0
  6
CONTINUOUS
 62
               7
100
AcDbSpline
210
0.0
220
0.0
230
1.0
 70
               0
 71
               3
 72
               0
 73
               0
 74
               5
 44
0.000001
 12
-0.5262037598477771
 22
-0.8503585144643775
 32
0.0
 13
0.5262037751704171
 23
-0.8503585049826933
 33
0.0
 11
-4.0543798819169297
 21
3.1754265238809296
 31
0.0
 11
-4.2318484367291651
 21
2.794852077955797
 31
0.0
 11
-4.2999999999999829
 21
2.3815698774887011
 31
0.0
 11
-4.2318484162285754
 21
1.9682877574118116
 31
0.0
 11
-4.0543798798272803
 21
1.5877133879722152
 31
0.0
  0
LINE
  5
3B
100
AcDbEntity
  8
0
  6
CONTINUOUS
 62
               7
100
AcDbLine
 10
-2.5
 20
-2.75
 30
0.0
 11
-2.7456201180830533
 21
-3.1754265238809296
 31
0.0
  0
LINE
  5
3C
100
AcDbEntity
  8
0
  6
CONTINUOUS
 62
               7
100
AcDbLine
 10
-6.0999999999999943
 20
-2.75
 30
0.0
 11
-5.8543798819169126
 21
-3.1754265238809296
 31
0.0
  0
LINE
  5
3D
100
AcDbEntity
  8
0
  6
CONTINUOUS
 62
               7
100
AcDbLine
 10
-4.2999999999999829
 20
-2.75
 30
0.0
 11
-4.0543798819169297
 21
-3.1754265238809296
 31
0.0
  0
LINE
  5
3E
100
AcDbEntity
  8
0
  6
CONTINUOUS
 62
               7
100
AcDbLine
 10
-4.2999999999999829
 20
-2.75
 30
0.0
 11
-4.5456201180830647
 21
-3.1754265238809296
 31
0.0
  0
LINE
  5
3F
100
AcDbEntity
  8
0
  6
CONTINUOUS
 62
               7
100
AcDbLine
 10
-4.545620120172714
 20
-3.1754265238809296
 30
0.0
 11
-5.8543798691084135
 21
-3.1754265238809296
 31
0.0
  0
LINE
  5
40
100
AcDbEntity
  8
0
  6
CONTINUOUS
 62
               7
100
AcDbLine
 10
-4.545620120172714
 20
-1.5877133879722152
 30
0.0
 11
-5.8543798798272633
 21
-1.5877133879722152
 31
0.0
  0
LINE
  5
41
100
AcDbEntity
  8
0
  6
CONTINUOUS
 62
               7
100
AcDbLine
 10
-4.0543798798272803
 20
-1.5877133879722152
 30
0.0
 11
-2.7456201201727026
 21
-1.5877133879722152
 31
0.0
  0
LINE
  5
42
100
AcDbEntity
  8
0
  6
CONTINUOUS
 62
               7
100
AcDbLine
 10
-4.0543798798272803
 20
-3.1754265238809296
 30
0.0
 11
-2.7456201308915809
 21
-3.1754265238809296
 31
0.0
  0
LINE
  5
43
100
AcDbEntity
  8
0
  6
CONTINUOUS
 62
               7
100
AcDbLine
 10
-4.545620120172714
 20
1.5877133879722152
 30
0.0
 11
-5.8543798798272633
 21
1.5877133879722152
 31
0.0
  0
LINE
  5
44
100
AcDbEntity
  8
0
  6
CONTINUOUS
 62
               7
100
AcDbLine
 10
-4.0543798798272803
 20
1.5877133879722152
 30
0.0
 11
-2.7456201201727026
 21
1.5877133879722152
 31
0.0
  0
LINE
  5
45
100
AcDbEntity
  8
0
  6
CONTINUOUS
 62
               7
100
AcDbLine
 10
-4.0543798798272803
 20
3.1754265238809296
 30
0.0
 11
-2.7456201308915809
 21
3.1754265238809296
 31
0.0
  0
LINE
  5
46
100
AcDbEntity
  8
0
  6
CONTINUOUS
 62
               7
100
AcDbLine
 10
-4.2999999999999829
 20
2.75
 30
0.0
 11
-4.0543798819169297
 21
3.1754265238809296
 31
0.0
  0
LINE
  5
47
100
AcDbEntity
  8
0
  6
CONTINUOUS
 62
               7
100
AcDbLine
 10
-2.5
 20
2.75
 30
0.0
 11
-2.7456201180830533
 21
3.1754265238809296
 31
0.0
  0
LINE
  5
48
100
AcDbEntity
  8
0
  6
CONTINUOUS
 62
               7
100
AcDbLine
 10
-6.0999999999999943
 20
2.75
 30
0.0
 11
-5.8543798819169126
 21
3.1754265238809296
 31
0.0
  0
LINE
  5
49
100
AcDbEntity
  8
0
  6
CONTINUOUS
 62
               7
100
AcDbLine
 10
-4.2999999999999829
 20
2.75
 30
0.0
 11
-4.5456201180830647
 21
3.1754265238809296
 31
0.0
  0
LINE
  5
4A
100
AcDbEntity
  8
0
  6
CONTINUOUS
 62
               7
100
AcDbLine
 10
-4.545620120172714
 20
3.1754265238809296
 30
0.0
 11
-5.8543798691084135
 21
3.1754265238809296
 31
0.0
  0
LINE
  5
4B
100
AcDbEntity
  8
0
  6
CONTINUOUS
 62
               7
100
AcDbLine
 10
-6.0999999999999943
 20
-2.750000018878012
 30
0.0
 11
-6.0999999999999943
 21
2.749999981121988
 31
0.0
  0
LINE
  5
4C
100
AcDbEntity
  8
0
  6
CONTINUOUS
 62
               7
100
AcDbLine
 10
-2.5
 20
-2.750000018878012
 30
0.0
 11
-2.5
 21
2.749999981121988
 31
0.0
  0
LINE
  5
4D
100
AcDbEntity
  8
0
  6
CONTINUOUS
 62
               7
100
AcDbLine
 10
-4.2999999999999829
 20
-2.750000018878012
 30
0.0
 11
-4.2999999999999829
 21
2.749999981121988
 31
0.0
  0
LINE
  5
4E
100
AcDbEntity
  8
0
  6
CONTINUOUS
 62
               2
100
AcDbLine
 10
-2.5
 20
-1.2000000000000028
 30
0.0
 11
-1.0
 21
-1.2000000000000028
 31
0.0
  0
LINE
  5
4F
100
AcDbEntity
  8
0
  6
CONTINUOUS
 62
               2
100
AcDbLine
 10
-2.5
 20
1.2000000000000028
 30
0.0
 11
-1.0
 21
1.2000000000000028
 31
0.0
  0
LINE
  5
50
100
AcDbEntity
  8
0
  6
CONTINUOUS
 62
               2
100
AcDbLine
 10
-8.0
 20
-1.2000000000000028
 30
0.0
 11
-6.0999999999999943
 21
-1.2000000000000028
 31
0.0
  0
LINE
  5
51
100
AcDbEntity
  8
0
  6
CONTINUOUS
 62
               7
100
AcDbLine
 10
-7.7000000000000171
 20
-1.5
 30
0.0
 11
-8.0
 21
-1.2000000000000028
 31
0.0
  0
LINE
  5
52
100
AcDbEntity
  8
0
  6
CONTINUOUS
 62
               7
100
AcDbLine
 10
-7.7000000000000171
 20
-1.5
 30
0.0
 11
-6.0999999999999943
 21
-1.5
 31
0.0
  0
LINE
  5
53
100
AcDbEntity
  8
0
  6
CONTINUOUS
 62
               2
100
AcDbLine
 10
-8.0
 20
1.2000000000000028
 30
0.0
 11
-6.0999999999999943
 21
1.2000000000000028
 31
0.0
  0
LINE
  5
54
100
AcDbEntity
  8
0
  6
CONTINUOUS
 62
               7
100
AcDbLine
 10
-7.7000000000000171
 20
1.5
 30
0.0
 11
-8.0
 21
1.2000000000000028
 31
0.0
  0
LINE
  5
55
100
AcDbEntity
  8
0
  6
CONTINUOUS
 62
               7
100
AcDbLine
 10
-7.7000000000000171
 20
-1.5
 30
0.0
 11
-7.7000000000000171
 21
1.5
 31
0.0
  0
LINE
  5
56
100
AcDbEntity
  8
0
  6
CONTINUOUS
 62
               7
100
AcDbLine
 10
-1.0
 20
-1.5
 30
0.0
 11
-1.0
 21
1.5
 31
0.0
  0
LINE
  5
57
100
AcDbEntity
  8
0
  6
CONTINUOUS
 62
               7
100
AcDbLine
 10
-8.0
 20
-1.2000000000000028
 30
0.0
 11
-8.0
 21
1.2000000000000028
 31
0.0
  0
LINE
  5
58
100
AcDbEntity
  8
0
  6
CONTINUOUS
 62
               7
100
AcDbLine
 10
-7.7000000000000171
 20
1.5
 30
0.0
 11
-6.0999999999999943
 21
1.5
 31
0.0
  0
LINE
  5
59
100
AcDbEntity
  8
0
  6
CONTINUOUS
 62
               7
100
AcDbLine
 10
0.0
 20
-8.5
 30
0.0
 11
30.0
 21
-8.5
 31
0.0
  0
CIRCLE
  5
5A
100
AcDbEntity
  8
0
  6
CONTINUOUS
 62
               7
100
AcDbCircle
 10
26.999999999999972
 20
0.0000000000000142
 30
0.0
 40
1.1999999999999886
  0
CIRCLE
  5
5B
100
AcDbEntity
  8
0
  6
CONTINUOUS
 62
               2
100
AcDbCircle
 10
26.999999999999972
 20
0.0000000000000142
 30
0.0
 40
1.5
  0
LINE
  5
5D
100
AcDbEntity
  8
0
  6
CENTER
 62
               2
100
AcDbLine
 10
26.999999999999972
 20
1.9547775518886965
 30
0.0
 11
26.999999999999972
 21
-1.9760956580291094
 31
0.0
  0
CIRCLE
  5
5E
100
AcDbEntity
  8
0
  6
CONTINUOUS
 62
               7
100
AcDbCircle
 10
10.0
 20
0.0000000000000142
 30
0.0
 40
1.1999999999999886
  0
CIRCLE
  5
5F
100
AcDbEntity
  8
0
  6
CONTINUOUS
 62
               2
100
AcDbCircle
 10
10.0
 20
0.0000000000000142
 30
0.0
 40
1.5
  0
LINE
  5
60
100
AcDbEntity
  8
0
  6
CENTER
 62
               2
100
AcDbLine
 10
10.0
 20
1.9547775518886965
 30
0.0
 11
10.0
 21
-1.9760956580291094
 31
0.0
  0
LINE
  5
61
100
AcDbEntity
  8
0
  6
CONTINUOUS
 62
               7
100
AcDbLine
 10
0.0
 20
-5.0000000373376992
 30
0.0
 11
3.2104469623184144
 21
-5.0000000373376992
 31
0.0
  0
LINE
  5
62
100
AcDbEntity
  8
0
  6
CONTINUOUS
 62
               7
100
AcDbLine
 10
0.0
 20
-5.4060849870406145
 30
0.0
 11
3.0379182082845091
 21
-5.4060849870406145
 31
0.0
  0
LINE
  5
63
100
AcDbEntity
  8
0
  6
CONTINUOUS
 62
               7
100
AcDbLine
 10
0.0
 20
-7.4393398101114769
 30
0.0
 11
3.5402736862588711
 21
-7.4393398101114769
 31
0.0
  0
LINE
  5
64
100
AcDbEntity
  8
0
  6
CONTINUOUS
 62
               7
100
AcDbLine
 10
6.7895530376815856
 20
-5.0000000373376992
 30
0.0
 11
30.0
 21
-5.0000000373376992
 31
0.0
  0
LINE
  5
65
100
AcDbEntity
  8
0
  6
CONTINUOUS
 62
               7
100
AcDbLine
 10
6.9620817917154909
 20
-5.4060849870406145
 30
0.0
 11
30.0
 21
-5.4060849870406145
 31
0.0
  0
LINE
  5
66
100
AcDbEntity
  8
0
  6
CONTINUOUS
 62
               7
100
AcDbLine
 10
6.4597263137411289
 20
-7.4393398101114769
 30
0.0
 11
15.499999999999773
 21
-7.4393398101114769
 31
0.0
  0
LINE
  5
67
100
AcDbEntity
  8
0
  6
CONTINUOUS
 62
               7
100
AcDbLine
 10
6.7895530376815856
 20
5.0000000373376992
 30
0.0
 11
30.0
 21
5.0000000373376992
 31
0.0
  0
LINE
  5
68
100
AcDbEntity
  8
0
  6
CONTINUOUS
 62
               7
100
AcDbLine
 10
6.9620817917154909
 20
5.4060849870406145
 30
0.0
 11
30.0
 21
5.4060849870406145
 31
0.0
  0
LINE
  5
69
100
AcDbEntity
  8
0
  6
CONTINUOUS
 62
               7
100
AcDbLine
 10
21.0
 20
7.4393398101114769
 30
0.0
 11
30.0
 21
7.4393398101114769
 31
0.0
  0
LINE
  5
6A
100
AcDbEntity
  8
0
  6
CONTINUOUS
 62
               7
100
AcDbLine
 10
0.0
 20
5.0000000373376992
 30
0.0
 11
3.2104469623184144
 21
5.0000000373376992
 31
0.0
  0
LINE
  5
6B
100
AcDbEntity
  8
0
  6
CONTINUOUS
 62
               7
100
AcDbLine
 10
0.0
 20
5.4060849870406145
 30
0.0
 11
3.0379182082845091
 21
5.4060849870406145
 31
0.0
  0
LINE
  5
6C
100
AcDbEntity
  8
0
  6
CONTINUOUS
 62
               7
100
AcDbLine
 10
0.0
 20
8.5
 30
0.0
 11
30.0
 21
8.5
 31
0.0
  0
LINE
  5
6D
100
AcDbEntity
  8
0
  6
CONTINUOUS
 62
               7
100
AcDbLine
 10
0.0
 20
7.4393398101114769
 30
0.0
 11
3.5402736862588711
 21
7.4393398101114769
 31
0.0
  0
LINE
  5
6E
100
AcDbEntity
  8
0
  6
CENTER
 62
               2
100
AcDbLine
 10
2.1999999999999886
 20
-6.0
 30
0.0
 11
7.7999999999999972
 21
-6.0
 31
0.0
  0
CIRCLE
  5
6F
100
AcDbEntity
  8
0
  6
CONTINUOUS
 62
               7
100
AcDbCircle
 10
5.0
 20
-6.0
 30
0.0
 40
2.0500000000000007
  0
CIRCLE
  5
70
100
AcDbEntity
  8
0
  6
CONTINUOUS
 62
               7
100
AcDbCircle
 10
5.0
 20
-6.0
 30
0.0
 40
1.1000000000000014
  0
LINE
  5
71
100
AcDbEntity
  8
0
  6
CENTER
 62
               2
100
AcDbLine
 10
5.0
 20
-8.7999999999999972
 30
0.0
 11
5.0
 21
-3.2000000000000028
 31
0.0
  0
LINE
  5
72
100
AcDbEntity
  8
0
  6
CONTINUOUS
 62
               7
100
AcDbLine
 10
0.0
 20
8.5
 30
0.0
 11
0.0
 21
-8.5
 31
0.0
  0
ARC
  5
73
100
AcDbEntity
  8
0
  6
CONTINUOUS
 62
               7
100
AcDbCircle
 10
5.0
 20
6.0
 30
0.0
 40
2.0500000000000007
100
AcDbArc
 50
56.312856927977215
 51
343.15912726205306
  0
ARC
  5
74
100
AcDbEntity
  8
0
  6
CONTINUOUS
 62
               7
100
AcDbCircle
 10
5.0
 20
6.0
 30
0.0
 40
1.1000000000000014
100
AcDbArc
 50
62.964308210587603
 51
297.0356917894116
  0
LINE
  5
75
100
AcDbEntity
  8
0
  6
CENTER
 62
               2
100
AcDbLine
 10
5.0
 20
8.7999999999999972
 30
0.0
 11
5.0
 21
3.2000000000000028
 31
0.0
  0
LINE
  5
76
100
AcDbEntity
  8
0
  6
CENTER
 62
               2
100
AcDbLine
 10
2.1999999999999886
 20
6.0
 30
0.0
 11
7.7999999999999972
 21
6.0
 31
0.0
  0
LINE
  5
77
100
AcDbEntity
  8
0
  6
CONTINUOUS
 62
               7
100
AcDbLine
 10
30.0
 20
8.5
 30
0.0
 11
30.0
 21
6.4394660491905924
 31
0.0
  0
LINE
  5
78
100
AcDbEntity
  8
0
  6
CENTER
 62
               2
100
AcDbLine
 10
-9.4820394192003761
 20
0.0
 30
0.0
 11
31.706095837897948
 21
0.0
 31
0.0
  0
LINE
  5
79
100
AcDbEntity
  8
0
  6
CONTINUOUS
 62
               4
100
AcDbLine
 10
5.5
 20
7.705761142097181
 30
0.0
 11
5.5
 21
3.9954890843040047
 31
0.0
  0
LINE
  5
7A
100
AcDbEntity
  8
0
  6
CONTINUOUS
 62
               4
100
AcDbLine
 10
21.0
 20
7.705761142097181
 30
0.0
 11
21.0
 21
5.4060849870406145
 31
0.0
  0
LINE
  5
7B
100
AcDbEntity
  8
0
  6
CONTINUOUS
 62
               4
100
AcDbLine
 10
31.0
 20
-2.7066233281171463
 30
0.0
 11
31.0
 21
-7.7057611420972165
 31
0.0
  0
LINE
  5
7C
100
AcDbEntity
  8
0
  6
CONTINUOUS
 62
               4
100
AcDbLine
 10
15.499999999999773
 20
-5.5844407985375568
 30
0.0
 11
15.499999999999773
 21
-7.7057611420972165
 31
0.0
  0
LINE
  5
7D
100
AcDbEntity
  8
0
  6
CONTINUOUS
 62
               4
100
AcDbLine
 10
30.000000019764684
 20
-2.7066233281171463
 30
0.0
 11
31.000000019764684
 21
-2.7066233281171463
 31
0.0
  0
LINE
  5
7E
100
AcDbEntity
  8
0
  6
CONTINUOUS
 62
               4
100
AcDbLine
 10
30.0
 20
-4.453069948639083
 30
0.0
 11
31.0
 21
-4.453069948639083
 31
0.0
  0
LINE
  5
7F
100
AcDbEntity
  8
0
  6
CONTINUOUS
 62
               4
100
AcDbLine
 10
5.5
 20
4.4530699486390901
 30
0.0
 11
6.3451793249216024
 21
4.4530699486390901
 31
0.0
  0
ELLIPSE
  5
80
100
AcDbEntity
  8
0
  6
CONTINUOUS
 62
               4
100
AcDbEllipse
 10
7.5
 20
6.6451009703173654
 30
0.0
 11
-1.25
 21
0.0000000000000002
 31
0.0
210
0.0
220
0.0
230
1.0
 40
0.7071067811865476
 41
0.0
 42
6.2831853071795862
  0
LINE
  5
81
100
AcDbEntity
  8
0
  6
CONTINUOUS
 62
               4
100
AcDbLine
 10
7.75
 20
7.5111263741018135
 30
0.0
 11
7.75
 21
5.7790755665329172
 31
0.0
  0
LINE
  5
82
100
AcDbEntity
  8
0
  6
CONTINUOUS
 62
               4
100
AcDbLine
 10
7.25
 20
7.5111263741018135
 30
0.0
 11
7.25
 21
5.7790755665329172
 31
0.0
  0
ELLIPSE
  5
83
100
AcDbEntity
  8
0
  6
CONTINUOUS
 62
               4
100
AcDbEllipse
 10
17.499999999999773
 20
-6.6451009703173867
 30
0.0
 11
-1.25
 21
0.0000000000000002
 31
0.0
210
0.0
220
0.0
230
1.0
 40
0.7071067811865476
 41
0.0
 42
6.2831853071795862
  0
LINE
  5
84
100
AcDbEntity
  8
0
  6
CONTINUOUS
 62
               4
100
AcDbLine
 10
17.749999999999773
 20
-7.5111263741018348
 30
0.0
 11
17.749999999999773
 21
-5.7790755665329385
 31
0.0
  0
LINE
  5
85
100
AcDbEntity
  8
0
  6
CONTINUOUS
 62
               4
100
AcDbLine
 10
17.249999999999773
 20
-7.5111263741018348
 30
0.0
 11
17.249999999999773
 21
-5.7790755665329385
 31
0.0
  0
LINE
  5
86
100
AcDbEntity
  8
0
  6
CONTINUOUS
 62
             200
100
AcDbLine
 10
38.331127753164232
 20
2.4932007586411302
 30
0.0
 11
39.740096639542493
 21
7.7515442871831439
 31
0.0
  0
LINE
  5
87
100
AcDbEntity
  8
0
  6
CONTINUOUS
 62
             200
100
AcDbLine
 10
38.33112775316431
 20
-7.6857313397400588
 30
0.0
 11
39.740096639542571
 21
-2.4273878111980451
 31
0.0
  0
LINE
  5
88
100
AcDbEntity
  8
0
  6
CONTINUOUS
 62
               4
100
AcDbLine
 10
21.000000019764684
 20
6.4394660491905924
 30
0.0
 11
39.38852633916364
 21
6.4394660491905924
 31
0.0
  0
LINE
  5
89
100
AcDbEntity
  8
0
  6
CONTINUOUS
 62
               4
100
AcDbLine
 10
30.0
 20
3.7394660491906038
 30
0.0
 11
38.665063527619772
 21
3.7394660491906038
 31
0.0
  0
LINE
  5
8A
100
AcDbEntity
  8
0
  6
CONTINUOUS
 62
               4
100
AcDbLine
 10
31.0
 20
-3.7394660491906251
 30
0.0
 11
39.388526339163718
 21
-3.7394660491906251
 31
0.0
  0
LINE
  5
8B
100
AcDbEntity
  8
0
  6
CONTINUOUS
 62
               4
100
AcDbLine
 10
31.0
 20
-6.4394660491906137
 30
0.0
 11
38.66506352761985
 21
-6.4394660491906137
 31
0.0
  0
LINE
  5
8C
100
AcDbEntity
  8
0
  6
CONTINUOUS
 62
               7
100
AcDbLine
 10
30.0
 20
5.4060849870406145
 30
0.0
 11
30.0
 21
-5.4060849870406145
 31
0.0
  0
LINE
  5
8D
100
AcDbEntity
  8
0
  6
CONTINUOUS
 62
               7
100
AcDbLine
 10
30.0
 20
-7.7057611420972165
 30
0.0
 11
30.0
 21
-8.5
 31
0.0
  0
LINE
  5
8E
100
AcDbEntity
  8
0
  6
CONTINUOUS
 62
               4
100
AcDbLine
 10
5.500000026198677
 20
7.705761142097181
 30
0.0
 11
21.0
 21
7.705761142097181
 31
0.0
  0
LINE
  5
8F
100
AcDbEntity
  8
0
  6
CONTINUOUS
 62
               4
100
AcDbLine
 10
5.500000026198677
 20
5.5844407985375355
 30
0.0
 11
21.0
 21
5.5844407985375355
 31
0.0
  0
LINE
  5
90
100
AcDbEntity
  8
0
  6
CONTINUOUS
 62
               4
100
AcDbLine
 10
15.500000026198677
 20
-5.5844407985375568
 30
0.0
 11
31.0
 21
-5.5844407985375568
 31
0.0
  0
LINE
  5
91
100
AcDbEntity
  8
0
  6
CONTINUOUS
 62
               4
100
AcDbLine
 10
15.500000026198677
 20
-7.7057611420972165
 30
0.0
 11
31.0
 21
-7.7057611420972165
 31
0.0
  0
ENDBLK
  5
92
100
AcDbEntity
  8
0
100
AcDbBlockEnd
  0
BLOCK
  5
93
100
AcDbEntity
  8
0
100
AcDbBlockBegin
  2
MS_2
 70
               0
 10
0.0
 20
0.0
 30
0.0
  3
MS_2
  1

  0
CIRCLE
  5
94
100
AcDbEntity
  8
0
  6
CONTINUOUS
 62
               7
100
AcDbCircle
 10
4.0
 20
0.0
 30
0.0
 40
3.25
  0
LINE
  5
95
100
AcDbEntity
  8
0
  6
CONTINUOUS
 62
               7
100
AcDbLine
 10
4.0
 20
3.1754265808690292
 30
0.0
 11
6.7500001116530086
 21
1.587713133558772
 31
0.0
  0
LINE
  5
96
100
AcDbEntity
  8
0
  6
CONTINUOUS
 62
               7
100
AcDbLine
 10
6.7500000868849384
 20
-1.5877132904345217
 30
0.0
 11
3.9999998517575932
 21
-3.1754265238809296
 31
0.0
  0
LINE
  5
97
100
AcDbEntity
  8
0
  6
CONTINUOUS
 62
               7
100
AcDbLine
 10
4.0
 20
-3.1754265808690292
 30
0.0
 11
1.2499998883470198
 21
-1.5877131335587649
 31
0.0
  0
LINE
  5
98
100
AcDbEntity
  8
0
  6
CONTINUOUS
 62
               7
100
AcDbLine
 10
1.2499999131150616
 20
1.5877132904345146
 30
0.0
 11
4.0000001482424068
 21
3.1754265238809296
 31
0.0
  0
ARC
  5
99
100
AcDbEntity
  8
0
  6
CONTINUOUS
 62
               7
100
AcDbCircle
 10
4.0
 20
0.0
 30
0.0
 40
3.0499999999999998
100
AcDbArc
 50
94.374394311699646
 51
145.6256012324834
  0
ARC
  5
9A
100
AcDbEntity
  8
0
  6
CONTINUOUS
 62
               7
100
AcDbCircle
 10
4.0
 20
0.0
 30
0.0
 40
3.0499999999999998
100
AcDbArc
 50
34.374394311699547
 51
85.625601232483788
  0
ARC
  5
9B
100
AcDbEntity
  8
0
  6
CONTINUOUS
 62
               7
100
AcDbCircle
 10
4.0
 20
0.0
 30
0.0
 40
3.0499999999999998
100
AcDbArc
 50
334.37439431169884
 51
25.625601232484005
  0
ARC
  5
9C
100
AcDbEntity
  8
0
  6
CONTINUOUS
 62
               7
100
AcDbCircle
 10
4.0
 20
0.0
 30
0.0
 40
3.0499999999999998
100
AcDbArc
 50
274.37439431169918
 51
325.62560123248301
  0
ARC
  5
9D
100
AcDbEntity
  8
0
  6
CONTINUOUS
 62
               7
100
AcDbCircle
 10
4.0
 20
0.0
 30
0.0
 40
3.0499999999999998
100
AcDbArc
 50
154.37439431169929
 51
205.62560123248301
  0
LINE
  5
9E
100
AcDbEntity
  8
0
  6
CONTINUOUS
 62
               7
100
AcDbLine
 10
1.2499999131150616
 20
-1.5877132904345075
 30
0.0
 11
1.2500000365894266
 21
1.5877133903221576
 31
0.0
  0
CIRCLE
  5
9F
100
AcDbEntity
  8
0
  6
CONTINUOUS
 62
               7
100
AcDbCircle
 10
4.0
 20
0.0
 30
0.0
 40
2.75
  0
LINE
  5
A0
100
AcDbEntity
  8
0
  6
CONTINUOUS
 62
               7
100
AcDbLine
 10
6.7500000868849384
 20
1.5877132904345146
 30
0.0
 11
6.7499999634106018
 21
-1.5877133903221505
 31
0.0
  0
CIRCLE
  5
A1
100
AcDbEntity
  8
0
  6
CONTINUOUS
 62
               2
100
AcDbCircle
 10
4.0
 20
0.0
 30
0.0
 40
1.2000000000000028
  0
CIRCLE
  5
A2
100
AcDbEntity
  8
0
  6
CONTINUOUS
 62
               7
100
AcDbCircle
 10
4.0
 20
0.0
 30
0.0
 40
1.5
  0
ARC
  5
A3
100
AcDbEntity
  8
0
  6
CONTINUOUS
 62
               7
100
AcDbCircle
 10
4.0
 20
0.0
 30
0.0
 40
3.0499999999999998
100
AcDbArc
 50
214.37439431169884
 51
265.6256012324834
  0
ARC
  5
A4
100
AcDbEntity
  8
0
  6
CONTINUOUS
 62
               7
100
AcDbCircle
 10
0.4000000000000057
 20
8.1000000000000014
 30
0.0
 40
0.4
100
AcDbArc
 50
89.999999999999801
 51
179.9999999999996
  0
ARC
  5
A5
100
AcDbEntity
  8
0
  6
CONTINUOUS
 62
               7
100
AcDbCircle
 10
0.4000000000000057
 20
-8.1000000000000014
 30
0.0
 40
0.4
100
AcDbArc
 50
179.9999999999996
 51
269.99999999999937
  0
CIRCLE
  5
A6
100
AcDbEntity
  8
0
  6
CONTINUOUS
 62
               7
100
AcDbCircle
 10
4.0
 20
-6.0
 30
0.0
 40
1.1000000000000001
  0
CIRCLE
  5
A7
100
AcDbEntity
  8
0
  6
CONTINUOUS
 62
               2
100
AcDbCircle
 10
4.0
 20
-6.0
 30
0.0
 40
1.5
  0
CIRCLE
  5
A8
100
AcDbEntity
  8
0
  6
CONTINUOUS
 62
               7
100
AcDbCircle
 10
4.0
 20
6.0
 30
0.0
 40
1.1000000000000001
  0
CIRCLE
  5
A9
100
AcDbEntity
  8
0
  6
CONTINUOUS
 62
               2
100
AcDbCircle
 10
4.0
 20
6.0
 30
0.0
 40
1.5
  0
LINE
  5
AA
100
AcDbEntity
  8
0
  6
CENTER
 62
               2
100
AcDbLine
 10
4.0
 20
8.5
 30
0.0
 11
4.0
 21
-8.5
 31
0.0
  0
ARC
  5
AB
100
AcDbEntity
  8
0
  6
CONTINUOUS
 62
               7
100
AcDbCircle
 10
8.4999999958417618
 20
-4.8230447197212385
 30
0.0
 40
2.1000000111152071
100
AcDbArc
 50
44.999999999999901
 51
224.99999999999949
  0
LINE
  5
AC
100
AcDbEntity
  8
0
  6
CONTINUOUS
 62
               7
100
AcDbLine
 10
8.1464466052484852
 20
-7.4393398101114769
 30
0.0
 11
7.0150757553500114
 21
-6.3079689602130031
 31
0.0
  0
ARC
  5
AD
100
AcDbEntity
  8
0
  6
CONTINUOUS
 62
               7
100
AcDbCircle
 10
8.7818536264305465
 20
-7.7928932007047393
 30
0.0
 40
0.3007001998472195
100
AcDbArc
 50
-44.866737929198983
 51
44.866737929198038
  0
LINE
  5
AE
100
AcDbEntity
  8
0
  6
CONTINUOUS
 62
               7
100
AcDbLine
 10
9.0278175036501409
 20
-7.9721824740829135
 30
0.0
 11
8.4999999777330402
 21
-8.5
 31
0.0
  0
LINE
  5
AF
100
AcDbEntity
  8
0
  6
CONTINUOUS
 62
               7
100
AcDbLine
 10
8.1464466052484852
 20
-7.4393398101114769
 30
0.0
 11
8.8535533864350384
 21
-7.4393398101114769
 31
0.0
  0
LINE
  5
B0
100
AcDbEntity
  8
0
  6
CONTINUOUS
 62
               7
100
AcDbLine
 10
8.9949747426723548
 20
-7.5807611663487791
 30
0.0
 11
8.8535533864350384
 21
-7.4393398101114769
 31
0.0
  0
LINE
  5
B1
100
AcDbEntity
  8
0
  6
CONTINUOUS
 62
               7
100
AcDbLine
 10
11.257716442469302
 20
-5.3180194665518314
 30
0.0
 11
11.116295086231986
 21
-5.1765981103145151
 31
0.0
  0
ARC
  5
B2
100
AcDbEntity
  8
0
  6
CONTINUOUS
 62
               7
100
AcDbCircle
 10
11.469848476825263
 20
-5.1065606351367308
 30
0.0
 40
0.2995243519038812
100
AcDbArc
 50
224.90894124989543
 51
315.09105875010232
  0
LINE
  5
B3
100
AcDbEntity
  8
0
  6
CONTINUOUS
 62
               7
100
AcDbLine
 10
11.116295086231986
 20
-5.1765981103145151
 30
0.0
 11
11.116295086231986
 21
-4.4694913291279761
 31
0.0
  0
LINE
  5
B4
100
AcDbEntity
  8
0
  6
CONTINUOUS
 62
               7
100
AcDbLine
 10
11.116295086231986
 20
-4.4694913291279761
 30
0.0
 11
9.9849242363335122
 21
-3.3381204792295023
 31
0.0
  0
LINE
  5
B5
100
AcDbEntity
  8
0
  6
CONTINUOUS
 62
               7
100
AcDbLine
 10
11.681980511181223
 20
-5.3180194665518314
 30
0.0
 11
12.0
 21
-4.9999999777330828
 31
0.0
  0
LINE
  5
B6
100
AcDbEntity
  8
0
  6
CONTINUOUS
 62
               7
100
AcDbLine
 10
0.4000000000000057
 20
-8.5
 30
0.0
 11
8.4999999777330402
 21
-8.5
 31
0.0
  0
LINE
  5
B7
100
AcDbEntity
  8
0
  6
CONTINUOUS
 62
               7
100
AcDbLine
 10
0.0
 20
8.1000000000000014
 30
0.0
 11
0.0
 21
-8.1000000000000014
 31
0.0
  0
LINE
  5
B8
100
AcDbEntity
  8
0
  6
CENTER
 62
               2
100
AcDbLine
 10
-1.1778889561377071
 20
0.0
 30
0.0
 11
12.949028127981279
 21
0.0
 31
0.0
  0
LINE
  5
B9
100
AcDbEntity
  8
0
  6
CONTINUOUS
 62
               7
100
AcDbLine
 10
0.4000000000000057
 20
8.5
 30
0.0
 11
8.4999999777330402
 21
8.5
 31
0.0
  0
LINE
  5
BA
100
AcDbEntity
  8
0
  6
CONTINUOUS
 62
               7
100
AcDbLine
 10
12.0
 20
5.0000000373376992
 30
0.0
 11
12.0
 21
-4.9999999777330828
 31
0.0
  0
LINE
  5
BB
100
AcDbEntity
  8
0
  6
CONTINUOUS
 62
               7
100
AcDbLine
 10
8.1464466052484852
 20
7.4393398101114769
 30
0.0
 11
7.0150757553500114
 21
6.3079689602130031
 31
0.0
  0
LINE
  5
BC
100
AcDbEntity
  8
0
  6
CONTINUOUS
 62
               7
100
AcDbLine
 10
9.0278175036501409
 20
7.9721824740829135
 30
0.0
 11
8.4999999777330402
 21
8.5
 31
0.0
  0
LINE
  5
BD
100
AcDbEntity
  8
0
  6
CONTINUOUS
 62
               7
100
AcDbLine
 10
8.1464466052484852
 20
7.4393398101114769
 30
0.0
 11
8.8535533864350384
 21
7.4393398101114769
 31
0.0
  0
ARC
  5
BE
100
AcDbEntity
  8
0
  6
CONTINUOUS
 62
               7
100
AcDbCircle
 10
8.7818536264305465
 20
7.7928932007047393
 30
0.0
 40
0.3007001998472195
100
AcDbArc
 50
315.13326207080115
 51
44.866737929199004
  0
LINE
  5
BF
100
AcDbEntity
  8
0
  6
CONTINUOUS
 62
               7
100
AcDbLine
 10
8.9949747426723548
 20
7.5807611663487791
 30
0.0
 11
8.8535533864350384
 21
7.4393398101114769
 31
0.0
  0
ARC
  5
C0
100
AcDbEntity
  8
0
  6
CONTINUOUS
 62
               7
100
AcDbCircle
 10
8.4999999958417618
 20
4.8230447197212385
 30
0.0
 40
2.1000000111152071
100
AcDbArc
 50
134.99999999999969
 51
314.99999999999932
  0
LINE
  5
C1
100
AcDbEntity
  8
0
  6
CONTINUOUS
 62
               7
100
AcDbLine
 10
11.116295086231986
 20
4.4694913291279761
 30
0.0
 11
9.9849242363335122
 21
3.3381204792295023
 31
0.0
  0
LINE
  5
C2
100
AcDbEntity
  8
0
  6
CONTINUOUS
 62
               7
100
AcDbLine
 10
11.116295086231986
 20
5.1765981103145151
 30
0.0
 11
11.116295086231986
 21
4.4694913291279761
 31
0.0
  0
ARC
  5
C3
100
AcDbEntity
  8
0
  6
CONTINUOUS
 62
               7
100
AcDbCircle
 10
11.469848476825263
 20
5.1065606351367308
 30
0.0
 40
0.2995243519038812
100
AcDbArc
 50
44.908941249896863
 51
135.09105875010374
  0
LINE
  5
C4
100
AcDbEntity
  8
0
  6
CONTINUOUS
 62
               7
100
AcDbLine
 10
11.257716442469302
 20
5.3180194665518314
 30
0.0
 11
11.116295086231986
 21
5.1765981103145151
 31
0.0
  0
LINE
  5
C5
100
AcDbEntity
  8
0
  6
CONTINUOUS
 62
               7
100
AcDbLine
 10
11.681980511181223
 20
5.3180194665518314
 30
0.0
 11
12.0
 21
4.9999999777330828
 31
0.0
  0
LINE
  5
C6
100
AcDbEntity
  8
0
  6
CONTINUOUS
 62
             200
100
AcDbLine
 10
9.2609038016656342
 20
4.0661815240755672
 30
0.0
 11
8.2012537824303564
 21
3.0065315048403178
 31
0.0
  0
LINE
  5
C7
100
AcDbEntity
  8
0
  6
CONTINUOUS
 62
               4
100
AcDbLine
 10
11.096350975117119
 20
4.4894354402429641
 30
0.0
 11
10.001345616822462
 21
3.3944300819483644
 31
0.0
  0
LINE
  5
C8
100
AcDbEntity
  8
0
  6
CONTINUOUS
 62
               4
100
AcDbLine
 10
9.4013150053584269
 20
3.9257703203828029
 30
0.0
 11
8.4820761898159418
 21
3.0065315048403178
 31
0.0
  0
LINE
  5
C9
100
AcDbEntity
  8
0
  6
CONTINUOUS
 62
               4
100
AcDbLine
 10
7.7749694086292749
 20
3.0065315048403178
 30
0.0
 11
8.4820761898159418
 21
3.0065315048403178
 31
0.0
  0
ARC
  5
CA
100
AcDbEntity
  8
0
  6
CONTINUOUS
 62
               4
100
AcDbCircle
 10
8.5507659101823066
 20
4.8439254024425438
 30
0.0
 40
2.0506628609917015
100
AcDbArc
 50
225.05843089091513
 51
315.02142384112307
  0
LINE
  5
CB
100
AcDbEntity
  8
0
  6
CONTINUOUS
 62
               4
100
AcDbLine
 10
11.096350975117119
 20
4.4894354402429641
 30
0.0
 11
11.098371280206109
 21
5.2672528995481613
 31
0.0
  0
LINE
  5
CC
100
AcDbEntity
  8
0
  6
CONTINUOUS
 62
             200
100
AcDbLine
 10
7.7759795611739975
 20
5.5511057645673176
 30
0.0
 11
6.7143092368495019
 21
4.4894354402429641
 31
0.0
  0
LINE
  5
CD
100
AcDbEntity
  8
0
  6
CONTINUOUS
 62
               4
100
AcDbLine
 10
8.1972131722521482
 20
7.3885732431077926
 30
0.0
 11
7.1022078139577189
 21
6.2935678848131928
 31
0.0
  0
LINE
  5
CE
100
AcDbEntity
  8
0
  6
CONTINUOUS
 62
               4
100
AcDbLine
 10
7.633548052391987
 20
5.693537273349186
 30
0.0
 11
6.7143092368495019
 21
4.7742984578066725
 31
0.0
  0
LINE
  5
CF
100
AcDbEntity
  8
0
  6
CONTINUOUS
 62
               4
100
AcDbLine
 10
6.7143092368495019
 20
4.7742984578066725
 30
0.0
 11
6.7143092368495019
 21
4.0671916766201193
 31
0.0
  0
ARC
  5
D0
100
AcDbEntity
  8
0
  6
CONTINUOUS
 62
               4
100
AcDbCircle
 10
8.5536284842590504
 20
4.8429888308362408
 30
0.0
 40
2.0520237703338058
100
AcDbArc
 50
135.01661649434493
 51
224.98338350565427
  0
LINE
  5
D1
100
AcDbEntity
  8
0
  6
CONTINUOUS
 62
               4
100
AcDbLine
 10
8.4820761898159418
 20
3.0065315048403178
 30
0.0
 11
6.7143092368495019
 21
4.7742984578066725
 31
0.0
  0
LINE
  5
D2
100
AcDbEntity
  8
0
  6
CONTINUOUS
 62
               4
100
AcDbLine
 10
9.9670004303075785
 20
3.3600848954335945
 30
0.0
 11
7.0678626274428353
 21
6.2592226982984229
 31
0.0
  0
LINE
  5
D3
100
AcDbEntity
  8
0
  6
CONTINUOUS
 62
               4
100
AcDbLine
 10
7.7749694086292749
 20
3.0065315048403178
 30
0.0
 11
6.7143092368495019
 21
4.0671916766201193
 31
0.0
  0
LINE
  5
D4
100
AcDbEntity
  8
0
  6
CONTINUOUS
 62
               4
100
AcDbLine
 10
11.415559179195569
 20
5.5844407985375639
 30
0.0
 11
9.2942388356357952
 21
7.7057611420971952
 31
0.0
  0
LINE
  5
D5
100
AcDbEntity
  8
0
  6
CONTINUOUS
 62
               4
100
AcDbLine
 10
9.2942388356357952
 20
7.7057611420971668
 30
0.0
 11
8.9770509366465632
 21
7.3885732431077926
 31
0.0
  0
LINE
  5
D6
100
AcDbEntity
  8
0
  6
CENTER
 62
             200
100
AcDbLine
 10
11.373396538456589
 20
7.663598501358301
 30
0.0
 11
6.4599582641042872
 21
2.7501602270058569
 31
0.0
  0
LINE
  5
D7
100
AcDbEntity
  8
0
  6
CONTINUOUS
 62
               4
100
AcDbLine
 10
10.53066555016774
 20
3.9237500152936988
 30
0.0
 11
7.6315277473029965
 21
6.8228878181585557
 31
0.0
  0
LINE
  5
D8
100
AcDbEntity
  8
0
  6
CONTINUOUS
 62
               4
100
AcDbLine
 10
8.1972131722521482
 20
7.3885732431077926
 30
0.0
 11
8.9770509366465632
 21
7.3885732431077926
 31
0.0
  0
LINE
  5
D9
100
AcDbEntity
  8
0
  6
CONTINUOUS
 62
               4
100
AcDbLine
 10
11.415559179195569
 20
5.5844407985375071
 30
0.0
 11
11.098371280206109
 21
5.2672528995481613
 31
0.0
  0
ARC
  5
DA
100
AcDbEntity
  8
0
  6
CONTINUOUS
 62
               4
100
AcDbCircle
 10
8.5507659101822924
 20
-4.8439254024425651
 30
0.0
 40
2.0506628609917015
100
AcDbArc
 50
44.978576158876109
 51
134.94156910908407
  0
ARC
  5
DB
100
AcDbEntity
  8
0
  6
CONTINUOUS
 62
               4
100
AcDbCircle
 10
8.5536284842590362
 20
-4.8429888308362337
 30
0.0
 40
2.0520237703338058
100
AcDbArc
 50
135.01661649434493
 51
224.98338350565427
  0
LINE
  5
DC
100
AcDbEntity
  8
0
  6
CONTINUOUS
 62
               4
100
AcDbLine
 10
9.9670004303075643
 20
-3.3600848954335873
 30
0.0
 11
7.0678626274428211
 21
-6.2592226982984442
 31
0.0
  0
LINE
  5
DD
100
AcDbEntity
  8
0
  6
CENTER
 62
             200
100
AcDbLine
 10
11.373396538456575
 20
-7.6635985013582939
 30
0.0
 11
6.459958264104273
 21
-2.7501602270058783
 31
0.0
  0
LINE
  5
DE
100
AcDbEntity
  8
0
  6
CONTINUOUS
 62
               4
100
AcDbLine
 10
10.530665550167726
 20
-3.9237500152937486
 30
0.0
 11
7.6315277473029823
 21
-6.822887818158577
 31
0.0
  0
LINE
  5
DF
100
AcDbEntity
  8
0
  6
CONTINUOUS
 62
               4
100
AcDbLine
 10
7.7749694086292607
 20
-3.0065315048403107
 30
0.0
 11
6.7143092368494877
 21
-4.0671916766201406
 31
0.0
  0
LINE
  5
E0
100
AcDbEntity
  8
0
  6
CONTINUOUS
 62
               4
100
AcDbLine
 10
8.4820761898159276
 20
-3.0065315048403107
 30
0.0
 11
6.7143092368494877
 21
-4.7742984578066938
 31
0.0
  0
LINE
  5
E1
100
AcDbEntity
  8
0
  6
CONTINUOUS
 62
               4
100
AcDbLine
 10
6.7143092368494877
 20
-4.7742984578066938
 30
0.0
 11
6.7143092368494877
 21
-4.0671916766201406
 31
0.0
  0
LINE
  5
E2
100
AcDbEntity
  8
0
  6
CONTINUOUS
 62
               4
100
AcDbLine
 10
7.6335480523919728
 20
-5.6935372733492073
 30
0.0
 11
6.7143092368494877
 21
-4.7742984578066938
 31
0.0
  0
LINE
  5
E3
100
AcDbEntity
  8
0
  6
CONTINUOUS
 62
             200
100
AcDbLine
 10
7.7759795611739833
 20
-5.551105764567339
 30
0.0
 11
6.7143092368494877
 21
-4.489435440242957
 31
0.0
  0
LINE
  5
E4
100
AcDbEntity
  8
0
  6
CONTINUOUS
 62
               4
100
AcDbLine
 10
7.7749694086292607
 20
-3.0065315048403107
 30
0.0
 11
8.4820761898159276
 21
-3.0065315048403107
 31
0.0
  0
LINE
  5
E5
100
AcDbEntity
  8
0
  6
CONTINUOUS
 62
               4
100
AcDbLine
 10
9.4013150053584127
 20
-3.9257703203828527
 30
0.0
 11
8.4820761898159276
 21
-3.0065315048403107
 31
0.0
  0
LINE
  5
E6
100
AcDbEntity
  8
0
  6
CONTINUOUS
 62
             200
100
AcDbLine
 10
9.26090380166562
 20
-4.0661815240755885
 30
0.0
 11
8.2012537824303422
 21
-3.0065315048403107
 31
0.0
  0
LINE
  5
E7
100
AcDbEntity
  8
0
  6
CONTINUOUS
 62
               4
100
AcDbLine
 10
8.197213172252134
 20
-7.3885732431078139
 30
0.0
 11
7.1022078139577047
 21
-6.2935678848132142
 31
0.0
  0
LINE
  5
E8
100
AcDbEntity
  8
0
  6
CONTINUOUS
 62
               4
100
AcDbLine
 10
11.415559179195554
 20
-5.5844407985375568
 30
0.0
 11
11.098371280206095
 21
-5.2672528995481827
 31
0.0
  0
LINE
  5
E9
100
AcDbEntity
  8
0
  6
CONTINUOUS
 62
               4
100
AcDbLine
 10
8.197213172252134
 20
-7.3885732431078139
 30
0.0
 11
8.977050936646549
 21
-7.3885732431078139
 31
0.0
  0
LINE
  5
EA
100
AcDbEntity
  8
0
  6
CONTINUOUS
 62
               4
100
AcDbLine
 10
9.294238835635781
 20
-7.7057611420972165
 30
0.0
 11
8.977050936646549
 21
-7.3885732431078139
 31
0.0
  0
LINE
  5
EB
100
AcDbEntity
  8
0
  6
CONTINUOUS
 62
               4
100
AcDbLine
 10
11.415559179195554
 20
-5.5844407985375568
 30
0.0
 11
9.294238835635781
 21
-7.7057611420972165
 31
0.0
  0
LINE
  5
EC
100
AcDbEntity
  8
0
  6
CONTINUOUS
 62
               4
100
AcDbLine
 10
11.096350975117105
 20
-4.489435440242957
 30
0.0
 11
11.098371280206095
 21
-5.2672528995481827
 31
0.0
  0
LINE
  5
ED
100
AcDbEntity
  8
0
  6
CONTINUOUS
 62
               4
100
AcDbLine
 10
11.096350975117105
 20
-4.489435440242957
 30
0.0
 11
10.001345616822448
 21
-3.3944300819483573
 31
0.0
  0
LINE
  5
EE
100
AcDbEntity
  8
0
  6
CENTER
 62
               2
100
AcDbLine
 10
-1.5
 20
6.0
 30
0.0
 11
6.5
 21
6.0
 31
0.0
  0
LINE
  5
EF
100
AcDbEntity
  8
0
  6
CENTER
 62
               2
100
AcDbLine
 10
-1.5
 20
-6.0
 30
0.0
 11
6.5
 21
-6.0
 31
0.0
  0
ENDBLK
  5
F0
100
AcDbEntity
  8
0
100
AcDbBlockEnd
  0
BLOCK
  5
F1
100
AcDbEntity
  8
0
100
AcDbBlockBegin
  2
MS_3
 70
               0
 10
0.0
 20
0.0
 30
0.0
  3
MS_3
  1

  0
LINE
  5
F2
100
AcDbEntity
  8
0
  6
PHANTOM
 62
               3
100
AcDbLine
 10
23.376913946366713
 20
17.0
 30
0.0
 11
23.376913946366713
 21
-5.0
 31
0.0
  0
CIRCLE
  5
F4
100
AcDbEntity
  8
0
  6
DASHED
 62
               7
100
AcDbCircle
 10
26.999999999999972
 20
8.0000000000000142
 30
0.0
 40
1.1999999999999886
  0
CIRCLE
  5
F5
100
AcDbEntity
  8
0
  6
DASHED
 62
               2
100
AcDbCircle
 10
26.999999999999972
 20
8.0000000000000142
 30
0.0
 40
1.5
  0
LINE
  5
F6
100
AcDbEntity
  8
0
  6
CENTER
 62
               2
100
AcDbLine
 10
26.999999999999972
 20
9.9547775518886965
 30
0.0
 11
26.999999999999972
 21
6.0239043419708906
 31
0.0
  0
CIRCLE
  5
F7
100
AcDbEntity
  8
0
  6
DASHED
 62
               7
100
AcDbCircle
 10
10.0
 20
8.0000000000000142
 30
0.0
 40
1.1999999999999886
  0
CIRCLE
  5
F8
100
AcDbEntity
  8
0
  6
DASHED
 62
               2
100
AcDbCircle
 10
10.0
 20
8.0000000000000142
 30
0.0
 40
1.5
  0
LINE
  5
F9
100
AcDbEntity
  8
0
  6
CENTER
 62
               2
100
AcDbLine
 10
10.0
 20
9.9547775518886965
 30
0.0
 11
10.0
 21
6.0239043419708906
 31
0.0
  0
LINE
  5
FA
100
AcDbEntity
  8
0
  6
CENTER
 62
               2
100
AcDbLine
 10
-9.2875397726956663
 20
8.0
 30
0.0
 11
31.706095837897948
 21
8.0
 31
0.0
  0
LINE
  5
FB
100
AcDbEntity
  8
0
  6
CONTINUOUS
 62
               7
100
AcDbLine
 10
0.0
 20
0.0
 30
0.0
 11
30.0
 21
0.0
 31
0.0
  0
LINE
  5
FC
100
AcDbEntity
  8
0
  6
CONTINUOUS
 62
               7
100
AcDbLine
 10
0.0
 20
0.883704913768014
 30
0.0
 11
5.5
 21
0.883704913768014
 31
0.0
  0
LINE
  5
FD
100
AcDbEntity
  8
0
  6
CONTINUOUS
 62
               7
100
AcDbLine
 10
0.0
 20
2.9174461737222259
 30
0.0
 11
30.0
 21
2.9174461737222259
 31
0.0
  0
LINE
  5
FE
100
AcDbEntity
  8
0
  6
CONTINUOUS
 62
               7
100
AcDbLine
 10
0.0
 20
3.5000000222669598
 30
0.0
 11
30.0
 21
3.5000000222669598
 31
0.0
  0
LINE
  5
FF
100
AcDbEntity
  8
0
  6
CONTINUOUS
 62
               7
100
AcDbLine
 10
0.0
 20
12.0
 30
0.0
 11
30.0
 21
12.0
 31
0.0
  0
LINE
  5
100
100
AcDbEntity
  8
0
  6
CONTINUOUS
 62
               7
100
AcDbLine
 10
0.0
 20
0.0
 30
0.0
 11
0.0
 21
12.0
 31
0.0
  0
LINE
  5
101
100
AcDbEntity
  8
0
  6
CONTINUOUS
 62
               7
100
AcDbLine
 10
30.0
 20
0.0
 30
0.0
 11
30.0
 21
1.9507358988099028
 31
0.0
  0
LINE
  5
102
100
AcDbEntity
  8
0
  6
CONTINUOUS
 62
               7
100
AcDbLine
 10
-7.7000000000000171
 20
6.5
 30
0.0
 11
-5.5999999999999943
 21
6.5
 31
0.0
  0
LINE
  5
103
100
AcDbEntity
  8
0
  6
CONTINUOUS
 62
               7
100
AcDbLine
 10
-8.0
 20
9.2000000000000028
 30
0.0
 11
-8.0
 21
6.7999999999999972
 31
0.0
  0
LINE
  5
104
100
AcDbEntity
  8
0
  6
CONTINUOUS
 62
               7
100
AcDbLine
 10
-1.0
 20
9.5
 30
0.0
 11
-1.0
 21
6.5
 31
0.0
  0
LINE
  5
105
100
AcDbEntity
  8
0
  6
CONTINUOUS
 62
               7
100
AcDbLine
 10
-7.7000000000000171
 20
9.5
 30
0.0
 11
-7.7000000000000171
 21
6.5
 31
0.0
  0
LINE
  5
106
100
AcDbEntity
  8
0
  6
CONTINUOUS
 62
               7
100
AcDbLine
 10
-7.7000000000000171
 20
6.5
 30
0.0
 11
-8.0
 21
6.7999999999999972
 31
0.0
  0
LINE
  5
107
100
AcDbEntity
  8
0
  6
CONTINUOUS
 62
               2
100
AcDbLine
 10
-8.0
 20
6.7999999999999972
 30
0.0
 11
-5.5999999999999943
 21
6.7999999999999972
 31
0.0
  0
LINE
  5
108
100
AcDbEntity
  8
0
  6
CONTINUOUS
 62
               7
100
AcDbLine
 10
-7.7000000000000171
 20
9.5
 30
0.0
 11
-5.5999999999999943
 21
9.5
 31
0.0
  0
LINE
  5
109
100
AcDbEntity
  8
0
  6
CONTINUOUS
 62
               7
100
AcDbLine
 10
-7.7000000000000171
 20
9.5
 30
0.0
 11
-8.0
 21
9.2000000000000028
 31
0.0
  0
LINE
  5
10A
100
AcDbEntity
  8
0
  6
CONTINUOUS
 62
               2
100
AcDbLine
 10
-8.0
 20
9.2000000000000028
 30
0.0
 11
-5.5999999999999943
 21
9.2000000000000028
 31
0.0
  0
LINE
  5
10B
100
AcDbEntity
  8
0
  6
CONTINUOUS
 62
               2
100
AcDbLine
 10
-2.0
 20
6.7999999999999972
 30
0.0
 11
-1.0
 21
6.7999999999999972
 31
0.0
  0
LINE
  5
10C
100
AcDbEntity
  8
0
  6
CONTINUOUS
 62
               2
100
AcDbLine
 10
-2.0
 20
9.2000000000000028
 30
0.0
 11
-1.0
 21
9.2000000000000028
 31
0.0
  0
LINE
  5
10D
100
AcDbEntity
  8
0
  6
CONTINUOUS
 62
               2
100
AcDbLine
 10
-1.0
 20
9.2000000000000028
 30
0.0
 11
-0.4803847577293539
 21
9.5
 31
0.0
  0
LINE
  5
10E
100
AcDbEntity
  8
0
  6
CONTINUOUS
 62
               2
100
AcDbLine
 10
-1.0
 20
6.7999999999999972
 30
0.0
 11
-0.4803847577293539
 21
6.5
 31
0.0
  0
SPLINE
  5
10F
100
AcDbEntity
  8
0
  6
CONTINUOUS
 62
               7
100
AcDbSpline
210
0.0
220
0.0
230
1.0
 70
               0
 71
               3
 72
               0
 73
               0
 74
               5
 44
0.000001
 12
-0.3364389337625614
 22
0.9417052850274925
 32
0.0
 13
0.3364389335092213
 23
0.9417052851180021
 33
0.0
 11
-3.5543798798272803
 21
5.250000018878012
 31
0.0
 11
-3.7359307314102335
 21
5.9263140562489101
 31
0.0
 11
-3.7999999999999972
 21
6.625
 31
0.0
 11
-3.7359307329601386
 21
7.3236859533231211
 31
0.0
 11
-3.5543798798272803
 21
8.0
 31
0.0
  0
SPLINE
  5
110
100
AcDbEntity
  8
0
  6
CONTINUOUS
 62
               7
100
AcDbSpline
210
0.0
220
0.0
230
1.0
 70
               0
 71
               3
 72
               0
 73
               0
 74
               5
 44
0.000001
 12
0.3364389337625613
 22
0.9417052850274925
 32
0.0
 13
-0.3364389335092214
 23
0.9417052851180021
 33
0.0
 11
-2.2456201201727168
 21
5.250000018878012
 31
0.0
 11
-2.0640692685897637
 21
5.9263140562489101
 31
0.0
 11
-2.0
 21
6.625
 31
0.0
 11
-2.0640692670398586
 21
7.3236859533231211
 31
0.0
 11
-2.2456201201727168
 21
8.0
 31
0.0
  0
SPLINE
  5
111
100
AcDbEntity
  8
0
  6
CONTINUOUS
 62
               7
100
AcDbSpline
210
0.0
220
0.0
230
1.0
 70
               0
 71
               3
 72
               0
 73
               0
 74
               5
 44
0.000001
 12
-0.3364389337625614
 22
0.9417052850274925
 32
0.0
 13
0.3364389335092213
 23
0.9417052851180021
 33
0.0
 11
-5.3543798798272775
 21
5.250000018878012
 31
0.0
 11
-5.5359307314102306
 21
5.9263140562489101
 31
0.0
 11
-5.5999999999999943
 21
6.625
 31
0.0
 11
-5.5359307329601357
 21
7.3236859533231211
 31
0.0
 11
-5.3543798798272775
 21
8.0
 31
0.0
  0
SPLINE
  5
112
100
AcDbEntity
  8
0
  6
CONTINUOUS
 62
               7
100
AcDbSpline
210
0.0
220
0.0
230
1.0
 70
               0
 71
               3
 72
               0
 73
               0
 74
               5
 44
0.000001
 12
0.3364389337625613
 22
0.9417052850274925
 32
0.0
 13
-0.3364389335092214
 23
0.9417052851180021
 33
0.0
 11
-4.045620120172714
 21
5.250000018878012
 31
0.0
 11
-3.8640692685897609
 21
5.9263140562489101
 31
0.0
 11
-3.7999999999999972
 21
6.625
 31
0.0
 11
-3.8640692670398558
 21
7.3236859533231211
 31
0.0
 11
-4.045620120172714
 21
8.0
 31
0.0
  0
SPLINE
  5
113
100
AcDbEntity
  8
0
  6
CONTINUOUS
 62
               7
100
AcDbSpline
210
0.0
220
0.0
230
1.0
 70
               0
 71
               3
 72
               0
 73
               0
 74
               5
 44
0.000001
 12
-0.3364389337625614
 22
-0.9417052850274925
 32
0.0
 13
0.3364389335092213
 23
-0.9417052851180021
 33
0.0
 11
-5.3543798798272775
 21
10.749999981121988
 31
0.0
 11
-5.5359307314102306
 21
10.073685943751091
 31
0.0
 11
-5.5999999999999943
 21
9.375
 31
0.0
 11
-5.5359307329601357
 21
8.6763140466768789
 31
0.0
 11
-5.3543798798272775
 21
8.0
 31
0.0
  0
SPLINE
  5
114
100
AcDbEntity
  8
0
  6
CONTINUOUS
 62
               7
100
AcDbSpline
210
0.0
220
0.0
230
1.0
 70
               0
 71
               3
 72
               0
 73
               0
 74
               5
 44
0.000001
 12
0.3364389337625613
 22
-0.9417052850274925
 32
0.0
 13
-0.3364389335092214
 23
-0.9417052851180021
 33
0.0
 11
-4.045620120172714
 21
10.749999981121988
 31
0.0
 11
-3.8640692685897609
 21
10.073685943751091
 31
0.0
 11
-3.7999999999999972
 21
9.375
 31
0.0
 11
-3.8640692670398558
 21
8.6763140466768789
 31
0.0
 11
-4.045620120172714
 21
8.0
 31
0.0
  0
SPLINE
  5
115
100
AcDbEntity
  8
0
  6
CONTINUOUS
 62
               7
100
AcDbSpline
210
0.0
220
0.0
230
1.0
 70
               0
 71
               3
 72
               0
 73
               0
 74
               5
 44
0.000001
 12
-0.3364389337625614
 22
-0.9417052850274925
 32
0.0
 13
0.3364389335092213
 23
-0.9417052851180021
 33
0.0
 11
-3.5543798798272803
 21
10.749999981121988
 31
0.0
 11
-3.7359307314102335
 21
10.073685943751091
 31
0.0
 11
-3.7999999999999972
 21
9.375
 31
0.0
 11
-3.7359307329601386
 21
8.6763140466768789
 31
0.0
 11
-3.5543798798272803
 21
8.0
 31
0.0
  0
SPLINE
  5
116
100
AcDbEntity
  8
0
  6
CONTINUOUS
 62
               7
100
AcDbSpline
210
0.0
220
0.0
230
1.0
 70
               0
 71
               3
 72
               0
 73
               0
 74
               5
 44
0.000001
 12
0.3364389337625613
 22
-0.9417052850274925
 32
0.0
 13
-0.3364389335092214
 23
-0.9417052851180021
 33
0.0
 11
-2.2456201201727168
 21
10.749999981121988
 31
0.0
 11
-2.0640692685897637
 21
10.073685943751091
 31
0.0
 11
-2.0
 21
9.375
 31
0.0
 11
-2.0640692670398586
 21
8.6763140466768789
 31
0.0
 11
-2.2456201201727168
 21
8.0
 31
0.0
  0
LINE
  5
117
100
AcDbEntity
  8
0
  6
CONTINUOUS
 62
               7
100
AcDbLine
 10
-2.0
 20
10.750000018878012
 30
0.0
 11
-2.0
 21
5.250000018878012
 31
0.0
  0
LINE
  5
118
100
AcDbEntity
  8
0
  6
CONTINUOUS
 62
               7
100
AcDbLine
 10
-5.5999999999999943
 20
10.750000018878012
 30
0.0
 11
-5.5999999999999943
 21
5.250000018878012
 31
0.0
  0
LINE
  5
119
100
AcDbEntity
  8
0
  6
CONTINUOUS
 62
               7
100
AcDbLine
 10
-3.7999999999999972
 20
10.750000018878012
 30
0.0
 11
-3.7999999999999972
 21
5.250000018878012
 31
0.0
  0
LINE
  5
11A
100
AcDbEntity
  8
0
  6
CONTINUOUS
 62
               7
100
AcDbLine
 10
-3.7999999999999972
 20
5.250000018878012
 30
0.0
 11
-5.5999999999999943
 21
5.250000018878012
 31
0.0
  0
LINE
  5
11B
100
AcDbEntity
  8
0
  6
CONTINUOUS
 62
               7
100
AcDbLine
 10
-3.7999999999999972
 20
5.250000018878012
 30
0.0
 11
-2.0
 21
5.250000018878012
 31
0.0
  0
LINE
  5
11C
100
AcDbEntity
  8
0
  6
CONTINUOUS
 62
               7
100
AcDbLine
 10
-3.5543798798272803
 20
8.0
 30
0.0
 11
-2.2456201201727168
 21
8.0
 31
0.0
  0
LINE
  5
11D
100
AcDbEntity
  8
0
  6
CONTINUOUS
 62
               7
100
AcDbLine
 10
-3.7999999999999972
 20
10.75
 30
0.0
 11
-2.0
 21
10.75
 31
0.0
  0
LINE
  5
11E
100
AcDbEntity
  8
0
  6
CONTINUOUS
 62
               7
100
AcDbLine
 10
-3.7999999999999972
 20
10.75
 30
0.0
 11
-5.5999999999999943
 21
10.75
 31
0.0
  0
LINE
  5
11F
100
AcDbEntity
  8
0
  6
CONTINUOUS
 62
               7
100
AcDbLine
 10
-4.045620120172714
 20
8.0
 30
0.0
 11
-5.3543798798272775
 21
8.0
 31
0.0
  0
LINE
  5
120
100
AcDbEntity
  8
0
  6
CONTINUOUS
 62
               7
100
AcDbLine
 10
0.0
 20
9.5
 30
0.0
 11
-2.0
 21
9.5
 31
0.0
  0
LINE
  5
121
100
AcDbEntity
  8
0
  6
CONTINUOUS
 62
               7
100
AcDbLine
 10
0.0
 20
6.5
 30
0.0
 11
-2.0
 21
6.5
 31
0.0
  0
LINE
  5
122
100
AcDbEntity
  8
0
  6
CONTINUOUS
 62
               4
100
AcDbLine
 10
30.0
 20
4.4507358988099028
 30
0.0
 11
39.334936501271386
 21
4.4507358988099028
 31
0.0
  0
LINE
  5
123
100
AcDbEntity
  8
0
  6
CONTINUOUS
 62
             200
100
AcDbLine
 10
38.304332834218258
 20
0.604470608260435
 30
0.0
 11
39.713301720596519
 21
5.8628141368024487
 31
0.0
  0
LINE
  5
124
100
AcDbEntity
  8
0
  6
CONTINUOUS
 62
               4
100
AcDbLine
 10
21.000000000000227
 20
2.9174461737222259
 30
0.0
 11
21.000000000000227
 21
0.5844408208044314
 31
0.0
  0
LINE
  5
125
100
AcDbEntity
  8
0
  6
CONTINUOUS
 62
               4
100
AcDbLine
 10
21.000000000000227
 20
1.9507358988099028
 30
0.0
 11
38.66506352761985
 21
1.9507358988099028
 31
0.0
  0
LINE
  5
126
100
AcDbEntity
  8
0
  6
CONTINUOUS
 62
               4
100
AcDbLine
 10
7.25
 20
0.7790755738986874
 30
0.0
 11
7.25
 21
2.5111263814675837
 31
0.0
  0
LINE
  5
127
100
AcDbEntity
  8
0
  6
CONTINUOUS
 62
               4
100
AcDbLine
 10
7.75
 20
0.7790755738986874
 30
0.0
 11
7.75
 21
2.5111263814675837
 31
0.0
  0
ELLIPSE
  5
128
100
AcDbEntity
  8
0
  6
CONTINUOUS
 62
               4
100
AcDbEllipse
 10
7.5
 20
1.6451009776831356
 30
0.0
 11
-1.25
 21
0.0000000000000002
 31
0.0
210
0.0
220
0.0
230
1.0
 40
0.7071067811865476
 41
0.0
 42
6.2831853071795862
  0
LINE
  5
129
100
AcDbEntity
  8
0
  6
CONTINUOUS
 62
               4
100
AcDbLine
 10
5.5
 20
2.9174461737222259
 30
0.0
 11
5.5
 21
0.5844408208044314
 31
0.0
  0
LINE
  5
12A
100
AcDbEntity
  8
0
  6
CONTINUOUS
 62
               7
100
AcDbLine
 10
0.0
 20
0.5301515231747374
 30
0.0
 11
30.0
 21
0.5301515231747374
 31
0.0
  0
LINE
  5
12B
100
AcDbEntity
  8
0
  6
CONTINUOUS
 62
               7
100
AcDbLine
 10
21.000000000000227
 20
0.883704913768014
 30
0.0
 11
30.0
 21
0.883704913768014
 31
0.0
  0
LINE
  5
12C
100
AcDbEntity
  8
0
  6
CONTINUOUS
 62
               7
100
AcDbLine
 10
30.0
 20
2.9174461737222259
 30
0.0
 11
30.0
 21
12.0
 31
0.0
  0
LINE
  5
12D
100
AcDbEntity
  8
0
  6
CONTINUOUS
 62
               4
100
AcDbLine
 10
5.500000026198677
 20
0.5844408208044314
 30
0.0
 11
21.000000026198677
 21
0.5844408208044314
 31
0.0
  0
LINE
  5
12E
100
AcDbEntity
  8
0
  6
CONTINUOUS
 62
               4
100
AcDbLine
 10
5.500000026198677
 20
2.7057611643641906
 30
0.0
 11
21.000000026198677
 21
2.7057611643641906
 31
0.0
  0
LINE
  5
12F
100
AcDbEntity
  8
0
  6
CENTER
 62
               2
100
AcDbLine
 10
5.0
 20
10.5
 30
0.0
 11
5.0
 21
13.5
 31
0.0
  0
ENDBLK
  5
130
100
AcDbEntity
  8
0
100
AcDbBlockEnd
  0
BLOCK
  5
131
100
AcDbEntity
  8
0
100
AcDbBlockBegin
  2
MS_4
 70
               0
 10
0.0
 20
0.0
 30
0.0
  3
MS_4
  1

  0
LINE
  5
132
100
AcDbEntity
  8
0
  6
PHANTOM
 62
               3
100
AcDbLine
 10
14.048499372902967
 20
17.0
 30
0.0
 11
14.048499372902967
 21
-4.9415297232617945
 31
0.0
  0
CIRCLE
  5
133
100
AcDbEntity
  8
0
  6
DASHED
 62
               7
100
AcDbCircle
 10
26.999999999999972
 20
4.0000000000000142
 30
0.0
 40
1.1999999999999886
  0
CIRCLE
  5
134
100
AcDbEntity
  8
0
  6
DASHED
 62
               2
100
AcDbCircle
 10
26.999999999999972
 20
4.0000000000000142
 30
0.0
 40
1.5
  0
LINE
  5
135
100
AcDbEntity
  8
0
  6
CENTER
 62
               2
100
AcDbLine
 10
26.999999999999972
 20
5.9547775518886965
 30
0.0
 11
26.999999999999972
 21
2.0239043419708906
 31
0.0
  0
CIRCLE
  5
136
100
AcDbEntity
  8
0
  6
DASHED
 62
               7
100
AcDbCircle
 10
10.0
 20
4.0000000000000142
 30
0.0
 40
1.1999999999999886
  0
CIRCLE
  5
137
100
AcDbEntity
  8
0
  6
DASHED
 62
               2
100
AcDbCircle
 10
10.0
 20
4.0000000000000142
 30
0.0
 40
1.5
  0
LINE
  5
138
100
AcDbEntity
  8
0
  6
CENTER
 62
               2
100
AcDbLine
 10
10.0
 20
5.9547775518886965
 30
0.0
 11
10.0
 21
2.0239043419708906
 31
0.0
  0
LINE
  5
139
100
AcDbEntity
  8
0
  6
CONTINUOUS
 62
               7
100
AcDbLine
 10
0.0
 20
5.5
 30
0.0
 11
-2.0
 21
5.5
 31
0.0
  0
LINE
  5
13A
100
AcDbEntity
  8
0
  6
CONTINUOUS
 62
               7
100
AcDbLine
 10
0.0
 20
2.5
 30
0.0
 11
-2.0
 21
2.5
 31
0.0
  0
LINE
  5
13B
100
AcDbEntity
  8
0
  6
CONTINUOUS
 62
               7
100
AcDbLine
 10
-4.045620120172714
 20
4.0
 30
0.0
 11
-5.3543798798272775
 21
4.0
 31
0.0
  0
LINE
  5
13C
100
AcDbEntity
  8
0
  6
CONTINUOUS
 62
               7
100
AcDbLine
 10
-3.7999999999999972
 20
1.25
 30
0.0
 11
-5.5999999999999943
 21
1.25
 31
0.0
  0
LINE
  5
13D
100
AcDbEntity
  8
0
  6
CONTINUOUS
 62
               7
100
AcDbLine
 10
-3.7999999999999972
 20
1.25
 30
0.0
 11
-2.0
 21
1.25
 31
0.0
  0
LINE
  5
13E
100
AcDbEntity
  8
0
  6
CONTINUOUS
 62
               7
100
AcDbLine
 10
-3.5543798798272803
 20
4.0
 30
0.0
 11
-2.2456201201727168
 21
4.0
 31
0.0
  0
LINE
  5
13F
100
AcDbEntity
  8
0
  6
CONTINUOUS
 62
               7
100
AcDbLine
 10
-3.7999999999999972
 20
6.749999981121988
 30
0.0
 11
-2.0
 21
6.749999981121988
 31
0.0
  0
LINE
  5
140
100
AcDbEntity
  8
0
  6
CONTINUOUS
 62
               7
100
AcDbLine
 10
-3.7999999999999972
 20
6.749999981121988
 30
0.0
 11
-5.5999999999999943
 21
6.749999981121988
 31
0.0
  0
LINE
  5
141
100
AcDbEntity
  8
0
  6
CONTINUOUS
 62
               7
100
AcDbLine
 10
-3.7999999999999972
 20
1.249999981121988
 30
0.0
 11
-3.7999999999999972
 21
6.749999981121988
 31
0.0
  0
LINE
  5
142
100
AcDbEntity
  8
0
  6
CONTINUOUS
 62
               7
100
AcDbLine
 10
-5.5999999999999943
 20
1.249999981121988
 30
0.0
 11
-5.5999999999999943
 21
6.749999981121988
 31
0.0
  0
LINE
  5
143
100
AcDbEntity
  8
0
  6
CONTINUOUS
 62
               7
100
AcDbLine
 10
-2.0
 20
1.249999981121988
 30
0.0
 11
-2.0
 21
6.749999981121988
 31
0.0
  0
SPLINE
  5
144
100
AcDbEntity
  8
0
  6
CONTINUOUS
 62
               7
100
AcDbSpline
210
0.0
220
0.0
230
1.0
 70
               0
 71
               3
 72
               0
 73
               0
 74
               5
 44
0.000001
 12
0.3364389337625613
 22
0.9417052850274925
 32
0.0
 13
-0.3364389335092214
 23
0.9417052851180021
 33
0.0
 11
-2.2456201201727168
 21
1.250000018878012
 31
0.0
 11
-2.0640692685897637
 21
1.9263140562489101
 31
0.0
 11
-2.0
 21
2.625
 31
0.0
 11
-2.0640692670398586
 21
3.3236859533231216
 31
0.0
 11
-2.2456201201727168
 21
4.0
 31
0.0
  0
SPLINE
  5
145
100
AcDbEntity
  8
0
  6
CONTINUOUS
 62
               7
100
AcDbSpline
210
0.0
220
0.0
230
1.0
 70
               0
 71
               3
 72
               0
 73
               0
 74
               5
 44
0.000001
 12
-0.3364389337625614
 22
0.9417052850274925
 32
0.0
 13
0.3364389335092213
 23
0.9417052851180021
 33
0.0
 11
-3.5543798798272803
 21
1.250000018878012
 31
0.0
 11
-3.7359307314102335
 21
1.9263140562489101
 31
0.0
 11
-3.7999999999999972
 21
2.625
 31
0.0
 11
-3.7359307329601386
 21
3.3236859533231216
 31
0.0
 11
-3.5543798798272803
 21
4.0
 31
0.0
  0
SPLINE
  5
146
100
AcDbEntity
  8
0
  6
CONTINUOUS
 62
               7
100
AcDbSpline
210
0.0
220
0.0
230
1.0
 70
               0
 71
               3
 72
               0
 73
               0
 74
               5
 44
0.000001
 12
0.3364389337625613
 22
0.9417052850274925
 32
0.0
 13
-0.3364389335092214
 23
0.9417052851180021
 33
0.0
 11
-4.045620120172714
 21
1.250000018878012
 31
0.0
 11
-3.8640692685897609
 21
1.9263140562489101
 31
0.0
 11
-3.7999999999999972
 21
2.625
 31
0.0
 11
-3.8640692670398558
 21
3.3236859533231216
 31
0.0
 11
-4.045620120172714
 21
4.0
 31
0.0
  0
SPLINE
  5
147
100
AcDbEntity
  8
0
  6
CONTINUOUS
 62
               7
100
AcDbSpline
210
0.0
220
0.0
230
1.0
 70
               0
 71
               3
 72
               0
 73
               0
 74
               5
 44
0.000001
 12
-0.3364389337625614
 22
0.9417052850274925
 32
0.0
 13
0.3364389335092213
 23
0.9417052851180021
 33
0.0
 11
-5.3543798798272775
 21
1.250000018878012
 31
0.0
 11
-5.5359307314102306
 21
1.9263140562489101
 31
0.0
 11
-5.5999999999999943
 21
2.625
 31
0.0
 11
-5.5359307329601357
 21
3.3236859533231216
 31
0.0
 11
-5.3543798798272775
 21
4.0
 31
0.0
  0
SPLINE
  5
148
100
AcDbEntity
  8
0
  6
CONTINUOUS
 62
               7
100
AcDbSpline
210
0.0
220
0.0
230
1.0
 70
               0
 71
               3
 72
               0
 73
               0
 74
               5
 44
0.000001
 12
0.3364389337625613
 22
-0.9417052850274925
 32
0.0
 13
-0.3364389335092214
 23
-0.9417052851180021
 33
0.0
 11
-4.045620120172714
 21
6.749999981121988
 31
0.0
 11
-3.8640692685897609
 21
6.0736859437510899
 31
0.0
 11
-3.7999999999999972
 21
5.375
 31
0.0
 11
-3.8640692670398558
 21
4.6763140466768789
 31
0.0
 11
-4.045620120172714
 21
4.0
 31
0.0
  0
SPLINE
  5
149
100
AcDbEntity
  8
0
  6
CONTINUOUS
 62
               7
100
AcDbSpline
210
0.0
220
0.0
230
1.0
 70
               0
 71
               3
 72
               0
 73
               0
 74
               5
 44
0.000001
 12
-0.3364389337625614
 22
-0.9417052850274925
 32
0.0
 13
0.3364389335092213
 23
-0.9417052851180021
 33
0.0
 11
-5.3543798798272775
 21
6.749999981121988
 31
0.0
 11
-5.5359307314102306
 21
6.0736859437510899
 31
0.0
 11
-5.5999999999999943
 21
5.375
 31
0.0
 11
-5.5359307329601357
 21
4.6763140466768789
 31
0.0
 11
-5.3543798798272775
 21
4.0
 31
0.0
  0
SPLINE
  5
14A
100
AcDbEntity
  8
0
  6
CONTINUOUS
 62
               7
100
AcDbSpline
210
0.0
220
0.0
230
1.0
 70
               0
 71
               3
 72
               0
 73
               0
 74
               5
 44
0.000001
 12
0.3364389337625613
 22
-0.9417052850274925
 32
0.0
 13
-0.3364389335092214
 23
-0.9417052851180021
 33
0.0
 11
-2.2456201201727168
 21
6.749999981121988
 31
0.0
 11
-2.0640692685897637
 21
6.0736859437510899
 31
0.0
 11
-2.0
 21
5.375
 31
0.0
 11
-2.0640692670398586
 21
4.6763140466768789
 31
0.0
 11
-2.2456201201727168
 21
4.0
 31
0.0
  0
SPLINE
  5
14B
100
AcDbEntity
  8
0
  6
CONTINUOUS
 62
               7
100
AcDbSpline
210
0.0
220
0.0
230
1.0
 70
               0
 71
               3
 72
               0
 73
               0
 74
               5
 44
0.000001
 12
-0.3364389337625614
 22
-0.9417052850274925
 32
0.0
 13
0.3364389335092213
 23
-0.9417052851180021
 33
0.0
 11
-3.5543798798272803
 21
6.749999981121988
 31
0.0
 11
-3.7359307314102335
 21
6.0736859437510899
 31
0.0
 11
-3.7999999999999972
 21
5.375
 31
0.0
 11
-3.7359307329601386
 21
4.6763140466768789
 31
0.0
 11
-3.5543798798272803
 21
4.0
 31
0.0
  0
LINE
  5
14C
100
AcDbEntity
  8
0
  6
CONTINUOUS
 62
               2
100
AcDbLine
 10
-1.0
 20
5.2000000000000028
 30
0.0
 11
-0.4803847577293539
 21
5.5
 31
0.0
  0
LINE
  5
14D
100
AcDbEntity
  8
0
  6
CONTINUOUS
 62
               2
100
AcDbLine
 10
-1.0
 20
2.7999999999999972
 30
0.0
 11
-0.4803847577293539
 21
2.5
 31
0.0
  0
LINE
  5
14E
100
AcDbEntity
  8
0
  6
CONTINUOUS
 62
               2
100
AcDbLine
 10
-2.0
 20
2.7999999999999972
 30
0.0
 11
-1.0
 21
2.7999999999999972
 31
0.0
  0
LINE
  5
14F
100
AcDbEntity
  8
0
  6
CONTINUOUS
 62
               2
100
AcDbLine
 10
-2.0
 20
5.2000000000000028
 30
0.0
 11
-1.0
 21
5.2000000000000028
 31
0.0
  0
LINE
  5
150
100
AcDbEntity
  8
0
  6
CONTINUOUS
 62
               2
100
AcDbLine
 10
-8.0
 20
2.7999999999999972
 30
0.0
 11
-5.5999999999999943
 21
2.7999999999999972
 31
0.0
  0
LINE
  5
151
100
AcDbEntity
  8
0
  6
CONTINUOUS
 62
               7
100
AcDbLine
 10
-7.7000000000000171
 20
2.5
 30
0.0
 11
-8.0
 21
2.7999999999999972
 31
0.0
  0
LINE
  5
152
100
AcDbEntity
  8
0
  6
CONTINUOUS
 62
               7
100
AcDbLine
 10
-7.7000000000000171
 20
2.5
 30
0.0
 11
-5.5999999999999943
 21
2.5
 31
0.0
  0
LINE
  5
153
100
AcDbEntity
  8
0
  6
CONTINUOUS
 62
               2
100
AcDbLine
 10
-8.0
 20
5.2000000000000028
 30
0.0
 11
-5.5999999999999943
 21
5.2000000000000028
 31
0.0
  0
LINE
  5
154
100
AcDbEntity
  8
0
  6
CONTINUOUS
 62
               7
100
AcDbLine
 10
-7.7000000000000171
 20
5.5
 30
0.0
 11
-8.0
 21
5.2000000000000028
 31
0.0
  0
LINE
  5
155
100
AcDbEntity
  8
0
  6
CONTINUOUS
 62
               7
100
AcDbLine
 10
-7.7000000000000171
 20
2.5
 30
0.0
 11
-7.7000000000000171
 21
5.5
 31
0.0
  0
LINE
  5
156
100
AcDbEntity
  8
0
  6
CONTINUOUS
 62
               7
100
AcDbLine
 10
-1.0
 20
2.5
 30
0.0
 11
-1.0
 21
5.5
 31
0.0
  0
LINE
  5
157
100
AcDbEntity
  8
0
  6
CONTINUOUS
 62
               7
100
AcDbLine
 10
-8.0
 20
2.7999999999999972
 30
0.0
 11
-8.0
 21
5.2000000000000028
 31
0.0
  0
LINE
  5
158
100
AcDbEntity
  8
0
  6
CONTINUOUS
 62
               7
100
AcDbLine
 10
-7.7000000000000171
 20
5.5
 30
0.0
 11
-5.5999999999999943
 21
5.5
 31
0.0
  0
LINE
  5
159
100
AcDbEntity
  8
0
  6
CONTINUOUS
 62
               7
100
AcDbLine
 10
30.0
 20
12.0
 30
0.0
 11
30.0
 21
11.415559179195562
 31
0.0
  0
LINE
  5
15A
100
AcDbEntity
  8
0
  6
CONTINUOUS
 62
               7
100
AcDbLine
 10
0.0
 20
12.0
 30
0.0
 11
0.0
 21
0.0
 31
0.0
  0
LINE
  5
15B
100
AcDbEntity
  8
0
  6
CONTINUOUS
 62
               7
100
AcDbLine
 10
0.0
 20
0.0
 30
0.0
 11
30.0
 21
0.0
 31
0.0
  0
LINE
  5
15C
100
AcDbEntity
  8
0
  6
CONTINUOUS
 62
               7
100
AcDbLine
 10
0.0
 20
8.4999999777330402
 30
0.0
 11
30.0
 21
8.4999999777330402
 31
0.0
  0
LINE
  5
15D
100
AcDbEntity
  8
0
  6
CONTINUOUS
 62
               7
100
AcDbLine
 10
0.0
 20
11.469848476825263
 30
0.0
 11
30.0
 21
11.469848476825263
 31
0.0
  0
LINE
  5
15E
100
AcDbEntity
  8
0
  6
CONTINUOUS
 62
               7
100
AcDbLine
 10
0.0
 20
9.082553826277767
 30
0.0
 11
30.0
 21
9.082553826277767
 31
0.0
  0
LINE
  5
15F
100
AcDbEntity
  8
0
  6
CONTINUOUS
 62
               7
100
AcDbLine
 10
0.0
 20
11.116295086231986
 30
0.0
 11
15.499999999999773
 21
11.116295086231986
 31
0.0
  0
LINE
  5
160
100
AcDbEntity
  8
0
  6
CONTINUOUS
 62
               7
100
AcDbLine
 10
0.0
 20
12.0
 30
0.0
 11
30.0
 21
12.0
 31
0.0
  0
LINE
  5
161
100
AcDbEntity
  8
0
  6
CENTER
 62
               2
100
AcDbLine
 10
-9.2875397726956663
 20
4.0
 30
0.0
 11
31.706095837897948
 21
4.0
 31
0.0
  0
LINE
  5
162
100
AcDbEntity
  8
0
  6
CONTINUOUS
 62
               4
100
AcDbLine
 10
30.0
 20
8.1628680006385892
 30
0.0
 11
31.0
 21
8.1628680006385892
 31
0.0
  0
LINE
  5
163
100
AcDbEntity
  8
0
  6
CONTINUOUS
 62
               4
100
AcDbLine
 10
30.000000019764684
 20
6.4164213801166241
 30
0.0
 11
31.000000019764684
 21
6.4164213801166241
 31
0.0
  0
LINE
  5
164
100
AcDbEntity
  8
0
  6
CONTINUOUS
 62
               4
100
AcDbLine
 10
31.0
 20
10.049264101190097
 30
0.0
 11
39.334936501271386
 21
10.049264101190097
 31
0.0
  0
LINE
  5
165
100
AcDbEntity
  8
0
  6
CONTINUOUS
 62
               4
100
AcDbLine
 10
31.0
 20
7.5492641011900972
 30
0.0
 11
38.66506352761985
 21
7.5492641011900972
 31
0.0
  0
LINE
  5
166
100
AcDbEntity
  8
0
  6
CONTINUOUS
 62
             200
100
AcDbLine
 10
38.304332834218258
 20
6.2029988106406293
 30
0.0
 11
39.713301720596519
 21
11.461342339182643
 31
0.0
  0
LINE
  5
167
100
AcDbEntity
  8
0
  6
CONTINUOUS
 62
               4
100
AcDbLine
 10
31.0
 20
6.4164213801166241
 30
0.0
 11
31.0
 21
11.415559179195562
 31
0.0
  0
LINE
  5
168
100
AcDbEntity
  8
0
  6
CONTINUOUS
 62
               4
100
AcDbLine
 10
17.249999999999773
 20
11.220924426101313
 30
0.0
 11
17.249999999999773
 21
9.4888736185324163
 31
0.0
  0
LINE
  5
169
100
AcDbEntity
  8
0
  6
CONTINUOUS
 62
               4
100
AcDbLine
 10
17.749999999999773
 20
11.220924426101313
 30
0.0
 11
17.749999999999773
 21
9.4888736185324163
 31
0.0
  0
ELLIPSE
  5
16A
100
AcDbEntity
  8
0
  6
CONTINUOUS
 62
               4
100
AcDbEllipse
 10
17.499999999999773
 20
10.354899022316864
 30
0.0
 11
-1.25
 21
0.0000000000000002
 31
0.0
210
0.0
220
0.0
230
1.0
 40
0.7071067811865476
 41
0.0
 42
6.2831853071795862
  0
LINE
  5
16B
100
AcDbEntity
  8
0
  6
CONTINUOUS
 62
               4
100
AcDbLine
 10
15.499999999999773
 20
9.082553826277767
 30
0.0
 11
15.499999999999773
 21
11.415559179195562
 31
0.0
  0
LINE
  5
16C
100
AcDbEntity
  8
0
  6
CONTINUOUS
 62
               7
100
AcDbLine
 10
30.0
 20
9.082553826277767
 30
0.0
 11
30.0
 21
0.0
 31
0.0
  0
LINE
  5
16D
100
AcDbEntity
  8
0
  6
CONTINUOUS
 62
               4
100
AcDbLine
 10
31.0
 20
11.415559179195562
 30
0.0
 11
15.499999999999773
 21
11.415559179195562
 31
0.0
  0
LINE
  5
16E
100
AcDbEntity
  8
0
  6
CONTINUOUS
 62
               4
100
AcDbLine
 10
31.0
 20
9.2942388356358023
 30
0.0
 11
15.499999999999773
 21
9.2942388356358023
 31
0.0
  0
LINE
  5
16F
100
AcDbEntity
  8
0
  6
CENTER
 62
               2
100
AcDbLine
 10
5.0
 20
1.5
 30
0.0
 11
5.0
 21
-1.5
 31
0.0
  0
ENDBLK
  5
170
100
AcDbEntity
  8
0
100
AcDbBlockEnd
  0
BLOCK
  5
171
100
AcDbEntity
  8
0
100
AcDbBlockBegin
  2
MS_5
 70
               0
 10
0.0
 20
0.0
 30
0.0
  3
MS_5
  1

  0
LINE
  5
172
100
AcDbEntity
  8
0
  6
PHANTOM
 62
               3
100
AcDbLine
 10
12.248499372902973
 20
2.0940777761922682
 30
0.0
 11
12.248499372902973
 21
-18.011814326647574
 31
0.0
  0
LINE
  5
173
100
AcDbEntity
  8
0
  6
PHANTOM
 62
               3
100
AcDbLine
 10
23.376913946366713
 20
2.0940777761922682
 30
0.0
 11
12.248499372902973
 21
2.0940777761922682
 31
0.0
  0
LINE
  5
174
100
AcDbEntity
  8
0
  6
PHANTOM
 62
               3
100
AcDbLine
 10
23.376913946366713
 20
14.192916905444129
 30
0.0
 11
23.376913946366713
 21
2.0940777761922682
 31
0.0
  0
LINE
  5
175
100
AcDbEntity
  8
0
  6
CONTINUOUS
 62
               4
100
AcDbLine
 10
7.25
 20
7.5111263741018073
 30
0.0
 11
7.25
 21
5.779075566532911
 31
0.0
  0
LINE
  5
176
100
AcDbEntity
  8
0
  6
CONTINUOUS
 62
               4
100
AcDbLine
 10
7.75
 20
7.5111263741018073
 30
0.0
 11
7.75
 21
5.779075566532911
 31
0.0
  0
ELLIPSE
  5
177
100
AcDbEntity
  8
0
  6
CONTINUOUS
 62
               4
100
AcDbEllipse
 10
7.5
 20
6.6451009703173876
 30
0.0
 11
-1.25
 21
0.0000000000000002
 31
0.0
210
0.0
220
0.0
230
1.0
 40
0.7071067811865476
 41
0.0
 42
6.2831853071795862
  0
LINE
  5
178
100
AcDbEntity
  8
0
  6
CONTINUOUS
 62
               4
100
AcDbLine
 10
5.5
 20
4.4530699486390839
 30
0.0
 11
6.3451793249215882
 21
4.4530699486390839
 31
0.0
  0
LINE
  5
179
100
AcDbEntity
  8
0
  6
CONTINUOUS
 62
               4
100
AcDbLine
 10
5.5
 20
7.705761142097181
 30
0.0
 11
5.5
 21
4.4530699486390839
 31
0.0
  0
LINE
  5
17A
100
AcDbEntity
  8
0
  6
CONTINUOUS
 62
               4
100
AcDbLine
 10
20.5
 20
5.4060849870406145
 30
0.0
 11
20.5
 21
11.559493011144738
 31
0.0
  0
LINE
  5
17B
100
AcDbEntity
  8
0
  6
CONTINUOUS
 62
               4
100
AcDbLine
 10
18.0
 20
8.6603552161732722
 30
0.0
 11
18.0
 21
9.3674620168657583
 31
0.0
  0
LINE
  5
17C
100
AcDbEntity
  8
0
  6
CONTINUOUS
 62
               4
100
AcDbLine
 10
20.099999984001897
 20
10.109924137111634
 30
0.0
 11
20.099999984001897
 21
10.817030912546258
 31
0.0
  0
ELLIPSE
  5
17D
100
AcDbEntity
  8
0
  6
CONTINUOUS
 62
               4
100
AcDbEllipse
 10
18.0
 20
10.817030918298187
 30
0.0
 11
2.0999999999999943
 21
0.0
 31
0.0
210
0.0
220
0.0
230
1.0
 40
0.690270905444012
 41
2.2690212382307813
 42
0.8725714153590118
  0
LINE
  5
17E
100
AcDbEntity
  8
0
  6
CONTINUOUS
 62
               4
100
AcDbLine
 10
18.0
 20
8.6603552356792051
 30
0.0
 11
20.500000019764684
 21
8.6603552356792051
 31
0.0
  0
LINE
  5
17F
100
AcDbEntity
  8
0
  6
CONTINUOUS
 62
               4
100
AcDbLine
 10
19.803625126576208
 20
11.559493038544062
 30
0.0
 11
20.5
 21
11.559493038544062
 31
0.0
  0
LINE
  5
180
100
AcDbEntity
  8
0
  6
CONTINUOUS
 62
               4
100
AcDbLine
 10
15.900000000000091
 20
10.817030918298187
 30
0.0
 11
15.900000000000091
 21
6.6451009703173876
 31
0.0
  0
ELLIPSE
  5
181
100
AcDbEntity
  8
0
  6
CONTINUOUS
 62
               4
100
AcDbEllipse
 10
18.0
 20
10.109924137111634
 30
0.0
 11
2.0999999840018688
 21
0.0
 31
0.0
210
0.0
220
0.0
230
1.0
 40
0.6902709107026028
 41
4.7123889803846897
 42
0.0
  0
LINE
  5
182
100
AcDbEntity
  8
0
  6
CONTINUOUS
 62
               4
100
AcDbLine
 10
16.530306154330219
 20
6.2561921766015738
 30
0.0
 11
20.5
 21
6.2561921766015738
 31
0.0
  0
LINE
  5
183
100
AcDbEntity
  8
0
  6
CONTINUOUS
 62
               4
100
AcDbLine
 10
16.530306154330219
 20
5.5844407985375355
 30
0.0
 11
16.530306154330219
 21
6.2561921536007938
 31
0.0
  0
ELLIPSE
  5
184
100
AcDbEntity
  8
0
  6
CONTINUOUS
 62
               4
100
AcDbEllipse
 10
18.000000019764684
 20
6.6451009703173876
 30
0.0
 11
-2.10000001976465
 21
0.0000000000000003
 31
0.0
210
0.0
220
0.0
230
1.0
 40
0.6902708989473664
 41
0.0
 42
0.7956029495296795
  0
LINE
  5
185
100
AcDbEntity
  8
0
  6
CONTINUOUS
 62
               4
100
AcDbLine
 10
19.350000000000136
 20
10.817030912546258
 30
0.0
 11
19.350000000000136
 21
13.817030912546258
 31
0.0
  0
LINE
  5
186
100
AcDbEntity
  8
0
  6
CONTINUOUS
 62
               4
100
AcDbLine
 10
16.650000000000091
 20
10.817030912546258
 30
0.0
 11
16.650000000000091
 21
13.817030912546258
 31
0.0
  0
ELLIPSE
  5
187
100
AcDbEntity
  8
0
  6
CONTINUOUS
 62
               4
100
AcDbEllipse
 10
18.0
 20
10.817030918298187
 30
0.0
 11
1.3500000000000016
 21
0.0
 31
0.0
210
0.0
220
0.0
230
1.0
 40
0.713092870339449
 41
3.1415926535897931
 42
0.0
  0
ELLIPSE
  5
188
100
AcDbEntity
  8
0
  6
CONTINUOUS
 62
               4
100
AcDbEllipse
 10
18.0
 20
13.817030918298187
 30
0.0
 11
1.3500000000000016
 21
0.0
 31
0.0
210
0.0
220
0.0
230
1.0
 40
0.713092870339449
 41
0.0
 42
6.2831853071795862
  0
LINE
  5
189
100
AcDbEntity
  8
0
  6
CONTINUOUS
 62
               4
100
AcDbLine
 10
13.0
 20
-5.4060849870406145
 30
0.0
 11
13.0
 21
-11.55949301114471
 31
0.0
  0
LINE
  5
18A
100
AcDbEntity
  8
0
  6
CONTINUOUS
 62
               4
100
AcDbLine
 10
15.5
 20
-8.6603552161732438
 30
0.0
 11
15.5
 21
-9.367462016865673
 31
0.0
  0
LINE
  5
18B
100
AcDbEntity
  8
0
  6
CONTINUOUS
 62
               4
100
AcDbLine
 10
17.600000000000136
 20
-10.817030918298101
 30
0.0
 11
17.600000000000136
 21
-6.6451009703173014
 31
0.0
  0
ELLIPSE
  5
18C
100
AcDbEntity
  8
0
  6
CONTINUOUS
 62
               4
100
AcDbEllipse
 10
15.5
 20
-10.109924137111548
 30
0.0
 11
-2.0999999840018688
 21
0.0000000000000003
 31
0.0
210
0.0
220
0.0
230
1.0
 40
0.6902709107026028
 41
4.7123889803846897
 42
0.0
  0
ELLIPSE
  5
18D
100
AcDbEntity
  8
0
  6
CONTINUOUS
 62
               4
100
AcDbEllipse
 10
15.5
 20
-13.817030918298101
 30
0.0
 11
-1.3500000000000016
 21
0.0000000000000002
 31
0.0
210
0.0
220
0.0
230
1.0
 40
0.713092870339449
 41
0.0
 42
6.2831853071795862
  0
ELLIPSE
  5
18E
100
AcDbEntity
  8
0
  6
CONTINUOUS
 62
               4
100
AcDbEllipse
 10
15.5
 20
-10.817030918298101
 30
0.0
 11
-1.3500000000000016
 21
0.0000000000000002
 31
0.0
210
0.0
220
0.0
230
1.0
 40
0.713092870339449
 41
3.1415926535897931
 42
0.0
  0
LINE
  5
18F
100
AcDbEntity
  8
0
  6
CONTINUOUS
 62
               4
100
AcDbLine
 10
16.850000000000136
 20
-10.81703091254623
 30
0.0
 11
16.850000000000136
 21
-13.81703091254623
 31
0.0
  0
LINE
  5
190
100
AcDbEntity
  8
0
  6
CONTINUOUS
 62
               4
100
AcDbLine
 10
14.150000000000091
 20
-10.81703091254623
 30
0.0
 11
14.150000000000091
 21
-13.81703091254623
 31
0.0
  0
LINE
  5
191
100
AcDbEntity
  8
0
  6
CONTINUOUS
 62
               4
100
AcDbLine
 10
13.69637487342402
 20
-11.559493038543977
 30
0.0
 11
13.0
 21
-11.559493038543977
 31
0.0
  0
ELLIPSE
  5
192
100
AcDbEntity
  8
0
  6
CONTINUOUS
 62
               4
100
AcDbEllipse
 10
15.5
 20
-10.817030918298101
 30
0.0
 11
-2.0999999999999943
 21
0.0000000000000003
 31
0.0
210
0.0
220
0.0
230
1.0
 40
0.690270905444012
 41
2.2690212382307813
 42
0.8725714153590118
  0
LINE
  5
193
100
AcDbEntity
  8
0
  6
CONTINUOUS
 62
               4
100
AcDbLine
 10
13.40000001599833
 20
-10.109924137111548
 30
0.0
 11
13.40000001599833
 21
-10.81703091254623
 31
0.0
  0
LINE
  5
194
100
AcDbEntity
  8
0
  6
CONTINUOUS
 62
               4
100
AcDbLine
 10
15.5
 20
-8.6603552356791766
 30
0.0
 11
12.999999980235543
 21
-8.6603552356791766
 31
0.0
  0
LINE
  5
195
100
AcDbEntity
  8
0
  6
CONTINUOUS
 62
               4
100
AcDbLine
 10
16.969693845670008
 20
-6.2561921766014876
 30
0.0
 11
13.0
 21
-6.2561921766014876
 31
0.0
  0
LINE
  5
196
100
AcDbEntity
  8
0
  6
CONTINUOUS
 62
               4
100
AcDbLine
 10
16.969693845670008
 20
-5.5844407985375568
 30
0.0
 11
16.969693845670008
 21
-6.2561921536007645
 31
0.0
  0
ELLIPSE
  5
197
100
AcDbEntity
  8
0
  6
CONTINUOUS
 62
               4
100
AcDbEllipse
 10
15.499999980235543
 20
-6.6451009703173014
 30
0.0
 11
2.10000001976465
 21
0.0
 31
0.0
210
0.0
220
0.0
230
1.0
 40
0.6902708989473664
 41
0.0
 42
0.7956029495296795
  0
LINE
  5
198
100
AcDbEntity
  8
0
  6
CONTINUOUS
 62
               4
100
AcDbLine
 10
26.25
 20
-7.5111263741017211
 30
0.0
 11
26.25
 21
-5.7790755665328817
 31
0.0
  0
LINE
  5
199
100
AcDbEntity
  8
0
  6
CONTINUOUS
 62
               4
100
AcDbLine
 10
25.75
 20
-7.5111263741017211
 30
0.0
 11
25.75
 21
-5.7790755665328817
 31
0.0
  0
ELLIPSE
  5
19A
100
AcDbEntity
  8
0
  6
CONTINUOUS
 62
               4
100
AcDbEllipse
 10
26.0
 20
-6.6451009703173014
 30
0.0
 11
1.25
 21
0.0
 31
0.0
210
0.0
220
0.0
230
1.0
 40
0.7071067811865476
 41
0.0
 42
6.2831853071795862
  0
LINE
  5
19B
100
AcDbEntity
  8
0
  6
CONTINUOUS
 62
               4
100
AcDbLine
 10
28.0
 20
-7.7057611420972165
 30
0.0
 11
28.0
 21
-5.4060849870406145
 31
0.0
  0
LINE
  5
19C
100
AcDbEntity
  8
0
  6
CONTINUOUS
 62
               7
100
AcDbLine
 10
30.0
 20
-8.5
 30
0.0
 11
30.0
 21
8.5
 31
0.0
  0
LINE
  5
19D
100
AcDbEntity
  8
0
  6
CENTER
 62
               2
100
AcDbLine
 10
2.1999999999999886
 20
6.0
 30
0.0
 11
7.7999999999999972
 21
6.0
 31
0.0
  0
LINE
  5
19E
100
AcDbEntity
  8
0
  6
CENTER
 62
               2
100
AcDbLine
 10
5.0
 20
8.7999999999999972
 30
0.0
 11
5.0
 21
3.2000000000000028
 31
0.0
  0
ARC
  5
19F
100
AcDbEntity
  8
0
  6
CONTINUOUS
 62
               7
100
AcDbCircle
 10
5.0
 20
6.0
 30
0.0
 40
1.1000000000000014
100
AcDbArc
 50
62.964308210587603
 51
297.0356917894116
  0
ARC
  5
1A0
100
AcDbEntity
  8
0
  6
CONTINUOUS
 62
               7
100
AcDbCircle
 10
5.0
 20
6.0
 30
0.0
 40
2.0500000000000007
100
AcDbArc
 50
56.312856927977215
 51
343.15912726205306
  0
LINE
  5
1A1
100
AcDbEntity
  8
0
  6
CONTINUOUS
 62
               7
100
AcDbLine
 10
0.0
 20
8.5
 30
0.0
 11
0.0
 21
-8.5
 31
0.0
  0
LINE
  5
1A2
100
AcDbEntity
  8
0
  6
CENTER
 62
               2
100
AcDbLine
 10
5.0
 20
-8.7999999999999972
 30
0.0
 11
5.0
 21
-3.2000000000000028
 31
0.0
  0
CIRCLE
  5
1A3
100
AcDbEntity
  8
0
  6
CONTINUOUS
 62
               7
100
AcDbCircle
 10
5.0
 20
-6.0
 30
0.0
 40
1.1000000000000014
  0
CIRCLE
  5
1A4
100
AcDbEntity
  8
0
  6
CONTINUOUS
 62
               7
100
AcDbCircle
 10
5.0
 20
-6.0
 30
0.0
 40
2.0500000000000007
  0
LINE
  5
1A5
100
AcDbEntity
  8
0
  6
CENTER
 62
               2
100
AcDbLine
 10
2.1999999999999886
 20
-6.0
 30
0.0
 11
7.7999999999999972
 21
-6.0
 31
0.0
  0
LINE
  5
1A6
100
AcDbEntity
  8
0
  6
CONTINUOUS
 62
               7
100
AcDbLine
 10
0.0
 20
7.4393398101114769
 30
0.0
 11
3.5402736862588711
 21
7.4393398101114769
 31
0.0
  0
LINE
  5
1A7
100
AcDbEntity
  8
0
  6
CONTINUOUS
 62
               7
100
AcDbLine
 10
0.0
 20
8.5
 30
0.0
 11
15.900000000000091
 21
8.5
 31
0.0
  0
LINE
  5
1A8
100
AcDbEntity
  8
0
  6
CONTINUOUS
 62
               7
100
AcDbLine
 10
0.0
 20
5.4060849870406145
 30
0.0
 11
3.0379182082845091
 21
5.4060849870406145
 31
0.0
  0
LINE
  5
1A9
100
AcDbEntity
  8
0
  6
CONTINUOUS
 62
               7
100
AcDbLine
 10
0.0
 20
5.0000000373376992
 30
0.0
 11
3.2104469623184144
 21
5.0000000373376992
 31
0.0
  0
LINE
  5
1AA
100
AcDbEntity
  8
0
  6
CONTINUOUS
 62
               7
100
AcDbLine
 10
20.5
 20
7.4393398101114769
 30
0.0
 11
30.0
 21
7.4393398101114769
 31
0.0
  0
LINE
  5
1AB
100
AcDbEntity
  8
0
  6
CONTINUOUS
 62
               7
100
AcDbLine
 10
6.9620817917154909
 20
5.4060849870406145
 30
0.0
 11
30.0
 21
5.4060849870406145
 31
0.0
  0
LINE
  5
1AC
100
AcDbEntity
  8
0
  6
CONTINUOUS
 62
               7
100
AcDbLine
 10
6.7895530376815856
 20
5.0000000373376992
 30
0.0
 11
30.0
 21
5.0000000373376992
 31
0.0
  0
LINE
  5
1AD
100
AcDbEntity
  8
0
  6
CONTINUOUS
 62
               7
100
AcDbLine
 10
6.4597263137411289
 20
-7.4393398101114769
 30
0.0
 11
13.0
 21
-7.4393398101114769
 31
0.0
  0
LINE
  5
1AE
100
AcDbEntity
  8
0
  6
CONTINUOUS
 62
               7
100
AcDbLine
 10
6.9620817917154909
 20
-5.4060849870406145
 30
0.0
 11
30.0
 21
-5.4060849870406145
 31
0.0
  0
LINE
  5
1AF
100
AcDbEntity
  8
0
  6
CONTINUOUS
 62
               7
100
AcDbLine
 10
6.7895530376815856
 20
-5.0000000373376992
 30
0.0
 11
30.0
 21
-5.0000000373376992
 31
0.0
  0
LINE
  5
1B0
100
AcDbEntity
  8
0
  6
CONTINUOUS
 62
               7
100
AcDbLine
 10
0.0
 20
-7.4393398101114769
 30
0.0
 11
3.5402736862588711
 21
-7.4393398101114769
 31
0.0
  0
LINE
  5
1B1
100
AcDbEntity
  8
0
  6
CONTINUOUS
 62
               7
100
AcDbLine
 10
0.0
 20
-5.4060849870406145
 30
0.0
 11
3.0379182082845091
 21
-5.4060849870406145
 31
0.0
  0
LINE
  5
1B2
100
AcDbEntity
  8
0
  6
CONTINUOUS
 62
               7
100
AcDbLine
 10
0.0
 20
-5.0000000373376992
 30
0.0
 11
3.2104469623184144
 21
-5.0000000373376992
 31
0.0
  0
LINE
  5
1B3
100
AcDbEntity
  8
0
  6
CENTER
 62
               2
100
AcDbLine
 10
10.0
 20
1.9547775518886965
 30
0.0
 11
10.0
 21
-1.9760956580291094
 31
0.0
  0
CIRCLE
  5
1B4
100
AcDbEntity
  8
0
  6
CONTINUOUS
 62
               2
100
AcDbCircle
 10
10.0
 20
0.0000000000000142
 30
0.0
 40
1.5
  0
CIRCLE
  5
1B5
100
AcDbEntity
  8
0
  6
CONTINUOUS
 62
               7
100
AcDbCircle
 10
10.0
 20
0.0000000000000142
 30
0.0
 40
1.1999999999999886
  0
LINE
  5
1B6
100
AcDbEntity
  8
0
  6
CENTER
 62
               2
100
AcDbLine
 10
26.999999999999972
 20
1.9547775518886965
 30
0.0
 11
26.999999999999972
 21
-1.9760956580291094
 31
0.0
  0
CIRCLE
  5
1B7
100
AcDbEntity
  8
0
  6
CONTINUOUS
 62
               2
100
AcDbCircle
 10
26.999999999999972
 20
0.0000000000000142
 30
0.0
 40
1.5
  0
CIRCLE
  5
1B8
100
AcDbEntity
  8
0
  6
CONTINUOUS
 62
               7
100
AcDbCircle
 10
26.999999999999972
 20
0.0000000000000142
 30
0.0
 40
1.1999999999999886
  0
LINE
  5
1B9
100
AcDbEntity
  8
0
  6
CONTINUOUS
 62
               7
100
AcDbLine
 10
0.0
 20
-8.5
 30
0.0
 11
13.0
 21
-8.5
 31
0.0
  0
LINE
  5
1BA
100
AcDbEntity
  8
0
  6
CONTINUOUS
 62
               7
100
AcDbLine
 10
-7.7000000000000171
 20
1.5
 30
0.0
 11
-6.0999999999999943
 21
1.5
 31
0.0
  0
LINE
  5
1BB
100
AcDbEntity
  8
0
  6
CONTINUOUS
 62
               7
100
AcDbLine
 10
-8.0
 20
-1.2000000000000028
 30
0.0
 11
-8.0
 21
1.2000000000000028
 31
0.0
  0
LINE
  5
1BC
100
AcDbEntity
  8
0
  6
CONTINUOUS
 62
               7
100
AcDbLine
 10
-1.0
 20
-1.5
 30
0.0
 11
-1.0
 21
1.5
 31
0.0
  0
LINE
  5
1BD
100
AcDbEntity
  8
0
  6
CONTINUOUS
 62
               7
100
AcDbLine
 10
-7.7000000000000171
 20
-1.5
 30
0.0
 11
-7.7000000000000171
 21
1.5
 31
0.0
  0
LINE
  5
1BE
100
AcDbEntity
  8
0
  6
CONTINUOUS
 62
               7
100
AcDbLine
 10
-7.7000000000000171
 20
1.5
 30
0.0
 11
-8.0
 21
1.2000000000000028
 31
0.0
  0
LINE
  5
1BF
100
AcDbEntity
  8
0
  6
CONTINUOUS
 62
               2
100
AcDbLine
 10
-8.0
 20
1.2000000000000028
 30
0.0
 11
-6.0999999999999943
 21
1.2000000000000028
 31
0.0
  0
LINE
  5
1C0
100
AcDbEntity
  8
0
  6
CONTINUOUS
 62
               7
100
AcDbLine
 10
-7.7000000000000171
 20
-1.5
 30
0.0
 11
-6.0999999999999943
 21
-1.5
 31
0.0
  0
LINE
  5
1C1
100
AcDbEntity
  8
0
  6
CONTINUOUS
 62
               7
100
AcDbLine
 10
-7.7000000000000171
 20
-1.5
 30
0.0
 11
-8.0
 21
-1.2000000000000028
 31
0.0
  0
LINE
  5
1C2
100
AcDbEntity
  8
0
  6
CONTINUOUS
 62
               2
100
AcDbLine
 10
-8.0
 20
-1.2000000000000028
 30
0.0
 11
-6.0999999999999943
 21
-1.2000000000000028
 31
0.0
  0
LINE
  5
1C3
100
AcDbEntity
  8
0
  6
CONTINUOUS
 62
               2
100
AcDbLine
 10
-2.5
 20
1.2000000000000028
 30
0.0
 11
-1.0
 21
1.2000000000000028
 31
0.0
  0
LINE
  5
1C4
100
AcDbEntity
  8
0
  6
CONTINUOUS
 62
               2
100
AcDbLine
 10
-2.5
 20
-1.2000000000000028
 30
0.0
 11
-1.0
 21
-1.2000000000000028
 31
0.0
  0
LINE
  5
1C5
100
AcDbEntity
  8
0
  6
CONTINUOUS
 62
               7
100
AcDbLine
 10
-4.2999999999999829
 20
-2.750000018878012
 30
0.0
 11
-4.2999999999999829
 21
2.749999981121988
 31
0.0
  0
LINE
  5
1C6
100
AcDbEntity
  8
0
  6
CONTINUOUS
 62
               7
100
AcDbLine
 10
-2.5
 20
-2.750000018878012
 30
0.0
 11
-2.5
 21
2.749999981121988
 31
0.0
  0
LINE
  5
1C7
100
AcDbEntity
  8
0
  6
CONTINUOUS
 62
               7
100
AcDbLine
 10
-6.0999999999999943
 20
-2.750000018878012
 30
0.0
 11
-6.0999999999999943
 21
2.749999981121988
 31
0.0
  0
LINE
  5
1C8
100
AcDbEntity
  8
0
  6
CONTINUOUS
 62
               7
100
AcDbLine
 10
-4.545620120172714
 20
3.1754265238809296
 30
0.0
 11
-5.8543798691084135
 21
3.1754265238809296
 31
0.0
  0
LINE
  5
1C9
100
AcDbEntity
  8
0
  6
CONTINUOUS
 62
               7
100
AcDbLine
 10
-4.2999999999999829
 20
2.75
 30
0.0
 11
-4.5456201180830647
 21
3.1754265238809296
 31
0.0
  0
LINE
  5
1CA
100
AcDbEntity
  8
0
  6
CONTINUOUS
 62
               7
100
AcDbLine
 10
-6.0999999999999943
 20
2.75
 30
0.0
 11
-5.8543798819169126
 21
3.1754265238809296
 31
0.0
  0
LINE
  5
1CB
100
AcDbEntity
  8
0
  6
CONTINUOUS
 62
               7
100
AcDbLine
 10
-2.5
 20
2.75
 30
0.0
 11
-2.7456201180830533
 21
3.1754265238809296
 31
0.0
  0
LINE
  5
1CC
100
AcDbEntity
  8
0
  6
CONTINUOUS
 62
               7
100
AcDbLine
 10
-4.2999999999999829
 20
2.75
 30
0.0
 11
-4.0543798819169297
 21
3.1754265238809296
 31
0.0
  0
LINE
  5
1CD
100
AcDbEntity
  8
0
  6
CONTINUOUS
 62
               7
100
AcDbLine
 10
-4.0543798798272803
 20
3.1754265238809296
 30
0.0
 11
-2.7456201308915809
 21
3.1754265238809296
 31
0.0
  0
LINE
  5
1CE
100
AcDbEntity
  8
0
  6
CONTINUOUS
 62
               7
100
AcDbLine
 10
-4.0543798798272803
 20
1.5877133879722152
 30
0.0
 11
-2.7456201201727026
 21
1.5877133879722152
 31
0.0
  0
LINE
  5
1CF
100
AcDbEntity
  8
0
  6
CONTINUOUS
 62
               7
100
AcDbLine
 10
-4.545620120172714
 20
1.5877133879722152
 30
0.0
 11
-5.8543798798272633
 21
1.5877133879722152
 31
0.0
  0
LINE
  5
1D0
100
AcDbEntity
  8
0
  6
CONTINUOUS
 62
               7
100
AcDbLine
 10
-4.0543798798272803
 20
-3.1754265238809296
 30
0.0
 11
-2.7456201308915809
 21
-3.1754265238809296
 31
0.0
  0
LINE
  5
1D1
100
AcDbEntity
  8
0
  6
CONTINUOUS
 62
               7
100
AcDbLine
 10
-4.0543798798272803
 20
-1.5877133879722152
 30
0.0
 11
-2.7456201201727026
 21
-1.5877133879722152
 31
0.0
  0
LINE
  5
1D2
100
AcDbEntity
  8
0
  6
CONTINUOUS
 62
               7
100
AcDbLine
 10
-4.545620120172714
 20
-1.5877133879722152
 30
0.0
 11
-5.8543798798272633
 21
-1.5877133879722152
 31
0.0
  0
LINE
  5
1D3
100
AcDbEntity
  8
0
  6
CONTINUOUS
 62
               7
100
AcDbLine
 10
-4.545620120172714
 20
-3.1754265238809296
 30
0.0
 11
-5.8543798691084135
 21
-3.1754265238809296
 31
0.0
  0
LINE
  5
1D4
100
AcDbEntity
  8
0
  6
CONTINUOUS
 62
               7
100
AcDbLine
 10
-4.2999999999999829
 20
-2.75
 30
0.0
 11
-4.5456201180830647
 21
-3.1754265238809296
 31
0.0
  0
LINE
  5
1D5
100
AcDbEntity
  8
0
  6
CONTINUOUS
 62
               7
100
AcDbLine
 10
-4.2999999999999829
 20
-2.75
 30
0.0
 11
-4.0543798819169297
 21
-3.1754265238809296
 31
0.0
  0
LINE
  5
1D6
100
AcDbEntity
  8
0
  6
CONTINUOUS
 62
               7
100
AcDbLine
 10
-6.0999999999999943
 20
-2.75
 30
0.0
 11
-5.8543798819169126
 21
-3.1754265238809296
 31
0.0
  0
LINE
  5
1D7
100
AcDbEntity
  8
0
  6
CONTINUOUS
 62
               7
100
AcDbLine
 10
-2.5
 20
-2.75
 30
0.0
 11
-2.7456201180830533
 21
-3.1754265238809296
 31
0.0
  0
SPLINE
  5
1D8
100
AcDbEntity
  8
0
  6
CONTINUOUS
 62
               7
100
AcDbSpline
210
0.0
220
0.0
230
1.0
 70
               0
 71
               3
 72
               0
 73
               0
 74
               5
 44
0.000001
 12
-0.5262037598477771
 22
-0.8503585144643775
 32
0.0
 13
0.5262037751704171
 23
-0.8503585049826933
 33
0.0
 11
-4.0543798819169297
 21
3.1754265238809296
 31
0.0
 11
-4.2318484367291651
 21
2.794852077955797
 31
0.0
 11
-4.2999999999999829
 21
2.3815698774887011
 31
0.0
 11
-4.2318484162285754
 21
1.9682877574118116
 31
0.0
 11
-4.0543798798272803
 21
1.5877133879722152
 31
0.0
  0
SPLINE
  5
1D9
100
AcDbEntity
  8
0
  6
CONTINUOUS
 62
               7
100
AcDbSpline
210
0.0
220
0.0
230
1.0
 70
               0
 71
               3
 72
               0
 73
               0
 74
               5
 44
0.000001
 12
0.526203759847777
 22
-0.8503585144643776
 32
0.0
 13
-0.5262037751704169
 23
-0.8503585049826934
 33
0.0
 11
-2.7456201180830533
 21
3.1754265238809296
 31
0.0
 11
-2.5681515632708178
 21
2.794852077955797
 31
0.0
 11
-2.5
 21
2.3815698774887011
 31
0.0
 11
-2.568151583771408
 21
1.9682877574118116
 31
0.0
 11
-2.7456201201727026
 21
1.5877133879722152
 31
0.0
  0
SPLINE
  5
1DA
100
AcDbEntity
  8
0
  6
CONTINUOUS
 62
               7
100
AcDbSpline
210
0.0
220
0.0
230
1.0
 70
               0
 71
               3
 72
               0
 73
               0
 74
               5
 44
0.000001
 12
-0.5262037598477771
 22
-0.8503585144643775
 32
0.0
 13
0.5262037751704171
 23
-0.8503585049826933
 33
0.0
 11
-5.8543798819169126
 21
3.1754265238809296
 31
0.0
 11
-6.0318484367291623
 21
2.794852077955797
 31
0.0
 11
-6.0999999999999943
 21
2.3815698774887011
 31
0.0
 11
-6.0318484162285726
 21
1.9682877574118116
 31
0.0
 11
-5.8543798798272633
 21
1.5877133879722152
 31
0.0
  0
SPLINE
  5
1DB
100
AcDbEntity
  8
0
  6
CONTINUOUS
 62
               7
100
AcDbSpline
210
0.0
220
0.0
230
1.0
 70
               0
 71
               3
 72
               0
 73
               0
 74
               5
 44
0.000001
 12
0.526203759847777
 22
-0.8503585144643776
 32
0.0
 13
-0.5262037751704169
 23
-0.8503585049826934
 33
0.0
 11
-4.5456201180830647
 21
3.1754265238809296
 31
0.0
 11
-4.368151563270815
 21
2.794852077955797
 31
0.0
 11
-4.2999999999999829
 21
2.3815698774887011
 31
0.0
 11
-4.3681515837714047
 21
1.9682877574118116
 31
0.0
 11
-4.545620120172714
 21
1.5877133879722152
 31
0.0
  0
SPLINE
  5
1DC
100
AcDbEntity
  8
0
  6
CONTINUOUS
 62
               7
100
AcDbSpline
210
0.0
220
0.0
230
1.0
 70
               0
 71
               3
 72
               0
 73
               0
 74
               5
 44
0.000001
 12
-0.2955767328958228
 22
-0.9553190016798742
 32
0.0
 13
0.2955767328958229
 23
-0.9553190016798742
 33
0.0
 11
-4.0543798798272803
 21
1.5877133879722152
 31
0.0
 11
-4.2365491313846571
 21
0.803775075127956
 31
0.0
 11
-4.2999999999999829
 21
0.0
 31
0.0
 11
-4.2365491313846571
 21
-0.8037750751279561
 31
0.0
 11
-4.0543798798272803
 21
-1.5877133879722152
 31
0.0
  0
SPLINE
  5
1DD
100
AcDbEntity
  8
0
  6
CONTINUOUS
 62
               7
100
AcDbSpline
210
0.0
220
0.0
230
1.0
 70
               0
 71
               3
 72
               0
 73
               0
 74
               5
 44
0.000001
 12
0.2955767328958229
 22
-0.9553190016798742
 32
0.0
 13
-0.2955767328958228
 23
-0.9553190016798742
 33
0.0
 11
-4.545620120172714
 21
1.5877133879722152
 31
0.0
 11
-4.3634508686153231
 21
0.803775075127956
 31
0.0
 11
-4.2999999999999829
 21
0.0
 31
0.0
 11
-4.3634508686153231
 21
-0.8037750751279561
 31
0.0
 11
-4.545620120172714
 21
-1.5877133879722152
 31
0.0
  0
SPLINE
  5
1DE
100
AcDbEntity
  8
0
  6
CONTINUOUS
 62
               7
100
AcDbSpline
210
0.0
220
0.0
230
1.0
 70
               0
 71
               3
 72
               0
 73
               0
 74
               5
 44
0.000001
 12
0.2955767328958229
 22
-0.9553190016798742
 32
0.0
 13
-0.2955767328958228
 23
-0.9553190016798742
 33
0.0
 11
-2.7456201201727026
 21
1.5877133879722152
 31
0.0
 11
-2.5634508686153259
 21
0.803775075127956
 31
0.0
 11
-2.5
 21
0.0
 31
0.0
 11
-2.5634508686153259
 21
-0.8037750751279561
 31
0.0
 11
-2.7456201201727026
 21
-1.5877133879722152
 31
0.0
  0
SPLINE
  5
1DF
100
AcDbEntity
  8
0
  6
CONTINUOUS
 62
               7
100
AcDbSpline
210
0.0
220
0.0
230
1.0
 70
               0
 71
               3
 72
               0
 73
               0
 74
               5
 44
0.000001
 12
-0.2955767328958228
 22
-0.9553190016798742
 32
0.0
 13
0.2955767328958227
 23
-0.9553190016798742
 33
0.0
 11
-5.8543798798272633
 21
1.5877133879722152
 31
0.0
 11
-6.0365491313846542
 21
0.803775075127956
 31
0.0
 11
-6.0999999999999943
 21
0.0
 31
0.0
 11
-6.0365491313846542
 21
-0.8037750751279561
 31
0.0
 11
-5.8543798798272633
 21
-1.5877133879722152
 31
0.0
  0
SPLINE
  5
1E0
100
AcDbEntity
  8
0
  6
CONTINUOUS
 62
               7
100
AcDbSpline
210
0.0
220
0.0
230
1.0
 70
               0
 71
               3
 72
               0
 73
               0
 74
               5
 44
0.000001
 12
0.526203759847777
 22
0.8503585144643776
 32
0.0
 13
-0.5262037751704169
 23
0.8503585049826934
 33
0.0
 11
-4.5456201180830647
 21
-3.1754265238809296
 31
0.0
 11
-4.368151563270815
 21
-2.794852077955797
 31
0.0
 11
-4.2999999999999829
 21
-2.3815698774887011
 31
0.0
 11
-4.3681515837714047
 21
-1.9682877574118116
 31
0.0
 11
-4.545620120172714
 21
-1.5877133879722152
 31
0.0
  0
SPLINE
  5
1E1
100
AcDbEntity
  8
0
  6
CONTINUOUS
 62
               7
100
AcDbSpline
210
0.0
220
0.0
230
1.0
 70
               0
 71
               3
 72
               0
 73
               0
 74
               5
 44
0.000001
 12
-0.5262037598477771
 22
0.8503585144643775
 32
0.0
 13
0.5262037751704171
 23
0.8503585049826933
 33
0.0
 11
-4.0543798819169297
 21
-3.1754265238809296
 31
0.0
 11
-4.2318484367291651
 21
-2.794852077955797
 31
0.0
 11
-4.2999999999999829
 21
-2.3815698774887011
 31
0.0
 11
-4.2318484162285754
 21
-1.9682877574118116
 31
0.0
 11
-4.0543798798272803
 21
-1.5877133879722152
 31
0.0
  0
SPLINE
  5
1E2
100
AcDbEntity
  8
0
  6
CONTINUOUS
 62
               7
100
AcDbSpline
210
0.0
220
0.0
230
1.0
 70
               0
 71
               3
 72
               0
 73
               0
 74
               5
 44
0.000001
 12
0.526203759847777
 22
0.8503585144643776
 32
0.0
 13
-0.5262037751704169
 23
0.8503585049826934
 33
0.0
 11
-2.7456201180830533
 21
-3.1754265238809296
 31
0.0
 11
-2.5681515632708178
 21
-2.794852077955797
 31
0.0
 11
-2.5
 21
-2.3815698774887011
 31
0.0
 11
-2.568151583771408
 21
-1.9682877574118116
 31
0.0
 11
-2.7456201201727026
 21
-1.5877133879722152
 31
0.0
  0
SPLINE
  5
1E3
100
AcDbEntity
  8
0
  6
CONTINUOUS
 62
               7
100
AcDbSpline
210
0.0
220
0.0
230
1.0
 70
               0
 71
               3
 72
               0
 73
               0
 74
               5
 44
0.000001
 12
-0.5262037598477771
 22
0.8503585144643775
 32
0.0
 13
0.5262037751704171
 23
0.8503585049826933
 33
0.0
 11
-5.8543798819169126
 21
-3.1754265238809296
 31
0.0
 11
-6.0318484367291623
 21
-2.794852077955797
 31
0.0
 11
-6.0999999999999943
 21
-2.3815698774887011
 31
0.0
 11
-6.0318484162285726
 21
-1.9682877574118116
 31
0.0
 11
-5.8543798798272633
 21
-1.5877133879722152
 31
0.0
  0
LINE
  5
1E4
100
AcDbEntity
  8
0
  6
CONTINUOUS
 62
               2
100
AcDbLine
 10
-1.0
 20
1.2000000000000028
 30
0.0
 11
-0.4803847577293539
 21
1.5
 31
0.0
  0
LINE
  5
1E5
100
AcDbEntity
  8
0
  6
CONTINUOUS
 62
               2
100
AcDbLine
 10
-1.0
 20
-1.2000000000000028
 30
0.0
 11
-0.4803847577293539
 21
-1.5
 31
0.0
  0
LINE
  5
1E6
100
AcDbEntity
  8
0
  6
CONTINUOUS
 62
               7
100
AcDbLine
 10
0.0
 20
-1.5
 30
0.0
 11
-2.5
 21
-1.5
 31
0.0
  0
LINE
  5
1E7
100
AcDbEntity
  8
0
  6
CONTINUOUS
 62
               7
100
AcDbLine
 10
0.0
 20
1.5
 30
0.0
 11
-2.5
 21
1.5
 31
0.0
  0
LINE
  5
1E8
100
AcDbEntity
  8
0
  6
CONTINUOUS
 62
               7
100
AcDbLine
 10
17.600000000000136
 20
-8.5
 30
0.0
 11
30.0
 21
-8.5
 31
0.0
  0
LINE
  5
1E9
100
AcDbEntity
  8
0
  6
CONTINUOUS
 62
               7
100
AcDbLine
 10
20.5
 20
8.5
 30
0.0
 11
30.0
 21
8.5
 31
0.0
  0
LINE
  5
1EA
100
AcDbEntity
  8
0
  6
CONTINUOUS
 62
               4
100
AcDbLine
 10
5.5
 20
7.705761142097181
 30
0.0
 11
15.900000000000091
 21
7.705761142097181
 31
0.0
  0
LINE
  5
1EB
100
AcDbEntity
  8
0
  6
CONTINUOUS
 62
               4
100
AcDbLine
 10
5.5
 20
5.5844407985375355
 30
0.0
 11
20.5
 21
5.5844407985375355
 31
0.0
  0
LINE
  5
1EC
100
AcDbEntity
  8
0
  6
CONTINUOUS
 62
               4
100
AcDbLine
 10
13.0
 20
-5.5844407985375568
 30
0.0
 11
28.0
 21
-5.5844407985375568
 31
0.0
  0
LINE
  5
1ED
100
AcDbEntity
  8
0
  6
CONTINUOUS
 62
               4
100
AcDbLine
 10
13.0
 20
-7.7057611420972165
 30
0.0
 11
28.0
 21
-7.7057611420972165
 31
0.0
  0
LINE
  5
1EE
100
AcDbEntity
  8
0
  6
CENTER
 62
               2
100
AcDbLine
 10
-9.4820394192003761
 20
0.0
 30
0.0
 11
31.706095837897948
 21
0.0
 31
0.0
  0
ENDBLK
  5
1EF
100
AcDbEntity
  8
0
100
AcDbBlockEnd
  0
BLOCK
  5
1F0
100
AcDbEntity
  8
0
100
AcDbBlockBegin
  2
MS_6
 70
               0
 10
0.0
 20
0.0
 30
0.0
  3
MS_6
  1

  0
LINE
  5
1F1
100
AcDbEntity
  8
0
  6
CONTINUOUS
 62
               4
100
AcDbLine
 10
13.580316021150921
 20
-11.763543852543551
 30
0.0
 11
15.952162752874884
 21
-14.1353905842674
 31
0.0
  0
LINE
  5
1F2
100
AcDbEntity
  8
0
  6
CONTINUOUS
 62
               4
100
AcDbLine
 10
15.489504330354649
 20
-9.8543555433398797
 30
0.0
 11
17.58549334252406
 21
-11.950344555509178
 31
0.0
  0
LINE
  5
1F3
100
AcDbEntity
  8
0
  6
PHANTOM
 62
             200
100
AcDbLine
 10
18.221261169811797
 20
-10.894782203017103
 30
0.0
 11
15.205676135291597
 21
-15.201483959228499
 31
0.0
  0
LINE
  5
1F4
100
AcDbEntity
  8
0
  6
CONTINUOUS
 62
               4
100
AcDbLine
 10
15.97639786260892
 20
-9.3674620110855518
 30
0.0
 11
13.077260053963883
 21
-12.266599819730532
 31
0.0
  0
LINE
  5
1F5
100
AcDbEntity
  8
0
  6
CONTINUOUS
 62
               4
100
AcDbLine
 10
12.865128028124801
 20
-6.2561921766014894
 30
0.0
 11
12.087310564002919
 21
-6.2561921766014894
 31
0.0
  0
LINE
  5
1F6
100
AcDbEntity
  8
0
  6
CONTINUOUS
 62
               4
100
AcDbLine
 10
9.9659902084012089
 20
-8.377512508119155
 30
0.0
 11
9.9659902204433735
 21
-9.1553299842831439
 31
0.0
  0
LINE
  5
1F7
100
AcDbEntity
  8
0
  6
CONTINUOUS
 62
               4
100
AcDbLine
 10
15.976397856828854
 20
-9.3674620168656748
 30
0.0
 11
12.865128019608065
 21
-6.2561921796448861
 31
0.0
  0
LINE
  5
1F8
100
AcDbEntity
  8
0
  6
CONTINUOUS
 62
               4
100
AcDbLine
 10
13.077260053963883
 20
-12.266599819730532
 30
0.0
 11
9.9659902167430943
 21
-9.1553299825097429
 31
0.0
  0
LINE
  5
1F9
100
AcDbEntity
  8
0
  6
CONTINUOUS
 62
               4
100
AcDbLine
 10
11.096350975116948
 20
-4.4894354402428718
 30
0.0
 11
11.098371280205939
 21
-5.2672528995480707
 31
0.0
  0
LINE
  5
1FA
100
AcDbEntity
  8
0
  6
CONTINUOUS
 62
               4
100
AcDbLine
 10
12.087310557259471
 20
-6.2561921766014894
 30
0.0
 11
11.098371280205939
 21
-5.2672528995480707
 31
0.0
  0
LINE
  5
1FB
100
AcDbEntity
  8
0
  6
CONTINUOUS
 62
               4
100
AcDbLine
 10
9.9659902204433735
 20
-8.3775125269046544
 30
0.0
 11
8.9770509366463926
 21
-7.3885732431077304
 31
0.0
  0
LINE
  5
1FC
100
AcDbEntity
  8
0
  6
CONTINUOUS
 62
               4
100
AcDbLine
 10
8.1972131722519777
 20
-7.3885732431077304
 30
0.0
 11
8.9770509366463926
 21
-7.3885732431077304
 31
0.0
  0
LINE
  5
1FD
100
AcDbEntity
  8
0
  6
CONTINUOUS
 62
               4
100
AcDbLine
 10
8.1972131722519777
 20
-7.3885732431077304
 30
0.0
 11
7.1022078139575484
 21
-6.2935678848131307
 31
0.0
  0
ARC
  5
1FE
100
AcDbEntity
  8
0
  6
CONTINUOUS
 62
               4
100
AcDbCircle
 10
8.5507659101821361
 20
-4.8439254024424532
 30
0.0
 40
2.0506628609917015
100
AcDbArc
 50
44.978576158876109
 51
134.94156910908407
  0
ARC
  5
1FF
100
AcDbEntity
  8
0
  6
CONTINUOUS
 62
               4
100
AcDbCircle
 10
8.5536284842588799
 20
-4.8429888308361502
 30
0.0
 40
2.0520237703338058
100
AcDbArc
 50
135.01661649434493
 51
224.98338350565427
  0
LINE
  5
200
100
AcDbEntity
  8
0
  6
CENTER
 62
             200
100
AcDbLine
 10
17.763356003718073
 20
-14.053557966619808
 30
0.0
 11
6.4599582641041167
 21
-2.750160227005793
 31
0.0
  0
LINE
  5
201
100
AcDbEntity
  8
0
  6
CONTINUOUS
 62
               4
100
AcDbLine
 10
15.26929108142248
 20
-8.6603552298989985
 30
0.0
 11
12.370153272777443
 21
-11.559493038543978
 31
0.0
  0
LINE
  5
202
100
AcDbEntity
  8
0
  6
CONTINUOUS
 62
               4
100
AcDbLine
 10
12.087310557259542
 20
6.2561921766015747
 30
0.0
 11
11.09837128020601
 21
5.267252899548156
 31
0.0
  0
LINE
  5
203
100
AcDbEntity
  8
0
  6
CONTINUOUS
 62
               4
100
AcDbLine
 10
8.1972131722520487
 20
7.3885732431078157
 30
0.0
 11
8.9770509366464637
 21
7.3885732431078157
 31
0.0
  0
LINE
  5
204
100
AcDbEntity
  8
0
  6
CONTINUOUS
 62
               4
100
AcDbLine
 10
10.53066555016764
 20
3.9237500152936935
 30
0.0
 11
7.6315277473028971
 21
6.8228878181585504
 31
0.0
  0
LINE
  5
205
100
AcDbEntity
  8
0
  6
CENTER
 62
             200
100
AcDbLine
 10
17.763356003718144
 20
14.053557966619836
 30
0.0
 11
6.4599582641041877
 21
2.75016022700588
 31
0.0
  0
LINE
  5
206
100
AcDbEntity
  8
0
  6
CONTINUOUS
 62
               4
100
AcDbLine
 10
9.9659902204434445
 20
8.3775125269046828
 30
0.0
 11
8.9770509366464637
 21
7.3885732431078157
 31
0.0
  0
LINE
  5
207
100
AcDbEntity
  8
0
  6
CONTINUOUS
 62
               4
100
AcDbLine
 10
11.415559179195469
 20
5.5844407985375586
 30
0.0
 11
9.2942388356359231
 21
7.7057611420971615
 31
0.0
  0
LINE
  5
208
100
AcDbEntity
  8
0
  6
CONTINUOUS
 62
               4
100
AcDbLine
 10
13.077260053963954
 20
12.26659981973056
 30
0.0
 11
9.9659902167431653
 21
9.1553299825097714
 31
0.0
  0
LINE
  5
209
100
AcDbEntity
  8
0
  6
CONTINUOUS
 62
               4
100
AcDbLine
 10
15.976397856828925
 20
9.3674620168657601
 30
0.0
 11
12.865128019608136
 21
6.2561921796449145
 31
0.0
  0
LINE
  5
20A
100
AcDbEntity
  8
0
  6
CONTINUOUS
 62
               4
100
AcDbLine
 10
9.9659902084012799
 20
8.3775125081192403
 30
0.0
 11
9.9659902204434445
 21
9.1553299842831724
 31
0.0
  0
LINE
  5
20B
100
AcDbEntity
  8
0
  6
CONTINUOUS
 62
               4
100
AcDbLine
 10
12.865128028124872
 20
6.2561921766015747
 30
0.0
 11
12.087310564002991
 21
6.2561921766015747
 31
0.0
  0
LINE
  5
20C
100
AcDbEntity
  8
0
  6
CONTINUOUS
 62
               4
100
AcDbLine
 10
15.976397862608991
 20
9.3674620110855802
 30
0.0
 11
13.077260053963954
 21
12.26659981973056
 31
0.0
  0
LINE
  5
20D
100
AcDbEntity
  8
0
  6
PHANTOM
 62
             200
100
AcDbLine
 10
18.221261169811868
 20
10.894782203017131
 30
0.0
 11
15.205676135291668
 21
15.201483959228584
 31
0.0
  0
LINE
  5
20E
100
AcDbEntity
  8
0
  6
CONTINUOUS
 62
               4
100
AcDbLine
 10
15.48950433035472
 20
9.8543555433399082
 30
0.0
 11
17.585493342524131
 21
11.950344555509206
 31
0.0
  0
LINE
  5
20F
100
AcDbEntity
  8
0
  6
CONTINUOUS
 62
               4
100
AcDbLine
 10
13.580316021150992
 20
11.763543852543579
 30
0.0
 11
15.952162752874955
 21
14.135390584267428
 31
0.0
  0
LINE
  5
210
100
AcDbEntity
  8
0
  6
CONTINUOUS
 62
               4
100
AcDbLine
 10
7.7749694086294028
 20
3.0065315048403125
 30
0.0
 11
6.7143092368494024
 21
4.0671916766201424
 31
0.0
  0
LINE
  5
211
100
AcDbEntity
  8
0
  6
CONTINUOUS
 62
               4
100
AcDbLine
 10
9.9666064737432691
 20
3.3604788519980229
 30
0.0
 11
7.0678626274427359
 21
6.259222698298446
 31
0.0
  0
LINE
  5
212
100
AcDbEntity
  8
0
  6
CONTINUOUS
 62
               4
100
AcDbLine
 10
8.4820761898158423
 20
3.0065315048403125
 30
0.0
 11
6.7143092368494024
 21
4.7742984578066388
 31
0.0
  0
ARC
  5
213
100
AcDbEntity
  8
0
  6
CONTINUOUS
 62
               4
100
AcDbCircle
 10
8.5536284842589509
 20
4.8429888308362354
 30
0.0
 40
2.0520237703338058
100
AcDbArc
 50
135.01661649434493
 51
224.98338350565427
  0
LINE
  5
214
100
AcDbEntity
  8
0
  6
CONTINUOUS
 62
               4
100
AcDbLine
 10
6.7143092368494024
 20
4.7742984578066388
 30
0.0
 11
6.7143092368494024
 21
4.0671916766201424
 31
0.0
  0
LINE
  5
215
100
AcDbEntity
  8
0
  6
CONTINUOUS
 62
               4
100
AcDbLine
 10
7.6335480523918875
 20
5.6935372733491807
 30
0.0
 11
6.7143092368494024
 21
4.7742984578066388
 31
0.0
  0
LINE
  5
216
100
AcDbEntity
  8
0
  6
CONTINUOUS
 62
               4
100
AcDbLine
 10
8.1972131722520487
 20
7.3885732431078157
 30
0.0
 11
7.1022078139576195
 21
6.2935678848132159
 31
0.0
  0
LINE
  5
217
100
AcDbEntity
  8
0
  6
CONTINUOUS
 62
             200
100
AcDbLine
 10
7.775979561173898
 20
5.5511057645673407
 30
0.0
 11
6.7143092368494024
 21
4.4894354402429588
 31
0.0
  0
LINE
  5
218
100
AcDbEntity
  8
0
  6
CONTINUOUS
 62
               4
100
AcDbLine
 10
11.096350975117019
 20
4.4894354402429588
 30
0.0
 11
11.09837128020601
 21
5.267252899548156
 31
0.0
  0
ARC
  5
219
100
AcDbEntity
  8
0
  6
CONTINUOUS
 62
               4
100
AcDbCircle
 10
8.5507659101822071
 20
4.8439254024425384
 30
0.0
 40
2.0506628609917015
100
AcDbArc
 50
225.05843089091513
 51
315.02142384112307
  0
LINE
  5
21A
100
AcDbEntity
  8
0
  6
CONTINUOUS
 62
               4
100
AcDbLine
 10
7.7749694086294028
 20
3.0065315048403125
 30
0.0
 11
8.4820761898158423
 21
3.0065315048403125
 31
0.0
  0
LINE
  5
21B
100
AcDbEntity
  8
0
  6
CONTINUOUS
 62
               4
100
AcDbLine
 10
9.4013150053583274
 20
3.9257703203827976
 30
0.0
 11
8.4820761898158423
 21
3.0065315048403125
 31
0.0
  0
LINE
  5
21C
100
AcDbEntity
  8
0
  6
CONTINUOUS
 62
               4
100
AcDbLine
 10
11.096350975117019
 20
4.4894354402429588
 30
0.0
 11
10.001345616822363
 21
3.394430081948359
 31
0.0
  0
LINE
  5
21D
100
AcDbEntity
  8
0
  6
CONTINUOUS
 62
             200
100
AcDbLine
 10
9.2609038016655347
 20
4.0661815240755903
 30
0.0
 11
8.2012537824302569
 21
3.0065315048403125
 31
0.0
  0
LINE
  5
21E
100
AcDbEntity
  8
0
  6
CONTINUOUS
 62
               4
100
AcDbLine
 10
11.098371280205939
 20
-4.4874151351537677
 30
0.0
 11
10.003365921911509
 21
-3.3924097768591679
 31
0.0
  0
LINE
  5
21F
100
AcDbEntity
  8
0
  6
CONTINUOUS
 62
               7
100
AcDbLine
 10
11.681980511181223
 20
5.3180194665518314
 30
0.0
 11
12.0
 21
4.9999999777330828
 31
0.0
  0
LINE
  5
220
100
AcDbEntity
  8
0
  6
CONTINUOUS
 62
               7
100
AcDbLine
 10
11.257716442469302
 20
5.3180194665518314
 30
0.0
 11
11.116295086231986
 21
5.1765981103145151
 31
0.0
  0
ARC
  5
221
100
AcDbEntity
  8
0
  6
CONTINUOUS
 62
               7
100
AcDbCircle
 10
11.469848476825263
 20
5.1065606351367308
 30
0.0
 40
0.2995243519038812
100
AcDbArc
 50
44.908941249896863
 51
135.09105875010374
  0
LINE
  5
222
100
AcDbEntity
  8
0
  6
CONTINUOUS
 62
               7
100
AcDbLine
 10
11.116295086231986
 20
5.1765981103145151
 30
0.0
 11
11.116295086231986
 21
4.4694913291279761
 31
0.0
  0
LINE
  5
223
100
AcDbEntity
  8
0
  6
CONTINUOUS
 62
               7
100
AcDbLine
 10
11.116295086231986
 20
4.4694913291279761
 30
0.0
 11
9.9849242363335122
 21
3.3381204792295023
 31
0.0
  0
ARC
  5
224
100
AcDbEntity
  8
0
  6
CONTINUOUS
 62
               7
100
AcDbCircle
 10
8.4999999958417618
 20
4.8230447197212385
 30
0.0
 40
2.1000000111152071
100
AcDbArc
 50
134.99999999999969
 51
314.99999999999932
  0
LINE
  5
225
100
AcDbEntity
  8
0
  6
CONTINUOUS
 62
               7
100
AcDbLine
 10
8.9949747426723548
 20
7.5807611663487791
 30
0.0
 11
8.8535533864350384
 21
7.4393398101114769
 31
0.0
  0
ARC
  5
226
100
AcDbEntity
  8
0
  6
CONTINUOUS
 62
               7
100
AcDbCircle
 10
8.7818536264305465
 20
7.7928932007047393
 30
0.0
 40
0.3007001998472195
100
AcDbArc
 50
315.13326207080115
 51
44.866737929199004
  0
LINE
  5
227
100
AcDbEntity
  8
0
  6
CONTINUOUS
 62
               7
100
AcDbLine
 10
8.1464466052484852
 20
7.4393398101114769
 30
0.0
 11
8.8535533864350384
 21
7.4393398101114769
 31
0.0
  0
LINE
  5
228
100
AcDbEntity
  8
0
  6
CONTINUOUS
 62
               7
100
AcDbLine
 10
9.0278175036501409
 20
7.9721824740829135
 30
0.0
 11
8.4999999777330402
 21
8.5
 31
0.0
  0
LINE
  5
229
100
AcDbEntity
  8
0
  6
CONTINUOUS
 62
               7
100
AcDbLine
 10
8.1464466052484852
 20
7.4393398101114769
 30
0.0
 11
7.0150757553500114
 21
6.3079689602130031
 31
0.0
  0
LINE
  5
22A
100
AcDbEntity
  8
0
  6
CONTINUOUS
 62
               7
100
AcDbLine
 10
12.0
 20
5.0000000373376992
 30
0.0
 11
12.0
 21
-4.9999999777330846
 31
0.0
  0
LINE
  5
22B
100
AcDbEntity
  8
0
  6
CONTINUOUS
 62
               7
100
AcDbLine
 10
0.4000000000000057
 20
8.5
 30
0.0
 11
8.4999999777330402
 21
8.5
 31
0.0
  0
LINE
  5
22C
100
AcDbEntity
  8
0
  6
CENTER
 62
               2
100
AcDbLine
 10
-1.1778889561377071
 20
0.0
 30
0.0
 11
12.949028127981279
 21
0.0
 31
0.0
  0
LINE
  5
22D
100
AcDbEntity
  8
0
  6
CONTINUOUS
 62
               7
100
AcDbLine
 10
0.0
 20
8.1000000000000014
 30
0.0
 11
0.0
 21
-8.1000000000000032
 31
0.0
  0
LINE
  5
22E
100
AcDbEntity
  8
0
  6
CONTINUOUS
 62
               7
100
AcDbLine
 10
0.4000000000000057
 20
-8.5000000000000018
 30
0.0
 11
8.4999999777330402
 21
-8.5000000000000018
 31
0.0
  0
LINE
  5
22F
100
AcDbEntity
  8
0
  6
CONTINUOUS
 62
               7
100
AcDbLine
 10
11.681980511181223
 20
-5.3180194665518332
 30
0.0
 11
12.0
 21
-4.9999999777330846
 31
0.0
  0
LINE
  5
230
100
AcDbEntity
  8
0
  6
CONTINUOUS
 62
               7
100
AcDbLine
 10
11.116295086231986
 20
-4.4694913291279761
 30
0.0
 11
9.9849242363335122
 21
-3.3381204792295023
 31
0.0
  0
LINE
  5
231
100
AcDbEntity
  8
0
  6
CONTINUOUS
 62
               7
100
AcDbLine
 10
11.116295086231986
 20
-5.1765981103145169
 30
0.0
 11
11.116295086231986
 21
-4.4694913291279761
 31
0.0
  0
ARC
  5
232
100
AcDbEntity
  8
0
  6
CONTINUOUS
 62
               7
100
AcDbCircle
 10
11.469848476825263
 20
-5.1065606351367325
 30
0.0
 40
0.2995243519038812
100
AcDbArc
 50
224.90894124989543
 51
315.09105875010232
  0
LINE
  5
233
100
AcDbEntity
  8
0
  6
CONTINUOUS
 62
               7
100
AcDbLine
 10
11.257716442469302
 20
-5.3180194665518332
 30
0.0
 11
11.116295086231986
 21
-5.1765981103145169
 31
0.0
  0
LINE
  5
234
100
AcDbEntity
  8
0
  6
CONTINUOUS
 62
               7
100
AcDbLine
 10
8.9949747426723548
 20
-7.5807611663487808
 30
0.0
 11
8.8535533864350384
 21
-7.4393398101114787
 31
0.0
  0
LINE
  5
235
100
AcDbEntity
  8
0
  6
CONTINUOUS
 62
               7
100
AcDbLine
 10
8.1464466052484852
 20
-7.4393398101114787
 30
0.0
 11
8.8535533864350384
 21
-7.4393398101114787
 31
0.0
  0
LINE
  5
236
100
AcDbEntity
  8
0
  6
CONTINUOUS
 62
               7
100
AcDbLine
 10
9.0278175036501409
 20
-7.9721824740829152
 30
0.0
 11
8.4999999777330402
 21
-8.5000000000000018
 31
0.0
  0
ARC
  5
237
100
AcDbEntity
  8
0
  6
CONTINUOUS
 62
               7
100
AcDbCircle
 10
8.7818536264305465
 20
-7.7928932007047411
 30
0.0
 40
0.3007001998472195
100
AcDbArc
 50
-44.866737929198983
 51
44.866737929198038
  0
LINE
  5
238
100
AcDbEntity
  8
0
  6
CONTINUOUS
 62
               7
100
AcDbLine
 10
8.1464466052484852
 20
-7.4393398101114787
 30
0.0
 11
7.0150757553500114
 21
-6.3079689602130049
 31
0.0
  0
ARC
  5
239
100
AcDbEntity
  8
0
  6
CONTINUOUS
 62
               7
100
AcDbCircle
 10
8.4999999958417618
 20
-4.8230447197212403
 30
0.0
 40
2.1000000111152071
100
AcDbArc
 50
44.999999999999901
 51
224.99999999999949
  0
LINE
  5
23A
100
AcDbEntity
  8
0
  6
CENTER
 62
               2
100
AcDbLine
 10
4.0
 20
8.5
 30
0.0
 11
4.0
 21
-8.5000000000000018
 31
0.0
  0
CIRCLE
  5
23B
100
AcDbEntity
  8
0
  6
CONTINUOUS
 62
               2
100
AcDbCircle
 10
4.0
 20
6.0
 30
0.0
 40
1.5
  0
CIRCLE
  5
23C
100
AcDbEntity
  8
0
  6
CONTINUOUS
 62
               7
100
AcDbCircle
 10
4.0
 20
6.0
 30
0.0
 40
1.1000000000000001
  0
CIRCLE
  5
23D
100
AcDbEntity
  8
0
  6
CONTINUOUS
 62
               2
100
AcDbCircle
 10
4.0
 20
-6.0000000000000018
 30
0.0
 40
1.5
  0
CIRCLE
  5
23E
100
AcDbEntity
  8
0
  6
CONTINUOUS
 62
               7
100
AcDbCircle
 10
4.0
 20
-6.0000000000000018
 30
0.0
 40
1.1000000000000001
  0
ARC
  5
23F
100
AcDbEntity
  8
0
  6
CONTINUOUS
 62
               7
100
AcDbCircle
 10
0.4000000000000057
 20
-8.1000000000000032
 30
0.0
 40
0.4
100
AcDbArc
 50
179.9999999999996
 51
269.99999999999937
  0
ARC
  5
240
100
AcDbEntity
  8
0
  6
CONTINUOUS
 62
               7
100
AcDbCircle
 10
0.4000000000000057
 20
8.1000000000000014
 30
0.0
 40
0.4
100
AcDbArc
 50
89.999999999999801
 51
179.9999999999996
  0
ARC
  5
241
100
AcDbEntity
  8
0
  6
CONTINUOUS
 62
               7
100
AcDbCircle
 10
4.0
 20
0.0
 30
0.0
 40
3.0499999999999998
100
AcDbArc
 50
214.37439431169884
 51
265.6256012324834
  0
CIRCLE
  5
242
100
AcDbEntity
  8
0
  6
CONTINUOUS
 62
               7
100
AcDbCircle
 10
4.0
 20
0.0
 30
0.0
 40
1.5
  0
CIRCLE
  5
243
100
AcDbEntity
  8
0
  6
CONTINUOUS
 62
               2
100
AcDbCircle
 10
4.0
 20
0.0
 30
0.0
 40
1.2000000000000028
  0
LINE
  5
244
100
AcDbEntity
  8
0
  6
CONTINUOUS
 62
               7
100
AcDbLine
 10
6.7500000868849384
 20
1.5877132904345146
 30
0.0
 11
6.7499999634106018
 21
-1.5877133903221505
 31
0.0
  0
CIRCLE
  5
245
100
AcDbEntity
  8
0
  6
CONTINUOUS
 62
               7
100
AcDbCircle
 10
4.0
 20
0.0
 30
0.0
 40
2.75
  0
LINE
  5
246
100
AcDbEntity
  8
0
  6
CONTINUOUS
 62
               7
100
AcDbLine
 10
1.2499999131150616
 20
-1.5877132904345075
 30
0.0
 11
1.2500000365894266
 21
1.5877133903221576
 31
0.0
  0
ARC
  5
247
100
AcDbEntity
  8
0
  6
CONTINUOUS
 62
               7
100
AcDbCircle
 10
4.0
 20
0.0
 30
0.0
 40
3.0499999999999998
100
AcDbArc
 50
154.37439431169929
 51
205.62560123248301
  0
ARC
  5
248
100
AcDbEntity
  8
0
  6
CONTINUOUS
 62
               7
100
AcDbCircle
 10
4.0
 20
0.0
 30
0.0
 40
3.0499999999999998
100
AcDbArc
 50
274.37439431169918
 51
325.62560123248301
  0
ARC
  5
249
100
AcDbEntity
  8
0
  6
CONTINUOUS
 62
               7
100
AcDbCircle
 10
4.0
 20
0.0
 30
0.0
 40
3.0499999999999998
100
AcDbArc
 50
334.37439431169884
 51
25.625601232484005
  0
ARC
  5
24A
100
AcDbEntity
  8
0
  6
CONTINUOUS
 62
               7
100
AcDbCircle
 10
4.0
 20
0.0
 30
0.0
 40
3.0499999999999998
100
AcDbArc
 50
34.374394311699547
 51
85.625601232483788
  0
ARC
  5
24B
100
AcDbEntity
  8
0
  6
CONTINUOUS
 62
               7
100
AcDbCircle
 10
4.0
 20
0.0
 30
0.0
 40
3.0499999999999998
100
AcDbArc
 50
94.374394311699646
 51
145.6256012324834
  0
LINE
  5
24C
100
AcDbEntity
  8
0
  6
CONTINUOUS
 62
               7
100
AcDbLine
 10
1.2499999131150616
 20
1.5877132904345146
 30
0.0
 11
4.0000001482424068
 21
3.1754265238809296
 31
0.0
  0
LINE
  5
24D
100
AcDbEntity
  8
0
  6
CONTINUOUS
 62
               7
100
AcDbLine
 10
4.0
 20
-3.1754265808690292
 30
0.0
 11
1.2499998883470198
 21
-1.5877131335587649
 31
0.0
  0
LINE
  5
24E
100
AcDbEntity
  8
0
  6
CONTINUOUS
 62
               7
100
AcDbLine
 10
6.7500000868849384
 20
-1.5877132904345217
 30
0.0
 11
3.9999998517575932
 21
-3.1754265238809296
 31
0.0
  0
LINE
  5
24F
100
AcDbEntity
  8
0
  6
CONTINUOUS
 62
               7
100
AcDbLine
 10
4.0
 20
3.1754265808690292
 30
0.0
 11
6.7500001116530086
 21
1.587713133558772
 31
0.0
  0
CIRCLE
  5
250
100
AcDbEntity
  8
0
  6
CONTINUOUS
 62
               7
100
AcDbCircle
 10
4.0
 20
0.0
 30
0.0
 40
3.25
  0
LINE
  5
251
100
AcDbEntity
  8
0
  6
CENTER
 62
               2
100
AcDbLine
 10
-1.5
 20
6.0
 30
0.0
 11
6.5
 21
6.0
 31
0.0
  0
LINE
  5
252
100
AcDbEntity
  8
0
  6
CENTER
 62
               2
100
AcDbLine
 10
-1.5
 20
-6.0
 30
0.0
 11
6.5
 21
-6.0000000000000018
 31
0.0
  0
ENDBLK
  5
253
100
AcDbEntity
  8
0
100
AcDbBlockEnd
  0
BLOCK
  5
254
100
AcDbEntity
  8
0
100
AcDbBlockBegin
  2
MS_7
 70
               0
 10
0.0
 20
0.0
 30
0.0
  3
MS_7
  1

  0
LINE
  5
255
100
AcDbEntity
  8
0
  6
CONTINUOUS
 62
               7
100
AcDbLine
 10
30.0
 20
0.0
 30
0.0
 11
30.0
 21
12.0
 31
0.0
  0
LINE
  5
256
100
AcDbEntity
  8
0
  6
CONTINUOUS
 62
               7
100
AcDbLine
 10
20.5
 20
0.883704913768014
 30
0.0
 11
30.0
 21
0.883704913768014
 31
0.0
  0
LINE
  5
257
100
AcDbEntity
  8
0
  6
CONTINUOUS
 62
               7
100
AcDbLine
 10
20.5
 20
0.5301515231747374
 30
0.0
 11
30.0
 21
0.5301515231747374
 31
0.0
  0
LINE
  5
258
100
AcDbEntity
  8
0
  6
CONTINUOUS
 62
               7
100
AcDbLine
 10
0.0
 20
6.5
 30
0.0
 11
-2.0
 21
6.5
 31
0.0
  0
LINE
  5
259
100
AcDbEntity
  8
0
  6
CONTINUOUS
 62
               7
100
AcDbLine
 10
0.0
 20
9.5
 30
0.0
 11
-2.0
 21
9.5
 31
0.0
  0
LINE
  5
25A
100
AcDbEntity
  8
0
  6
CONTINUOUS
 62
               7
100
AcDbLine
 10
-4.045620120172714
 20
8.0
 30
0.0
 11
-5.3543798798272775
 21
8.0
 31
0.0
  0
LINE
  5
25B
100
AcDbEntity
  8
0
  6
CONTINUOUS
 62
               7
100
AcDbLine
 10
-3.7999999999999972
 20
10.75
 30
0.0
 11
-5.5999999999999943
 21
10.75
 31
0.0
  0
LINE
  5
25C
100
AcDbEntity
  8
0
  6
CONTINUOUS
 62
               7
100
AcDbLine
 10
-3.7999999999999972
 20
10.75
 30
0.0
 11
-2.0
 21
10.75
 31
0.0
  0
LINE
  5
25D
100
AcDbEntity
  8
0
  6
CONTINUOUS
 62
               7
100
AcDbLine
 10
-3.5543798798272803
 20
8.0
 30
0.0
 11
-2.2456201201727168
 21
8.0
 31
0.0
  0
LINE
  5
25E
100
AcDbEntity
  8
0
  6
CONTINUOUS
 62
               7
100
AcDbLine
 10
-3.7999999999999972
 20
5.250000018878012
 30
0.0
 11
-2.0
 21
5.250000018878012
 31
0.0
  0
LINE
  5
25F
100
AcDbEntity
  8
0
  6
CONTINUOUS
 62
               7
100
AcDbLine
 10
-3.7999999999999972
 20
5.250000018878012
 30
0.0
 11
-5.5999999999999943
 21
5.250000018878012
 31
0.0
  0
LINE
  5
260
100
AcDbEntity
  8
0
  6
CONTINUOUS
 62
               7
100
AcDbLine
 10
-3.7999999999999972
 20
10.750000018878012
 30
0.0
 11
-3.7999999999999972
 21
5.250000018878012
 31
0.0
  0
LINE
  5
261
100
AcDbEntity
  8
0
  6
CONTINUOUS
 62
               7
100
AcDbLine
 10
-5.5999999999999943
 20
10.750000018878012
 30
0.0
 11
-5.5999999999999943
 21
5.250000018878012
 31
0.0
  0
LINE
  5
262
100
AcDbEntity
  8
0
  6
CONTINUOUS
 62
               7
100
AcDbLine
 10
-2.0
 20
10.750000018878012
 30
0.0
 11
-2.0
 21
5.250000018878012
 31
0.0
  0
SPLINE
  5
263
100
AcDbEntity
  8
0
  6
CONTINUOUS
 62
               7
100
AcDbSpline
210
0.0
220
0.0
230
1.0
 70
               0
 71
               3
 72
               0
 73
               0
 74
               5
 44
0.000001
 12
0.3364389337625613
 22
-0.9417052850274925
 32
0.0
 13
-0.3364389335092214
 23
-0.9417052851180021
 33
0.0
 11
-2.2456201201727168
 21
10.749999981121988
 31
0.0
 11
-2.0640692685897637
 21
10.073685943751091
 31
0.0
 11
-2.0
 21
9.375
 31
0.0
 11
-2.0640692670398586
 21
8.6763140466768789
 31
0.0
 11
-2.2456201201727168
 21
8.0
 31
0.0
  0
SPLINE
  5
264
100
AcDbEntity
  8
0
  6
CONTINUOUS
 62
               7
100
AcDbSpline
210
0.0
220
0.0
230
1.0
 70
               0
 71
               3
 72
               0
 73
               0
 74
               5
 44
0.000001
 12
-0.3364389337625614
 22
-0.9417052850274925
 32
0.0
 13
0.3364389335092213
 23
-0.9417052851180021
 33
0.0
 11
-3.5543798798272803
 21
10.749999981121988
 31
0.0
 11
-3.7359307314102335
 21
10.073685943751091
 31
0.0
 11
-3.7999999999999972
 21
9.375
 31
0.0
 11
-3.7359307329601386
 21
8.6763140466768789
 31
0.0
 11
-3.5543798798272803
 21
8.0
 31
0.0
  0
SPLINE
  5
265
100
AcDbEntity
  8
0
  6
CONTINUOUS
 62
               7
100
AcDbSpline
210
0.0
220
0.0
230
1.0
 70
               0
 71
               3
 72
               0
 73
               0
 74
               5
 44
0.000001
 12
0.3364389337625613
 22
-0.9417052850274925
 32
0.0
 13
-0.3364389335092214
 23
-0.9417052851180021
 33
0.0
 11
-4.045620120172714
 21
10.749999981121988
 31
0.0
 11
-3.8640692685897609
 21
10.073685943751091
 31
0.0
 11
-3.7999999999999972
 21
9.375
 31
0.0
 11
-3.8640692670398558
 21
8.6763140466768789
 31
0.0
 11
-4.045620120172714
 21
8.0
 31
0.0
  0
SPLINE
  5
266
100
AcDbEntity
  8
0
  6
CONTINUOUS
 62
               7
100
AcDbSpline
210
0.0
220
0.0
230
1.0
 70
               0
 71
               3
 72
               0
 73
               0
 74
               5
 44
0.000001
 12
-0.3364389337625614
 22
-0.9417052850274925
 32
0.0
 13
0.3364389335092213
 23
-0.9417052851180021
 33
0.0
 11
-5.3543798798272775
 21
10.749999981121988
 31
0.0
 11
-5.5359307314102306
 21
10.073685943751091
 31
0.0
 11
-5.5999999999999943
 21
9.375
 31
0.0
 11
-5.5359307329601357
 21
8.6763140466768789
 31
0.0
 11
-5.3543798798272775
 21
8.0
 31
0.0
  0
SPLINE
  5
267
100
AcDbEntity
  8
0
  6
CONTINUOUS
 62
               7
100
AcDbSpline
210
0.0
220
0.0
230
1.0
 70
               0
 71
               3
 72
               0
 73
               0
 74
               5
 44
0.000001
 12
0.3364389337625613
 22
0.9417052850274925
 32
0.0
 13
-0.3364389335092214
 23
0.9417052851180021
 33
0.0
 11
-4.045620120172714
 21
5.250000018878012
 31
0.0
 11
-3.8640692685897609
 21
5.9263140562489101
 31
0.0
 11
-3.7999999999999972
 21
6.625
 31
0.0
 11
-3.8640692670398558
 21
7.3236859533231211
 31
0.0
 11
-4.045620120172714
 21
8.0
 31
0.0
  0
SPLINE
  5
268
100
AcDbEntity
  8
0
  6
CONTINUOUS
 62
               7
100
AcDbSpline
210
0.0
220
0.0
230
1.0
 70
               0
 71
               3
 72
               0
 73
               0
 74
               5
 44
0.000001
 12
-0.3364389337625614
 22
0.9417052850274925
 32
0.0
 13
0.3364389335092213
 23
0.9417052851180021
 33
0.0
 11
-5.3543798798272775
 21
5.250000018878012
 31
0.0
 11
-5.5359307314102306
 21
5.9263140562489101
 31
0.0
 11
-5.5999999999999943
 21
6.625
 31
0.0
 11
-5.5359307329601357
 21
7.3236859533231211
 31
0.0
 11
-5.3543798798272775
 21
8.0
 31
0.0
  0
SPLINE
  5
269
100
AcDbEntity
  8
0
  6
CONTINUOUS
 62
               7
100
AcDbSpline
210
0.0
220
0.0
230
1.0
 70
               0
 71
               3
 72
               0
 73
               0
 74
               5
 44
0.000001
 12
0.3364389337625613
 22
0.9417052850274925
 32
0.0
 13
-0.3364389335092214
 23
0.9417052851180021
 33
0.0
 11
-2.2456201201727168
 21
5.250000018878012
 31
0.0
 11
-2.0640692685897637
 21
5.9263140562489101
 31
0.0
 11
-2.0
 21
6.625
 31
0.0
 11
-2.0640692670398586
 21
7.3236859533231211
 31
0.0
 11
-2.2456201201727168
 21
8.0
 31
0.0
  0
SPLINE
  5
26A
100
AcDbEntity
  8
0
  6
CONTINUOUS
 62
               7
100
AcDbSpline
210
0.0
220
0.0
230
1.0
 70
               0
 71
               3
 72
               0
 73
               0
 74
               5
 44
0.000001
 12
-0.3364389337625614
 22
0.9417052850274925
 32
0.0
 13
0.3364389335092213
 23
0.9417052851180021
 33
0.0
 11
-3.5543798798272803
 21
5.250000018878012
 31
0.0
 11
-3.7359307314102335
 21
5.9263140562489101
 31
0.0
 11
-3.7999999999999972
 21
6.625
 31
0.0
 11
-3.7359307329601386
 21
7.3236859533231211
 31
0.0
 11
-3.5543798798272803
 21
8.0
 31
0.0
  0
LINE
  5
26B
100
AcDbEntity
  8
0
  6
CONTINUOUS
 62
               2
100
AcDbLine
 10
-1.0
 20
6.7999999999999972
 30
0.0
 11
-0.4803847577293539
 21
6.5
 31
0.0
  0
LINE
  5
26C
100
AcDbEntity
  8
0
  6
CONTINUOUS
 62
               2
100
AcDbLine
 10
-1.0
 20
9.2000000000000028
 30
0.0
 11
-0.4803847577293539
 21
9.5
 31
0.0
  0
LINE
  5
26D
100
AcDbEntity
  8
0
  6
CONTINUOUS
 62
               2
100
AcDbLine
 10
-2.0
 20
9.2000000000000028
 30
0.0
 11
-1.0
 21
9.2000000000000028
 31
0.0
  0
LINE
  5
26E
100
AcDbEntity
  8
0
  6
CONTINUOUS
 62
               2
100
AcDbLine
 10
-2.0
 20
6.7999999999999972
 30
0.0
 11
-1.0
 21
6.7999999999999972
 31
0.0
  0
LINE
  5
26F
100
AcDbEntity
  8
0
  6
CONTINUOUS
 62
               2
100
AcDbLine
 10
-8.0
 20
9.2000000000000028
 30
0.0
 11
-5.5999999999999943
 21
9.2000000000000028
 31
0.0
  0
LINE
  5
270
100
AcDbEntity
  8
0
  6
CONTINUOUS
 62
               7
100
AcDbLine
 10
-7.7000000000000171
 20
9.5
 30
0.0
 11
-8.0
 21
9.2000000000000028
 31
0.0
  0
LINE
  5
271
100
AcDbEntity
  8
0
  6
CONTINUOUS
 62
               7
100
AcDbLine
 10
-7.7000000000000171
 20
9.5
 30
0.0
 11
-5.5999999999999943
 21
9.5
 31
0.0
  0
LINE
  5
272
100
AcDbEntity
  8
0
  6
CONTINUOUS
 62
               2
100
AcDbLine
 10
-8.0
 20
6.7999999999999972
 30
0.0
 11
-5.5999999999999943
 21
6.7999999999999972
 31
0.0
  0
LINE
  5
273
100
AcDbEntity
  8
0
  6
CONTINUOUS
 62
               7
100
AcDbLine
 10
-7.7000000000000171
 20
6.5
 30
0.0
 11
-8.0
 21
6.7999999999999972
 31
0.0
  0
LINE
  5
274
100
AcDbEntity
  8
0
  6
CONTINUOUS
 62
               7
100
AcDbLine
 10
-7.7000000000000171
 20
9.5
 30
0.0
 11
-7.7000000000000171
 21
6.5
 31
0.0
  0
LINE
  5
275
100
AcDbEntity
  8
0
  6
CONTINUOUS
 62
               7
100
AcDbLine
 10
-1.0
 20
9.5
 30
0.0
 11
-1.0
 21
6.5
 31
0.0
  0
LINE
  5
276
100
AcDbEntity
  8
0
  6
CONTINUOUS
 62
               7
100
AcDbLine
 10
-8.0
 20
9.2000000000000028
 30
0.0
 11
-8.0
 21
6.7999999999999972
 31
0.0
  0
LINE
  5
277
100
AcDbEntity
  8
0
  6
CONTINUOUS
 62
               7
100
AcDbLine
 10
-7.7000000000000171
 20
6.5
 30
0.0
 11
-5.5999999999999943
 21
6.5
 31
0.0
  0
LINE
  5
278
100
AcDbEntity
  8
0
  6
CONTINUOUS
 62
               7
100
AcDbLine
 10
0.0
 20
0.0
 30
0.0
 11
0.0
 21
12.0
 31
0.0
  0
LINE
  5
279
100
AcDbEntity
  8
0
  6
CONTINUOUS
 62
               7
100
AcDbLine
 10
0.0
 20
12.0
 30
0.0
 11
30.0
 21
12.0
 31
0.0
  0
LINE
  5
27A
100
AcDbEntity
  8
0
  6
CONTINUOUS
 62
               7
100
AcDbLine
 10
0.0
 20
3.5000000222669598
 30
0.0
 11
30.0
 21
3.5000000222669598
 31
0.0
  0
LINE
  5
27B
100
AcDbEntity
  8
0
  6
CONTINUOUS
 62
               7
100
AcDbLine
 10
0.0
 20
0.5301515231747374
 30
0.0
 11
15.899999999999864
 21
0.5301515231747374
 31
0.0
  0
LINE
  5
27C
100
AcDbEntity
  8
0
  6
CONTINUOUS
 62
               7
100
AcDbLine
 10
0.0
 20
2.9174461737222259
 30
0.0
 11
30.0
 21
2.9174461737222259
 31
0.0
  0
LINE
  5
27D
100
AcDbEntity
  8
0
  6
CONTINUOUS
 62
               7
100
AcDbLine
 10
0.0
 20
0.883704913768014
 30
0.0
 11
5.5
 21
0.883704913768014
 31
0.0
  0
LINE
  5
27E
100
AcDbEntity
  8
0
  6
CONTINUOUS
 62
               7
100
AcDbLine
 10
0.0
 20
0.0
 30
0.0
 11
15.899999999999864
 21
0.0
 31
0.0
  0
LINE
  5
27F
100
AcDbEntity
  8
0
  6
CENTER
 62
               2
100
AcDbLine
 10
-9.2875397726956663
 20
8.0
 30
0.0
 11
31.706095837897948
 21
8.0
 31
0.0
  0
LINE
  5
280
100
AcDbEntity
  8
0
  6
CENTER
 62
               2
100
AcDbLine
 10
10.0
 20
9.9547775518886965
 30
0.0
 11
10.0
 21
6.0239043419708906
 31
0.0
  0
CIRCLE
  5
281
100
AcDbEntity
  8
0
  6
DASHED
 62
               2
100
AcDbCircle
 10
10.0
 20
8.0000000000000142
 30
0.0
 40
1.5
  0
CIRCLE
  5
282
100
AcDbEntity
  8
0
  6
DASHED
 62
               7
100
AcDbCircle
 10
10.0
 20
8.0000000000000142
 30
0.0
 40
1.1999999999999886
  0
LINE
  5
283
100
AcDbEntity
  8
0
  6
CENTER
 62
               2
100
AcDbLine
 10
26.999999999999972
 20
9.9547775518886965
 30
0.0
 11
26.999999999999972
 21
6.0239043419708906
 31
0.0
  0
CIRCLE
  5
284
100
AcDbEntity
  8
0
  6
DASHED
 62
               2
100
AcDbCircle
 10
26.999999999999972
 20
8.0000000000000142
 30
0.0
 40
1.5
  0
CIRCLE
  5
285
100
AcDbEntity
  8
0
  6
DASHED
 62
               7
100
AcDbCircle
 10
26.999999999999972
 20
8.0000000000000142
 30
0.0
 40
1.1999999999999886
  0
LINE
  5
286
100
AcDbEntity
  8
0
  6
CONTINUOUS
 62
               4
100
AcDbLine
 10
20.5
 20
2.917446173722233
 30
0.0
 11
20.5
 21
-3.2692910482430975
 31
0.0
  0
LINE
  5
287
100
AcDbEntity
  8
0
  6
CONTINUOUS
 62
               4
100
AcDbLine
 10
15.899999999999864
 20
-2.526828955396546
 30
0.0
 11
15.899999999999864
 21
1.6451009925842541
 31
0.0
  0
ELLIPSE
  5
288
100
AcDbEntity
  8
0
  6
CONTINUOUS
 62
               4
100
AcDbEllipse
 10
18.0
 20
-1.8197221742099927
 30
0.0
 11
2.0999999840018688
 21
0.0
 31
0.0
210
0.0
220
0.0
230
1.0
 40
0.6902709107026028
 41
0.0
 42
1.5707963267948966
  0
LINE
  5
289
100
AcDbEntity
  8
0
  6
CONTINUOUS
 62
               4
100
AcDbLine
 10
18.0
 20
-0.3701532532716314
 30
0.0
 11
18.0
 21
-1.0772600539641175
 31
0.0
  0
LINE
  5
28A
100
AcDbEntity
  8
0
  6
CONTINUOUS
 62
               4
100
AcDbLine
 10
13.0
 20
0.0
 30
0.0
 11
13.0
 21
-3.2692910482430975
 31
0.0
  0
LINE
  5
28B
100
AcDbEntity
  8
0
  6
CONTINUOUS
 62
               4
100
AcDbLine
 10
15.5
 20
-3.2692910756424212
 30
0.0
 11
15.5
 21
-3.9763978568289673
 31
0.0
  0
ELLIPSE
  5
28C
100
AcDbEntity
  8
0
  6
CONTINUOUS
 62
               4
100
AcDbEllipse
 10
15.5
 20
-2.526828955396546
 30
0.0
 11
-2.0999999999999943
 21
0.0000000000000003
 31
0.0
210
0.0
220
0.0
230
1.0
 40
0.690270905444012
 41
0.5377386764774563
 42
2.1503123541906759
  0
ELLIPSE
  5
28D
100
AcDbEntity
  8
0
  6
CONTINUOUS
 62
               4
100
AcDbEllipse
 10
15.5
 20
-5.526828955396546
 30
0.0
 11
-1.3500000000000016
 21
0.0000000000000002
 31
0.0
210
0.0
220
0.0
230
1.0
 40
0.713092870339449
 41
0.0
 42
2.7542760527011376
  0
LINE
  5
28E
100
AcDbEntity
  8
0
  6
CONTINUOUS
 62
               4
100
AcDbLine
 10
14.150000000000091
 20
-3.637178573989857
 30
0.0
 11
14.150000000000091
 21
-5.5268289496446172
 31
0.0
  0
LINE
  5
28F
100
AcDbEntity
  8
0
  6
CONTINUOUS
 62
               4
100
AcDbLine
 10
15.5
 20
-3.2692910756424212
 30
0.0
 11
13.0
 21
-3.2692910756424212
 31
0.0
  0
LINE
  5
290
100
AcDbEntity
  8
0
  6
CONTINUOUS
 62
               4
100
AcDbLine
 10
20.09999998400167
 20
-1.8197221742099927
 30
0.0
 11
20.09999998400167
 21
-2.5268289496446172
 31
0.0
  0
LINE
  5
291
100
AcDbEntity
  8
0
  6
CONTINUOUS
 62
               4
100
AcDbLine
 10
19.80362512657598
 20
-3.2692910756424212
 30
0.0
 11
20.5
 21
-3.2692910756424212
 31
0.0
  0
LINE
  5
292
100
AcDbEntity
  8
0
  6
CONTINUOUS
 62
               4
100
AcDbLine
 10
19.349999999999909
 20
-2.5268289496446172
 30
0.0
 11
19.349999999999909
 21
-5.5268289496446172
 31
0.0
  0
LINE
  5
293
100
AcDbEntity
  8
0
  6
CONTINUOUS
 62
               4
100
AcDbLine
 10
16.649999999999864
 20
-2.5268289496446172
 30
0.0
 11
16.649999999999864
 21
-5.5268289496446172
 31
0.0
  0
ELLIPSE
  5
294
100
AcDbEntity
  8
0
  6
CONTINUOUS
 62
               4
100
AcDbEllipse
 10
18.0
 20
-2.526828955396546
 30
0.0
 11
1.3500000000000016
 21
0.0
 31
0.0
210
0.0
220
0.0
230
1.0
 40
0.713092870339449
 41
0.0
 42
3.1415926535897931
  0
ELLIPSE
  5
295
100
AcDbEntity
  8
0
  6
CONTINUOUS
 62
               4
100
AcDbEllipse
 10
18.0
 20
-5.526828955396546
 30
0.0
 11
1.3500000000000016
 21
0.0
 31
0.0
210
0.0
220
0.0
230
1.0
 40
0.713092870339449
 41
0.0
 42
6.2831853071795862
  0
ELLIPSE
  5
296
100
AcDbEntity
  8
0
  6
CONTINUOUS
 62
               4
100
AcDbEllipse
 10
18.0
 20
-2.526828955396546
 30
0.0
 11
2.0999999999999943
 21
0.0
 31
0.0
210
0.0
220
0.0
230
1.0
 40
0.690270905444012
 41
-0.8725714153590118
 42
4.014164068948805
  0
LINE
  5
297
100
AcDbEntity
  8
0
  6
CONTINUOUS
 62
               4
100
AcDbLine
 10
18.0
 20
-0.3701532727775643
 30
0.0
 11
20.500000019764457
 21
-0.3701532727775643
 31
0.0
  0
LINE
  5
298
100
AcDbEntity
  8
0
  6
CONTINUOUS
 62
               4
100
AcDbLine
 10
16.530306154329992
 20
2.7057611643641906
 30
0.0
 11
16.530306154329992
 21
2.0340098093008478
 31
0.0
  0
ELLIPSE
  5
299
100
AcDbEntity
  8
0
  6
CONTINUOUS
 62
               4
100
AcDbEllipse
 10
18.000000019764457
 20
1.6451009925842541
 30
0.0
 11
-2.10000001976465
 21
0.0000000000000003
 31
0.0
210
0.0
220
0.0
230
1.0
 40
0.6902708989473664
 41
5.4875823576499068
 42
0.0
  0
LINE
  5
29A
100
AcDbEntity
  8
0
  6
CONTINUOUS
 62
               4
100
AcDbLine
 10
16.530306154329992
 20
2.0340097863000679
 30
0.0
 11
20.5
 21
2.0340097863000679
 31
0.0
  0
LINE
  5
29B
100
AcDbEntity
  8
0
  6
CONTINUOUS
 62
               4
100
AcDbLine
 10
5.5
 20
0.5844408208044314
 30
0.0
 11
5.5
 21
2.917446173722233
 31
0.0
  0
LINE
  5
29C
100
AcDbEntity
  8
0
  6
CONTINUOUS
 62
               4
100
AcDbLine
 10
7.25
 20
0.7790755887998344
 30
0.0
 11
7.25
 21
2.5111263963687307
 31
0.0
  0
LINE
  5
29D
100
AcDbEntity
  8
0
  6
CONTINUOUS
 62
               4
100
AcDbLine
 10
7.75
 20
0.7790755887998344
 30
0.0
 11
7.75
 21
2.5111263963687307
 31
0.0
  0
ELLIPSE
  5
29E
100
AcDbEntity
  8
0
  6
CONTINUOUS
 62
               4
100
AcDbEllipse
 10
7.5
 20
1.6451009925842541
 30
0.0
 11
-1.25
 21
0.0000000000000002
 31
0.0
210
0.0
220
0.0
230
1.0
 40
0.7071067811865476
 41
0.0
 42
6.2831853071795862
  0
LINE
  5
29F
100
AcDbEntity
  8
0
  6
CONTINUOUS
 62
               7
100
AcDbLine
 10
20.5
 20
0.0
 30
0.0
 11
30.0
 21
0.0
 31
0.0
  0
LINE
  5
2A0
100
AcDbEntity
  8
0
  6
CONTINUOUS
 62
               4
100
AcDbLine
 10
5.5
 20
0.5844408208044314
 30
0.0
 11
15.899999999999864
 21
0.5844408208044314
 31
0.0
  0
LINE
  5
2A1
100
AcDbEntity
  8
0
  6
CONTINUOUS
 62
               4
100
AcDbLine
 10
5.5
 20
2.7057611643641906
 30
0.0
 11
20.5
 21
2.7057611643641906
 31
0.0
  0
LINE
  5
2A2
100
AcDbEntity
  8
0
  6
CENTER
 62
               2
100
AcDbLine
 10
5.0
 20
10.500000011495246
 30
0.0
 11
5.0
 21
13.500000011495246
 31
0.0
  0
ENDBLK
  5
2A3
100
AcDbEntity
  8
0
100
AcDbBlockEnd
  0
BLOCK
  5
2A4
100
AcDbEntity
  8
0
100
AcDbBlockBegin
  2
MS_8
 70
               0
 10
0.0
 20
0.0
 30
0.0
  3
MS_8
  1

  0
LINE
  5
2A5
100
AcDbEntity
  8
0
  6
CONTINUOUS
 62
               4
100
AcDbLine
 10
28.0
 20
11.415559179195562
 30
0.0
 11
28.0
 21
9.082553826277767
 31
0.0
  0
LINE
  5
2A6
100
AcDbEntity
  8
0
  6
CONTINUOUS
 62
               4
100
AcDbLine
 10
26.25
 20
11.220924411200166
 30
0.0
 11
26.25
 21
9.4888736036312693
 31
0.0
  0
LINE
  5
2A7
100
AcDbEntity
  8
0
  6
CONTINUOUS
 62
               4
100
AcDbLine
 10
25.75
 20
11.220924411200166
 30
0.0
 11
25.75
 21
9.4888736036312693
 31
0.0
  0
ELLIPSE
  5
2A8
100
AcDbEntity
  8
0
  6
CONTINUOUS
 62
               4
100
AcDbEllipse
 10
26.0
 20
10.354899007415746
 30
0.0
 11
1.25
 21
0.0
 31
0.0
210
0.0
220
0.0
230
1.0
 40
0.7071067811865476
 41
0.0
 42
6.2831853071795862
  0
LINE
  5
2A9
100
AcDbEntity
  8
0
  6
CONTINUOUS
 62
               4
100
AcDbLine
 10
13.0
 20
9.082553826277767
 30
0.0
 11
13.0
 21
15.269291048243097
 31
0.0
  0
LINE
  5
2AA
100
AcDbEntity
  8
0
  6
CONTINUOUS
 62
               4
100
AcDbLine
 10
17.600000000000136
 20
14.526828955396546
 30
0.0
 11
17.600000000000136
 21
10.354899007415746
 31
0.0
  0
LINE
  5
2AB
100
AcDbEntity
  8
0
  6
CONTINUOUS
 62
               4
100
AcDbLine
 10
16.969693845670008
 20
9.2942388356358023
 30
0.0
 11
16.969693845670008
 21
9.9659901906991522
 31
0.0
  0
ELLIPSE
  5
2AC
100
AcDbEntity
  8
0
  6
CONTINUOUS
 62
               4
100
AcDbEllipse
 10
15.499999980235543
 20
10.354899007415746
 30
0.0
 11
2.10000001976465
 21
0.0
 31
0.0
210
0.0
220
0.0
230
1.0
 40
0.6902708989473664
 41
5.4875823576499068
 42
0.0
  0
LINE
  5
2AD
100
AcDbEntity
  8
0
  6
CONTINUOUS
 62
               4
100
AcDbLine
 10
16.969693845670008
 20
9.9659902136999321
 30
0.0
 11
13.0
 21
9.9659902136999321
 31
0.0
  0
ELLIPSE
  5
2AE
100
AcDbEntity
  8
0
  6
CONTINUOUS
 62
               4
100
AcDbEllipse
 10
15.5
 20
14.526828955396546
 30
0.0
 11
-2.0999999999999943
 21
0.0000000000000003
 31
0.0
210
0.0
220
0.0
230
1.0
 40
0.690270905444012
 41
-0.8725714153590118
 42
4.014164068948805
  0
ELLIPSE
  5
2AF
100
AcDbEntity
  8
0
  6
CONTINUOUS
 62
               4
100
AcDbEllipse
 10
15.5
 20
13.819722174209993
 30
0.0
 11
-2.0999999840018688
 21
0.0000000000000003
 31
0.0
210
0.0
220
0.0
230
1.0
 40
0.6902709107026028
 41
0.0
 42
1.5707963267948966
  0
ELLIPSE
  5
2B0
100
AcDbEntity
  8
0
  6
CONTINUOUS
 62
               4
100
AcDbEllipse
 10
15.5
 20
17.526828955396546
 30
0.0
 11
-1.3500000000000016
 21
0.0000000000000002
 31
0.0
210
0.0
220
0.0
230
1.0
 40
0.713092870339449
 41
0.0
 42
6.2831853071795862
  0
ELLIPSE
  5
2B1
100
AcDbEntity
  8
0
  6
CONTINUOUS
 62
               4
100
AcDbEllipse
 10
15.5
 20
14.526828955396546
 30
0.0
 11
-1.3500000000000016
 21
0.0000000000000002
 31
0.0
210
0.0
220
0.0
230
1.0
 40
0.713092870339449
 41
0.0
 42
3.1415926535897931
  0
LINE
  5
2B2
100
AcDbEntity
  8
0
  6
CONTINUOUS
 62
               4
100
AcDbLine
 10
16.850000000000136
 20
14.526828949644617
 30
0.0
 11
16.850000000000136
 21
17.526828949644617
 31
0.0
  0
LINE
  5
2B3
100
AcDbEntity
  8
0
  6
CONTINUOUS
 62
               4
100
AcDbLine
 10
14.150000000000091
 20
14.526828949644617
 30
0.0
 11
14.150000000000091
 21
17.526828949644617
 31
0.0
  0
LINE
  5
2B4
100
AcDbEntity
  8
0
  6
CONTINUOUS
 62
               4
100
AcDbLine
 10
13.69637487342402
 20
15.269291075642421
 30
0.0
 11
13.0
 21
15.269291075642421
 31
0.0
  0
LINE
  5
2B5
100
AcDbEntity
  8
0
  6
CONTINUOUS
 62
               4
100
AcDbLine
 10
13.40000001599833
 20
13.819722174209993
 30
0.0
 11
13.40000001599833
 21
14.526828949644617
 31
0.0
  0
LINE
  5
2B6
100
AcDbEntity
  8
0
  6
CONTINUOUS
 62
               4
100
AcDbLine
 10
15.5
 20
12.370153272777564
 30
0.0
 11
12.999999980235543
 21
12.370153272777564
 31
0.0
  0
LINE
  5
2B7
100
AcDbEntity
  8
0
  6
CONTINUOUS
 62
               4
100
AcDbLine
 10
15.5
 20
12.370153253271631
 30
0.0
 11
15.5
 21
13.077260053964118
 31
0.0
  0
LINE
  5
2B8
100
AcDbEntity
  8
0
  6
CENTER
 62
               2
100
AcDbLine
 10
-9.2875397726956663
 20
4.0
 30
0.0
 11
31.706095837897948
 21
4.0
 31
0.0
  0
LINE
  5
2B9
100
AcDbEntity
  8
0
  6
CONTINUOUS
 62
               7
100
AcDbLine
 10
0.0
 20
12.0
 30
0.0
 11
13.0
 21
12.0
 31
0.0
  0
LINE
  5
2BA
100
AcDbEntity
  8
0
  6
CONTINUOUS
 62
               7
100
AcDbLine
 10
0.0
 20
11.116295086231986
 30
0.0
 11
13.0
 21
11.116295086231986
 31
0.0
  0
LINE
  5
2BB
100
AcDbEntity
  8
0
  6
CONTINUOUS
 62
               7
100
AcDbLine
 10
0.0
 20
9.082553826277767
 30
0.0
 11
30.0
 21
9.082553826277767
 31
0.0
  0
LINE
  5
2BC
100
AcDbEntity
  8
0
  6
CONTINUOUS
 62
               7
100
AcDbLine
 10
0.0
 20
11.469848476825263
 30
0.0
 11
13.0
 21
11.469848476825263
 31
0.0
  0
LINE
  5
2BD
100
AcDbEntity
  8
0
  6
CONTINUOUS
 62
               7
100
AcDbLine
 10
0.0
 20
8.4999999777330402
 30
0.0
 11
30.0
 21
8.4999999777330402
 31
0.0
  0
LINE
  5
2BE
100
AcDbEntity
  8
0
  6
CONTINUOUS
 62
               7
100
AcDbLine
 10
0.0
 20
0.0
 30
0.0
 11
30.0
 21
0.0
 31
0.0
  0
LINE
  5
2BF
100
AcDbEntity
  8
0
  6
CONTINUOUS
 62
               7
100
AcDbLine
 10
0.0
 20
12.0
 30
0.0
 11
0.0
 21
0.0
 31
0.0
  0
LINE
  5
2C0
100
AcDbEntity
  8
0
  6
CONTINUOUS
 62
               7
100
AcDbLine
 10
30.0
 20
0.0
 30
0.0
 11
30.0
 21
12.0
 31
0.0
  0
LINE
  5
2C1
100
AcDbEntity
  8
0
  6
CONTINUOUS
 62
               7
100
AcDbLine
 10
-7.7000000000000171
 20
5.5
 30
0.0
 11
-5.5999999999999943
 21
5.5
 31
0.0
  0
LINE
  5
2C2
100
AcDbEntity
  8
0
  6
CONTINUOUS
 62
               7
100
AcDbLine
 10
-8.0
 20
2.7999999999999972
 30
0.0
 11
-8.0
 21
5.2000000000000028
 31
0.0
  0
LINE
  5
2C3
100
AcDbEntity
  8
0
  6
CONTINUOUS
 62
               7
100
AcDbLine
 10
-1.0
 20
2.5
 30
0.0
 11
-1.0
 21
5.5
 31
0.0
  0
LINE
  5
2C4
100
AcDbEntity
  8
0
  6
CONTINUOUS
 62
               7
100
AcDbLine
 10
-7.7000000000000171
 20
2.5
 30
0.0
 11
-7.7000000000000171
 21
5.5
 31
0.0
  0
LINE
  5
2C5
100
AcDbEntity
  8
0
  6
CONTINUOUS
 62
               7
100
AcDbLine
 10
-7.7000000000000171
 20
5.5
 30
0.0
 11
-8.0
 21
5.2000000000000028
 31
0.0
  0
LINE
  5
2C6
100
AcDbEntity
  8
0
  6
CONTINUOUS
 62
               2
100
AcDbLine
 10
-8.0
 20
5.2000000000000028
 30
0.0
 11
-5.5999999999999943
 21
5.2000000000000028
 31
0.0
  0
LINE
  5
2C7
100
AcDbEntity
  8
0
  6
CONTINUOUS
 62
               7
100
AcDbLine
 10
-7.7000000000000171
 20
2.5
 30
0.0
 11
-5.5999999999999943
 21
2.5
 31
0.0
  0
LINE
  5
2C8
100
AcDbEntity
  8
0
  6
CONTINUOUS
 62
               7
100
AcDbLine
 10
-7.7000000000000171
 20
2.5
 30
0.0
 11
-8.0
 21
2.7999999999999972
 31
0.0
  0
LINE
  5
2C9
100
AcDbEntity
  8
0
  6
CONTINUOUS
 62
               2
100
AcDbLine
 10
-8.0
 20
2.7999999999999972
 30
0.0
 11
-5.5999999999999943
 21
2.7999999999999972
 31
0.0
  0
LINE
  5
2CA
100
AcDbEntity
  8
0
  6
CONTINUOUS
 62
               2
100
AcDbLine
 10
-2.0
 20
5.2000000000000028
 30
0.0
 11
-1.0
 21
5.2000000000000028
 31
0.0
  0
LINE
  5
2CB
100
AcDbEntity
  8
0
  6
CONTINUOUS
 62
               2
100
AcDbLine
 10
-2.0
 20
2.7999999999999972
 30
0.0
 11
-1.0
 21
2.7999999999999972
 31
0.0
  0
LINE
  5
2CC
100
AcDbEntity
  8
0
  6
CONTINUOUS
 62
               2
100
AcDbLine
 10
-1.0
 20
2.7999999999999972
 30
0.0
 11
-0.4803847577293539
 21
2.5
 31
0.0
  0
LINE
  5
2CD
100
AcDbEntity
  8
0
  6
CONTINUOUS
 62
               2
100
AcDbLine
 10
-1.0
 20
5.2000000000000028
 30
0.0
 11
-0.4803847577293539
 21
5.5
 31
0.0
  0
SPLINE
  5
2CE
100
AcDbEntity
  8
0
  6
CONTINUOUS
 62
               7
100
AcDbSpline
210
0.0
220
0.0
230
1.0
 70
               0
 71
               3
 72
               0
 73
               0
 74
               5
 44
0.000001
 12
-0.3364389337625614
 22
-0.9417052850274925
 32
0.0
 13
0.3364389335092213
 23
-0.9417052851180021
 33
0.0
 11
-3.5543798798272803
 21
6.749999981121988
 31
0.0
 11
-3.7359307314102335
 21
6.0736859437510899
 31
0.0
 11
-3.7999999999999972
 21
5.375
 31
0.0
 11
-3.7359307329601386
 21
4.6763140466768789
 31
0.0
 11
-3.5543798798272803
 21
4.0
 31
0.0
  0
SPLINE
  5
2CF
100
AcDbEntity
  8
0
  6
CONTINUOUS
 62
               7
100
AcDbSpline
210
0.0
220
0.0
230
1.0
 70
               0
 71
               3
 72
               0
 73
               0
 74
               5
 44
0.000001
 12
0.3364389337625613
 22
-0.9417052850274925
 32
0.0
 13
-0.3364389335092214
 23
-0.9417052851180021
 33
0.0
 11
-2.2456201201727168
 21
6.749999981121988
 31
0.0
 11
-2.0640692685897637
 21
6.0736859437510899
 31
0.0
 11
-2.0
 21
5.375
 31
0.0
 11
-2.0640692670398586
 21
4.6763140466768789
 31
0.0
 11
-2.2456201201727168
 21
4.0
 31
0.0
  0
SPLINE
  5
2D0
100
AcDbEntity
  8
0
  6
CONTINUOUS
 62
               7
100
AcDbSpline
210
0.0
220
0.0
230
1.0
 70
               0
 71
               3
 72
               0
 73
               0
 74
               5
 44
0.000001
 12
-0.3364389337625614
 22
-0.9417052850274925
 32
0.0
 13
0.3364389335092213
 23
-0.9417052851180021
 33
0.0
 11
-5.3543798798272775
 21
6.749999981121988
 31
0.0
 11
-5.5359307314102306
 21
6.0736859437510899
 31
0.0
 11
-5.5999999999999943
 21
5.375
 31
0.0
 11
-5.5359307329601357
 21
4.6763140466768789
 31
0.0
 11
-5.3543798798272775
 21
4.0
 31
0.0
  0
SPLINE
  5
2D1
100
AcDbEntity
  8
0
  6
CONTINUOUS
 62
               7
100
AcDbSpline
210
0.0
220
0.0
230
1.0
 70
               0
 71
               3
 72
               0
 73
               0
 74
               5
 44
0.000001
 12
0.3364389337625613
 22
-0.9417052850274925
 32
0.0
 13
-0.3364389335092214
 23
-0.9417052851180021
 33
0.0
 11
-4.045620120172714
 21
6.749999981121988
 31
0.0
 11
-3.8640692685897609
 21
6.0736859437510899
 31
0.0
 11
-3.7999999999999972
 21
5.375
 31
0.0
 11
-3.8640692670398558
 21
4.6763140466768789
 31
0.0
 11
-4.045620120172714
 21
4.0
 31
0.0
  0
SPLINE
  5
2D2
100
AcDbEntity
  8
0
  6
CONTINUOUS
 62
               7
100
AcDbSpline
210
0.0
220
0.0
230
1.0
 70
               0
 71
               3
 72
               0
 73
               0
 74
               5
 44
0.000001
 12
-0.3364389337625614
 22
0.9417052850274925
 32
0.0
 13
0.3364389335092213
 23
0.9417052851180021
 33
0.0
 11
-5.3543798798272775
 21
1.250000018878012
 31
0.0
 11
-5.5359307314102306
 21
1.9263140562489101
 31
0.0
 11
-5.5999999999999943
 21
2.625
 31
0.0
 11
-5.5359307329601357
 21
3.3236859533231216
 31
0.0
 11
-5.3543798798272775
 21
4.0
 31
0.0
  0
SPLINE
  5
2D3
100
AcDbEntity
  8
0
  6
CONTINUOUS
 62
               7
100
AcDbSpline
210
0.0
220
0.0
230
1.0
 70
               0
 71
               3
 72
               0
 73
               0
 74
               5
 44
0.000001
 12
0.3364389337625613
 22
0.9417052850274925
 32
0.0
 13
-0.3364389335092214
 23
0.9417052851180021
 33
0.0
 11
-4.045620120172714
 21
1.250000018878012
 31
0.0
 11
-3.8640692685897609
 21
1.9263140562489101
 31
0.0
 11
-3.7999999999999972
 21
2.625
 31
0.0
 11
-3.8640692670398558
 21
3.3236859533231216
 31
0.0
 11
-4.045620120172714
 21
4.0
 31
0.0
  0
SPLINE
  5
2D4
100
AcDbEntity
  8
0
  6
CONTINUOUS
 62
               7
100
AcDbSpline
210
0.0
220
0.0
230
1.0
 70
               0
 71
               3
 72
               0
 73
               0
 74
               5
 44
0.000001
 12
-0.3364389337625614
 22
0.9417052850274925
 32
0.0
 13
0.3364389335092213
 23
0.9417052851180021
 33
0.0
 11
-3.5543798798272803
 21
1.250000018878012
 31
0.0
 11
-3.7359307314102335
 21
1.9263140562489101
 31
0.0
 11
-3.7999999999999972
 21
2.625
 31
0.0
 11
-3.7359307329601386
 21
3.3236859533231216
 31
0.0
 11
-3.5543798798272803
 21
4.0
 31
0.0
  0
SPLINE
  5
2D5
100
AcDbEntity
  8
0
  6
CONTINUOUS
 62
               7
100
AcDbSpline
210
0.0
220
0.0
230
1.0
 70
               0
 71
               3
 72
               0
 73
               0
 74
               5
 44
0.000001
 12
0.3364389337625613
 22
0.9417052850274925
 32
0.0
 13
-0.3364389335092214
 23
0.9417052851180021
 33
0.0
 11
-2.2456201201727168
 21
1.250000018878012
 31
0.0
 11
-2.0640692685897637
 21
1.9263140562489101
 31
0.0
 11
-2.0
 21
2.625
 31
0.0
 11
-2.0640692670398586
 21
3.3236859533231216
 31
0.0
 11
-2.2456201201727168
 21
4.0
 31
0.0
  0
LINE
  5
2D6
100
AcDbEntity
  8
0
  6
CONTINUOUS
 62
               7
100
AcDbLine
 10
-2.0
 20
1.249999981121988
 30
0.0
 11
-2.0
 21
6.749999981121988
 31
0.0
  0
LINE
  5
2D7
100
AcDbEntity
  8
0
  6
CONTINUOUS
 62
               7
100
AcDbLine
 10
-5.5999999999999943
 20
1.249999981121988
 30
0.0
 11
-5.5999999999999943
 21
6.749999981121988
 31
0.0
  0
LINE
  5
2D8
100
AcDbEntity
  8
0
  6
CONTINUOUS
 62
               7
100
AcDbLine
 10
-3.7999999999999972
 20
1.249999981121988
 30
0.0
 11
-3.7999999999999972
 21
6.749999981121988
 31
0.0
  0
LINE
  5
2D9
100
AcDbEntity
  8
0
  6
CONTINUOUS
 62
               7
100
AcDbLine
 10
-3.7999999999999972
 20
6.749999981121988
 30
0.0
 11
-5.5999999999999943
 21
6.749999981121988
 31
0.0
  0
LINE
  5
2DA
100
AcDbEntity
  8
0
  6
CONTINUOUS
 62
               7
100
AcDbLine
 10
-3.7999999999999972
 20
6.749999981121988
 30
0.0
 11
-2.0
 21
6.749999981121988
 31
0.0
  0
LINE
  5
2DB
100
AcDbEntity
  8
0
  6
CONTINUOUS
 62
               7
100
AcDbLine
 10
-3.5543798798272803
 20
4.0
 30
0.0
 11
-2.2456201201727168
 21
4.0
 31
0.0
  0
LINE
  5
2DC
100
AcDbEntity
  8
0
  6
CONTINUOUS
 62
               7
100
AcDbLine
 10
-3.7999999999999972
 20
1.25
 30
0.0
 11
-2.0
 21
1.25
 31
0.0
  0
LINE
  5
2DD
100
AcDbEntity
  8
0
  6
CONTINUOUS
 62
               7
100
AcDbLine
 10
-3.7999999999999972
 20
1.25
 30
0.0
 11
-5.5999999999999943
 21
1.25
 31
0.0
  0
LINE
  5
2DE
100
AcDbEntity
  8
0
  6
CONTINUOUS
 62
               7
100
AcDbLine
 10
-4.045620120172714
 20
4.0
 30
0.0
 11
-5.3543798798272775
 21
4.0
 31
0.0
  0
LINE
  5
2DF
100
AcDbEntity
  8
0
  6
CONTINUOUS
 62
               7
100
AcDbLine
 10
0.0
 20
2.5
 30
0.0
 11
-2.0
 21
2.5
 31
0.0
  0
LINE
  5
2E0
100
AcDbEntity
  8
0
  6
CONTINUOUS
 62
               7
100
AcDbLine
 10
0.0
 20
5.5
 30
0.0
 11
-2.0
 21
5.5
 31
0.0
  0
LINE
  5
2E1
100
AcDbEntity
  8
0
  6
CENTER
 62
               2
100
AcDbLine
 10
10.0
 20
5.9547775518886965
 30
0.0
 11
10.0
 21
2.0239043419708906
 31
0.0
  0
CIRCLE
  5
2E2
100
AcDbEntity
  8
0
  6
DASHED
 62
               2
100
AcDbCircle
 10
10.0
 20
4.0000000000000142
 30
0.0
 40
1.5
  0
CIRCLE
  5
2E3
100
AcDbEntity
  8
0
  6
DASHED
 62
               7
100
AcDbCircle
 10
10.0
 20
4.0000000000000142
 30
0.0
 40
1.1999999999999886
  0
LINE
  5
2E4
100
AcDbEntity
  8
0
  6
CENTER
 62
               2
100
AcDbLine
 10
26.999999999999972
 20
5.9547775518886965
 30
0.0
 11
26.999999999999972
 21
2.0239043419708906
 31
0.0
  0
CIRCLE
  5
2E5
100
AcDbEntity
  8
0
  6
DASHED
 62
               2
100
AcDbCircle
 10
26.999999999999972
 20
4.0000000000000142
 30
0.0
 40
1.5
  0
CIRCLE
  5
2E6
100
AcDbEntity
  8
0
  6
DASHED
 62
               7
100
AcDbCircle
 10
26.999999999999972
 20
4.0000000000000142
 30
0.0
 40
1.1999999999999886
  0
LINE
  5
2E7
100
AcDbEntity
  8
0
  6
CONTINUOUS
 62
               7
100
AcDbLine
 10
28.0
 20
11.116295086231986
 30
0.0
 11
30.0
 21
11.116295086231986
 31
0.0
  0
LINE
  5
2E8
100
AcDbEntity
  8
0
  6
CONTINUOUS
 62
               7
100
AcDbLine
 10
17.600000000000136
 20
11.469848476825263
 30
0.0
 11
30.0
 21
11.469848476825263
 31
0.0
  0
LINE
  5
2E9
100
AcDbEntity
  8
0
  6
CONTINUOUS
 62
               7
100
AcDbLine
 10
17.600000000000136
 20
12.0
 30
0.0
 11
30.0
 21
12.0
 31
0.0
  0
LINE
  5
2EA
100
AcDbEntity
  8
0
  6
CONTINUOUS
 62
               4
100
AcDbLine
 10
20.5
 20
12.0
 30
0.0
 11
20.5
 21
15.269291048243097
 31
0.0
  0
LINE
  5
2EB
100
AcDbEntity
  8
0
  6
CONTINUOUS
 62
               4
100
AcDbLine
 10
18.0
 20
15.269291075642421
 30
0.0
 11
18.0
 21
15.976397856828967
 31
0.0
  0
LINE
  5
2EC
100
AcDbEntity
  8
0
  6
CONTINUOUS
 62
               4
100
AcDbLine
 10
18.0
 20
15.269291075642421
 30
0.0
 11
20.5
 21
15.269291075642421
 31
0.0
  0
LINE
  5
2ED
100
AcDbEntity
  8
0
  6
CONTINUOUS
 62
               4
100
AcDbLine
 10
19.349999999999909
 20
15.637178573989857
 30
0.0
 11
19.349999999999909
 21
17.526828949644617
 31
0.0
  0
ELLIPSE
  5
2EE
100
AcDbEntity
  8
0
  6
CONTINUOUS
 62
               4
100
AcDbEllipse
 10
18.0
 20
17.526828955396546
 30
0.0
 11
1.3500000000000016
 21
0.0
 31
0.0
210
0.0
220
0.0
230
1.0
 40
0.713092870339449
 41
0.0
 42
2.7542760527011376
  0
ELLIPSE
  5
2EF
100
AcDbEntity
  8
0
  6
CONTINUOUS
 62
               4
100
AcDbEllipse
 10
18.0
 20
14.526828955396546
 30
0.0
 11
2.0999999999999943
 21
0.0
 31
0.0
210
0.0
220
0.0
230
1.0
 40
0.690270905444012
 41
0.5377386764774563
 42
2.1503123541906755
  0
LINE
  5
2F0
100
AcDbEntity
  8
0
  6
CONTINUOUS
 62
               4
100
AcDbLine
 10
28.000000026198677
 20
11.415559179195562
 30
0.0
 11
17.600000000000136
 21
11.415559179195562
 31
0.0
  0
LINE
  5
2F1
100
AcDbEntity
  8
0
  6
CONTINUOUS
 62
               4
100
AcDbLine
 10
28.000000026198677
 20
9.2942388356358023
 30
0.0
 11
13.000000026198677
 21
9.2942388356358023
 31
0.0
  0
LINE
  5
2F2
100
AcDbEntity
  8
0
  6
CENTER
 62
               2
100
AcDbLine
 10
5.0
 20
1.5000000114952456
 30
0.0
 11
5.0
 21
-1.4999999885047544
 31
0.0
  0
ENDBLK
  5
2F3
100
AcDbEntity
  8
0
100
AcDbBlockEnd
  0
BLOCK
  5
2F6
100
AcDbEntity
  8
0
  6
ByBlock
 62
               0
100
AcDbBlockBegin
  2
_OPEN30
 70
               2
 10
0.0
 20
0.0
 30
0.0
  3
_OPEN30
  1

  0
LINE
  5
2F7
100
AcDbEntity
  8
0
  6
ByBlock
 62
               0
100
AcDbLine
 10
-1.0
 20
0.267949
 30
0.0
 11
0.0
 21
0.0
 31
0.0
  0
LINE
  5
2F8
100
AcDbEntity
  8
0
  6
ByBlock
 62
               0
100
AcDbLine
 10
0.0
 20
0.0
 30
0.0
 11
-1.0
 21
-0.267949
 31
0.0
  0
LINE
  5
2F9
100
AcDbEntity
  8
0
  6
ByBlock
 62
               0
100
AcDbLine
 10
0.0
 20
0.0
 30
0.0
 11
-1.0
 21
0.0
 31
0.0
  0
ENDBLK
  5
2FA
100
AcDbEntity
  8
0
  6
ByBlock
 62
               0
100
AcDbBlockEnd
  0
ENDSEC
  0
SECTION
  2
ENTITIES
  0
LEADER
  5
2F4
100
AcDbEntity
  8
0
 62
               2
100
AcDbLeader
  3
MXDIMSTYLE
 73
               3
 74
               0
 75
               0
 40
0.0
 76
               3
 10
83.178536865738579
 20
-51.242435018641658
 30
0.0
 10
90.547554938952402
 20
-64.005948723341376
 30
0.0
 10
95.547554938952402
 20
-64.005948723341376
 30
0.0
 77
               2
1001
ACAD
1000
DSTYLE
1002
{
1070
               6
1000
_OPEN30
1070
               7
1000
_OPEN30
1070
              41
1040
2.77
1070
             173
1070
               1
1002
}
  0
MTEXT
  5
2FB
100
AcDbEntity
  8
0
 62
               2
100
AcDbMText
 10
90.547554938952402
 20
-60.974698723341376
 30
0.0
 40
2.5
 41
0.0
 71
               4
 72
               1
  1
\A1;-R
  7
MX_NOTE_STANDARD
  0
LEADER
  5
2FC
100
AcDbEntity
  8
0
 62
               2
100
AcDbLeader
  3
MXDIMSTYLE
 73
               3
 74
               0
 75
               0
 40
0.0
 76
               3
 10
81.678536865738579
 20
38.69566148404148
 30
0.0
 10
76.923470580611962
 20
46.931677883238606
 30
0.0
 10
71.806561680172223
 20
46.931677883238606
 30
0.0
 77
               2
1001
ACAD
1000
DSTYLE
1002
{
1070
               6
1000
_OPEN30
1070
               7
1000
_OPEN30
1070
              41
1040
2.77
1070
             173
1070
               1
1002
}
  0
MTEXT
  5
2FD
100
AcDbEntity
  8
0
 62
               2
100
AcDbMText
 10
71.806561680172223
 20
49.962927883238606
 30
0.0
 40
2.5
 41
0.0
 71
               4
 72
               1
  1
\A1;-L
  7
MX_NOTE_STANDARD
  0
LINE
  5
2FE
100
AcDbEntity
  8
0
  6
CONTINUOUS
 62
               7
100
AcDbLine
 10
-0.024993896484375
 20
84.5
 30
0.0
 11
-0.024993896484375
 21
-84.800003051757813
 31
0.0
  0
MTEXT
  5
2FF
100
AcDbEntity
  8
0
  6
CONTINUOUS
 62
               3
100
AcDbMText
 10
75.329208995635909
 20
15.402273312198673
 30
0.0
 40
3.2000000476837158
 41
0.0
 71
               4
 72
               1
  1
\W1.065;\A1;STRETCH LINE
  7
MX_NOTE_STANDARD
  0
LEADER
  5
300
100
AcDbEntity
  8
0
 62
               2
100
AcDbLeader
  3
MXDIMSTYLE
 73
               3
 74
               0
 75
               0
 40
0.0
 76
               3
 10
-56.82146314089821
 20
-51.242435030136903
 30
0.0
 10
-49.452445067684373
 20
-64.005948734836622
 30
0.0
 10
-44.452445067684373
 20
-64.005948734836622
 30
0.0
 77
               2
1001
ACAD
1000
DSTYLE
1002
{
1070
               6
1000
_OPEN30
1070
               7
1000
_OPEN30
1070
              41
1040
2.77
1070
             173
1070
               1
1002
}
  0
MTEXT
  5
301
100
AcDbEntity
  8
0
 62
               2
100
AcDbMText
 10
-49.452445067684373
 20
-60.974698734836622
 30
0.0
 40
2.5
 41
0.0
 71
               4
 72
               1
  1
\A1;-R
  7
MX_NOTE_STANDARD
  0
LEADER
  5
302
100
AcDbEntity
  8
0
 62
               2
100
AcDbLeader
  3
MXDIMSTYLE
 73
               3
 74
               0
 75
               0
 40
0.0
 76
               3
 10
-58.321463140898203
 20
38.695661472546234
 30
0.0
 10
-63.07652942602482
 20
46.931677871743361
 30
0.0
 10
-68.193438326464559
 20
46.931677871743361
 30
0.0
 77
               2
1001
ACAD
1000
DSTYLE
1002
{
1070
               6
1000
_OPEN30
1070
               7
1000
_OPEN30
1070
              41
1040
2.77
1070
             173
1070
               1
1002
}
  0
MTEXT
  5
303
100
AcDbEntity
  8
0
 62
               2
100
AcDbMText
 10
-68.193438326464559
 20
49.962927871743361
 30
0.0
 40
2.5
 41
0.0
 71
               4
 72
               1
  1
\A1;-L
  7
MX_NOTE_STANDARD
  0
INSERT
  5
304
100
AcDbEntity
  8
0
100
AcDbBlockReference
  2
MS_8
 10
72.428536865738579
 20
-53.943396912965014
 30
0.0
  0
INSERT
  5
305
100
AcDbEntity
  8
0
100
AcDbBlockReference
  2
MS_7
 10
72.428536865738579
 20
29.396623378364822
 30
0.0
  0
INSERT
  5
306
100
AcDbEntity
  8
0
100
AcDbBlockReference
  2
MS_6
 10
30.428536852465015
 20
-6.2733867443096063
 30
0.0
  0
INSERT
  5
307
100
AcDbEntity
  8
0
100
AcDbBlockReference
  2
MS_5
 10
72.428536852465015
 20
-6.2733867443096081
 30
0.0
  0
INSERT
  5
308
100
AcDbEntity
  8
0
100
AcDbBlockReference
  2
MS_4
 10
-67.571463140898203
 20
-53.943396924460259
 30
0.0
  0
INSERT
  5
309
100
AcDbEntity
  8
0
100
AcDbBlockReference
  2
MS_3
 10
-67.571463140898203
 20
29.396623366869576
 30
0.0
  0
INSERT
  5
30A
100
AcDbEntity
  8
0
100
AcDbBlockReference
  2
MS_2
 10
-109.5714631408982
 20
-6.2733867558048537
 30
0.0
  0
INSERT
  5
30B
100
AcDbEntity
  8
0
100
AcDbBlockReference
  2
MS_1
 10
-67.571463140898203
 20
-6.2733867558048537
 30
0.0
  0
MTEXT
  5
30C
100
AcDbEntity
  8
0
  6
CONTINUOUS
 62
               7
100
AcDbMText
 10
-65.66666057904564
 20
-86.800003051757813
 30
0.0
 40
3.2000000476837158
 41
0.0
 71
               4
 72
               1
  1
\A1;5
  7
MX_NOTE_STANDARD
  0
LINE
  5
30D
100
AcDbEntity
  8
0
  6
CONTINUOUS
 62
               7
100
AcDbLine
 10
-69.399993896484389
 20
-77.800003051757812
 30
0.0
 11
-69.399993896484389
 21
-89.800003051757812
 31
0.0
  0
MTEXT
  5
30E
100
AcDbEntity
  8
0
  6
CONTINUOUS
 62
               7
100
AcDbMText
 10
-67.159993942260769
 20
-80.800003051757813
 30
0.0
 40
3.2000000476837158
 41
0.0
 71
               4
 72
               1
  1
\W1.200;\A1;15
  7
MX_NOTE_STANDARD
  0
MTEXT
  5
30F
100
AcDbEntity
  8
0
  6
CONTINUOUS
 62
               3
100
AcDbMText
 10
-54.6793252162241
 20
52.487349825472435
 30
0.0
 40
3.2000000476837158
 41
0.0
 71
               4
 72
               1
  1
\W1.065;\A1;STRETCH LINE
  7
MX_NOTE_STANDARD
  0
LINE
  5
310
100
AcDbEntity
  8
0
  6
CONTINUOUS
 62
               7
100
AcDbLine
 10
-133.39999389648437
 20
-89.800003051757812
 30
0.0
 11
-59.799993896484366
 21
-89.800003051757812
 31
0.0
  0
LINE
  5
311
100
AcDbEntity
  8
0
  6
CONTINUOUS
 62
               7
100
AcDbLine
 10
-133.39999389648437
 20
-77.800003051757812
 30
0.0
 11
-133.39999389648437
 21
-89.800003051757812
 31
0.0
  0
LINE
  5
312
100
AcDbEntity
  8
0
  6
CONTINUOUS
 62
               7
100
AcDbLine
 10
-133.39999389648437
 20
-83.800003051757813
 30
0.0
 11
-59.799993896484366
 21
-83.800003051757813
 31
0.0
  0
LINE
  5
313
100
AcDbEntity
  8
0
  6
CONTINUOUS
 62
               7
100
AcDbLine
 10
-133.39999389648437
 20
-77.800003051757812
 30
0.0
 11
-59.799993896484366
 21
-77.800003051757812
 31
0.0
  0
MTEXT
  5
314
100
AcDbEntity
  8
0
  6
CONTINUOUS
 62
               7
100
AcDbMText
 10
-129.6666606982549
 20
-80.800003051757813
 30
0.0
 40
3.2000000476837158
 41
0.0
 71
               4
 72
               1
  1
\A1;STROKE
  7
MX_NOTE_STANDARD
  0
MTEXT
  5
315
100
AcDbEntity
  8
0
  6
CONTINUOUS
 62
               7
100
AcDbMText
 10
-131.26666072209676
 20
-86.800003051757813
 30
0.0
 40
3.2000000476837158
 41
0.0
 71
               4
 72
               1
  1
\A1;STRETCH
  7
MX_NOTE_STANDARD
  0
LINE
  5
316
100
AcDbEntity
  8
0
  6
CONTINUOUS
 62
               7
100
AcDbLine
 10
-107.79999389648438
 20
-77.800003051757812
 30
0.0
 11
-107.79999389648438
 21
-89.800003051757812
 31
0.0
  0
LINE
  5
317
100
AcDbEntity
  8
0
  6
CONTINUOUS
 62
               7
100
AcDbLine
 10
-98.199993896484386
 20
-77.800003051757812
 30
0.0
 11
-98.199993896484386
 21
-89.800003051757812
 31
0.0
  0
LINE
  5
318
100
AcDbEntity
  8
0
  6
CONTINUOUS
 62
               7
100
AcDbLine
 10
-88.599993896484378
 20
-77.800003051757812
 30
0.0
 11
-88.599993896484378
 21
-89.800003051757812
 31
0.0
  0
LINE
  5
319
100
AcDbEntity
  8
0
  6
CONTINUOUS
 62
               7
100
AcDbLine
 10
-78.999993896484384
 20
-77.800003051757812
 30
0.0
 11
-78.999993896484384
 21
-89.800003051757812
 31
0.0
  0
LINE
  5
31A
100
AcDbEntity
  8
0
  6
CONTINUOUS
 62
               7
100
AcDbLine
 10
-59.799993896484366
 20
-77.800003051757812
 30
0.0
 11
-59.799993896484366
 21
-89.800003051757812
 31
0.0
  0
MTEXT
  5
31B
100
AcDbEntity
  8
0
  6
CONTINUOUS
 62
               7
100
AcDbMText
 10
-104.06666057904562
 20
-80.800003051757813
 30
0.0
 40
3.2000000476837158
 41
0.0
 71
               4
 72
               1
  1
\A1;4
  7
MX_NOTE_STANDARD
  0
MTEXT
  5
31C
100
AcDbEntity
  8
0
  6
CONTINUOUS
 62
               7
100
AcDbMText
 10
-94.466660579045623
 20
-80.800003051757813
 30
0.0
 40
3.2000000476837158
 41
0.0
 71
               4
 72
               1
  1
\A1;6
  7
MX_NOTE_STANDARD
  0
MTEXT
  5
31D
100
AcDbEntity
  8
0
  6
CONTINUOUS
 62
               7
100
AcDbMText
 10
-84.866660579045629
 20
-80.800003051757813
 30
0.0
 40
3.2000000476837158
 41
0.0
 71
               4
 72
               1
  1
\A1;8
  7
MX_NOTE_STANDARD
  0
MTEXT
  5
31E
100
AcDbEntity
  8
0
  6
CONTINUOUS
 62
               7
100
AcDbMText
 10
-76.688882822460627
 20
-80.800003051757813
 30
0.0
 40
3.2000000476837158
 41
0.0
 71
               4
 72
               1
  1
\W1.333;\A1;10
  7
MX_NOTE_STANDARD
  0
MTEXT
  5
31F
100
AcDbEntity
  8
0
  6
CONTINUOUS
 62
               7
100
AcDbMText
 10
-75.159993895530732
 20
-86.800003051757813
 30
0.0
 40
3.2000000476837158
 41
0.0
 71
               4
 72
               1
  1
\W1.200;\A1;0
  7
MX_NOTE_STANDARD
  0
MTEXT
  5
320
100
AcDbEntity
  8
0
  6
CONTINUOUS
 62
               7
100
AcDbMText
 10
-86.466660602887487
 20
-86.800003051757813
 30
0.0
 40
3.2000000476837158
 41
0.0
 71
               4
 72
               1
  1
\A1;-2
  7
MX_NOTE_STANDARD
  0
MTEXT
  5
321
100
AcDbEntity
  8
0
  6
CONTINUOUS
 62
               7
100
AcDbMText
 10
-96.066660602887481
 20
-86.800003051757813
 30
0.0
 40
3.2000000476837158
 41
0.0
 71
               4
 72
               1
  1
\A1;-4
  7
MX_NOTE_STANDARD
  0
MTEXT
  5
322
100
AcDbEntity
  8
0
  6
CONTINUOUS
 62
               7
100
AcDbMText
 10
-105.66666060288748
 20
-86.800003051757813
 30
0.0
 40
3.2000000476837158
 41
0.0
 71
               4
 72
               1
  1
\A1;-6
  7
MX_NOTE_STANDARD
  0
MTEXT
  5
323
100
AcDbEntity
  8
0
  6
CONTINUOUS
 62
               7
100
AcDbMText
 10
-115.23194683784573
 20
-75.100003004074097
 30
0.0
 40
3.2000000476837158
 41
0.0
 71
               4
 72
               1
  1
\W1.065;\A1;STRETCH LIST
  7
MX_NOTE_STANDARD
  0
MTEXT
  5
324
100
AcDbEntity
  8
0
  6
CONTINUOUS
 62
               7
100
AcDbMText
 10
-68.823993985366826
 20
-75.800003051757813
 30
0.0
 40
3.2000000476837158
 41
0.0
 71
               4
 72
               1
  1
\W1.200;\A1;(mm)
  7
MX_NOTE_STANDARD
  0
MTEXT
  5
325
100
AcDbEntity
  8
0
  6
CONTINUOUS
 62
               7
100
AcDbMText
 10
-65.428569271613142
 20
68.5
 30
0.0
 40
3.1999998092651367
 41
0.0
 71
               4
 72
               1
  1
\W1.071;\A1;ZE155
  7
MX_NOTE_STANDARD
  0
MTEXT
  5
326
100
AcDbEntity
  8
0
  6
CONTINUOUS
 62
               7
100
AcDbMText
 10
72.908335494995114
 20
68.5
 30
0.0
 40
3.1999998092651367
 41
0.0
 71
               4
 72
               1
  1
\A1;ZE255
  7
MX_NOTE_STANDARD
  0
MTEXT
  5
327
100
AcDbEntity
  8
0
  6
CONTINUOUS
 62
               7
100
AcDbMText
 10
8.9505457316895622
 20
74.5
 30
0.0
 40
3.1999998092651367
 41
0.0
 71
               4
 72
               1
  1
\W1.079;\A1;MODEL:MBDAS6*ST(10)-ZE235
  7
MX_NOTE_STANDARD
  0
LINE
  5
328
100
AcDbEntity
  8
0
  6
CONTINUOUS
 62
               7
100
AcDbLine
 10
-138.39999389648437
 20
94.5
 30
0.0
 11
138.35000610351562
 21
94.5
 31
0.0
  0
LINE
  5
329
100
AcDbEntity
  8
0
  6
CONTINUOUS
 62
               7
100
AcDbLine
 10
138.35000610351562
 20
94.5
 30
0.0
 11
138.35000610351562
 21
-94.800003051757812
 31
0.0
  0
LINE
  5
32A
100
AcDbEntity
  8
0
  6
CONTINUOUS
 62
               7
100
AcDbLine
 10
-138.39999389648437
 20
-94.800003051757812
 30
0.0
 11
138.35000610351562
 21
-94.800003051757812
 31
0.0
  0
LINE
  5
32B
100
AcDbEntity
  8
0
  6
CONTINUOUS
 62
               7
100
AcDbLine
 10
-138.39999389648437
 20
94.5
 30
0.0
 11
-138.39999389648437
 21
-94.800003051757812
 31
0.0
  0
LINE
  5
32C
100
AcDbEntity
  8
0
  6
CONTINUOUS
 62
               7
100
AcDbLine
 10
73.350006103515625
 20
-84.800003051757813
 30
0.0
 11
138.35000610351562
 21
-84.800003051757813
 31
0.0
  0
LINE
  5
32D
100
AcDbEntity
  8
0
  6
CONTINUOUS
 62
               7
100
AcDbLine
 10
-138.39999389648437
 20
84.5
 30
0.0
 11
-73.399993896484375
 21
84.5
 31
0.0
  0
LINE
  5
32E
100
AcDbEntity
  8
0
  6
CONTINUOUS
 62
               7
100
AcDbLine
 10
73.350006103515625
 20
84.5
 30
0.0
 11
138.35000610351562
 21
84.5
 31
0.0
  0
LINE
  5
32F
100
AcDbEntity
  8
0
  6
CONTINUOUS
 62
               7
100
AcDbLine
 10
73.350006103515625
 20
-84.800003051757813
 30
0.0
 11
73.350006103515625
 21
-94.800003051757812
 31
0.0
  0
LINE
  5
330
100
AcDbEntity
  8
0
  6
CONTINUOUS
 62
               7
100
AcDbLine
 10
73.350006103515625
 20
94.5
 30
0.0
 11
73.350006103515625
 21
84.5
 31
0.0
  0
LINE
  5
331
100
AcDbEntity
  8
0
  6
CONTINUOUS
 62
               7
100
AcDbLine
 10
-73.399993896484375
 20
94.5
 30
0.0
 11
-73.399993896484375
 21
84.5
 31
0.0
  0
MTEXT
  5
332
100
AcDbEntity
  8
0
  6
CONTINUOUS
 62
               7
100
AcDbMText
 10
77.440529363489745
 20
-89.800003051757812
 30
0.0
 40
4.5
 41
0.0
 71
               4
 72
               1
  1
\W1.121;\A1;KOGANEI CORP.
  7
MX_NOTE_STANDARD
  0
MTEXT
  5
333
100
AcDbEntity
  8
0
  6
CONTINUOUS
 62
               7
100
AcDbMText
 10
93.749460369842424
 20
89.5
 30
0.0
 40
3.1999998092651367
 41
0.0
 71
               4
 72
               1
  1
\W1.311;\A1;Ver. 1.0
  7
MX_NOTE_STANDARD
  0
MTEXT
  5
334
100
AcDbEntity
  8
0
  6
CONTINUOUS
 62
               7
100
AcDbMText
 10
-130.90186156846724
 20
91.099999904632568
 30
0.0
 40
3.1999998092651367
 41
0.0
 71
               1
 72
               1
  1
\W1.121;\A1;MINIBIT CYLINDER
  7
MX_NOTE_STANDARD
  0
MTEXT
  5
335
100
AcDbEntity
  8
0
  6
CONTINUOUS
 62
               7
100
AcDbMText
 10
-129.41605223186156
 20
74.5
 30
0.0
 40
3.1999998092651367
 41
0.0
 71
               4
 72
               1
  1
\W1.095;\A1;MODEL:MBDAS6*ST(10)-ZE135
  7
MX_NOTE_STANDARD
  0
ENDSEC
  0
SECTION
  2
OBJECTS
  0
DICTIONARY
  5
19
100
AcDbDictionary
  3
ACAD_GROUP
350
1A
  3
ACAD_MLINESTYLE
350
1B
  0
DICTIONARY
  5
1A
102
{ACAD_REACTORS
330
19
102
}
100
AcDbDictionary
  0
DICTIONARY
  5
1B
102
{ACAD_REACTORS
330
19
102
}
100
AcDbDictionary
  3
STANDARD
350
1C
  0
MLINESTYLE
  5
1C
102
{ACAD_REACTORS
330
1B
102
}
100
AcDbMlineStyle
  2
Standard
 70
               0
  3

 62
               0
 51
90.0
 52
90.0
 71
               2
 49
0.5
 62
             256
  6
ByLayer
 49
-0.5
 62
             256
  6
ByLayer
  0
ENDSEC
  0
EOF
