  0
SECTION
  2
HEADER
  9
$ACADVER
  1
AC1012
  9
$DWGCODEPAGE
  3
dos932
  9
$INSBASE
 10
0.0
 20
0.0
 30
0.0
  9
$EXTMIN
 10
-138.39999389648437
 20
-94.800003051757812
 30
0.0
  9
$EXTMAX
 10
138.35000610351562
 20
94.5
 30
0.0
  9
$LIMMIN
 10
-138.39999389648437
 20
-94.800003051757812
  9
$LIMMAX
 10
138.35000610351562
 20
94.5
  9
$ORTHOMODE
 70
               0
  9
$REGENMODE
 70
               1
  9
$FILLMODE
 70
               1
  9
$QTEXTMODE
 70
               0
  9
$MIRRTEXT
 70
               1
  9
$DRAGMODE
 70
               2
  9
$LTSCALE
 40
1.0
  9
$OSMODE
 70
               0
  9
$ATTMODE
 70
               1
  9
$TEXTSIZE
 40
3.2000000476837158
  9
$TRACEWID
 40
0.05
  9
$TEXTSTYLE
  7
MX_NOTE_STANDARD
  9
$CLAYER
  8
0
  9
$CELTYPE
  6
CONTINUOUS
  9
$CECOLOR
 62
             256
  9
$CELTSCALE
 40
1.0
  9
$DELOBJ
 70
               1
  9
$DISPSILH
 70
               0
  9
$DIMSCALE
 40
1.0
  9
$DIMASZ
 40
2.5
  9
$DIMEXO
 40
1.5
  9
$DIMDLI
 40
3.75
  9
$DIMRND
 40
0.0
  9
$DIMDLE
 40
0.0
  9
$DIMEXE
 40
1.5
  9
$DIMTP
 40
0.0
  9
$DIMTM
 40
0.0
  9
$DIMTXT
 40
3.2000000476837158
  9
$DIMCEN
 40
2.5
  9
$DIMTSZ
 40
0.0
  9
$DIMTOL
 70
               0
  9
$DIMLIM
 70
               0
  9
$DIMTIH
 70
               0
  9
$DIMTOH
 70
               0
  9
$DIMSE1
 70
               0
  9
$DIMSE2
 70
               0
  9
$DIMTAD
 70
               1
  9
$DIMZIN
 70
               8
  9
$DIMBLK
  1

  9
$DIMASO
 70
               1
  9
$DIMSHO
 70
               1
  9
$DIMPOST
  1

  9
$DIMAPOST
  1

  9
$DIMALT
 70
               0
  9
$DIMALTD
 70
               4
  9
$DIMALTF
 40
0.0394
  9
$DIMLFAC
 40
1.0
  9
$DIMTOFL
 70
               1
  9
$DIMTVP
 40
0.0
  9
$DIMTIX
 70
               0
  9
$DIMSOXD
 70
               0
  9
$DIMSAH
 70
               0
  9
$DIMBLK1
  1

  9
$DIMBLK2
  1

  9
$DIMSTYLE
  2
MXDIMSTYLE
  9
$DIMCLRD
 70
               0
  9
$DIMCLRE
 70
               0
  9
$DIMCLRT
 70
               0
  9
$DIMTFAC
 40
1.0
  9
$DIMGAP
 40
1.0
  9
$DIMJUST
 70
               0
  9
$DIMSD1
 70
               0
  9
$DIMSD2
 70
               0
  9
$DIMTOLJ
 70
               1
  9
$DIMTZIN
 70
               0
  9
$DIMALTZ
 70
               0
  9
$DIMALTTZ
 70
               0
  9
$DIMFIT
 70
               3
  9
$DIMUPT
 70
               1
  9
$DIMUNIT
 70
               2
  9
$DIMDEC
 70
               4
  9
$DIMTDEC
 70
               4
  9
$DIMALTU
 70
               8
  9
$DIMALTTD
 70
               4
  9
$DIMTXSTY
  7
MX_NOTE_STANDARD
  9
$DIMAUNIT
 70
               0
  9
$LUNITS
 70
               2
  9
$LUPREC
 70
               4
  9
$SKETCHINC
 40
0.1
  9
$FILLETRAD
 40
0.0
  9
$AUNITS
 70
               0
  9
$AUPREC
 70
               0
  9
$MENU
  1
acad
  9
$ELEVATION
 40
0.0
  9
$PELEVATION
 40
0.0
  9
$THICKNESS
 40
0.0
  9
$LIMCHECK
 70
               0
  9
$BLIPMODE
 70
               1
  9
$CHAMFERA
 40
0.0
  9
$CHAMFERB
 40
0.0
  9
$CHAMFERC
 40
0.0
  9
$CHAMFERD
 40
0.0
  9
$SKPOLY
 70
               0
  9
$TDCREATE
 40
2452209.493287037
  9
$TDUPDATE
 40
2452209.493287037
  9
$TDINDWG
 40
0.0000000000
  9
$TDUSRTIMER
 40
0.0000000000
  9
$USRTIMER
 70
               1
  9
$ANGBASE
 50
0.0
  9
$ANGDIR
 70
               0
  9
$PDMODE
 70
               0
  9
$PDSIZE
 40
0.0
  9
$PLINEWID
 40
0.0
  9
$COORDS
 70
               1
  9
$SPLFRAME
 70
               0
  9
$SPLINETYPE
 70
               6
  9
$SPLINESEGS
 70
               8
  9
$ATTDIA
 70
               0
  9
$ATTREQ
 70
               1
  9
$HANDLING
 70
               1
  9
$HANDSEED
  5
363
  9
$SURFTAB1
 70
               6
  9
$SURFTAB2
 70
               6
  9
$SURFTYPE
 70
               6
  9
$SURFU
 70
               6
  9
$SURFV
 70
               6
  9
$UCSNAME
  2

  9
$UCSORG
 10
0.0
 20
0.0
 30
0.0
  9
$UCSXDIR
 10
1.0
 20
0.0
 30
0.0
  9
$UCSYDIR
 10
0.0
 20
1.0
 30
0.0
  9
$PUCSNAME
  2

  9
$PUCSORG
 10
0.0
 20
0.0
 30
0.0
  9
$PUCSXDIR
 10
1.0
 20
0.0
 30
0.0
  9
$PUCSYDIR
 10
0.0
 20
1.0
 30
0.0
  9
$USERI1
 70
               0
  9
$USERI2
 70
               0
  9
$USERI3
 70
               0
  9
$USERI4
 70
               0
  9
$USERI5
 70
               0
  9
$USERR1
 40
0.0
  9
$USERR2
 40
0.0
  9
$USERR3
 40
0.0
  9
$USERR4
 40
0.0
  9
$USERR5
 40
0.0
  9
$WORLDVIEW
 70
               1
  9
$SHADEDGE
 70
               3
  9
$SHADEDIF
 70
              70
  9
$TILEMODE
 70
               1
  9
$MAXACTVP
 70
              16
  9
$PINSBASE
 10
0.0
 20
0.0
 30
0.0
  9
$PLIMCHECK
 70
               0
  9
$PEXTMIN
 10
1.0000000000000000E+20
 20
1.0000000000000000E+20
 30
1.0000000000000000E+20
  9
$PEXTMAX
 10
-1.0000000000000000E+20
 20
-1.0000000000000000E+20
 30
-1.0000000000000000E+20
  9
$PLIMMIN
 10
0.0
 20
0.0
  9
$PLIMMAX
 10
12.0
 20
9.0
  9
$UNITMODE
 70
               0
  9
$VISRETAIN
 70
               0
  9
$PLINEGEN
 70
               1
  9
$PSLTSCALE
 70
               0
  9
$TREEDEPTH
 70
            3020
  9
$PICKSTYLE
 70
               1
  9
$CMLSTYLE
  2
Standard
  9
$CMLJUST
 70
               0
  9
$CMLSCALE
 40
1.0
  9
$SAVEIMAGES
 70
               0
  0
ENDSEC
  0
SECTION
  2
CLASSES
  0
CLASS
  1
LWPOLYLINE
  2
AcDbPolyline
  3
"AutoCAD"
 90
        0
280
               0
281
               1
  0
CLASS
  1
IMAGE
  2
AcDbRasterImage
  3
ISM
 90
      127
280
               0
281
               1
  0
CLASS
  1
OLE2FRAME
  2
AcDbOle2Frame
  3
""
 90
        0
280
               0
281
               1
  0
CLASS
  1
HATCH
  2
AcDbHatch
  3
"ACAD_SEDONA"
 90
        0
280
               0
281
               1
  0
CLASS
  1
DICTIONARYVAR
  2
AcDbDictionaryVar
  3
"AutoCAD"
 90
        0
280
               0
281
               0
  0
CLASS
  1
RASTERVARIABLES
  2
AcDbRasterVariables
  3
ISM
 90
        0
280
               0
281
               0
  0
CLASS
  1
IMAGEDEF
  2
AcDbRasterImageDef
  3
ISM
 90
        0
280
               0
281
               0
  0
CLASS
  1
IMAGEDEF_REACTOR
  2
AcDbRasterImageDefReactor
  3
ISM
 90
        1
280
               0
281
               0
  0
CLASS
  1
IDBUFFER
  2
AcDbIdBuffer
  3
"Acad"
 90
        0
280
               0
281
               0
  0
CLASS
  1
SPATIAL_FILTER
  2
AcDbSpatialFilter
  3
"Acad"
 90
        0
280
               0
281
               0
  0
CLASS
  1
XRECORD
  2
AcDbXrecord
  3
"<Built In>"
 90
        0
280
               0
281
               0
  0
CLASS
  1
SORTENTSTABLE
  2
AcDbSortentsTable
  3
"AutoCAD"
 90
        0
280
               0
281
               0
  0
CLASS
  1
LAYER_INDEX
  2
AcDbLayerIndex
  3
"Acad"
 90
        0
280
               0
281
               0
  0
CLASS
  1
SPATIAL_INDEX
  2
AcDbSpatialIndex
  3
"Acad"
 90
        0
280
               0
281
               0
  0
CLASS
  1
OBJECT_PTR
  2
CAseDLPNTableRecord
  3
"ASE-LPNTableRecord"
 90
        1
280
               0
281
               0
  0
CLASS
  1
LAYOUT
  2
AcDbLayout
  3
"AutoCAD 2000"
 90
        1
280
               0
281
               0
  0
CLASS
  1
PLOTSETTINGS
  2
AcDbPlotSettings
  3
"AutoCAD 2000"
 90
        1
280
               0
281
               0
  0
CLASS
  1
ACDBDICTIONARYWDFLT
  2
AcDbDictionaryWithDefault
  3
"AutoCAD 2000"
 90
        1
280
               0
281
               0
  0
CLASS
  1
ACDBPLACEHOLDER
  2
AcDbPlaceHolder
  3
"AutoCAD 2000"
 90
        1
280
               0
281
               0
  0
CLASS
  1
VBA_PROJECT
  2
AcDbVbaProject
  3
"acadvba"
 90
        1
280
               0
281
               0
  0
CLASS
  1
WIPEOUT
  2
AcDbWipeout
  3
WipeOut|AutoCAD Express Tool|expresstools@autodesk.com
 90
      127
280
               0
281
               1
  0
CLASS
  1
WIPEOUTVARIABLES
  2
AcDbWipeoutVariables
  3
WipeOut|AutoCAD Express Tool|expresstools@autodesk.com
 90
        0
280
               0
281
               0
  0
CLASS
  1
RTEXT
  2
RText
  3
RText|AutoCAD Express Tool|expresstools@autodesk.com
 90
        0
280
               0
281
               1
  0
CLASS
  1
ARCALIGNEDTEXT
  2
AcDbArcAlignedText
  3
ATEXT|AutoCAD Express Tool|expresstools@autodesk.com
 90
        0
280
               0
281
               1
  0
ENDSEC
  0
SECTION
  2
TABLES
  0
TABLE
  2
VPORT
  5
7
100
AcDbSymbolTable
 70
               1
  0
VPORT
  5
15
100
AcDbSymbolTableRecord
100
AcDbViewportTableRecord
  2
*ACTIVE
 70
               0
 10
0.0
 20
0.0
 11
1.0
 21
1.0
 12
-0.024993896484375
 22
-0.1500015258789063
 13
0.0
 23
0.0
 14
1.0
 24
1.0
 15
0.0
 25
0.0
 16
0.0
 26
0.0
 36
1.0
 17
0.0
 27
0.0
 37
0.0
 40
191.1930030822754
 41
1.7320508075688772
 42
50.0
 43
0.0
 44
0.0
 50
0.0
 51
0.0
 71
               0
 72
             100
 73
               1
 74
               1
 75
               0
 76
               0
 77
               0
 78
               0
  0
ENDTAB
  0
TABLE
  2
LTYPE
  5
4
100
AcDbSymbolTable
 70
               6
  0
LTYPE
  5
11
100
AcDbSymbolTableRecord
100
AcDbLinetypeTableRecord
  2
BYBLOCK
 70
              64
  3

 72
              65
 73
               0
 40
0.0
  0
LTYPE
  5
12
100
AcDbSymbolTableRecord
100
AcDbLinetypeTableRecord
  2
BYLAYER
 70
              64
  3

 72
              65
 73
               0
 40
0.0
  0
LTYPE
  5
13
100
AcDbSymbolTableRecord
100
AcDbLinetypeTableRecord
  2
CONTINUOUS
 70
              64
  3
Solid line
 72
              65
 73
               0
 40
0.0
  0
LTYPE
  5
27
100
AcDbSymbolTableRecord
100
AcDbLinetypeTableRecord
  2
PHANTOM
 70
              64
  3
Phantom ______  __  __  ______  __  __  ______
 72
              65
 73
               6
 40
63.500000000000007
 49
31.75
 74
               0
 49
-6.3499999999999996
 74
               0
 49
6.3499999999999996
 74
               0
 49
-6.3499999999999996
 74
               0
 49
6.3499999999999996
 74
               0
 49
-6.3499999999999996
 74
               0
  0
LTYPE
  5
41
100
AcDbSymbolTableRecord
100
AcDbLinetypeTableRecord
  2
CENTER
 70
              64
  3
Center ____ _ ____ _ ____ _ ____ _ ____ _ ____
 72
              65
 73
               4
 40
50.800000000000004
 49
31.75
 74
               0
 49
-6.3499999999999996
 74
               0
 49
6.3499999999999996
 74
               0
 49
-6.3499999999999996
 74
               0
  0
LTYPE
  5
127
100
AcDbSymbolTableRecord
100
AcDbLinetypeTableRecord
  2
DASHED
 70
              64
  3
Dashed __ __ __ __ __ __ __ __ __ __ __ __ __ _
 72
              65
 73
               2
 40
19.049999999999997
 49
12.699999999999999
 74
               0
 49
-6.3499999999999996
 74
               0
  0
ENDTAB
  0
TABLE
  2
LAYER
  5
2
100
AcDbSymbolTable
 70
               2
  0
LAYER
  5
14
100
AcDbSymbolTableRecord
100
AcDbLayerTableRecord
  2
0
 70
               0
 62
               7
  6
CONTINUOUS
  0
LAYER
  5
1D
100
AcDbSymbolTableRecord
100
AcDbLayerTableRecord
  2
DEFPOINTS
 70
               0
 62
               7
  6
CONTINUOUS
  0
ENDTAB
  0
TABLE
  2
STYLE
  5
3
100
AcDbSymbolTable
 70
               1
  0
STYLE
  5
17
100
AcDbSymbolTableRecord
100
AcDbTextStyleTableRecord
  2
MX_NOTE_STANDARD
 70
               0
 40
3.2000000476837158
 41
1.0
 50
0.0
 71
               0
 42
3.2000000476837158
  3
txt.shx
  4
extfont.shx
  0
ENDTAB
  0
TABLE
  2
VIEW
  5
5
100
AcDbSymbolTable
 70
               0
  0
ENDTAB
  0
TABLE
  2
UCS
  5
6
100
AcDbSymbolTable
 70
               0
  0
ENDTAB
  0
TABLE
  2
APPID
  5
8
100
AcDbSymbolTable
 70
               1
  0
APPID
  5
16
100
AcDbSymbolTableRecord
100
AcDbRegAppTableRecord
  2
ACAD
 70
               0
  0
ENDTAB
  0
TABLE
  2
DIMSTYLE
  5
9
100
AcDbSymbolTable
 70
               1
  0
DIMSTYLE
105
18
100
AcDbSymbolTableRecord
100
AcDbDimStyleTableRecord
  2
MXDIMSTYLE
 70
               0
  3

  4

  5

  6

  7

 40
1.0
 41
2.5
 42
1.5
 43
3.75
 44
1.5
 45
0.0
 46
0.0
 47
0.0
 48
0.0
 71
               0
 72
               0
 73
               0
 74
               0
 75
               0
 76
               0
 77
               1
 78
               8
140
3.2000000476837158
141
2.5
142
0.0
143
0.0394
144
1.0
145
0.0
146
1.0
147
1.0
170
               0
171
               4
172
               1
173
               0
174
               0
175
               0
176
               0
177
               0
178
               0
270
               2
271
               4
272
               4
273
               8
274
               4
275
               0
280
               0
281
               0
282
               0
283
               1
284
               0
285
               0
286
               0
287
               3
288
               1
340
17
  0
ENDTAB
  0
TABLE
  2
BLOCK_RECORD
  5
1
100
AcDbSymbolTable
 70
              15
  0
BLOCK_RECORD
  5
A
100
AcDbSymbolTableRecord
100
AcDbBlockTableRecord
  2
*MODEL_SPACE
  0
BLOCK_RECORD
  5
B
100
AcDbSymbolTableRecord
100
AcDbBlockTableRecord
  2
*PAPER_SPACE
  0
BLOCK_RECORD
  5
1E
100
AcDbSymbolTableRecord
100
AcDbBlockTableRecord
  2
MS_1
  0
BLOCK_RECORD
  5
1F
100
AcDbSymbolTableRecord
100
AcDbBlockTableRecord
  2
MS_2
  0
BLOCK_RECORD
  5
20
100
AcDbSymbolTableRecord
100
AcDbBlockTableRecord
  2
MS_3
  0
BLOCK_RECORD
  5
21
100
AcDbSymbolTableRecord
100
AcDbBlockTableRecord
  2
MS_4
  0
BLOCK_RECORD
  5
22
100
AcDbSymbolTableRecord
100
AcDbBlockTableRecord
  2
MS_5
  0
BLOCK_RECORD
  5
23
100
AcDbSymbolTableRecord
100
AcDbBlockTableRecord
  2
MS_6
  0
BLOCK_RECORD
  5
24
100
AcDbSymbolTableRecord
100
AcDbBlockTableRecord
  2
MS_7
  0
BLOCK_RECORD
  5
25
100
AcDbSymbolTableRecord
100
AcDbBlockTableRecord
  2
MS_8
  0
BLOCK_RECORD
  5
2B
100
AcDbSymbolTableRecord
100
AcDbBlockTableRecord
  2
*X8
  0
BLOCK_RECORD
  5
FD
100
AcDbSymbolTableRecord
100
AcDbBlockTableRecord
  2
*X9
  0
BLOCK_RECORD
  5
143
100
AcDbSymbolTableRecord
100
AcDbBlockTableRecord
  2
*X10
  0
BLOCK_RECORD
  5
1D9
100
AcDbSymbolTableRecord
100
AcDbBlockTableRecord
  2
*X11
  0
BLOCK_RECORD
  5
2A3
100
AcDbSymbolTableRecord
100
AcDbBlockTableRecord
  2
*X12
  0
BLOCK_RECORD
  5
2FA
100
AcDbSymbolTableRecord
100
AcDbBlockTableRecord
  2
*X13
  0
BLOCK_RECORD
  5
326
100
AcDbSymbolTableRecord
100
AcDbBlockTableRecord
  2
_OPEN30
  0
ENDTAB
  0
ENDSEC
  0
SECTION
  2
BLOCKS
  0
BLOCK
  5
D
100
AcDbEntity
  8
0
100
AcDbBlockBegin
  2
*MODEL_SPACE
 70
               0
 10
0.0
 20
0.0
 30
0.0
  3
*MODEL_SPACE
  1

  0
ENDBLK
  5
E
100
AcDbEntity
  8
0
100
AcDbBlockEnd
  0
BLOCK
  5
F
100
AcDbEntity
 67
               1
  8
0
100
AcDbBlockBegin
  2
*PAPER_SPACE
 70
               0
 10
0.0
 20
0.0
 30
0.0
  3
*PAPER_SPACE
  1

  0
ENDBLK
  5
10
100
AcDbEntity
 67
               1
  8
0
100
AcDbBlockEnd
  0
BLOCK
  5
26
100
AcDbEntity
  8
0
100
AcDbBlockBegin
  2
MS_1
 70
               0
 10
0.0
 20
0.0
 30
0.0
  3
MS_1
  1

  0
LINE
  5
28
100
AcDbEntity
  8
0
  6
PHANTOM
 62
               3
100
AcDbLine
 10
24.866265863658953
 20
1.8342282120084334
 30
0.0
 11
13.852179908851696
 21
1.8342282120084334
 31
0.0
  0
LINE
  5
29
100
AcDbEntity
  8
0
  6
PHANTOM
 62
               3
100
AcDbLine
 10
24.866265863658953
 20
30.0
 30
0.0
 11
24.866265863658953
 21
1.8342282120084334
 31
0.0
  0
LINE
  5
2A
100
AcDbEntity
  8
0
  6
PHANTOM
 62
               3
100
AcDbLine
 10
13.852179908851696
 20
1.8342282120084334
 30
0.0
 11
13.852179908851696
 21
-20.0
 31
0.0
  0
INSERT
  5
34
100
AcDbEntity
  8
0
  6
CONTINUOUS
 62
               7
100
AcDbBlockReference
  2
*X8
 10
0.0
 20
0.0
 30
0.0
  0
LINE
  5
35
100
AcDbEntity
  8
0
  6
CONTINUOUS
 62
               7
100
AcDbLine
 10
6.0336109698147595
 20
-6.7703526098149496
 30
0.0
 11
15.999999967139857
 21
-6.7703526098149496
 31
0.0
  0
LINE
  5
36
100
AcDbEntity
  8
0
  6
CONTINUOUS
 62
               7
100
AcDbLine
 10
7.031686840623081
 20
-4.7265981316103076
 30
0.0
 11
30.000000000000114
 21
-4.7265981316103076
 31
0.0
  0
LINE
  5
37
100
AcDbEntity
  8
0
  6
CONTINUOUS
 62
               7
100
AcDbLine
 10
6.7895530168173366
 20
-4.0
 30
0.0
 11
30.000000000000114
 21
-4.0
 31
0.0
  0
LINE
  5
38
100
AcDbEntity
  8
0
  6
CONTINUOUS
 62
               7
100
AcDbLine
 10
6.7895530168173366
 20
4.0
 30
0.0
 11
30.000000000000114
 21
4.0
 31
0.0
  0
LINE
  5
39
100
AcDbEntity
  8
0
  6
CONTINUOUS
 62
               7
100
AcDbLine
 10
7.031686840623081
 20
4.7265981316103129
 30
0.0
 11
30.000000000000114
 21
4.7265981316103129
 31
0.0
  0
LINE
  5
3A
100
AcDbEntity
  8
0
  6
CONTINUOUS
 62
               7
100
AcDbLine
 10
6.0510576464927368
 20
6.760050517385551
 30
0.0
 11
8.0
 21
6.760050517385551
 31
0.0
  0
LINE
  5
3B
100
AcDbEntity
  8
0
  6
CONTINUOUS
 62
               7
100
AcDbLine
 10
0.0
 20
-6.7703526098149496
 30
0.0
 11
3.9663890301852405
 21
-6.7703526098149496
 31
0.0
  0
LINE
  5
3C
100
AcDbEntity
  8
0
  6
CONTINUOUS
 62
               7
100
AcDbLine
 10
0.0
 20
-4.7265981316103076
 30
0.0
 11
2.968313159376919
 21
-4.7265981316103076
 31
0.0
  0
LINE
  5
3D
100
AcDbEntity
  8
0
  6
CONTINUOUS
 62
               7
100
AcDbLine
 10
0.0
 20
-4.0
 30
0.0
 11
3.2104469831826634
 21
-4.0
 31
0.0
  0
LINE
  5
3E
100
AcDbEntity
  8
0
  6
CONTINUOUS
 62
               7
100
AcDbLine
 10
0.0
 20
4.0
 30
0.0
 11
3.2104469831826634
 21
4.0
 31
0.0
  0
LINE
  5
3F
100
AcDbEntity
  8
0
  6
CONTINUOUS
 62
               7
100
AcDbLine
 10
0.0
 20
6.760050517385551
 30
0.0
 11
3.9489423535072632
 21
6.760050517385551
 31
0.0
  0
LINE
  5
40
100
AcDbEntity
  8
0
  6
CONTINUOUS
 62
               7
100
AcDbLine
 10
0.0
 20
4.7265981316103129
 30
0.0
 11
2.968313159376919
 21
4.7265981316103129
 31
0.0
  0
LINE
  5
42
100
AcDbEntity
  8
0
  6
CENTER
 62
               2
100
AcDbLine
 10
-8.3272809731439423
 20
0.0
 30
0.0
 11
31.520407054922202
 21
0.0
 31
0.0
  0
LINE
  5
43
100
AcDbEntity
  8
0
  6
CONTINUOUS
 62
               7
100
AcDbLine
 10
-6.7000000000000171
 20
1.0
 30
0.0
 11
-5.2000000000000028
 21
1.0
 31
0.0
  0
LINE
  5
44
100
AcDbEntity
  8
0
  6
CONTINUOUS
 62
               7
100
AcDbLine
 10
-7.0
 20
0.7000000000000171
 30
0.0
 11
-7.0
 21
-0.6999999999999957
 31
0.0
  0
LINE
  5
45
100
AcDbEntity
  8
0
  6
CONTINUOUS
 62
               2
100
AcDbLine
 10
-7.0
 20
0.7000000000000171
 30
0.0
 11
-5.2000000000000028
 21
0.7000000000000171
 31
0.0
  0
LINE
  5
46
100
AcDbEntity
  8
0
  6
CONTINUOUS
 62
               7
100
AcDbLine
 10
-1.0
 20
1.0
 30
0.0
 11
-1.0
 21
-0.9999999999999929
 31
0.0
  0
LINE
  5
47
100
AcDbEntity
  8
0
  6
CONTINUOUS
 62
               7
100
AcDbLine
 10
-6.7000000000000171
 20
1.0
 30
0.0
 11
-7.0
 21
0.7000000000000171
 31
0.0
  0
LINE
  5
48
100
AcDbEntity
  8
0
  6
CONTINUOUS
 62
               7
100
AcDbLine
 10
-6.7000000000000171
 20
1.0
 30
0.0
 11
-6.7000000000000171
 21
-0.9999999999999929
 31
0.0
  0
LINE
  5
49
100
AcDbEntity
  8
0
  6
CONTINUOUS
 62
               2
100
AcDbLine
 10
-1.0
 20
0.7000000000000171
 30
0.0
 11
-0.4803847577293539
 21
1.0
 31
0.0
  0
LINE
  5
4A
100
AcDbEntity
  8
0
  6
CONTINUOUS
 62
               7
100
AcDbLine
 10
-6.7000000000000171
 20
-0.9999999999999929
 30
0.0
 11
-5.2000000000000028
 21
-0.9999999999999929
 31
0.0
  0
LINE
  5
4B
100
AcDbEntity
  8
0
  6
CONTINUOUS
 62
               2
100
AcDbLine
 10
-1.0
 20
-0.6999999999999957
 30
0.0
 11
-0.4803847577293539
 21
-0.9999999999999929
 31
0.0
  0
LINE
  5
4C
100
AcDbEntity
  8
0
  6
CONTINUOUS
 62
               2
100
AcDbLine
 10
-7.0
 20
-0.6999999999999957
 30
0.0
 11
-5.2000000000000028
 21
-0.6999999999999957
 31
0.0
  0
LINE
  5
4D
100
AcDbEntity
  8
0
  6
CONTINUOUS
 62
               7
100
AcDbLine
 10
-6.7000000000000171
 20
-0.9999999999999929
 30
0.0
 11
-7.0
 21
-0.6999999999999957
 31
0.0
  0
LINE
  5
4E
100
AcDbEntity
  8
0
  6
CONTINUOUS
 62
               7
100
AcDbLine
 10
-2.0
 20
1.0
 30
0.0
 11
0.0
 21
1.0
 31
0.0
  0
LINE
  5
4F
100
AcDbEntity
  8
0
  6
CONTINUOUS
 62
               2
100
AcDbLine
 10
-2.0
 20
0.7000000000000171
 30
0.0
 11
-1.0
 21
0.7000000000000171
 31
0.0
  0
LINE
  5
50
100
AcDbEntity
  8
0
  6
CONTINUOUS
 62
               7
100
AcDbLine
 10
-2.0
 20
-0.9999999999999929
 30
0.0
 11
0.0
 21
-0.9999999999999929
 31
0.0
  0
LINE
  5
51
100
AcDbEntity
  8
0
  6
CONTINUOUS
 62
               2
100
AcDbLine
 10
-2.0
 20
-0.6999999999999957
 30
0.0
 11
-1.0
 21
-0.6999999999999957
 31
0.0
  0
LINE
  5
52
100
AcDbEntity
  8
0
  6
CONTINUOUS
 62
               7
100
AcDbLine
 10
-2.0
 20
-2.0000000379677303
 30
0.0
 11
-2.0
 21
2.0000000216369074
 31
0.0
  0
LINE
  5
53
100
AcDbEntity
  8
0
  6
CONTINUOUS
 62
               7
100
AcDbLine
 10
-3.6000000000000085
 20
-2.0000000379677303
 30
0.0
 11
-3.6000000000000085
 21
2.0000000216369074
 31
0.0
  0
LINE
  5
54
100
AcDbEntity
  8
0
  6
CONTINUOUS
 62
               7
100
AcDbLine
 10
-5.2000000000000028
 20
-2.0000000379677303
 30
0.0
 11
-5.2000000000000028
 21
2.0000000216369074
 31
0.0
  0
LINE
  5
55
100
AcDbEntity
  8
0
  6
CONTINUOUS
 62
               7
100
AcDbLine
 10
-5.2000000306243521
 20
1.9999999620322626
 30
0.0
 11
-5.0213672944182974
 21
2.3094009377364557
 31
0.0
  0
LINE
  5
56
100
AcDbEntity
  8
0
  6
CONTINUOUS
 62
               7
100
AcDbLine
 10
-3.599999969375645
 20
1.9999999620322626
 30
0.0
 11
-3.7786327055816997
 21
2.3094009377364557
 31
0.0
  0
LINE
  5
57
100
AcDbEntity
  8
0
  6
CONTINUOUS
 62
               7
100
AcDbLine
 10
-3.7786327651863445
 20
1.1547004811809529
 30
0.0
 11
-5.0213672348136527
 21
1.1547004811809529
 31
0.0
  0
LINE
  5
58
100
AcDbEntity
  8
0
  6
CONTINUOUS
 62
               7
100
AcDbLine
 10
-3.7786327651863445
 20
2.3094010209507303
 30
0.0
 11
-5.0213672463745098
 21
2.3094010209507303
 31
0.0
  0
LINE
  5
59
100
AcDbEntity
  8
0
  6
CONTINUOUS
 62
               7
100
AcDbLine
 10
-3.4213672348136583
 20
2.3094010209507303
 30
0.0
 11
-2.1786327536254788
 21
2.3094010209507303
 31
0.0
  0
LINE
  5
5A
100
AcDbEntity
  8
0
  6
CONTINUOUS
 62
               7
100
AcDbLine
 10
-3.4213672348136583
 20
1.1547004811809529
 30
0.0
 11
-2.1786327651863502
 21
1.1547004811809529
 31
0.0
  0
LINE
  5
5B
100
AcDbEntity
  8
0
  6
CONTINUOUS
 62
               7
100
AcDbLine
 10
-3.6000000306243578
 20
1.9999999620322626
 30
0.0
 11
-3.4213672944183031
 21
2.3094009377364557
 31
0.0
  0
LINE
  5
5C
100
AcDbEntity
  8
0
  6
CONTINUOUS
 62
               7
100
AcDbLine
 10
-1.9999999693756507
 20
1.9999999620322626
 30
0.0
 11
-2.1786327055817054
 21
2.3094009377364557
 31
0.0
  0
LINE
  5
5D
100
AcDbEntity
  8
0
  6
CONTINUOUS
 62
               7
100
AcDbLine
 10
-5.2000000306243521
 20
-1.9999999620322555
 30
0.0
 11
-5.0213672944182974
 21
-2.3094009377364486
 31
0.0
  0
LINE
  5
5E
100
AcDbEntity
  8
0
  6
CONTINUOUS
 62
               7
100
AcDbLine
 10
-3.7786327651863445
 20
-1.1547004811809458
 30
0.0
 11
-5.0213672348136527
 21
-1.1547004811809458
 31
0.0
  0
LINE
  5
5F
100
AcDbEntity
  8
0
  6
CONTINUOUS
 62
               7
100
AcDbLine
 10
-3.599999969375645
 20
-1.9999999620322555
 30
0.0
 11
-3.7786327055816997
 21
-2.3094009377364486
 31
0.0
  0
LINE
  5
60
100
AcDbEntity
  8
0
  6
CONTINUOUS
 62
               7
100
AcDbLine
 10
-3.7786327651863445
 20
-2.3094010569457382
 30
0.0
 11
-5.0213671974068035
 21
-2.3094010569457382
 31
0.0
  0
LINE
  5
61
100
AcDbEntity
  8
0
  6
CONTINUOUS
 62
               7
100
AcDbLine
 10
-3.4213672348136583
 20
-2.3094010569457382
 30
0.0
 11
-2.1786328025931994
 21
-2.3094010569457382
 31
0.0
  0
LINE
  5
62
100
AcDbEntity
  8
0
  6
CONTINUOUS
 62
               7
100
AcDbLine
 10
-3.6000000306243578
 20
-1.9999999620322555
 30
0.0
 11
-3.4213672944183031
 21
-2.3094009377364486
 31
0.0
  0
LINE
  5
63
100
AcDbEntity
  8
0
  6
CONTINUOUS
 62
               7
100
AcDbLine
 10
-3.4213672348136583
 20
-1.1547004811809458
 30
0.0
 11
-2.1786327651863502
 21
-1.1547004811809458
 31
0.0
  0
LINE
  5
64
100
AcDbEntity
  8
0
  6
CONTINUOUS
 62
               7
100
AcDbLine
 10
-1.9999999693756507
 20
-1.9999999620322555
 30
0.0
 11
-2.1786327055817054
 21
-2.3094009377364486
 31
0.0
  0
SPLINE
  5
65
100
AcDbEntity
  8
0
  6
CONTINUOUS
 62
               7
100
AcDbSpline
210
0.0
220
0.0
230
1.0
 70
               0
 71
               3
 72
               0
 73
               0
 74
               5
 44
0.000001
 12
0.2955766966256462
 22
-0.9553190129019054
 32
0.0
 13
-0.2955766966256495
 23
-0.9553190129019044
 33
0.0
 11
-2.1786327651863502
 21
1.1547004811809529
 31
0.0
 11
-2.0461460731108998
 21
0.5845636058644737
 31
0.0
 11
-2.0
 21
0.0
 31
0.0
 11
-2.0461460731108994
 21
-0.5845636058644703
 31
0.0
 11
-2.1786327651863502
 21
-1.154700481180946
 31
0.0
  0
SPLINE
  5
66
100
AcDbEntity
  8
0
  6
CONTINUOUS
 62
               7
100
AcDbSpline
210
0.0
220
0.0
230
1.0
 70
               0
 71
               3
 72
               0
 73
               0
 74
               5
 44
0.000001
 12
-0.2955766966256463
 22
-0.9553190129019052
 32
0.0
 13
0.2955766966256496
 23
-0.9553190129019042
 33
0.0
 11
-3.4213672348136583
 21
1.1547004811809529
 31
0.0
 11
-3.5538539268891087
 21
0.5845636058644737
 31
0.0
 11
-3.6000000000000085
 21
0.0
 31
0.0
 11
-3.5538539268891092
 21
-0.5845636058644703
 31
0.0
 11
-3.4213672348136583
 21
-1.154700481180946
 31
0.0
  0
SPLINE
  5
67
100
AcDbEntity
  8
0
  6
CONTINUOUS
 62
               7
100
AcDbSpline
210
0.0
220
0.0
230
1.0
 70
               0
 71
               3
 72
               0
 73
               0
 74
               5
 44
0.000001
 12
0.2955766966256462
 22
-0.9553190129019054
 32
0.0
 13
-0.2955766966256495
 23
-0.9553190129019044
 33
0.0
 11
-3.7786327651863445
 21
1.1547004811809529
 31
0.0
 11
-3.6461460731109012
 21
0.5845636058644737
 31
0.0
 11
-3.6000000000000085
 21
0.0
 31
0.0
 11
-3.6461460731109008
 21
-0.5845636058644703
 31
0.0
 11
-3.7786327651863445
 21
-1.154700481180946
 31
0.0
  0
SPLINE
  5
68
100
AcDbEntity
  8
0
  6
CONTINUOUS
 62
               7
100
AcDbSpline
210
0.0
220
0.0
230
1.0
 70
               0
 71
               3
 72
               0
 73
               0
 74
               5
 44
0.000001
 12
-0.2955766966256463
 22
-0.9553190129019052
 32
0.0
 13
0.2955766966256496
 23
-0.9553190129019042
 33
0.0
 11
-5.0213672348136527
 21
1.1547004811809529
 31
0.0
 11
-5.153853926889103
 21
0.5845636058644737
 31
0.0
 11
-5.2000000000000028
 21
0.0
 31
0.0
 11
-5.1538539268891039
 21
-0.5845636058644703
 31
0.0
 11
-5.0213672348136527
 21
-1.154700481180946
 31
0.0
  0
SPLINE
  5
69
100
AcDbEntity
  8
0
  6
CONTINUOUS
 62
               7
100
AcDbSpline
210
0.0
220
0.0
230
1.0
 70
               0
 71
               3
 72
               0
 73
               0
 74
               5
 44
0.000001
 12
-0.526203566222449
 22
-0.8503586342801353
 32
0.0
 13
0.5262036381605767
 23
-0.8503585897646786
 33
0.0
 11
-5.0213672944182974
 21
2.3094009377364557
 31
0.0
 11
-5.1504352512823557
 21
2.0326195706433641
 31
0.0
 11
-5.2000000000000028
 21
1.7320507690633633
 31
0.0
 11
-5.1504352373563753
 21
1.4314819019278771
 31
0.0
 11
-5.0213672348136527
 21
1.1547004811809527
 31
0.0
  0
SPLINE
  5
6A
100
AcDbEntity
  8
0
  6
CONTINUOUS
 62
               7
100
AcDbSpline
210
0.0
220
0.0
230
1.0
 70
               0
 71
               3
 72
               0
 73
               0
 74
               5
 44
0.000001
 12
0.5262035662224491
 22
-0.8503586342801351
 32
0.0
 13
-0.5262036381605768
 23
-0.8503585897646785
 33
0.0
 11
-3.7786327055816997
 21
2.3094009377364557
 31
0.0
 11
-3.6495647487176486
 21
2.0326195706433641
 31
0.0
 11
-3.6000000000000085
 21
1.7320507690633633
 31
0.0
 11
-3.6495647626436289
 21
1.4314819019278771
 31
0.0
 11
-3.7786327651863445
 21
1.1547004811809527
 31
0.0
  0
SPLINE
  5
6B
100
AcDbEntity
  8
0
  6
CONTINUOUS
 62
               7
100
AcDbSpline
210
0.0
220
0.0
230
1.0
 70
               0
 71
               3
 72
               0
 73
               0
 74
               5
 44
0.000001
 12
-0.526203566222449
 22
-0.8503586342801353
 32
0.0
 13
0.5262036381605767
 23
-0.8503585897646786
 33
0.0
 11
-3.4213672944183031
 21
2.3094009377364557
 31
0.0
 11
-3.5504352512823614
 21
2.0326195706433641
 31
0.0
 11
-3.6000000000000085
 21
1.7320507690633633
 31
0.0
 11
-3.550435237356381
 21
1.4314819019278771
 31
0.0
 11
-3.4213672348136583
 21
1.1547004811809527
 31
0.0
  0
SPLINE
  5
6C
100
AcDbEntity
  8
0
  6
CONTINUOUS
 62
               7
100
AcDbSpline
210
0.0
220
0.0
230
1.0
 70
               0
 71
               3
 72
               0
 73
               0
 74
               5
 44
0.000001
 12
0.5262035662224491
 22
-0.8503586342801351
 32
0.0
 13
-0.5262036381605768
 23
-0.8503585897646785
 33
0.0
 11
-2.1786327055817054
 21
2.3094009377364557
 31
0.0
 11
-2.0495647487176472
 21
2.0326195706433641
 31
0.0
 11
-2.0
 21
1.7320507690633633
 31
0.0
 11
-2.0495647626436275
 21
1.4314819019278771
 31
0.0
 11
-2.1786327651863502
 21
1.1547004811809527
 31
0.0
  0
SPLINE
  5
6D
100
AcDbEntity
  8
0
  6
CONTINUOUS
 62
               7
100
AcDbSpline
210
0.0
220
0.0
230
1.0
 70
               0
 71
               3
 72
               0
 73
               0
 74
               5
 44
0.000001
 12
-0.526203566222449
 22
0.8503586342801353
 32
0.0
 13
0.5262036381605767
 23
0.8503585897646786
 33
0.0
 11
-5.0213672944182974
 21
-2.3094009377364486
 31
0.0
 11
-5.1504352512823557
 21
-2.032619570643357
 31
0.0
 11
-5.2000000000000028
 21
-1.7320507690633562
 31
0.0
 11
-5.1504352373563753
 21
-1.4314819019278699
 31
0.0
 11
-5.0213672348136527
 21
-1.1547004811809456
 31
0.0
  0
SPLINE
  5
6E
100
AcDbEntity
  8
0
  6
CONTINUOUS
 62
               7
100
AcDbSpline
210
0.0
220
0.0
230
1.0
 70
               0
 71
               3
 72
               0
 73
               0
 74
               5
 44
0.000001
 12
0.5262035662224491
 22
0.8503586342801351
 32
0.0
 13
-0.5262036381605768
 23
0.8503585897646785
 33
0.0
 11
-3.7786327055816997
 21
-2.3094009377364486
 31
0.0
 11
-3.6495647487176486
 21
-2.032619570643357
 31
0.0
 11
-3.6000000000000085
 21
-1.7320507690633562
 31
0.0
 11
-3.6495647626436289
 21
-1.4314819019278699
 31
0.0
 11
-3.7786327651863445
 21
-1.1547004811809456
 31
0.0
  0
SPLINE
  5
6F
100
AcDbEntity
  8
0
  6
CONTINUOUS
 62
               7
100
AcDbSpline
210
0.0
220
0.0
230
1.0
 70
               0
 71
               3
 72
               0
 73
               0
 74
               5
 44
0.000001
 12
-0.526203566222449
 22
0.8503586342801353
 32
0.0
 13
0.5262036381605767
 23
0.8503585897646786
 33
0.0
 11
-3.4213672944183031
 21
-2.3094009377364486
 31
0.0
 11
-3.5504352512823614
 21
-2.032619570643357
 31
0.0
 11
-3.6000000000000085
 21
-1.7320507690633562
 31
0.0
 11
-3.550435237356381
 21
-1.4314819019278699
 31
0.0
 11
-3.4213672348136583
 21
-1.1547004811809456
 31
0.0
  0
SPLINE
  5
70
100
AcDbEntity
  8
0
  6
CONTINUOUS
 62
               7
100
AcDbSpline
210
0.0
220
0.0
230
1.0
 70
               0
 71
               3
 72
               0
 73
               0
 74
               5
 44
0.000001
 12
0.5262035662224491
 22
0.8503586342801351
 32
0.0
 13
-0.5262036381605768
 23
0.8503585897646785
 33
0.0
 11
-2.1786327055817054
 21
-2.3094009377364486
 31
0.0
 11
-2.0495647487176472
 21
-2.032619570643357
 31
0.0
 11
-2.0
 21
-1.7320507690633562
 31
0.0
 11
-2.0495647626436275
 21
-1.4314819019278699
 31
0.0
 11
-2.1786327651863502
 21
-1.1547004811809456
 31
0.0
  0
LINE
  5
71
100
AcDbEntity
  8
0
  6
CENTER
 62
               2
100
AcDbLine
 10
27.0
 20
1.9547775518886965
 30
0.0
 11
27.0
 21
-1.9760956580291094
 31
0.0
  0
CIRCLE
  5
72
100
AcDbEntity
  8
0
  6
CONTINUOUS
 62
               2
100
AcDbCircle
 10
27.0
 20
0.0000000000000142
 30
0.0
 40
1.5
  0
CIRCLE
  5
73
100
AcDbEntity
  8
0
  6
CONTINUOUS
 62
               7
100
AcDbCircle
 10
27.0
 20
0.0000000000000142
 30
0.0
 40
1.1999999999999886
  0
LINE
  5
74
100
AcDbEntity
  8
0
  6
CENTER
 62
               2
100
AcDbLine
 10
10.0
 20
1.9547775518886965
 30
0.0
 11
10.0
 21
-1.9760956580291094
 31
0.0
  0
CIRCLE
  5
75
100
AcDbEntity
  8
0
  6
CONTINUOUS
 62
               2
100
AcDbCircle
 10
10.0
 20
0.0000000000000142
 30
0.0
 40
1.5
  0
CIRCLE
  5
76
100
AcDbEntity
  8
0
  6
CONTINUOUS
 62
               7
100
AcDbCircle
 10
10.0
 20
0.0000000000000142
 30
0.0
 40
1.1999999999999886
  0
LINE
  5
77
100
AcDbEntity
  8
0
  6
CONTINUOUS
 62
               7
100
AcDbLine
 10
30.000000000000114
 20
7.5
 30
0.0
 11
30.000000000000114
 21
5.7765981286579873
 31
0.0
  0
LINE
  5
78
100
AcDbEntity
  8
0
  6
CONTINUOUS
 62
               7
100
AcDbLine
 10
0.0
 20
7.5
 30
0.0
 11
0.0
 21
-7.5
 31
0.0
  0
LINE
  5
79
100
AcDbEntity
  8
0
  6
CENTER
 62
               2
100
AcDbLine
 10
5.0
 20
-7.7999999999999972
 30
0.0
 11
5.0
 21
-2.2000000000000028
 31
0.0
  0
LINE
  5
7A
100
AcDbEntity
  8
0
  6
CENTER
 62
               2
100
AcDbLine
 10
2.2000000000000171
 20
-5.0
 30
0.0
 11
7.7999999999999829
 21
-5.0
 31
0.0
  0
LINE
  5
7B
100
AcDbEntity
  8
0
  6
CENTER
 62
               2
100
AcDbLine
 10
5.0
 20
7.7999999999999972
 30
0.0
 11
5.0
 21
2.2000000000000028
 31
0.0
  0
LINE
  5
7C
100
AcDbEntity
  8
0
  6
CENTER
 62
               2
100
AcDbLine
 10
2.2000000000000171
 20
5.0
 30
0.0
 11
7.7999999999999829
 21
5.0
 31
0.0
  0
LINE
  5
7D
100
AcDbEntity
  8
0
  6
CONTINUOUS
 62
               7
100
AcDbLine
 10
0.0
 20
-7.5
 30
0.0
 11
30.000000000000114
 21
-7.5
 31
0.0
  0
LINE
  5
7E
100
AcDbEntity
  8
0
  6
CONTINUOUS
 62
               7
100
AcDbLine
 10
0.0
 20
7.5
 30
0.0
 11
30.000000000000114
 21
7.5
 31
0.0
  0
CIRCLE
  5
7F
100
AcDbEntity
  8
0
  6
CONTINUOUS
 62
               7
100
AcDbCircle
 10
5.0
 20
5.0
 30
0.0
 40
2.0499999999999998
  0
CIRCLE
  5
80
100
AcDbEntity
  8
0
  6
CONTINUOUS
 62
               7
100
AcDbCircle
 10
5.0
 20
5.0
 30
0.0
 40
1.1000000000000001
  0
CIRCLE
  5
81
100
AcDbEntity
  8
0
  6
CONTINUOUS
 62
               7
100
AcDbCircle
 10
5.0
 20
-5.0
 30
0.0
 40
2.0499999999999998
  0
CIRCLE
  5
82
100
AcDbEntity
  8
0
  6
CONTINUOUS
 62
               7
100
AcDbCircle
 10
5.0
 20
-5.0
 30
0.0
 40
1.1000000000000001
  0
LINE
  5
83
100
AcDbEntity
  8
0
  6
CONTINUOUS
 62
               4
100
AcDbLine
 10
15.999999978835689
 20
-4.9215728761922719
 30
0.0
 11
31.500000000000114
 21
-4.9215728761922719
 31
0.0
  0
LINE
  5
84
100
AcDbEntity
  8
0
  6
CONTINUOUS
 62
               4
100
AcDbLine
 10
15.999999978835689
 20
-7.0428932242491342
 30
0.0
 11
31.500000000000114
 21
-7.0428932242491342
 31
0.0
  0
LINE
  5
85
100
AcDbEntity
  8
0
  6
CONTINUOUS
 62
               4
100
AcDbLine
 10
8.0000000346271634
 20
4.9215728761922684
 30
0.0
 11
23.50000002229892
 21
4.9215728761922684
 31
0.0
  0
LINE
  5
86
100
AcDbEntity
  8
0
  6
CONTINUOUS
 62
               4
100
AcDbLine
 10
8.0000000346271634
 20
7.0428932242491271
 30
0.0
 11
23.500000032859973
 21
7.0428932242491271
 31
0.0
  0
LINE
  5
87
100
AcDbEntity
  8
0
  6
CONTINUOUS
 62
             200
100
AcDbLine
 10
38.804332899523658
 20
-7.0228634218495145
 30
0.0
 11
40.213301788888955
 21
-1.76451988215981
 31
0.0
  0
LINE
  5
88
100
AcDbEntity
  8
0
  6
CONTINUOUS
 62
             200
100
AcDbLine
 10
38.804332899523658
 20
1.8303328297424351
 30
0.0
 11
40.213301788888955
 21
7.0886763694321395
 31
0.0
  0
LINE
  5
89
100
AcDbEntity
  8
0
  6
CONTINUOUS
 62
               4
100
AcDbLine
 10
17.749999970849885
 20
-6.8482584558411332
 30
0.0
 11
17.749999970849885
 21
-5.1162076446002942
 31
0.0
  0
LINE
  5
8A
100
AcDbEntity
  8
0
  6
CONTINUOUS
 62
               4
100
AcDbLine
 10
18.249999971909872
 20
-6.8482584558411332
 30
0.0
 11
18.249999971909872
 21
-5.1162076446002942
 31
0.0
  0
ELLIPSE
  5
8B
100
AcDbEntity
  8
0
  6
CONTINUOUS
 62
               4
100
AcDbEllipse
 10
17.999999971379879
 20
-5.9822330502207137
 30
0.0
 11
-1.25000000265
 21
0.0000000000000002
 31
0.0
210
0.0
220
0.0
230
1.0
 40
0.7071067811865475
 41
0.0
 42
6.2831853071795862
  0
LINE
  5
8C
100
AcDbEntity
  8
0
  6
CONTINUOUS
 62
               4
100
AcDbLine
 10
9.750000003709971
 20
6.8482584558411226
 30
0.0
 11
9.750000003709971
 21
5.1162076446002835
 31
0.0
  0
LINE
  5
8D
100
AcDbEntity
  8
0
  6
CONTINUOUS
 62
               4
100
AcDbLine
 10
10.250000004769973
 20
6.8482584558411226
 30
0.0
 11
10.250000004769973
 21
5.1162076446002835
 31
0.0
  0
ELLIPSE
  5
8E
100
AcDbEntity
  8
0
  6
CONTINUOUS
 62
               4
100
AcDbEllipse
 10
10.000000004240007
 20
5.9822330502207031
 30
0.0
 11
-1.25000000265
 21
0.0000000000000002
 31
0.0
210
0.0
220
0.0
230
1.0
 40
0.7071067811865475
 41
0.0
 42
6.2831853071795862
  0
LINE
  5
8F
100
AcDbEntity
  8
0
  6
CONTINUOUS
 62
               4
100
AcDbLine
 10
30.000000000000114
 20
-3.79020202389529
 30
0.0
 11
31.500000000000114
 21
-3.79020202389529
 31
0.0
  0
LINE
  5
90
100
AcDbEntity
  8
0
  6
CONTINUOUS
 62
               4
100
AcDbLine
 10
30.000000000000114
 20
-2.0437553996708928
 30
0.0
 11
31.500000019764784
 21
-2.0437553996708928
 31
0.0
  0
LINE
  5
91
100
AcDbEntity
  8
0
  6
CONTINUOUS
 62
               4
100
AcDbLine
 10
15.999999967139857
 20
-4.7265981316103076
 30
0.0
 11
15.999999967139857
 21
-7.0428932242491342
 31
0.0
  0
LINE
  5
92
100
AcDbEntity
  8
0
  6
CONTINUOUS
 62
               4
100
AcDbLine
 10
31.500000000000114
 20
-2.0437553996708928
 30
0.0
 11
31.500000000000114
 21
-7.0428932242491342
 31
0.0
  0
LINE
  5
93
100
AcDbEntity
  8
0
  6
CONTINUOUS
 62
               4
100
AcDbLine
 10
23.500000032859973
 20
7.0428932242491271
 30
0.0
 11
23.500000032859973
 21
4.7265981316103129
 31
0.0
  0
LINE
  5
94
100
AcDbEntity
  8
0
  6
CONTINUOUS
 62
               4
100
AcDbLine
 10
8.0
 20
7.0428932242491271
 30
0.0
 11
8.0
 21
4.7265981316103129
 31
0.0
  0
LINE
  5
95
100
AcDbEntity
  8
0
  6
CONTINUOUS
 62
               4
100
AcDbLine
 10
23.500000052624685
 20
5.7765981286579873
 30
0.0
 11
39.861731487764764
 21
5.7765981286579873
 31
0.0
  0
LINE
  5
96
100
AcDbEntity
  8
0
  6
CONTINUOUS
 62
               4
100
AcDbLine
 10
30.000000000000114
 20
3.0765981229339907
 30
0.0
 11
39.138268674687154
 21
3.0765981229339907
 31
0.0
  0
LINE
  5
97
100
AcDbEntity
  8
0
  6
CONTINUOUS
 62
               4
100
AcDbLine
 10
31.500000000000114
 20
-3.0765981229340014
 30
0.0
 11
39.861731487764764
 21
-3.0765981229340014
 31
0.0
  0
LINE
  5
98
100
AcDbEntity
  8
0
  6
CONTINUOUS
 62
               4
100
AcDbLine
 10
31.500000000000114
 20
-5.7765981286579944
 30
0.0
 11
39.138268674687154
 21
-5.7765981286579944
 31
0.0
  0
LINE
  5
99
100
AcDbEntity
  8
0
  6
CONTINUOUS
 62
               7
100
AcDbLine
 10
30.000000000000114
 20
-7.0428932242491342
 30
0.0
 11
30.000000000000114
 21
-7.5
 31
0.0
  0
LINE
  5
9A
100
AcDbEntity
  8
0
  6
CONTINUOUS
 62
               7
100
AcDbLine
 10
23.500000032859973
 20
6.760050517385551
 30
0.0
 11
30.000000000000114
 21
6.760050517385551
 31
0.0
  0
LINE
  5
9B
100
AcDbEntity
  8
0
  6
CONTINUOUS
 62
               7
100
AcDbLine
 10
30.000000000000114
 20
4.7265981316103129
 30
0.0
 11
30.000000000000114
 21
-4.7265981316103076
 31
0.0
  0
ENDBLK
  5
9C
100
AcDbEntity
  8
0
100
AcDbBlockEnd
  0
BLOCK
  5
9D
100
AcDbEntity
  8
0
100
AcDbBlockBegin
  2
MS_2
 70
               0
 10
0.0
 20
0.0
 30
0.0
  3
MS_2
  1

  0
ARC
  5
9E
100
AcDbEntity
  8
0
  6
CONTINUOUS
 62
               7
100
AcDbCircle
 10
3.0
 20
0.0
 30
0.0
 40
2.2999999999999998
100
AcDbArc
 50
330.40815420604849
 51
29.59184579395064
  0
LINE
  5
9F
100
AcDbEntity
  8
0
  6
CONTINUOUS
 62
               7
100
AcDbLine
 10
5.0
 20
-1.1547003993572034
 30
0.0
 11
5.0
 21
1.1547003993572034
 31
0.0
  0
CIRCLE
  5
A0
100
AcDbEntity
  8
0
  6
CONTINUOUS
 62
               7
100
AcDbCircle
 10
3.0
 20
0.0
 30
0.0
 40
1.0
  0
CIRCLE
  5
A1
100
AcDbEntity
  8
0
  6
CONTINUOUS
 62
               7
100
AcDbCircle
 10
3.0
 20
0.0
 30
0.0
 40
0.7
  0
LINE
  5
A2
100
AcDbEntity
  8
0
  6
CONTINUOUS
 62
               7
100
AcDbLine
 10
1.0
 20
-1.1547003993572105
 30
0.0
 11
1.0
 21
1.1547003993572105
 31
0.0
  0
CIRCLE
  5
A3
100
AcDbEntity
  8
0
  6
CONTINUOUS
 62
               7
100
AcDbCircle
 10
3.0
 20
0.0
 30
0.0
 40
2.0
  0
ARC
  5
A4
100
AcDbEntity
  8
0
  6
CONTINUOUS
 62
               7
100
AcDbCircle
 10
3.0
 20
0.0
 30
0.0
 40
2.2999999999999998
100
AcDbArc
 50
90.408148132507023
 51
149.59185186749238
  0
ARC
  5
A5
100
AcDbEntity
  8
0
  6
CONTINUOUS
 62
               7
100
AcDbCircle
 10
3.0
 20
0.0
 30
0.0
 40
2.2999999999999998
100
AcDbArc
 50
150.07034004984791
 51
209.59184579395028
  0
ARC
  5
A6
100
AcDbEntity
  8
0
  6
CONTINUOUS
 62
               7
100
AcDbCircle
 10
3.0
 20
0.0
 30
0.0
 40
2.2999999999999998
100
AcDbArc
 50
210.40814813250682
 51
269.59185186749215
  0
ARC
  5
A7
100
AcDbEntity
  8
0
  6
CONTINUOUS
 62
               7
100
AcDbCircle
 10
3.0
 20
0.0
 30
0.0
 40
2.2999999999999998
100
AcDbArc
 50
270.40814813250665
 51
329.59185186749215
  0
LINE
  5
A8
100
AcDbEntity
  8
0
  6
CONTINUOUS
 62
               7
100
AcDbLine
 10
3.0
 20
-2.3094009377364557
 30
0.0
 11
1.0
 21
-1.1547003993572105
 31
0.0
  0
LINE
  5
A9
100
AcDbEntity
  8
0
  6
CONTINUOUS
 62
               7
100
AcDbLine
 10
3.0
 20
-2.3094009377364557
 30
0.0
 11
5.0
 21
-1.1547003993572034
 31
0.0
  0
LINE
  5
AA
100
AcDbEntity
  8
0
  6
CONTINUOUS
 62
               7
100
AcDbLine
 10
3.0
 20
2.3094009377364557
 30
0.0
 11
5.0
 21
1.1547003993572034
 31
0.0
  0
LINE
  5
AB
100
AcDbEntity
  8
0
  6
CONTINUOUS
 62
               7
100
AcDbLine
 10
3.0
 20
2.3094009377364557
 30
0.0
 11
1.0
 21
1.1547003993572105
 31
0.0
  0
ARC
  5
AC
100
AcDbEntity
  8
0
  6
CONTINUOUS
 62
               7
100
AcDbCircle
 10
3.0
 20
0.0
 30
0.0
 40
2.2999999999999998
100
AcDbArc
 50
30.408148132507041
 51
89.591851867492579
  0
CIRCLE
  5
AD
100
AcDbEntity
  8
0
  6
CONTINUOUS
 62
               7
100
AcDbCircle
 10
3.0
 20
0.0
 30
0.0
 40
2.5
  0
ARC
  5
AE
100
AcDbEntity
  8
0
  6
CONTINUOUS
 62
               7
100
AcDbCircle
 10
7.4621320311688919
 20
-7.1136039001191929
 30
0.0
 40
0.3
100
AcDbArc
 50
314.99999999999937
 51
44.999999999997151
  0
ARC
  5
AF
100
AcDbEntity
  8
0
  6
CONTINUOUS
 62
               7
100
AcDbCircle
 10
10.149137799677774
 20
-4.4265981316103069
 30
0.0
 40
0.3
100
AcDbArc
 50
224.99999999999662
 51
314.99999999999903
  0
ARC
  5
B0
100
AcDbEntity
  8
0
  6
CONTINUOUS
 62
               7
100
AcDbCircle
 10
10.14913779967776
 20
4.4265981316103122
 30
0.0
 40
0.3
100
AcDbArc
 50
44.999999999999893
 51
135.00000000000281
  0
ARC
  5
B1
100
AcDbEntity
  8
0
  6
CONTINUOUS
 62
               7
100
AcDbCircle
 10
7.4621320311688777
 20
7.1136039001191875
 30
0.0
 40
0.3
100
AcDbArc
 50
-44.999999999997172
 51
44.99999999999978
  0
LINE
  5
B2
100
AcDbEntity
  8
0
  6
CONTINUOUS
 62
               7
100
AcDbLine
 10
7.5328427171471901
 20
6.760050517385551
 30
0.0
 11
6.8257359359606369
 21
6.760050517385551
 31
0.0
  0
LINE
  5
B3
100
AcDbEntity
  8
0
  6
CONTINUOUS
 62
               7
100
AcDbLine
 10
7.6742640655248522
 20
6.9014718657632343
 30
0.0
 11
7.5328427171471901
 21
6.760050517385551
 31
0.0
  0
LINE
  5
B4
100
AcDbEntity
  8
0
  6
CONTINUOUS
 62
               7
100
AcDbLine
 10
6.8257359359606369
 20
6.760050517385551
 30
0.0
 11
5.6943650860621631
 21
5.6286796674870772
 31
0.0
  0
ARC
  5
B5
100
AcDbEntity
  8
0
  6
CONTINUOUS
 62
               7
100
AcDbCircle
 10
7.1792893265539135
 20
4.1437554269953267
 30
0.0
 40
2.1000000111152071
100
AcDbArc
 50
134.99999999999969
 51
314.99999999999932
  0
LINE
  5
B6
100
AcDbEntity
  8
0
  6
CONTINUOUS
 62
               7
100
AcDbLine
 10
9.7955844169441377
 20
3.7902020364020501
 30
0.0
 11
8.6642135670456639
 21
2.6588311865035621
 31
0.0
  0
LINE
  5
B7
100
AcDbEntity
  8
0
  6
CONTINUOUS
 62
               7
100
AcDbLine
 10
9.9370057653217998
 20
4.6387301659662619
 30
0.0
 11
9.7955844169441377
 21
4.4973088175885891
 31
0.0
  0
LINE
  5
B8
100
AcDbEntity
  8
0
  6
CONTINUOUS
 62
               7
100
AcDbLine
 10
9.7955844169441377
 20
3.7902020364020501
 30
0.0
 11
9.7955844169441377
 21
4.4973088175885891
 31
0.0
  0
LINE
  5
B9
100
AcDbEntity
  8
0
  6
CONTINUOUS
 62
               7
100
AcDbLine
 10
7.6742640655248522
 20
7.3257359344751514
 30
0.0
 11
7.5
 21
7.5
 31
0.0
  0
LINE
  5
BA
100
AcDbEntity
  8
0
  6
CONTINUOUS
 62
               7
100
AcDbLine
 10
7.6742640655248522
 20
-7.3257359344751567
 30
0.0
 11
7.5
 21
-7.5
 31
0.0
  0
LINE
  5
BB
100
AcDbEntity
  8
0
  6
CONTINUOUS
 62
               7
100
AcDbLine
 10
11.0
 20
-4.0
 30
0.0
 11
10.361269834033735
 21
-4.6387301659662725
 31
0.0
  0
LINE
  5
BC
100
AcDbEntity
  8
0
  6
CONTINUOUS
 62
               7
100
AcDbLine
 10
11.0
 20
4.0
 30
0.0
 11
10.36126983403372
 21
4.6387301659662761
 31
0.0
  0
ARC
  5
BD
100
AcDbEntity
  8
0
  6
CONTINUOUS
 62
               7
100
AcDbCircle
 10
0.4000000000000057
 20
7.1000000000000014
 30
0.0
 40
0.4
100
AcDbArc
 50
89.999999999999801
 51
179.9999999999996
  0
ARC
  5
BE
100
AcDbEntity
  8
0
  6
CONTINUOUS
 62
               7
100
AcDbCircle
 10
0.4000000000000057
 20
-7.0999999999999996
 30
0.0
 40
0.4
100
AcDbArc
 50
179.9999999999996
 51
269.99999999999937
  0
CIRCLE
  5
BF
100
AcDbEntity
  8
0
  6
CONTINUOUS
 62
               7
100
AcDbCircle
 10
3.0
 20
-5.0
 30
0.0
 40
1.0
  0
CIRCLE
  5
C0
100
AcDbEntity
  8
0
  6
CONTINUOUS
 62
               2
100
AcDbCircle
 10
3.0
 20
-5.0
 30
0.0
 40
1.25
  0
CIRCLE
  5
C1
100
AcDbEntity
  8
0
  6
CONTINUOUS
 62
               7
100
AcDbCircle
 10
3.0
 20
5.0
 30
0.0
 40
1.0
  0
CIRCLE
  5
C2
100
AcDbEntity
  8
0
  6
CONTINUOUS
 62
               2
100
AcDbCircle
 10
3.0
 20
5.0
 30
0.0
 40
1.25
  0
LINE
  5
C3
100
AcDbEntity
  8
0
  6
CONTINUOUS
 62
               7
100
AcDbLine
 10
7.6742640655248522
 20
-6.9014718657632397
 30
0.0
 11
7.5328427171471901
 21
-6.760050517385551
 31
0.0
  0
LINE
  5
C4
100
AcDbEntity
  8
0
  6
CONTINUOUS
 62
               7
100
AcDbLine
 10
7.5328427171471901
 20
-6.760050517385551
 30
0.0
 11
6.8257359359606369
 21
-6.760050517385551
 31
0.0
  0
LINE
  5
C5
100
AcDbEntity
  8
0
  6
CONTINUOUS
 62
               7
100
AcDbLine
 10
6.8257359359606369
 20
-6.760050517385551
 30
0.0
 11
5.6943650860621631
 21
-5.6286796674870772
 31
0.0
  0
ARC
  5
C6
100
AcDbEntity
  8
0
  6
CONTINUOUS
 62
               7
100
AcDbCircle
 10
7.1792893265539135
 20
-4.1437554269953267
 30
0.0
 40
2.1000000111152071
100
AcDbArc
 50
44.999999999999901
 51
224.99999999999949
  0
LINE
  5
C7
100
AcDbEntity
  8
0
  6
CONTINUOUS
 62
               7
100
AcDbLine
 10
9.9370057653217998
 20
-4.6387301659662636
 30
0.0
 11
9.7955844169441377
 21
-4.4973088175885891
 31
0.0
  0
LINE
  5
C8
100
AcDbEntity
  8
0
  6
CONTINUOUS
 62
               7
100
AcDbLine
 10
9.7955844169441377
 20
-3.7902020364020501
 30
0.0
 11
9.7955844169441377
 21
-4.4973088175885891
 31
0.0
  0
LINE
  5
C9
100
AcDbEntity
  8
0
  6
CONTINUOUS
 62
               7
100
AcDbLine
 10
9.7955844169441377
 20
-3.7902020364020501
 30
0.0
 11
8.6642135670456639
 21
-2.6588311865035621
 31
0.0
  0
LINE
  5
CA
100
AcDbEntity
  8
0
  6
CONTINUOUS
 62
               7
100
AcDbLine
 10
11.0
 20
-4.0
 30
0.0
 11
11.0
 21
4.0
 31
0.0
  0
LINE
  5
CB
100
AcDbEntity
  8
0
  6
CONTINUOUS
 62
               7
100
AcDbLine
 10
7.5
 20
7.5
 30
0.0
 11
0.4000000000000057
 21
7.5
 31
0.0
  0
LINE
  5
CC
100
AcDbEntity
  8
0
  6
CENTER
 62
               2
100
AcDbLine
 10
12.172825329495623
 20
0.0
 30
0.0
 11
-1.0
 21
0.0
 31
0.0
  0
LINE
  5
CD
100
AcDbEntity
  8
0
  6
CONTINUOUS
 62
               7
100
AcDbLine
 10
0.0
 20
-7.0999999999999996
 30
0.0
 11
0.0
 21
7.1000000000000014
 31
0.0
  0
LINE
  5
CE
100
AcDbEntity
  8
0
  6
CENTER
 62
               2
100
AcDbLine
 10
3.0
 20
-7.25
 30
0.0
 11
3.0
 21
7.25
 31
0.0
  0
LINE
  5
CF
100
AcDbEntity
  8
0
  6
CONTINUOUS
 62
               7
100
AcDbLine
 10
7.5
 20
-7.5
 30
0.0
 11
0.4000000000000057
 21
-7.5
 31
0.0
  0
LINE
  5
D0
100
AcDbEntity
  8
0
  6
CONTINUOUS
 62
               4
100
AcDbLine
 10
9.7592189190525858
 20
-3.8265675155762864
 30
0.0
 11
8.6642135584365292
 21
-2.7315621549602724
 31
0.0
  0
LINE
  5
D1
100
AcDbEntity
  8
0
  6
CONTINUOUS
 62
               4
100
AcDbLine
 10
9.7592189190525858
 20
-3.8265675155762864
 30
0.0
 11
9.7612392241458679
 21
-4.6043849765304827
 31
0.0
  0
LINE
  5
D2
100
AcDbEntity
  8
0
  6
CONTINUOUS
 62
               4
100
AcDbLine
 10
10.078427123807771
 20
-4.9215728761922861
 30
0.0
 11
7.9571067757508018
 21
-7.0428932242491484
 31
0.0
  0
LINE
  5
D3
100
AcDbEntity
  8
0
  6
CONTINUOUS
 62
               4
100
AcDbLine
 10
7.9571067757508018
 20
-7.0428932242491484
 30
0.0
 11
7.6399188760891406
 21
-6.7257053245873095
 31
0.0
  0
LINE
  5
D4
100
AcDbEntity
  8
0
  6
CONTINUOUS
 62
               4
100
AcDbLine
 10
6.8600811100414631
 20
-6.7257053245873095
 30
0.0
 11
7.6399188760891406
 21
-6.7257053245873095
 31
0.0
  0
LINE
  5
D5
100
AcDbEntity
  8
0
  6
CONTINUOUS
 62
               4
100
AcDbLine
 10
10.078427123807771
 20
-4.9215728761922861
 30
0.0
 11
9.7612392241458679
 21
-4.6043849765304827
 31
0.0
  0
LINE
  5
D6
100
AcDbEntity
  8
0
  6
CONTINUOUS
 62
               4
100
AcDbLine
 10
6.8600811100414631
 20
-6.7257053245873095
 30
0.0
 11
5.7650757494256055
 21
-5.6306999639712956
 31
0.0
  0
LINE
  5
D7
100
AcDbEntity
  8
0
  6
CONTINUOUS
 62
             200
100
AcDbLine
 10
7.923771741709956
 20
-3.4033135985116161
 30
0.0
 11
6.8641217202282405
 21
-2.3436635770298793
 31
0.0
  0
LINE
  5
D8
100
AcDbEntity
  8
0
  6
CONTINUOUS
 62
               4
100
AcDbLine
 10
8.0641829457004235
 20
-3.2629023945212055
 30
0.0
 11
7.1449441282091755
 21
-2.3436635770298793
 31
0.0
  0
LINE
  5
D9
100
AcDbEntity
  8
0
  6
CONTINUOUS
 62
               4
100
AcDbLine
 10
6.4378373455234197
 20
-2.3436635770298793
 30
0.0
 11
7.1449441282091755
 21
-2.3436635770298793
 31
0.0
  0
LINE
  5
DA
100
AcDbEntity
  8
0
  6
CONTINUOUS
 62
             200
100
AcDbLine
 10
6.4388474980702881
 20
-4.8882378421514048
 30
0.0
 11
5.3771771714950347
 21
-3.8265675155762864
 31
0.0
  0
LINE
  5
DB
100
AcDbEntity
  8
0
  6
CONTINUOUS
 62
               4
100
AcDbLine
 10
6.2964159889863254
 20
-5.0306693512352325
 30
0.0
 11
5.3771771714950347
 21
-4.1114305337439276
 31
0.0
  0
LINE
  5
DC
100
AcDbEntity
  8
0
  6
CONTINUOUS
 62
               4
100
AcDbLine
 10
5.3771771714950347
 20
-4.1114305337439276
 30
0.0
 11
5.3771771714950347
 21
-3.4043237510582998
 31
0.0
  0
LINE
  5
DD
100
AcDbEntity
  8
0
  6
CONTINUOUS
 62
               4
100
AcDbLine
 10
7.1449441282091755
 20
-2.3436635770298793
 30
0.0
 11
5.3771771714950347
 21
-4.1114305337439276
 31
0.0
  0
LINE
  5
DE
100
AcDbEntity
  8
0
  6
CONTINUOUS
 62
               4
100
AcDbLine
 10
6.4378373455234197
 20
-2.3436635770298793
 30
0.0
 11
5.3771771714950347
 21
-3.4043237510582998
 31
0.0
  0
LINE
  5
DF
100
AcDbEntity
  8
0
  6
CONTINUOUS
 62
               4
100
AcDbLine
 10
9.1935334929039527
 20
-3.2608820894278239
 30
0.0
 11
6.2943956838930433
 21
-6.1600198984388186
 31
0.0
  0
LINE
  5
E0
100
AcDbEntity
  8
0
  6
CENTER
 62
             200
100
AcDbLine
 10
10.036264482979391
 20
-7.0007305834208395
 30
0.0
 11
5.1228261982106176
 21
-2.0872922986519384
 31
0.0
  0
LINE
  5
E1
100
AcDbEntity
  8
0
  6
CONTINUOUS
 62
               4
100
AcDbLine
 10
8.6298683718488149
 20
-2.6972169683726861
 30
0.0
 11
5.7307305628378913
 21
-5.5963547773837234
 31
0.0
  0
ARC
  5
E2
100
AcDbEntity
  8
0
  6
CONTINUOUS
 62
               4
100
AcDbCircle
 10
7.2164964228039565
 20
-4.1801209069190861
 30
0.0
 40
2.0520237746840961
100
AcDbArc
 50
135.01661649434493
 51
224.98338350565427
  0
ARC
  5
E3
100
AcDbEntity
  8
0
  6
CONTINUOUS
 62
               4
100
AcDbCircle
 10
7.2136338487211731
 20
-4.1810574785274071
 30
0.0
 40
2.0506628653391066
100
AcDbArc
 50
44.978576158876109
 51
134.94156910908407
  0
LINE
  5
E4
100
AcDbEntity
  8
0
  6
CONTINUOUS
 62
             200
100
AcDbLine
 10
7.9237717440292244
 20
3.4033136039789085
 30
0.0
 11
6.8641217247939466
 21
2.3436635847436591
 31
0.0
  0
LINE
  5
E5
100
AcDbEntity
  8
0
  6
CONTINUOUS
 62
               4
100
AcDbLine
 10
9.7592189174807089
 20
3.8265675201463054
 30
0.0
 11
8.6642135591860523
 21
2.7315621618517056
 31
0.0
  0
LINE
  5
E6
100
AcDbEntity
  8
0
  6
CONTINUOUS
 62
               4
100
AcDbLine
 10
8.064182947722017
 20
3.2629024002861442
 30
0.0
 11
7.1449441321795319
 21
2.3436635847436591
 31
0.0
  0
LINE
  5
E7
100
AcDbEntity
  8
0
  6
CONTINUOUS
 62
               4
100
AcDbLine
 10
6.437837350992865
 20
2.3436635847436591
 30
0.0
 11
7.1449441321795319
 21
2.3436635847436591
 31
0.0
  0
ARC
  5
E8
100
AcDbEntity
  8
0
  6
CONTINUOUS
 62
               4
100
AcDbCircle
 10
7.2136338525458967
 20
4.181057482345885
 30
0.0
 40
2.0506628609917015
100
AcDbArc
 50
225.05843089091513
 51
315.02142384112307
  0
LINE
  5
E9
100
AcDbEntity
  8
0
  6
CONTINUOUS
 62
               4
100
AcDbLine
 10
9.7592189174807089
 20
3.8265675201463054
 30
0.0
 11
9.7612392225696993
 21
4.6043849794515026
 31
0.0
  0
LINE
  5
EA
100
AcDbEntity
  8
0
  6
CONTINUOUS
 62
             200
100
AcDbLine
 10
6.4388475035375876
 20
4.8882378444706589
 30
0.0
 11
5.377177179213092
 21
3.8265675201463054
 31
0.0
  0
LINE
  5
EB
100
AcDbEntity
  8
0
  6
CONTINUOUS
 62
               4
100
AcDbLine
 10
6.8600811146157383
 20
6.7257053230111339
 30
0.0
 11
5.7650757563213091
 21
5.6306999647165341
 31
0.0
  0
LINE
  5
EC
100
AcDbEntity
  8
0
  6
CONTINUOUS
 62
               4
100
AcDbLine
 10
6.2964159947555771
 20
5.0306693532525273
 30
0.0
 11
5.377177179213092
 21
4.1114305377100138
 31
0.0
  0
LINE
  5
ED
100
AcDbEntity
  8
0
  6
CONTINUOUS
 62
               4
100
AcDbLine
 10
5.377177179213092
 20
4.1114305377100138
 30
0.0
 11
5.377177179213092
 21
3.4043237565234605
 31
0.0
  0
ARC
  5
EE
100
AcDbEntity
  8
0
  6
CONTINUOUS
 62
               4
100
AcDbCircle
 10
7.2164964266226406
 20
4.180120910739582
 30
0.0
 40
2.0520237703338058
100
AcDbArc
 50
135.01661649434493
 51
224.98338350565427
  0
LINE
  5
EF
100
AcDbEntity
  8
0
  6
CONTINUOUS
 62
               4
100
AcDbLine
 10
7.1449441321795319
 20
2.3436635847436591
 30
0.0
 11
5.377177179213092
 21
4.1114305377100138
 31
0.0
  0
LINE
  5
F0
100
AcDbEntity
  8
0
  6
CONTINUOUS
 62
               4
100
AcDbLine
 10
8.6298683726711687
 20
2.6972169753369357
 30
0.0
 11
5.7307305698064255
 21
5.5963547782017642
 31
0.0
  0
LINE
  5
F1
100
AcDbEntity
  8
0
  6
CONTINUOUS
 62
               4
100
AcDbLine
 10
6.437837350992865
 20
2.3436635847436591
 30
0.0
 11
5.377177179213092
 21
3.4043237565234605
 31
0.0
  0
LINE
  5
F2
100
AcDbEntity
  8
0
  6
CONTINUOUS
 62
               4
100
AcDbLine
 10
10.078427121559159
 20
4.9215728784409052
 30
0.0
 11
7.9571067779993854
 21
7.0428932220005365
 31
0.0
  0
LINE
  5
F3
100
AcDbEntity
  8
0
  6
CONTINUOUS
 62
               4
100
AcDbLine
 10
7.9571067779993854
 20
7.042893222000508
 30
0.0
 11
7.6399188790101533
 21
6.7257053230111339
 31
0.0
  0
LINE
  5
F4
100
AcDbEntity
  8
0
  6
CENTER
 62
             200
100
AcDbLine
 10
10.036264480820179
 20
7.0007305812616423
 30
0.0
 11
5.1228262064678773
 21
2.0872923069091982
 31
0.0
  0
LINE
  5
F5
100
AcDbEntity
  8
0
  6
CONTINUOUS
 62
               4
100
AcDbLine
 10
9.1935334925313299
 20
3.2608820951970401
 30
0.0
 11
6.2943956896665867
 21
6.160019898061897
 31
0.0
  0
LINE
  5
F6
100
AcDbEntity
  8
0
  6
CONTINUOUS
 62
               4
100
AcDbLine
 10
6.8600811146157383
 20
6.7257053230111339
 30
0.0
 11
7.6399188790101533
 21
6.7257053230111339
 31
0.0
  0
LINE
  5
F7
100
AcDbEntity
  8
0
  6
CONTINUOUS
 62
               4
100
AcDbLine
 10
10.078427121559159
 20
4.9215728784408483
 30
0.0
 11
9.7612392225696993
 21
4.6043849794515026
 31
0.0
  0
LINE
  5
F8
100
AcDbEntity
  8
0
  6
CENTER
 62
               2
100
AcDbLine
 10
-1.5
 20
5.0
 30
0.0
 11
5.25
 21
5.0
 31
0.0
  0
LINE
  5
F9
100
AcDbEntity
  8
0
  6
CENTER
 62
               2
100
AcDbLine
 10
-1.5
 20
-5.0
 30
0.0
 11
5.25
 21
-5.0
 31
0.0
  0
ENDBLK
  5
FA
100
AcDbEntity
  8
0
100
AcDbBlockEnd
  0
BLOCK
  5
FB
100
AcDbEntity
  8
0
100
AcDbBlockBegin
  2
MS_3
 70
               0
 10
0.0
 20
0.0
 30
0.0
  3
MS_3
  1

  0
LINE
  5
FC
100
AcDbEntity
  8
0
  6
PHANTOM
 62
               3
100
AcDbLine
 10
24.866265863658953
 20
16.0
 30
0.0
 11
24.866265863658953
 21
-5.0
 31
0.0
  0
INSERT
  5
105
100
AcDbEntity
  8
0
  6
CONTINUOUS
 62
               7
100
AcDbBlockReference
  2
*X9
 10
0.0
 20
0.0
 30
0.0
  0
LINE
  5
106
100
AcDbEntity
  8
0
  6
CENTER
 62
               2
100
AcDbLine
 10
-7.8441166040813073
 20
8.0
 30
0.0
 11
1.4066880850250811
 21
8.0
 31
0.0
  0
LINE
  5
107
100
AcDbEntity
  8
0
  6
CONTINUOUS
 62
               7
100
AcDbLine
 10
-2.0
 20
9.0
 30
0.0
 11
0.0
 21
9.0
 31
0.0
  0
LINE
  5
108
100
AcDbEntity
  8
0
  6
CONTINUOUS
 62
               7
100
AcDbLine
 10
-2.0
 20
7.0
 30
0.0
 11
0.0
 21
7.0
 31
0.0
  0
ARC
  5
109
100
AcDbEntity
  8
0
  6
CONTINUOUS
 62
               7
100
AcDbCircle
 10
-0.7116456127252633
 20
8.9999999999999858
 30
0.0
 40
2.8883543872747346
100
AcDbArc
 50
159.74384115127785
 51
200.25615884872064
  0
ARC
  5
10A
100
AcDbEntity
  8
0
  6
CONTINUOUS
 62
               7
100
AcDbCircle
 10
-0.7116456127252633
 20
7.0000000000000142
 30
0.0
 40
2.8883543872747346
100
AcDbArc
 50
159.74384115127856
 51
200.25615884872136
  0
ARC
  5
10B
100
AcDbEntity
  8
0
  6
CONTINUOUS
 62
               7
100
AcDbCircle
 10
-6.4883543872747396
 20
8.9999999999999858
 30
0.0
 40
2.8883543872747346
100
AcDbArc
 50
-20.256158848721032
 51
20.256158848721746
  0
ARC
  5
10C
100
AcDbEntity
  8
0
  6
CONTINUOUS
 62
               7
100
AcDbCircle
 10
-6.4883543872747396
 20
7.0000000000000142
 30
0.0
 40
2.8883543872747346
100
AcDbArc
 50
339.74384115127742
 51
20.256158848721032
  0
ARC
  5
10D
100
AcDbEntity
  8
0
  6
CONTINUOUS
 62
               7
100
AcDbCircle
 10
-4.8883543872747452
 20
7.0000000000000142
 30
0.0
 40
2.8883543872747346
100
AcDbArc
 50
339.74384115127742
 51
20.256158848721032
  0
ARC
  5
10E
100
AcDbEntity
  8
0
  6
CONTINUOUS
 62
               7
100
AcDbCircle
 10
-4.8883543872747452
 20
8.9999999999999858
 30
0.0
 40
2.8883543872747346
100
AcDbArc
 50
-20.256158848721032
 51
20.256158848721746
  0
ARC
  5
10F
100
AcDbEntity
  8
0
  6
CONTINUOUS
 62
               7
100
AcDbCircle
 10
-2.3116456127252718
 20
7.0000000000000142
 30
0.0
 40
2.8883543872747346
100
AcDbArc
 50
159.74384115127856
 51
200.25615884872136
  0
ARC
  5
110
100
AcDbEntity
  8
0
  6
CONTINUOUS
 62
               7
100
AcDbCircle
 10
-2.3116456127252718
 20
8.9999999999999858
 30
0.0
 40
2.8883543872747346
100
AcDbArc
 50
159.74384115127785
 51
200.25615884872064
  0
LINE
  5
111
100
AcDbEntity
  8
0
  6
CONTINUOUS
 62
               7
100
AcDbLine
 10
-3.6000000000000085
 20
8.0
 30
0.0
 11
-2.1376445576398027
 21
8.0
 31
0.0
  0
LINE
  5
112
100
AcDbEntity
  8
0
  6
CONTINUOUS
 62
               7
100
AcDbLine
 10
-5.0213671974068177
 20
8.0
 30
0.0
 11
-3.6000000000000085
 21
8.0
 31
0.0
  0
LINE
  5
113
100
AcDbEntity
  8
0
  6
CONTINUOUS
 62
               7
100
AcDbLine
 10
-5.2000000000000028
 20
6.0
 30
0.0
 11
-2.0
 21
6.0
 31
0.0
  0
LINE
  5
114
100
AcDbEntity
  8
0
  6
CONTINUOUS
 62
               7
100
AcDbLine
 10
-5.2000000000000028
 20
10.0
 30
0.0
 11
-2.0
 21
10.0
 31
0.0
  0
LINE
  5
115
100
AcDbEntity
  8
0
  6
CONTINUOUS
 62
               7
100
AcDbLine
 10
-5.2000000000000028
 20
5.9999999620322626
 30
0.0
 11
-5.2000000000000028
 21
10.000000021636907
 31
0.0
  0
LINE
  5
116
100
AcDbEntity
  8
0
  6
CONTINUOUS
 62
               7
100
AcDbLine
 10
-3.6000000000000085
 20
5.9999999620322626
 30
0.0
 11
-3.6000000000000085
 21
10.000000021636907
 31
0.0
  0
LINE
  5
117
100
AcDbEntity
  8
0
  6
CONTINUOUS
 62
               7
100
AcDbLine
 10
-2.0
 20
5.9999999620322626
 30
0.0
 11
-2.0
 21
10.000000021636907
 31
0.0
  0
LINE
  5
118
100
AcDbEntity
  8
0
  6
CONTINUOUS
 62
               2
100
AcDbLine
 10
-2.0
 20
7.2999999999999972
 30
0.0
 11
-1.0
 21
7.2999999999999972
 31
0.0
  0
LINE
  5
119
100
AcDbEntity
  8
0
  6
CONTINUOUS
 62
               2
100
AcDbLine
 10
-2.0
 20
8.7000000000000028
 30
0.0
 11
-1.0
 21
8.7000000000000028
 31
0.0
  0
LINE
  5
11A
100
AcDbEntity
  8
0
  6
CONTINUOUS
 62
               7
100
AcDbLine
 10
-6.7000000000000171
 20
7.0
 30
0.0
 11
-7.0
 21
7.2999999999999972
 31
0.0
  0
LINE
  5
11B
100
AcDbEntity
  8
0
  6
CONTINUOUS
 62
               2
100
AcDbLine
 10
-7.0
 20
7.2999999999999972
 30
0.0
 11
-5.2000000000000028
 21
7.2999999999999972
 31
0.0
  0
LINE
  5
11C
100
AcDbEntity
  8
0
  6
CONTINUOUS
 62
               7
100
AcDbLine
 10
-6.7000000000000171
 20
7.0
 30
0.0
 11
-5.2000000000000028
 21
7.0
 31
0.0
  0
LINE
  5
11D
100
AcDbEntity
  8
0
  6
CONTINUOUS
 62
               7
100
AcDbLine
 10
-6.7000000000000171
 20
9.0
 30
0.0
 11
-6.7000000000000171
 21
7.0
 31
0.0
  0
LINE
  5
11E
100
AcDbEntity
  8
0
  6
CONTINUOUS
 62
               7
100
AcDbLine
 10
-6.7000000000000171
 20
9.0
 30
0.0
 11
-7.0
 21
8.7000000000000028
 31
0.0
  0
LINE
  5
11F
100
AcDbEntity
  8
0
  6
CONTINUOUS
 62
               7
100
AcDbLine
 10
-1.0
 20
9.0
 30
0.0
 11
-1.0
 21
7.0
 31
0.0
  0
LINE
  5
120
100
AcDbEntity
  8
0
  6
CONTINUOUS
 62
               2
100
AcDbLine
 10
-7.0
 20
8.7000000000000028
 30
0.0
 11
-5.2000000000000028
 21
8.7000000000000028
 31
0.0
  0
LINE
  5
121
100
AcDbEntity
  8
0
  6
CONTINUOUS
 62
               7
100
AcDbLine
 10
-7.0
 20
8.7000000000000028
 30
0.0
 11
-7.0
 21
7.2999999999999972
 31
0.0
  0
LINE
  5
122
100
AcDbEntity
  8
0
  6
CONTINUOUS
 62
               7
100
AcDbLine
 10
-6.7000000000000171
 20
9.0
 30
0.0
 11
-5.2000000000000028
 21
9.0
 31
0.0
  0
LINE
  5
123
100
AcDbEntity
  8
0
  6
CONTINUOUS
 62
               2
100
AcDbLine
 10
-1.0
 20
8.7000000000000028
 30
0.0
 11
-0.4803847577293539
 21
9.0
 31
0.0
  0
LINE
  5
124
100
AcDbEntity
  8
0
  6
CONTINUOUS
 62
               2
100
AcDbLine
 10
-1.0
 20
7.2999999999999972
 30
0.0
 11
-0.4803847577293539
 21
7.0
 31
0.0
  0
LINE
  5
125
100
AcDbEntity
  8
0
  6
CONTINUOUS
 62
               7
100
AcDbLine
 10
0.0
 20
3.3636038766828165
 30
0.0
 11
30.000000000000114
 21
3.3636038766828165
 31
0.0
  0
LINE
  5
126
100
AcDbEntity
  8
0
  6
CENTER
 62
               2
100
AcDbLine
 10
10.0
 20
6.0452224481113035
 30
0.0
 11
10.0
 21
10.149151424312862
 31
0.0
  0
CIRCLE
  5
128
100
AcDbEntity
  8
0
  6
DASHED
 62
               2
100
AcDbCircle
 10
10.0
 20
8.1999999999999886
 30
0.0
 40
1.5
  0
CIRCLE
  5
129
100
AcDbEntity
  8
0
  6
DASHED
 62
               7
100
AcDbCircle
 10
10.0
 20
8.1999999999999886
 30
0.0
 40
1.1999999999999886
  0
LINE
  5
12A
100
AcDbEntity
  8
0
  6
CENTER
 62
               2
100
AcDbLine
 10
27.0
 20
6.0452224481113035
 30
0.0
 11
27.0
 21
9.9760956580291094
 31
0.0
  0
CIRCLE
  5
12B
100
AcDbEntity
  8
0
  6
DASHED
 62
               2
100
AcDbCircle
 10
27.0
 20
8.1999999999999886
 30
0.0
 40
1.5
  0
CIRCLE
  5
12C
100
AcDbEntity
  8
0
  6
DASHED
 62
               7
100
AcDbCircle
 10
27.0
 20
8.1999999999999886
 30
0.0
 40
1.1999999999999886
  0
LINE
  5
12D
100
AcDbEntity
  8
0
  6
CONTINUOUS
 62
               7
100
AcDbLine
 10
0.0
 20
11.0
 30
0.0
 11
30.000000000000114
 21
11.0
 31
0.0
  0
LINE
  5
12E
100
AcDbEntity
  8
0
  6
CONTINUOUS
 62
               7
100
AcDbLine
 10
30.000000000000114
 20
0.0
 30
0.0
 11
30.000000000000114
 21
2.2878679570942495
 31
0.0
  0
LINE
  5
12F
100
AcDbEntity
  8
0
  6
CONTINUOUS
 62
               7
100
AcDbLine
 10
0.0
 20
0.0
 30
0.0
 11
0.0
 21
11.0
 31
0.0
  0
LINE
  5
130
100
AcDbEntity
  8
0
  6
CONTINUOUS
 62
               7
100
AcDbLine
 10
0.0
 20
0.0
 30
0.0
 11
30.000000000000114
 21
0.0
 31
0.0
  0
LINE
  5
131
100
AcDbEntity
  8
0
  6
CONTINUOUS
 62
               7
100
AcDbLine
 10
0.0
 20
1.1008622114557483
 30
0.0
 11
8.0
 21
1.1008622114557483
 31
0.0
  0
LINE
  5
132
100
AcDbEntity
  8
0
  6
CENTER
 62
               2
100
AcDbLine
 10
7.7742333359607585
 20
8.2000000000000028
 30
0.0
 11
30.846416164038573
 21
8.2000000000000028
 31
0.0
  0
LINE
  5
133
100
AcDbEntity
  8
0
  6
CONTINUOUS
 62
               4
100
AcDbLine
 10
23.500000032860257
 20
2.2878679570942495
 30
0.0
 11
39.165063543869977
 21
2.2878679570942495
 31
0.0
  0
LINE
  5
134
100
AcDbEntity
  8
0
  6
CONTINUOUS
 62
             200
100
AcDbLine
 10
38.804332849703549
 20
0.9416026636906949
 30
0.0
 11
40.213301739068811
 21
6.1999462033803994
 31
0.0
  0
LINE
  5
135
100
AcDbEntity
  8
0
  6
CONTINUOUS
 62
               4
100
AcDbLine
 10
9.7500000037100278
 20
1.1162076343176963
 30
0.0
 11
9.7500000037100278
 21
2.8482584455585496
 31
0.0
  0
LINE
  5
136
100
AcDbEntity
  8
0
  6
CONTINUOUS
 62
               4
100
AcDbLine
 10
10.250000004770015
 20
1.1162076343176963
 30
0.0
 11
10.250000004770015
 21
2.8482584455585496
 31
0.0
  0
ELLIPSE
  5
137
100
AcDbEntity
  8
0
  6
CONTINUOUS
 62
               4
100
AcDbEllipse
 10
10.000000004240022
 20
1.9822330399381158
 30
0.0
 11
-1.25000000265
 21
0.0000000000000002
 31
0.0
210
0.0
220
0.0
230
1.0
 40
0.7071067811865475
 41
0.0
 42
6.2831853071795862
  0
LINE
  5
138
100
AcDbEntity
  8
0
  6
CONTINUOUS
 62
               4
100
AcDbLine
 10
8.0
 20
3.3636038766828165
 30
0.0
 11
8.0
 21
0.9215728808108281
 31
0.0
  0
LINE
  5
139
100
AcDbEntity
  8
0
  6
CONTINUOUS
 62
               4
100
AcDbLine
 10
23.500000032860257
 20
3.3636038766828165
 30
0.0
 11
23.500000032860257
 21
0.9215728808108281
 31
0.0
  0
LINE
  5
13A
100
AcDbEntity
  8
0
  6
CONTINUOUS
 62
               4
100
AcDbLine
 10
30.000000000000114
 20
4.7878679623942446
 30
0.0
 11
39.834936518941618
 21
4.7878679623942446
 31
0.0
  0
LINE
  5
13B
100
AcDbEntity
  8
0
  6
CONTINUOUS
 62
               4
100
AcDbLine
 10
23.499999999367589
 20
3.0428932288678041
 30
0.0
 11
8.0000000116958319
 21
3.0428932288678041
 31
0.0
  0
LINE
  5
13C
100
AcDbEntity
  8
0
  6
CONTINUOUS
 62
               4
100
AcDbLine
 10
23.499999999367589
 20
0.9215728808108352
 30
0.0
 11
8.0000000116958319
 21
0.9215728808108352
 31
0.0
  0
LINE
  5
13D
100
AcDbEntity
  8
0
  6
CONTINUOUS
 62
               7
100
AcDbLine
 10
23.500000032860257
 20
1.1008622114557483
 30
0.0
 11
30.000000000000114
 21
1.1008622114557483
 31
0.0
  0
LINE
  5
13E
100
AcDbEntity
  8
0
  6
CONTINUOUS
 62
               7
100
AcDbLine
 10
30.000000000000114
 20
3.3636038766828165
 30
0.0
 11
30.000000000000114
 21
11.0
 31
0.0
  0
LINE
  5
13F
100
AcDbEntity
  8
0
  6
CENTER
 62
               2
100
AcDbLine
 10
5.0
 20
9.5
 30
0.0
 11
5.0
 21
12.5
 31
0.0
  0
ENDBLK
  5
140
100
AcDbEntity
  8
0
100
AcDbBlockEnd
  0
BLOCK
  5
141
100
AcDbEntity
  8
0
100
AcDbBlockBegin
  2
MS_4
 70
               0
 10
0.0
 20
0.0
 30
0.0
  3
MS_4
  1

  0
LINE
  5
142
100
AcDbEntity
  8
0
  6
PHANTOM
 62
               3
100
AcDbLine
 10
13.852179908851696
 20
16.0
 30
0.0
 11
13.852179908851696
 21
-4.9769018789905033
 31
0.0
  0
INSERT
  5
14C
100
AcDbEntity
  8
0
  6
CONTINUOUS
 62
               7
100
AcDbBlockReference
  2
*X10
 10
0.0
 20
0.0
 30
0.0
  0
LINE
  5
14D
100
AcDbEntity
  8
0
  6
CENTER
 62
               2
100
AcDbLine
 10
-8.1724203807038691
 20
3.0
 30
0.0
 11
1.40367590263088
 21
3.0
 31
0.0
  0
LINE
  5
14E
100
AcDbEntity
  8
0
  6
CONTINUOUS
 62
               2
100
AcDbLine
 10
-1.0
 20
2.2999999999999972
 30
0.0
 11
-0.4803847577293539
 21
2.0
 31
0.0
  0
LINE
  5
14F
100
AcDbEntity
  8
0
  6
CONTINUOUS
 62
               2
100
AcDbLine
 10
-1.0
 20
3.7000000000000028
 30
0.0
 11
-0.4803847577293539
 21
4.0
 31
0.0
  0
LINE
  5
150
100
AcDbEntity
  8
0
  6
CONTINUOUS
 62
               7
100
AcDbLine
 10
-6.7000000000000171
 20
4.0
 30
0.0
 11
-5.2000000000000028
 21
4.0
 31
0.0
  0
LINE
  5
151
100
AcDbEntity
  8
0
  6
CONTINUOUS
 62
               7
100
AcDbLine
 10
-7.0
 20
3.7000000000000028
 30
0.0
 11
-7.0
 21
2.2999999999999972
 31
0.0
  0
LINE
  5
152
100
AcDbEntity
  8
0
  6
CONTINUOUS
 62
               2
100
AcDbLine
 10
-7.0
 20
3.7000000000000028
 30
0.0
 11
-5.2000000000000028
 21
3.7000000000000028
 31
0.0
  0
LINE
  5
153
100
AcDbEntity
  8
0
  6
CONTINUOUS
 62
               7
100
AcDbLine
 10
-1.0
 20
4.0
 30
0.0
 11
-1.0
 21
2.0
 31
0.0
  0
LINE
  5
154
100
AcDbEntity
  8
0
  6
CONTINUOUS
 62
               7
100
AcDbLine
 10
-6.7000000000000171
 20
4.0
 30
0.0
 11
-7.0
 21
3.7000000000000028
 31
0.0
  0
LINE
  5
155
100
AcDbEntity
  8
0
  6
CONTINUOUS
 62
               7
100
AcDbLine
 10
-6.7000000000000171
 20
4.0
 30
0.0
 11
-6.7000000000000171
 21
2.0
 31
0.0
  0
LINE
  5
156
100
AcDbEntity
  8
0
  6
CONTINUOUS
 62
               7
100
AcDbLine
 10
-6.7000000000000171
 20
2.0
 30
0.0
 11
-5.2000000000000028
 21
2.0
 31
0.0
  0
LINE
  5
157
100
AcDbEntity
  8
0
  6
CONTINUOUS
 62
               2
100
AcDbLine
 10
-7.0
 20
2.2999999999999972
 30
0.0
 11
-5.2000000000000028
 21
2.2999999999999972
 31
0.0
  0
LINE
  5
158
100
AcDbEntity
  8
0
  6
CONTINUOUS
 62
               7
100
AcDbLine
 10
-6.7000000000000171
 20
2.0
 30
0.0
 11
-7.0
 21
2.2999999999999972
 31
0.0
  0
LINE
  5
159
100
AcDbEntity
  8
0
  6
CONTINUOUS
 62
               2
100
AcDbLine
 10
-2.0
 20
3.7000000000000028
 30
0.0
 11
-1.0
 21
3.7000000000000028
 31
0.0
  0
LINE
  5
15A
100
AcDbEntity
  8
0
  6
CONTINUOUS
 62
               2
100
AcDbLine
 10
-2.0
 20
2.2999999999999972
 30
0.0
 11
-1.0
 21
2.2999999999999972
 31
0.0
  0
LINE
  5
15B
100
AcDbEntity
  8
0
  6
CONTINUOUS
 62
               7
100
AcDbLine
 10
-2.0
 20
0.9999999620322626
 30
0.0
 11
-2.0
 21
5.0000000216369074
 31
0.0
  0
LINE
  5
15C
100
AcDbEntity
  8
0
  6
CONTINUOUS
 62
               7
100
AcDbLine
 10
-3.6000000000000085
 20
0.9999999620322626
 30
0.0
 11
-3.6000000000000085
 21
5.0000000216369074
 31
0.0
  0
LINE
  5
15D
100
AcDbEntity
  8
0
  6
CONTINUOUS
 62
               7
100
AcDbLine
 10
-5.2000000000000028
 20
0.9999999620322626
 30
0.0
 11
-5.2000000000000028
 21
5.0000000216369074
 31
0.0
  0
LINE
  5
15E
100
AcDbEntity
  8
0
  6
CONTINUOUS
 62
               7
100
AcDbLine
 10
-5.2000000000000028
 20
5.0
 30
0.0
 11
-2.0
 21
5.0
 31
0.0
  0
LINE
  5
15F
100
AcDbEntity
  8
0
  6
CONTINUOUS
 62
               7
100
AcDbLine
 10
-5.2000000000000028
 20
1.0
 30
0.0
 11
-2.0
 21
1.0
 31
0.0
  0
LINE
  5
160
100
AcDbEntity
  8
0
  6
CONTINUOUS
 62
               7
100
AcDbLine
 10
-5.0213671974068177
 20
3.0
 30
0.0
 11
-3.6000000000000085
 21
3.0
 31
0.0
  0
LINE
  5
161
100
AcDbEntity
  8
0
  6
CONTINUOUS
 62
               7
100
AcDbLine
 10
-3.6000000000000085
 20
3.0
 30
0.0
 11
-2.1376445576398027
 21
3.0
 31
0.0
  0
ARC
  5
162
100
AcDbEntity
  8
0
  6
CONTINUOUS
 62
               7
100
AcDbCircle
 10
-2.3116456127252718
 20
3.9999999999999858
 30
0.0
 40
2.8883543872747346
100
AcDbArc
 50
159.74384115127785
 51
200.25615884872064
  0
ARC
  5
163
100
AcDbEntity
  8
0
  6
CONTINUOUS
 62
               7
100
AcDbCircle
 10
-2.3116456127252718
 20
2.0000000000000142
 30
0.0
 40
2.8883543872747346
100
AcDbArc
 50
159.74384115127856
 51
200.25615884872136
  0
ARC
  5
164
100
AcDbEntity
  8
0
  6
CONTINUOUS
 62
               7
100
AcDbCircle
 10
-4.8883543872747452
 20
3.9999999999999858
 30
0.0
 40
2.8883543872747346
100
AcDbArc
 50
-20.256158848721032
 51
20.256158848721746
  0
ARC
  5
165
100
AcDbEntity
  8
0
  6
CONTINUOUS
 62
               7
100
AcDbCircle
 10
-4.8883543872747452
 20
2.0000000000000142
 30
0.0
 40
2.8883543872747346
100
AcDbArc
 50
339.74384115127742
 51
20.256158848721032
  0
ARC
  5
166
100
AcDbEntity
  8
0
  6
CONTINUOUS
 62
               7
100
AcDbCircle
 10
-6.4883543872747396
 20
2.0000000000000142
 30
0.0
 40
2.8883543872747346
100
AcDbArc
 50
339.74384115127742
 51
20.256158848721032
  0
ARC
  5
167
100
AcDbEntity
  8
0
  6
CONTINUOUS
 62
               7
100
AcDbCircle
 10
-6.4883543872747396
 20
3.9999999999999858
 30
0.0
 40
2.8883543872747346
100
AcDbArc
 50
-20.256158848721032
 51
20.256158848721746
  0
ARC
  5
168
100
AcDbEntity
  8
0
  6
CONTINUOUS
 62
               7
100
AcDbCircle
 10
-0.7116456127252633
 20
2.0000000000000142
 30
0.0
 40
2.8883543872747346
100
AcDbArc
 50
159.74384115127856
 51
200.25615884872136
  0
ARC
  5
169
100
AcDbEntity
  8
0
  6
CONTINUOUS
 62
               7
100
AcDbCircle
 10
-0.7116456127252633
 20
3.9999999999999858
 30
0.0
 40
2.8883543872747346
100
AcDbArc
 50
159.74384115127785
 51
200.25615884872064
  0
LINE
  5
16A
100
AcDbEntity
  8
0
  6
CONTINUOUS
 62
               7
100
AcDbLine
 10
-2.0
 20
2.0
 30
0.0
 11
0.0
 21
2.0
 31
0.0
  0
LINE
  5
16B
100
AcDbEntity
  8
0
  6
CONTINUOUS
 62
               7
100
AcDbLine
 10
-2.0
 20
4.0
 30
0.0
 11
0.0
 21
4.0
 31
0.0
  0
LINE
  5
16C
100
AcDbEntity
  8
0
  6
CONTINUOUS
 62
               7
100
AcDbLine
 10
0.0
 20
7.6363961233171835
 30
0.0
 11
30.000000000000114
 21
7.6363961233171835
 31
0.0
  0
LINE
  5
16D
100
AcDbEntity
  8
0
  6
CONTINUOUS
 62
               7
100
AcDbLine
 10
0.0
 20
9.8991377885442517
 30
0.0
 11
15.999999967139857
 21
9.8991377885442517
 31
0.0
  0
LINE
  5
16E
100
AcDbEntity
  8
0
  6
CONTINUOUS
 62
               7
100
AcDbLine
 10
0.0
 20
11.0
 30
0.0
 11
30.000000000000114
 21
11.0
 31
0.0
  0
LINE
  5
16F
100
AcDbEntity
  8
0
  6
CONTINUOUS
 62
               7
100
AcDbLine
 10
0.0
 20
11.0
 30
0.0
 11
0.0
 21
0.0
 31
0.0
  0
LINE
  5
170
100
AcDbEntity
  8
0
  6
CENTER
 62
               2
100
AcDbLine
 10
7.2333464440407909
 20
2.7999999999999972
 30
0.0
 11
30.846416164038573
 21
2.7999999999999972
 31
0.0
  0
LINE
  5
171
100
AcDbEntity
  8
0
  6
CONTINUOUS
 62
               7
100
AcDbLine
 10
30.000000000000114
 20
11.0
 30
0.0
 11
30.000000000000114
 21
10.078427123807749
 31
0.0
  0
LINE
  5
172
100
AcDbEntity
  8
0
  6
CONTINUOUS
 62
               7
100
AcDbLine
 10
0.0
 20
0.0
 30
0.0
 11
30.000000000000114
 21
0.0
 31
0.0
  0
CIRCLE
  5
173
100
AcDbEntity
  8
0
  6
DASHED
 62
               7
100
AcDbCircle
 10
27.0
 20
2.8000000000000114
 30
0.0
 40
1.1999999999999886
  0
CIRCLE
  5
174
100
AcDbEntity
  8
0
  6
DASHED
 62
               2
100
AcDbCircle
 10
27.0
 20
2.8000000000000114
 30
0.0
 40
1.5
  0
LINE
  5
175
100
AcDbEntity
  8
0
  6
CENTER
 62
               2
100
AcDbLine
 10
27.0
 20
4.9547775518886965
 30
0.0
 11
27.0
 21
0.728946832672591
 31
0.0
  0
CIRCLE
  5
176
100
AcDbEntity
  8
0
  6
DASHED
 62
               7
100
AcDbCircle
 10
10.0
 20
2.8000000000000114
 30
0.0
 40
1.1999999999999886
  0
CIRCLE
  5
177
100
AcDbEntity
  8
0
  6
DASHED
 62
               2
100
AcDbCircle
 10
10.0
 20
2.8000000000000114
 30
0.0
 40
1.5
  0
LINE
  5
178
100
AcDbEntity
  8
0
  6
CENTER
 62
               2
100
AcDbLine
 10
10.0
 20
4.9547775518886965
 30
0.0
 11
10.0
 21
0.8222042521190005
 31
0.0
  0
LINE
  5
179
100
AcDbEntity
  8
0
  6
CONTINUOUS
 62
               4
100
AcDbLine
 10
31.499999966507445
 20
10.078427123807749
 30
0.0
 11
15.999999978835689
 21
10.078427123807749
 31
0.0
  0
LINE
  5
17A
100
AcDbEntity
  8
0
  6
CONTINUOUS
 62
               4
100
AcDbLine
 10
31.499999966507445
 20
7.9571067757507805
 30
0.0
 11
15.999999978835689
 21
7.9571067757507805
 31
0.0
  0
LINE
  5
17B
100
AcDbEntity
  8
0
  6
CONTINUOUS
 62
               4
100
AcDbLine
 10
30.000000000000114
 20
5.0792893141306479
 30
0.0
 11
31.500000019764784
 21
5.0792893141306479
 31
0.0
  0
LINE
  5
17C
100
AcDbEntity
  8
0
  6
CONTINUOUS
 62
               4
100
AcDbLine
 10
30.000000000000114
 20
6.8257359383550806
 30
0.0
 11
31.500000000000114
 21
6.8257359383550806
 31
0.0
  0
LINE
  5
17D
100
AcDbEntity
  8
0
  6
CONTINUOUS
 62
               4
100
AcDbLine
 10
31.500000000000114
 20
6.2121320376057554
 30
0.0
 11
39.165063543869877
 21
6.2121320376057554
 31
0.0
  0
LINE
  5
17E
100
AcDbEntity
  8
0
  6
CONTINUOUS
 62
               4
100
AcDbLine
 10
31.500000000000114
 20
5.0792893141306479
 30
0.0
 11
31.500000000000114
 21
10.078427123807757
 31
0.0
  0
LINE
  5
17F
100
AcDbEntity
  8
0
  6
CONTINUOUS
 62
               4
100
AcDbLine
 10
15.999999967139857
 20
7.6363961233171835
 30
0.0
 11
15.999999967139857
 21
10.078427123807757
 31
0.0
  0
ELLIPSE
  5
180
100
AcDbEntity
  8
0
  6
CONTINUOUS
 62
               4
100
AcDbEllipse
 10
17.999999971379879
 20
9.0177669646804688
 30
0.0
 11
-1.25000000265
 21
0.0000000000000002
 31
0.0
210
0.0
220
0.0
230
1.0
 40
0.7071067811865475
 41
0.0
 42
6.2831853071795862
  0
LINE
  5
181
100
AcDbEntity
  8
0
  6
CONTINUOUS
 62
               4
100
AcDbLine
 10
18.249999971909872
 20
9.8837923703008883
 30
0.0
 11
18.249999971909872
 21
8.1517415590600351
 31
0.0
  0
LINE
  5
182
100
AcDbEntity
  8
0
  6
CONTINUOUS
 62
               4
100
AcDbLine
 10
17.749999970849885
 20
9.8837923703008883
 30
0.0
 11
17.749999970849885
 21
8.1517415590600351
 31
0.0
  0
LINE
  5
183
100
AcDbEntity
  8
0
  6
CONTINUOUS
 62
             200
100
AcDbLine
 10
38.804332849703549
 20
4.8658667442022008
 30
0.0
 11
40.213301739068811
 21
10.124210283891905
 31
0.0
  0
LINE
  5
184
100
AcDbEntity
  8
0
  6
CONTINUOUS
 62
               4
100
AcDbLine
 10
31.500000000000114
 20
8.7121320429057505
 30
0.0
 11
39.834936518941547
 21
8.7121320429057505
 31
0.0
  0
LINE
  5
185
100
AcDbEntity
  8
0
  6
CONTINUOUS
 62
               7
100
AcDbLine
 10
30.000000000000114
 20
7.6363961233171835
 30
0.0
 11
30.000000000000114
 21
0.0
 31
0.0
  0
LINE
  5
186
100
AcDbEntity
  8
0
  6
CENTER
 62
               2
100
AcDbLine
 10
5.0
 20
1.5
 30
0.0
 11
5.0
 21
-1.5
 31
0.0
  0
ENDBLK
  5
187
100
AcDbEntity
  8
0
100
AcDbBlockEnd
  0
BLOCK
  5
188
100
AcDbEntity
  8
0
100
AcDbBlockBegin
  2
MS_5
 70
               0
 10
0.0
 20
0.0
 30
0.0
  3
MS_5
  1

  0
LINE
  5
189
100
AcDbEntity
  8
0
  6
PHANTOM
 62
               3
100
AcDbLine
 10
12.252179908851694
 20
1.8342282120084334
 30
0.0
 11
12.252179908851694
 21
-11.649283667621773
 31
0.0
  0
LINE
  5
18A
100
AcDbEntity
  8
0
  6
PHANTOM
 62
               3
100
AcDbLine
 10
24.866265863658953
 20
1.8342282120084334
 30
0.0
 11
12.252179908851694
 21
1.8342282120084334
 31
0.0
  0
LINE
  5
18B
100
AcDbEntity
  8
0
  6
PHANTOM
 62
               3
100
AcDbLine
 10
24.866265863658953
 20
17.025980963676012
 30
0.0
 11
24.866265863658953
 21
1.8342282120084334
 31
0.0
  0
CIRCLE
  5
18C
100
AcDbEntity
  8
0
  6
CONTINUOUS
 62
               7
100
AcDbCircle
 10
5.0
 20
-5.0
 30
0.0
 40
1.1000000000000001
  0
CIRCLE
  5
18D
100
AcDbEntity
  8
0
  6
CONTINUOUS
 62
               7
100
AcDbCircle
 10
5.0
 20
-5.0
 30
0.0
 40
2.0499999999999998
  0
CIRCLE
  5
18E
100
AcDbEntity
  8
0
  6
CONTINUOUS
 62
               7
100
AcDbCircle
 10
5.0
 20
5.0
 30
0.0
 40
1.1000000000000001
  0
CIRCLE
  5
18F
100
AcDbEntity
  8
0
  6
CONTINUOUS
 62
               7
100
AcDbCircle
 10
5.0
 20
5.0
 30
0.0
 40
2.0499999999999998
  0
LINE
  5
190
100
AcDbEntity
  8
0
  6
CONTINUOUS
 62
               7
100
AcDbLine
 10
0.0
 20
7.5
 30
0.0
 11
18.40000002204809
 21
7.5
 31
0.0
  0
LINE
  5
191
100
AcDbEntity
  8
0
  6
CONTINUOUS
 62
               7
100
AcDbLine
 10
0.0
 20
-7.5
 30
0.0
 11
12.999999968200129
 21
-7.5
 31
0.0
  0
LINE
  5
192
100
AcDbEntity
  8
0
  6
CENTER
 62
               2
100
AcDbLine
 10
2.2000000000000171
 20
5.0
 30
0.0
 11
7.7999999999999829
 21
5.0
 31
0.0
  0
LINE
  5
193
100
AcDbEntity
  8
0
  6
CENTER
 62
               2
100
AcDbLine
 10
5.0
 20
7.7999999999999972
 30
0.0
 11
5.0
 21
2.2000000000000028
 31
0.0
  0
LINE
  5
194
100
AcDbEntity
  8
0
  6
CENTER
 62
               2
100
AcDbLine
 10
2.2000000000000171
 20
-5.0
 30
0.0
 11
7.7999999999999829
 21
-5.0
 31
0.0
  0
LINE
  5
195
100
AcDbEntity
  8
0
  6
CENTER
 62
               2
100
AcDbLine
 10
5.0
 20
-7.7999999999999972
 30
0.0
 11
5.0
 21
-2.2000000000000028
 31
0.0
  0
LINE
  5
196
100
AcDbEntity
  8
0
  6
CONTINUOUS
 62
               7
100
AcDbLine
 10
0.0
 20
7.5
 30
0.0
 11
0.0
 21
-7.5
 31
0.0
  0
LINE
  5
197
100
AcDbEntity
  8
0
  6
CONTINUOUS
 62
               7
100
AcDbLine
 10
30.000000000000114
 20
7.5
 30
0.0
 11
30.000000000000114
 21
-7.5
 31
0.0
  0
CIRCLE
  5
198
100
AcDbEntity
  8
0
  6
CONTINUOUS
 62
               7
100
AcDbCircle
 10
10.0
 20
0.0000000000000142
 30
0.0
 40
1.1999999999999886
  0
CIRCLE
  5
199
100
AcDbEntity
  8
0
  6
CONTINUOUS
 62
               2
100
AcDbCircle
 10
10.0
 20
0.0000000000000142
 30
0.0
 40
1.5
  0
LINE
  5
19A
100
AcDbEntity
  8
0
  6
CENTER
 62
               2
100
AcDbLine
 10
10.0
 20
1.9547775518886965
 30
0.0
 11
10.0
 21
-1.9760956580291094
 31
0.0
  0
CIRCLE
  5
19B
100
AcDbEntity
  8
0
  6
CONTINUOUS
 62
               7
100
AcDbCircle
 10
27.0
 20
0.0000000000000142
 30
0.0
 40
1.1999999999999886
  0
CIRCLE
  5
19C
100
AcDbEntity
  8
0
  6
CONTINUOUS
 62
               2
100
AcDbCircle
 10
27.0
 20
0.0000000000000142
 30
0.0
 40
1.5
  0
LINE
  5
19D
100
AcDbEntity
  8
0
  6
CENTER
 62
               2
100
AcDbLine
 10
27.0
 20
1.9547775518886965
 30
0.0
 11
27.0
 21
-1.9760956580291094
 31
0.0
  0
SPLINE
  5
19E
100
AcDbEntity
  8
0
  6
CONTINUOUS
 62
               7
100
AcDbSpline
210
0.0
220
0.0
230
1.0
 70
               0
 71
               3
 72
               0
 73
               0
 74
               5
 44
0.000001
 12
0.5262035662224491
 22
0.8503586342801351
 32
0.0
 13
-0.5262036381605768
 23
0.8503585897646785
 33
0.0
 11
-2.1786327055817054
 21
-2.3094009377364486
 31
0.0
 11
-2.0495647487176472
 21
-2.032619570643357
 31
0.0
 11
-2.0
 21
-1.7320507690633562
 31
0.0
 11
-2.0495647626436275
 21
-1.4314819019278699
 31
0.0
 11
-2.1786327651863502
 21
-1.1547004811809456
 31
0.0
  0
SPLINE
  5
19F
100
AcDbEntity
  8
0
  6
CONTINUOUS
 62
               7
100
AcDbSpline
210
0.0
220
0.0
230
1.0
 70
               0
 71
               3
 72
               0
 73
               0
 74
               5
 44
0.000001
 12
-0.526203566222449
 22
0.8503586342801353
 32
0.0
 13
0.5262036381605767
 23
0.8503585897646786
 33
0.0
 11
-3.4213672944183031
 21
-2.3094009377364486
 31
0.0
 11
-3.5504352512823614
 21
-2.032619570643357
 31
0.0
 11
-3.6000000000000085
 21
-1.7320507690633562
 31
0.0
 11
-3.550435237356381
 21
-1.4314819019278699
 31
0.0
 11
-3.4213672348136583
 21
-1.1547004811809456
 31
0.0
  0
SPLINE
  5
1A0
100
AcDbEntity
  8
0
  6
CONTINUOUS
 62
               7
100
AcDbSpline
210
0.0
220
0.0
230
1.0
 70
               0
 71
               3
 72
               0
 73
               0
 74
               5
 44
0.000001
 12
0.5262035662224491
 22
0.8503586342801351
 32
0.0
 13
-0.5262036381605768
 23
0.8503585897646785
 33
0.0
 11
-3.7786327055816997
 21
-2.3094009377364486
 31
0.0
 11
-3.6495647487176486
 21
-2.032619570643357
 31
0.0
 11
-3.6000000000000085
 21
-1.7320507690633562
 31
0.0
 11
-3.6495647626436289
 21
-1.4314819019278699
 31
0.0
 11
-3.7786327651863445
 21
-1.1547004811809456
 31
0.0
  0
SPLINE
  5
1A1
100
AcDbEntity
  8
0
  6
CONTINUOUS
 62
               7
100
AcDbSpline
210
0.0
220
0.0
230
1.0
 70
               0
 71
               3
 72
               0
 73
               0
 74
               5
 44
0.000001
 12
-0.526203566222449
 22
0.8503586342801353
 32
0.0
 13
0.5262036381605767
 23
0.8503585897646786
 33
0.0
 11
-5.0213672944182974
 21
-2.3094009377364486
 31
0.0
 11
-5.1504352512823557
 21
-2.032619570643357
 31
0.0
 11
-5.2000000000000028
 21
-1.7320507690633562
 31
0.0
 11
-5.1504352373563753
 21
-1.4314819019278699
 31
0.0
 11
-5.0213672348136527
 21
-1.1547004811809456
 31
0.0
  0
SPLINE
  5
1A2
100
AcDbEntity
  8
0
  6
CONTINUOUS
 62
               7
100
AcDbSpline
210
0.0
220
0.0
230
1.0
 70
               0
 71
               3
 72
               0
 73
               0
 74
               5
 44
0.000001
 12
0.5262035662224491
 22
-0.8503586342801351
 32
0.0
 13
-0.5262036381605768
 23
-0.8503585897646785
 33
0.0
 11
-2.1786327055817054
 21
2.3094009377364557
 31
0.0
 11
-2.0495647487176472
 21
2.0326195706433641
 31
0.0
 11
-2.0
 21
1.7320507690633633
 31
0.0
 11
-2.0495647626436275
 21
1.4314819019278771
 31
0.0
 11
-2.1786327651863502
 21
1.1547004811809527
 31
0.0
  0
SPLINE
  5
1A3
100
AcDbEntity
  8
0
  6
CONTINUOUS
 62
               7
100
AcDbSpline
210
0.0
220
0.0
230
1.0
 70
               0
 71
               3
 72
               0
 73
               0
 74
               5
 44
0.000001
 12
-0.526203566222449
 22
-0.8503586342801353
 32
0.0
 13
0.5262036381605767
 23
-0.8503585897646786
 33
0.0
 11
-3.4213672944183031
 21
2.3094009377364557
 31
0.0
 11
-3.5504352512823614
 21
2.0326195706433641
 31
0.0
 11
-3.6000000000000085
 21
1.7320507690633633
 31
0.0
 11
-3.550435237356381
 21
1.4314819019278771
 31
0.0
 11
-3.4213672348136583
 21
1.1547004811809527
 31
0.0
  0
SPLINE
  5
1A4
100
AcDbEntity
  8
0
  6
CONTINUOUS
 62
               7
100
AcDbSpline
210
0.0
220
0.0
230
1.0
 70
               0
 71
               3
 72
               0
 73
               0
 74
               5
 44
0.000001
 12
0.5262035662224491
 22
-0.8503586342801351
 32
0.0
 13
-0.5262036381605768
 23
-0.8503585897646785
 33
0.0
 11
-3.7786327055816997
 21
2.3094009377364557
 31
0.0
 11
-3.6495647487176486
 21
2.0326195706433641
 31
0.0
 11
-3.6000000000000085
 21
1.7320507690633633
 31
0.0
 11
-3.6495647626436289
 21
1.4314819019278771
 31
0.0
 11
-3.7786327651863445
 21
1.1547004811809527
 31
0.0
  0
SPLINE
  5
1A5
100
AcDbEntity
  8
0
  6
CONTINUOUS
 62
               7
100
AcDbSpline
210
0.0
220
0.0
230
1.0
 70
               0
 71
               3
 72
               0
 73
               0
 74
               5
 44
0.000001
 12
-0.526203566222449
 22
-0.8503586342801353
 32
0.0
 13
0.5262036381605767
 23
-0.8503585897646786
 33
0.0
 11
-5.0213672944182974
 21
2.3094009377364557
 31
0.0
 11
-5.1504352512823557
 21
2.0326195706433641
 31
0.0
 11
-5.2000000000000028
 21
1.7320507690633633
 31
0.0
 11
-5.1504352373563753
 21
1.4314819019278771
 31
0.0
 11
-5.0213672348136527
 21
1.1547004811809527
 31
0.0
  0
SPLINE
  5
1A6
100
AcDbEntity
  8
0
  6
CONTINUOUS
 62
               7
100
AcDbSpline
210
0.0
220
0.0
230
1.0
 70
               0
 71
               3
 72
               0
 73
               0
 74
               5
 44
0.000001
 12
-0.2955766966256463
 22
-0.9553190129019052
 32
0.0
 13
0.2955766966256496
 23
-0.9553190129019042
 33
0.0
 11
-5.0213672348136527
 21
1.1547004811809529
 31
0.0
 11
-5.153853926889103
 21
0.5845636058644737
 31
0.0
 11
-5.2000000000000028
 21
0.0
 31
0.0
 11
-5.1538539268891039
 21
-0.5845636058644703
 31
0.0
 11
-5.0213672348136527
 21
-1.154700481180946
 31
0.0
  0
SPLINE
  5
1A7
100
AcDbEntity
  8
0
  6
CONTINUOUS
 62
               7
100
AcDbSpline
210
0.0
220
0.0
230
1.0
 70
               0
 71
               3
 72
               0
 73
               0
 74
               5
 44
0.000001
 12
0.2955766966256462
 22
-0.9553190129019054
 32
0.0
 13
-0.2955766966256495
 23
-0.9553190129019044
 33
0.0
 11
-3.7786327651863445
 21
1.1547004811809529
 31
0.0
 11
-3.6461460731109012
 21
0.5845636058644737
 31
0.0
 11
-3.6000000000000085
 21
0.0
 31
0.0
 11
-3.6461460731109008
 21
-0.5845636058644703
 31
0.0
 11
-3.7786327651863445
 21
-1.154700481180946
 31
0.0
  0
SPLINE
  5
1A8
100
AcDbEntity
  8
0
  6
CONTINUOUS
 62
               7
100
AcDbSpline
210
0.0
220
0.0
230
1.0
 70
               0
 71
               3
 72
               0
 73
               0
 74
               5
 44
0.000001
 12
-0.2955766966256463
 22
-0.9553190129019052
 32
0.0
 13
0.2955766966256496
 23
-0.9553190129019042
 33
0.0
 11
-3.4213672348136583
 21
1.1547004811809529
 31
0.0
 11
-3.5538539268891087
 21
0.5845636058644737
 31
0.0
 11
-3.6000000000000085
 21
0.0
 31
0.0
 11
-3.5538539268891092
 21
-0.5845636058644703
 31
0.0
 11
-3.4213672348136583
 21
-1.154700481180946
 31
0.0
  0
SPLINE
  5
1A9
100
AcDbEntity
  8
0
  6
CONTINUOUS
 62
               7
100
AcDbSpline
210
0.0
220
0.0
230
1.0
 70
               0
 71
               3
 72
               0
 73
               0
 74
               5
 44
0.000001
 12
0.2955766966256462
 22
-0.9553190129019054
 32
0.0
 13
-0.2955766966256495
 23
-0.9553190129019044
 33
0.0
 11
-2.1786327651863502
 21
1.1547004811809529
 31
0.0
 11
-2.0461460731108998
 21
0.5845636058644737
 31
0.0
 11
-2.0
 21
0.0
 31
0.0
 11
-2.0461460731108994
 21
-0.5845636058644703
 31
0.0
 11
-2.1786327651863502
 21
-1.154700481180946
 31
0.0
  0
LINE
  5
1AA
100
AcDbEntity
  8
0
  6
CONTINUOUS
 62
               7
100
AcDbLine
 10
-1.9999999693756507
 20
-1.9999999620322555
 30
0.0
 11
-2.1786327055817054
 21
-2.3094009377364486
 31
0.0
  0
LINE
  5
1AB
100
AcDbEntity
  8
0
  6
CONTINUOUS
 62
               7
100
AcDbLine
 10
-3.4213672348136583
 20
-1.1547004811809458
 30
0.0
 11
-2.1786327651863502
 21
-1.1547004811809458
 31
0.0
  0
LINE
  5
1AC
100
AcDbEntity
  8
0
  6
CONTINUOUS
 62
               7
100
AcDbLine
 10
-3.6000000306243578
 20
-1.9999999620322555
 30
0.0
 11
-3.4213672944183031
 21
-2.3094009377364486
 31
0.0
  0
LINE
  5
1AD
100
AcDbEntity
  8
0
  6
CONTINUOUS
 62
               7
100
AcDbLine
 10
-3.4213672348136583
 20
-2.3094010569457382
 30
0.0
 11
-2.1786328025931994
 21
-2.3094010569457382
 31
0.0
  0
LINE
  5
1AE
100
AcDbEntity
  8
0
  6
CONTINUOUS
 62
               7
100
AcDbLine
 10
-3.7786327651863445
 20
-2.3094010569457382
 30
0.0
 11
-5.0213671974068035
 21
-2.3094010569457382
 31
0.0
  0
LINE
  5
1AF
100
AcDbEntity
  8
0
  6
CONTINUOUS
 62
               7
100
AcDbLine
 10
-3.599999969375645
 20
-1.9999999620322555
 30
0.0
 11
-3.7786327055816997
 21
-2.3094009377364486
 31
0.0
  0
LINE
  5
1B0
100
AcDbEntity
  8
0
  6
CONTINUOUS
 62
               7
100
AcDbLine
 10
-3.7786327651863445
 20
-1.1547004811809458
 30
0.0
 11
-5.0213672348136527
 21
-1.1547004811809458
 31
0.0
  0
LINE
  5
1B1
100
AcDbEntity
  8
0
  6
CONTINUOUS
 62
               7
100
AcDbLine
 10
-5.2000000306243521
 20
-1.9999999620322555
 30
0.0
 11
-5.0213672944182974
 21
-2.3094009377364486
 31
0.0
  0
LINE
  5
1B2
100
AcDbEntity
  8
0
  6
CONTINUOUS
 62
               7
100
AcDbLine
 10
-1.9999999693756507
 20
1.9999999620322626
 30
0.0
 11
-2.1786327055817054
 21
2.3094009377364557
 31
0.0
  0
LINE
  5
1B3
100
AcDbEntity
  8
0
  6
CONTINUOUS
 62
               7
100
AcDbLine
 10
-3.6000000306243578
 20
1.9999999620322626
 30
0.0
 11
-3.4213672944183031
 21
2.3094009377364557
 31
0.0
  0
LINE
  5
1B4
100
AcDbEntity
  8
0
  6
CONTINUOUS
 62
               7
100
AcDbLine
 10
-3.4213672348136583
 20
1.1547004811809529
 30
0.0
 11
-2.1786327651863502
 21
1.1547004811809529
 31
0.0
  0
LINE
  5
1B5
100
AcDbEntity
  8
0
  6
CONTINUOUS
 62
               7
100
AcDbLine
 10
-3.4213672348136583
 20
2.3094010209507303
 30
0.0
 11
-2.1786327536254788
 21
2.3094010209507303
 31
0.0
  0
LINE
  5
1B6
100
AcDbEntity
  8
0
  6
CONTINUOUS
 62
               7
100
AcDbLine
 10
-3.7786327651863445
 20
2.3094010209507303
 30
0.0
 11
-5.0213672463745098
 21
2.3094010209507303
 31
0.0
  0
LINE
  5
1B7
100
AcDbEntity
  8
0
  6
CONTINUOUS
 62
               7
100
AcDbLine
 10
-3.7786327651863445
 20
1.1547004811809529
 30
0.0
 11
-5.0213672348136527
 21
1.1547004811809529
 31
0.0
  0
LINE
  5
1B8
100
AcDbEntity
  8
0
  6
CONTINUOUS
 62
               7
100
AcDbLine
 10
-3.599999969375645
 20
1.9999999620322626
 30
0.0
 11
-3.7786327055816997
 21
2.3094009377364557
 31
0.0
  0
LINE
  5
1B9
100
AcDbEntity
  8
0
  6
CONTINUOUS
 62
               7
100
AcDbLine
 10
-5.2000000306243521
 20
1.9999999620322626
 30
0.0
 11
-5.0213672944182974
 21
2.3094009377364557
 31
0.0
  0
LINE
  5
1BA
100
AcDbEntity
  8
0
  6
CONTINUOUS
 62
               7
100
AcDbLine
 10
-5.2000000000000028
 20
-2.0000000379677303
 30
0.0
 11
-5.2000000000000028
 21
2.0000000216369074
 31
0.0
  0
LINE
  5
1BB
100
AcDbEntity
  8
0
  6
CONTINUOUS
 62
               7
100
AcDbLine
 10
-3.6000000000000085
 20
-2.0000000379677303
 30
0.0
 11
-3.6000000000000085
 21
2.0000000216369074
 31
0.0
  0
LINE
  5
1BC
100
AcDbEntity
  8
0
  6
CONTINUOUS
 62
               7
100
AcDbLine
 10
-2.0
 20
-2.0000000379677303
 30
0.0
 11
-2.0
 21
2.0000000216369074
 31
0.0
  0
LINE
  5
1BD
100
AcDbEntity
  8
0
  6
CONTINUOUS
 62
               2
100
AcDbLine
 10
-2.0
 20
-0.6999999999999957
 30
0.0
 11
-1.0
 21
-0.6999999999999957
 31
0.0
  0
LINE
  5
1BE
100
AcDbEntity
  8
0
  6
CONTINUOUS
 62
               7
100
AcDbLine
 10
-2.0
 20
-0.9999999999999929
 30
0.0
 11
0.0
 21
-0.9999999999999929
 31
0.0
  0
LINE
  5
1BF
100
AcDbEntity
  8
0
  6
CONTINUOUS
 62
               2
100
AcDbLine
 10
-2.0
 20
0.7000000000000171
 30
0.0
 11
-1.0
 21
0.7000000000000171
 31
0.0
  0
LINE
  5
1C0
100
AcDbEntity
  8
0
  6
CONTINUOUS
 62
               7
100
AcDbLine
 10
-2.0
 20
1.0
 30
0.0
 11
0.0
 21
1.0
 31
0.0
  0
LINE
  5
1C1
100
AcDbEntity
  8
0
  6
CONTINUOUS
 62
               7
100
AcDbLine
 10
-6.7000000000000171
 20
-0.9999999999999929
 30
0.0
 11
-7.0
 21
-0.6999999999999957
 31
0.0
  0
LINE
  5
1C2
100
AcDbEntity
  8
0
  6
CONTINUOUS
 62
               2
100
AcDbLine
 10
-7.0
 20
-0.6999999999999957
 30
0.0
 11
-5.2000000000000028
 21
-0.6999999999999957
 31
0.0
  0
LINE
  5
1C3
100
AcDbEntity
  8
0
  6
CONTINUOUS
 62
               2
100
AcDbLine
 10
-1.0
 20
-0.6999999999999957
 30
0.0
 11
-0.4803847577293539
 21
-0.9999999999999929
 31
0.0
  0
LINE
  5
1C4
100
AcDbEntity
  8
0
  6
CONTINUOUS
 62
               7
100
AcDbLine
 10
-6.7000000000000171
 20
-0.9999999999999929
 30
0.0
 11
-5.2000000000000028
 21
-0.9999999999999929
 31
0.0
  0
LINE
  5
1C5
100
AcDbEntity
  8
0
  6
CONTINUOUS
 62
               2
100
AcDbLine
 10
-1.0
 20
0.7000000000000171
 30
0.0
 11
-0.4803847577293539
 21
1.0
 31
0.0
  0
LINE
  5
1C6
100
AcDbEntity
  8
0
  6
CONTINUOUS
 62
               7
100
AcDbLine
 10
-6.7000000000000171
 20
1.0
 30
0.0
 11
-6.7000000000000171
 21
-0.9999999999999929
 31
0.0
  0
LINE
  5
1C7
100
AcDbEntity
  8
0
  6
CONTINUOUS
 62
               7
100
AcDbLine
 10
-6.7000000000000171
 20
1.0
 30
0.0
 11
-7.0
 21
0.7000000000000171
 31
0.0
  0
LINE
  5
1C8
100
AcDbEntity
  8
0
  6
CONTINUOUS
 62
               7
100
AcDbLine
 10
-1.0
 20
1.0
 30
0.0
 11
-1.0
 21
-0.9999999999999929
 31
0.0
  0
LINE
  5
1C9
100
AcDbEntity
  8
0
  6
CONTINUOUS
 62
               2
100
AcDbLine
 10
-7.0
 20
0.7000000000000171
 30
0.0
 11
-5.2000000000000028
 21
0.7000000000000171
 31
0.0
  0
LINE
  5
1CA
100
AcDbEntity
  8
0
  6
CONTINUOUS
 62
               7
100
AcDbLine
 10
-7.0
 20
0.7000000000000171
 30
0.0
 11
-7.0
 21
-0.6999999999999957
 31
0.0
  0
LINE
  5
1CB
100
AcDbEntity
  8
0
  6
CONTINUOUS
 62
               7
100
AcDbLine
 10
-6.7000000000000171
 20
1.0
 30
0.0
 11
-5.2000000000000028
 21
1.0
 31
0.0
  0
LINE
  5
1CC
100
AcDbEntity
  8
0
  6
CENTER
 62
               2
100
AcDbLine
 10
-8.3272809731439423
 20
0.0
 30
0.0
 11
31.520407054922202
 21
0.0
 31
0.0
  0
LINE
  5
1CD
100
AcDbEntity
  8
0
  6
CONTINUOUS
 62
               7
100
AcDbLine
 10
0.0
 20
4.7265981316103129
 30
0.0
 11
2.968313159376919
 21
4.7265981316103129
 31
0.0
  0
LINE
  5
1CE
100
AcDbEntity
  8
0
  6
CONTINUOUS
 62
               7
100
AcDbLine
 10
0.0
 20
6.760050517385551
 30
0.0
 11
3.9489423535072632
 21
6.760050517385551
 31
0.0
  0
LINE
  5
1CF
100
AcDbEntity
  8
0
  6
CONTINUOUS
 62
               7
100
AcDbLine
 10
0.0
 20
4.0
 30
0.0
 11
3.2104469831826634
 21
4.0
 31
0.0
  0
LINE
  5
1D0
100
AcDbEntity
  8
0
  6
CONTINUOUS
 62
               7
100
AcDbLine
 10
0.0
 20
-4.0
 30
0.0
 11
3.2104469831826634
 21
-4.0
 31
0.0
  0
LINE
  5
1D1
100
AcDbEntity
  8
0
  6
CONTINUOUS
 62
               7
100
AcDbLine
 10
0.0
 20
-4.7265981316103076
 30
0.0
 11
2.968313159376919
 21
-4.7265981316103076
 31
0.0
  0
LINE
  5
1D2
100
AcDbEntity
  8
0
  6
CONTINUOUS
 62
               7
100
AcDbLine
 10
0.0
 20
-6.7703526098149496
 30
0.0
 11
3.9663890301852405
 21
-6.7703526098149496
 31
0.0
  0
LINE
  5
1D3
100
AcDbEntity
  8
0
  6
CONTINUOUS
 62
               7
100
AcDbLine
 10
6.0510576464927368
 20
6.760050517385551
 30
0.0
 11
8.0
 21
6.760050517385551
 31
0.0
  0
LINE
  5
1D4
100
AcDbEntity
  8
0
  6
CONTINUOUS
 62
               7
100
AcDbLine
 10
7.031686840623081
 20
4.7265981316103129
 30
0.0
 11
30.000000000000114
 21
4.7265981316103129
 31
0.0
  0
LINE
  5
1D5
100
AcDbEntity
  8
0
  6
CONTINUOUS
 62
               7
100
AcDbLine
 10
6.7895530168173366
 20
4.0
 30
0.0
 11
30.000000000000114
 21
4.0
 31
0.0
  0
LINE
  5
1D6
100
AcDbEntity
  8
0
  6
CONTINUOUS
 62
               7
100
AcDbLine
 10
6.7895530168173366
 20
-4.0
 30
0.0
 11
30.000000000000114
 21
-4.0
 31
0.0
  0
LINE
  5
1D7
100
AcDbEntity
  8
0
  6
CONTINUOUS
 62
               7
100
AcDbLine
 10
7.031686840623081
 20
-4.7265981316103076
 30
0.0
 11
30.000000000000114
 21
-4.7265981316103076
 31
0.0
  0
LINE
  5
1D8
100
AcDbEntity
  8
0
  6
CONTINUOUS
 62
               7
100
AcDbLine
 10
6.0336109698147595
 20
-6.7703526098149496
 30
0.0
 11
12.999999968200129
 21
-6.7703526098149496
 31
0.0
  0
INSERT
  5
1E2
100
AcDbEntity
  8
0
  6
CONTINUOUS
 62
               7
100
AcDbBlockReference
  2
*X11
 10
0.0
 20
0.0
 30
0.0
  0
LINE
  5
1E3
100
AcDbEntity
  8
0
  6
CONTINUOUS
 62
               4
100
AcDbLine
 10
12.999999991361619
 20
-4.9215728761923323
 30
0.0
 11
27.99999996583324
 21
-4.9215728761923323
 31
0.0
  0
LINE
  5
1E4
100
AcDbEntity
  8
0
  6
CONTINUOUS
 62
               4
100
AcDbLine
 10
17.600000011635046
 20
-7.0428932242490987
 30
0.0
 11
27.99999996583324
 21
-7.0428932242490987
 31
0.0
  0
LINE
  5
1E5
100
AcDbEntity
  8
0
  6
CONTINUOUS
 62
               4
100
AcDbLine
 10
8.0000000346271776
 20
4.9215728761923323
 30
0.0
 11
23.000000031799985
 21
4.9215728761923323
 31
0.0
  0
LINE
  5
1E6
100
AcDbEntity
  8
0
  6
CONTINUOUS
 62
               4
100
AcDbLine
 10
8.0000000346271776
 20
7.0428932242490951
 30
0.0
 11
18.40000002204809
 21
7.0428932242490951
 31
0.0
  0
LINE
  5
1E7
100
AcDbEntity
  8
0
  6
CONTINUOUS
 62
               4
100
AcDbLine
 10
28.000000000000114
 20
-7.0428932242490987
 30
0.0
 11
28.000000000000114
 21
-4.7265981316103076
 31
0.0
  0
ELLIPSE
  5
1E8
100
AcDbEntity
  8
0
  6
CONTINUOUS
 62
               4
100
AcDbEllipse
 10
25.999999995760092
 20
-5.9822330502206746
 30
0.0
 11
1.25000000265
 21
0.0
 31
0.0
210
0.0
220
0.0
230
1.0
 40
0.7071067811865475
 41
0.0
 42
6.2831853071795862
  0
LINE
  5
1E9
100
AcDbEntity
  8
0
  6
CONTINUOUS
 62
               4
100
AcDbLine
 10
25.749999995230127
 20
-6.8482584558410551
 30
0.0
 11
25.749999995230127
 21
-5.1162076446002729
 31
0.0
  0
LINE
  5
1EA
100
AcDbEntity
  8
0
  6
CONTINUOUS
 62
               4
100
AcDbLine
 10
26.249999996290128
 20
-6.8482584558410551
 30
0.0
 11
26.249999996290128
 21
-5.1162076446002729
 31
0.0
  0
ELLIPSE
  5
1EB
100
AcDbEntity
  8
0
  6
CONTINUOUS
 62
               4
100
AcDbEllipse
 10
15.499999953735639
 20
-5.9822330502206746
 30
0.0
 11
2.1000000242166501
 21
0.0
 31
0.0
210
0.0
220
0.0
230
1.0
 40
0.6902708989473662
 41
0.0
 42
0.7956029495296795
  0
LINE
  5
1EC
100
AcDbEntity
  8
0
  6
CONTINUOUS
 62
               4
100
AcDbLine
 10
16.969693822285862
 20
-4.9215728761923323
 30
0.0
 11
16.969693822285862
 21
-5.5933242326796631
 31
0.0
  0
LINE
  5
1ED
100
AcDbEntity
  8
0
  6
CONTINUOUS
 62
               4
100
AcDbLine
 10
16.969693822285862
 20
-5.5933242556803826
 30
0.0
 11
12.999999968200129
 21
-5.5933242556803826
 31
0.0
  0
LINE
  5
1EE
100
AcDbEntity
  8
0
  6
CONTINUOUS
 62
               4
100
AcDbLine
 10
15.49999997350011
 20
-7.9974873198548764
 30
0.0
 11
12.999999948435658
 21
-7.9974873198548764
 31
0.0
  0
LINE
  5
1EF
100
AcDbEntity
  8
0
  6
CONTINUOUS
 62
               4
100
AcDbLine
 10
13.399999985046463
 20
-9.4470562243603382
 30
0.0
 11
13.399999985046463
 21
-10.154163001294101
 31
0.0
  0
ELLIPSE
  5
1F0
100
AcDbEntity
  8
0
  6
CONTINUOUS
 62
               4
100
AcDbEllipse
 10
15.49999997350011
 20
-10.154163007045959
 30
0.0
 11
-2.1000000044519944
 21
0.0000000000000003
 31
0.0
210
0.0
220
0.0
230
1.0
 40
0.690270905444012
 41
2.2690212382307813
 42
0.8725714153590118
  0
LINE
  5
1F1
100
AcDbEntity
  8
0
  6
CONTINUOUS
 62
               4
100
AcDbLine
 10
13.696374843100472
 20
-10.896625128865857
 30
0.0
 11
12.999999968200129
 21
-10.896625128865857
 31
0.0
  0
LINE
  5
1F2
100
AcDbEntity
  8
0
  6
CONTINUOUS
 62
               4
100
AcDbLine
 10
14.14999997063822
 20
-10.154163001294101
 30
0.0
 11
14.14999997063822
 21
-13.154163007654091
 31
0.0
  0
LINE
  5
1F3
100
AcDbEntity
  8
0
  6
CONTINUOUS
 62
               4
100
AcDbLine
 10
16.849999976362284
 20
-10.154163001294101
 30
0.0
 11
16.849999976362284
 21
-13.154163007654091
 31
0.0
  0
ELLIPSE
  5
1F4
100
AcDbEntity
  8
0
  6
CONTINUOUS
 62
               4
100
AcDbEllipse
 10
15.49999997350011
 20
-10.154163007045959
 30
0.0
 11
-1.3500000028620016
 21
0.0000000000000002
 31
0.0
210
0.0
220
0.0
230
1.0
 40
0.7130928703394489
 41
3.1415926535897931
 42
0.0
  0
ELLIPSE
  5
1F5
100
AcDbEntity
  8
0
  6
CONTINUOUS
 62
               4
100
AcDbEllipse
 10
15.49999997350011
 20
-13.15416301340597
 30
0.0
 11
-1.3500000028620016
 21
0.0000000000000002
 31
0.0
210
0.0
220
0.0
230
1.0
 40
0.7130928703394489
 41
0.0
 42
6.2831853071795862
  0
ELLIPSE
  5
1F6
100
AcDbEntity
  8
0
  6
CONTINUOUS
 62
               4
100
AcDbEllipse
 10
15.49999997350011
 20
-9.4470562243603382
 30
0.0
 11
-2.0999999884538685
 21
0.0000000000000003
 31
0.0
210
0.0
220
0.0
230
1.0
 40
0.6902709107026031
 41
4.7123889803846897
 42
0.0
  0
LINE
  5
1F7
100
AcDbEntity
  8
0
  6
CONTINUOUS
 62
               4
100
AcDbLine
 10
17.599999977952223
 20
-10.154163007045959
 30
0.0
 11
17.599999977952223
 21
-5.9822330502206746
 31
0.0
  0
LINE
  5
1F8
100
AcDbEntity
  8
0
  6
CONTINUOUS
 62
               4
100
AcDbLine
 10
15.49999997350011
 20
-7.9974873003489648
 30
0.0
 11
15.49999997350011
 21
-8.7045941025404403
 31
0.0
  0
LINE
  5
1F9
100
AcDbEntity
  8
0
  6
CONTINUOUS
 62
               4
100
AcDbLine
 10
12.999999968200129
 20
-4.7265981316103076
 30
0.0
 11
12.999999968200129
 21
-10.896625101466583
 31
0.0
  0
ELLIPSE
  5
1FA
100
AcDbEntity
  8
0
  6
CONTINUOUS
 62
               4
100
AcDbEllipse
 10
20.500000026500004
 20
13.154163013406011
 30
0.0
 11
1.3500000028620016
 21
0.0
 31
0.0
210
0.0
220
0.0
230
1.0
 40
0.7130928703394489
 41
0.0
 42
6.2831853071795862
  0
ELLIPSE
  5
1FB
100
AcDbEntity
  8
0
  6
CONTINUOUS
 62
               4
100
AcDbEllipse
 10
20.500000026500004
 20
10.154163007046018
 30
0.0
 11
1.3500000028620016
 21
0.0
 31
0.0
210
0.0
220
0.0
230
1.0
 40
0.7130928703394489
 41
3.1415926535897931
 42
0.0
  0
LINE
  5
1FC
100
AcDbEntity
  8
0
  6
CONTINUOUS
 62
               4
100
AcDbLine
 10
19.150000023638086
 20
10.1541630012941
 30
0.0
 11
19.150000023638086
 21
13.154163007654093
 31
0.0
  0
LINE
  5
1FD
100
AcDbEntity
  8
0
  6
CONTINUOUS
 62
               4
100
AcDbLine
 10
21.85000002936215
 20
10.1541630012941
 30
0.0
 11
21.85000002936215
 21
13.154163007654093
 31
0.0
  0
ELLIPSE
  5
1FE
100
AcDbEntity
  8
0
  6
CONTINUOUS
 62
               4
100
AcDbEllipse
 10
20.500000046264674
 20
5.982233050220735
 30
0.0
 11
-2.1000000242166501
 21
0.0000000000000003
 31
0.0
210
0.0
220
0.0
230
1.0
 40
0.6902708989473662
 41
0.0
 42
0.7956029495296795
  0
LINE
  5
1FF
100
AcDbEntity
  8
0
  6
CONTINUOUS
 62
               4
100
AcDbLine
 10
19.030306177714451
 20
4.9215728761923323
 30
0.0
 11
19.030306177714451
 21
5.5933242326796417
 31
0.0
  0
LINE
  5
200
100
AcDbEntity
  8
0
  6
CONTINUOUS
 62
               4
100
AcDbLine
 10
19.030306177714451
 20
5.5933242556804217
 30
0.0
 11
23.000000031799985
 21
5.5933242556804217
 31
0.0
  0
ELLIPSE
  5
201
100
AcDbEntity
  8
0
  6
CONTINUOUS
 62
               4
100
AcDbEllipse
 10
20.500000026500004
 20
9.447056224360395
 30
0.0
 11
2.0999999884538685
 21
0.0
 31
0.0
210
0.0
220
0.0
230
1.0
 40
0.6902709107026031
 41
4.7123889803846897
 42
0.0
  0
LINE
  5
202
100
AcDbEntity
  8
0
  6
CONTINUOUS
 62
               4
100
AcDbLine
 10
18.40000002204809
 20
10.154163007046018
 30
0.0
 11
18.40000002204809
 21
5.982233050220735
 31
0.0
  0
LINE
  5
203
100
AcDbEntity
  8
0
  6
CONTINUOUS
 62
               4
100
AcDbLine
 10
22.303625156899898
 20
10.896625128865915
 30
0.0
 11
23.000000031799985
 21
10.896625128865915
 31
0.0
  0
LINE
  5
204
100
AcDbEntity
  8
0
  6
CONTINUOUS
 62
               4
100
AcDbLine
 10
20.500000026500004
 20
7.9974873198548764
 30
0.0
 11
23.000000051564697
 21
7.9974873198548764
 31
0.0
  0
ELLIPSE
  5
205
100
AcDbEntity
  8
0
  6
CONTINUOUS
 62
               4
100
AcDbEllipse
 10
20.500000026500004
 20
10.154163007046018
 30
0.0
 11
2.1000000044519944
 21
0.0
 31
0.0
210
0.0
220
0.0
230
1.0
 40
0.690270905444012
 41
2.2690212382307813
 42
0.8725714153590118
  0
LINE
  5
206
100
AcDbEntity
  8
0
  6
CONTINUOUS
 62
               4
100
AcDbLine
 10
22.600000014953892
 20
9.447056224360395
 30
0.0
 11
22.600000014953892
 21
10.1541630012941
 31
0.0
  0
LINE
  5
207
100
AcDbEntity
  8
0
  6
CONTINUOUS
 62
               4
100
AcDbLine
 10
20.500000026500004
 20
7.9974873003489613
 30
0.0
 11
20.500000026500004
 21
8.7045941025404989
 31
0.0
  0
LINE
  5
208
100
AcDbEntity
  8
0
  6
CONTINUOUS
 62
               4
100
AcDbLine
 10
23.000000031799985
 20
4.7265981316103129
 30
0.0
 11
23.000000031799985
 21
10.896625101466583
 31
0.0
  0
LINE
  5
209
100
AcDbEntity
  8
0
  6
CONTINUOUS
 62
               4
100
AcDbLine
 10
8.0
 20
7.0428932242490951
 30
0.0
 11
8.0
 21
4.7265981316103129
 31
0.0
  0
ELLIPSE
  5
20A
100
AcDbEntity
  8
0
  6
CONTINUOUS
 62
               4
100
AcDbEllipse
 10
10.000000004240036
 20
5.982233050220735
 30
0.0
 11
-1.25000000265
 21
0.0000000000000002
 31
0.0
210
0.0
220
0.0
230
1.0
 40
0.7071067811865475
 41
0.0
 42
6.2831853071795862
  0
LINE
  5
20B
100
AcDbEntity
  8
0
  6
CONTINUOUS
 62
               4
100
AcDbLine
 10
10.250000004769987
 20
6.8482584558411155
 30
0.0
 11
10.250000004769987
 21
5.1162076446002729
 31
0.0
  0
LINE
  5
20C
100
AcDbEntity
  8
0
  6
CONTINUOUS
 62
               4
100
AcDbLine
 10
9.7500000037099852
 20
6.8482584558411155
 30
0.0
 11
9.7500000037099852
 21
5.1162076446002729
 31
0.0
  0
LINE
  5
20D
100
AcDbEntity
  8
0
  6
CONTINUOUS
 62
               7
100
AcDbLine
 10
23.000000031799985
 20
6.760050517385551
 30
0.0
 11
30.000000000000114
 21
6.760050517385551
 31
0.0
  0
LINE
  5
20E
100
AcDbEntity
  8
0
  6
CONTINUOUS
 62
               7
100
AcDbLine
 10
23.000000031799985
 20
7.5
 30
0.0
 11
30.000000000000114
 21
7.5
 31
0.0
  0
LINE
  5
20F
100
AcDbEntity
  8
0
  6
CONTINUOUS
 62
               7
100
AcDbLine
 10
28.000000000000114
 20
-6.7703526098149496
 30
0.0
 11
30.000000000000114
 21
-6.7703526098149496
 31
0.0
  0
LINE
  5
210
100
AcDbEntity
  8
0
  6
CONTINUOUS
 62
               7
100
AcDbLine
 10
17.599999977952223
 20
-7.5
 30
0.0
 11
30.000000000000114
 21
-7.5
 31
0.0
  0
ENDBLK
  5
211
100
AcDbEntity
  8
0
100
AcDbBlockEnd
  0
BLOCK
  5
212
100
AcDbEntity
  8
0
100
AcDbBlockBegin
  2
MS_6
 70
               0
 10
0.0
 20
0.0
 30
0.0
  3
MS_6
  1

  0
LINE
  5
213
100
AcDbEntity
  8
0
  6
CONTINUOUS
 62
               7
100
AcDbLine
 10
7.5
 20
-7.5
 30
0.0
 11
0.4000000000000057
 21
-7.5
 31
0.0
  0
LINE
  5
214
100
AcDbEntity
  8
0
  6
CENTER
 62
               2
100
AcDbLine
 10
3.0
 20
-7.25
 30
0.0
 11
3.0
 21
7.25
 31
0.0
  0
LINE
  5
215
100
AcDbEntity
  8
0
  6
CONTINUOUS
 62
               7
100
AcDbLine
 10
0.0
 20
-7.0999999999999996
 30
0.0
 11
0.0
 21
7.1000000000000014
 31
0.0
  0
LINE
  5
216
100
AcDbEntity
  8
0
  6
CENTER
 62
               2
100
AcDbLine
 10
12.172825329495623
 20
0.0
 30
0.0
 11
-1.0
 21
0.0
 31
0.0
  0
LINE
  5
217
100
AcDbEntity
  8
0
  6
CONTINUOUS
 62
               7
100
AcDbLine
 10
7.5
 20
7.5
 30
0.0
 11
0.4000000000000057
 21
7.5
 31
0.0
  0
LINE
  5
218
100
AcDbEntity
  8
0
  6
CONTINUOUS
 62
               7
100
AcDbLine
 10
11.0
 20
-4.0
 30
0.0
 11
11.0
 21
4.0
 31
0.0
  0
LINE
  5
219
100
AcDbEntity
  8
0
  6
CONTINUOUS
 62
               7
100
AcDbLine
 10
9.7955844169441377
 20
-3.7902020364020501
 30
0.0
 11
8.6642135670456639
 21
-2.6588311865035621
 31
0.0
  0
LINE
  5
21A
100
AcDbEntity
  8
0
  6
CONTINUOUS
 62
               7
100
AcDbLine
 10
9.7955844169441377
 20
-3.7902020364020501
 30
0.0
 11
9.7955844169441377
 21
-4.4973088175885891
 31
0.0
  0
LINE
  5
21B
100
AcDbEntity
  8
0
  6
CONTINUOUS
 62
               7
100
AcDbLine
 10
9.9370057653217998
 20
-4.6387301659662636
 30
0.0
 11
9.7955844169441377
 21
-4.4973088175885891
 31
0.0
  0
ARC
  5
21C
100
AcDbEntity
  8
0
  6
CONTINUOUS
 62
               7
100
AcDbCircle
 10
7.1792893265539135
 20
-4.1437554269953267
 30
0.0
 40
2.1000000111152071
100
AcDbArc
 50
44.999999999999901
 51
224.99999999999949
  0
LINE
  5
21D
100
AcDbEntity
  8
0
  6
CONTINUOUS
 62
               7
100
AcDbLine
 10
6.8257359359606369
 20
-6.760050517385551
 30
0.0
 11
5.6943650860621631
 21
-5.6286796674870772
 31
0.0
  0
LINE
  5
21E
100
AcDbEntity
  8
0
  6
CONTINUOUS
 62
               7
100
AcDbLine
 10
7.5328427171471901
 20
-6.760050517385551
 30
0.0
 11
6.8257359359606369
 21
-6.760050517385551
 31
0.0
  0
LINE
  5
21F
100
AcDbEntity
  8
0
  6
CONTINUOUS
 62
               7
100
AcDbLine
 10
7.6742640655248522
 20
-6.9014718657632397
 30
0.0
 11
7.5328427171471901
 21
-6.760050517385551
 31
0.0
  0
CIRCLE
  5
220
100
AcDbEntity
  8
0
  6
CONTINUOUS
 62
               2
100
AcDbCircle
 10
3.0
 20
5.0
 30
0.0
 40
1.25
  0
CIRCLE
  5
221
100
AcDbEntity
  8
0
  6
CONTINUOUS
 62
               7
100
AcDbCircle
 10
3.0
 20
5.0
 30
0.0
 40
1.0
  0
CIRCLE
  5
222
100
AcDbEntity
  8
0
  6
CONTINUOUS
 62
               2
100
AcDbCircle
 10
3.0
 20
-5.0
 30
0.0
 40
1.25
  0
CIRCLE
  5
223
100
AcDbEntity
  8
0
  6
CONTINUOUS
 62
               7
100
AcDbCircle
 10
3.0
 20
-5.0
 30
0.0
 40
1.0
  0
ARC
  5
224
100
AcDbEntity
  8
0
  6
CONTINUOUS
 62
               7
100
AcDbCircle
 10
0.4000000000000057
 20
-7.0999999999999996
 30
0.0
 40
0.4
100
AcDbArc
 50
179.9999999999996
 51
269.99999999999937
  0
ARC
  5
225
100
AcDbEntity
  8
0
  6
CONTINUOUS
 62
               7
100
AcDbCircle
 10
0.4000000000000057
 20
7.1000000000000014
 30
0.0
 40
0.4
100
AcDbArc
 50
89.999999999999801
 51
179.9999999999996
  0
LINE
  5
226
100
AcDbEntity
  8
0
  6
CONTINUOUS
 62
               7
100
AcDbLine
 10
11.0
 20
4.0
 30
0.0
 11
10.36126983403372
 21
4.6387301659662761
 31
0.0
  0
LINE
  5
227
100
AcDbEntity
  8
0
  6
CONTINUOUS
 62
               7
100
AcDbLine
 10
11.0
 20
-4.0
 30
0.0
 11
10.361269834033735
 21
-4.6387301659662725
 31
0.0
  0
LINE
  5
228
100
AcDbEntity
  8
0
  6
CONTINUOUS
 62
               7
100
AcDbLine
 10
7.6742640655248522
 20
-7.3257359344751567
 30
0.0
 11
7.5
 21
-7.5
 31
0.0
  0
LINE
  5
229
100
AcDbEntity
  8
0
  6
CONTINUOUS
 62
               7
100
AcDbLine
 10
7.6742640655248522
 20
7.3257359344751514
 30
0.0
 11
7.5
 21
7.5
 31
0.0
  0
LINE
  5
22A
100
AcDbEntity
  8
0
  6
CONTINUOUS
 62
               7
100
AcDbLine
 10
9.7955844169441377
 20
3.7902020364020501
 30
0.0
 11
9.7955844169441377
 21
4.4973088175885891
 31
0.0
  0
LINE
  5
22B
100
AcDbEntity
  8
0
  6
CONTINUOUS
 62
               7
100
AcDbLine
 10
9.9370057653217998
 20
4.6387301659662619
 30
0.0
 11
9.7955844169441377
 21
4.4973088175885891
 31
0.0
  0
LINE
  5
22C
100
AcDbEntity
  8
0
  6
CONTINUOUS
 62
               7
100
AcDbLine
 10
9.7955844169441377
 20
3.7902020364020501
 30
0.0
 11
8.6642135670456639
 21
2.6588311865035621
 31
0.0
  0
ARC
  5
22D
100
AcDbEntity
  8
0
  6
CONTINUOUS
 62
               7
100
AcDbCircle
 10
7.1792893265539135
 20
4.1437554269953267
 30
0.0
 40
2.1000000111152071
100
AcDbArc
 50
134.99999999999969
 51
314.99999999999932
  0
LINE
  5
22E
100
AcDbEntity
  8
0
  6
CONTINUOUS
 62
               7
100
AcDbLine
 10
6.8257359359606369
 20
6.760050517385551
 30
0.0
 11
5.6943650860621631
 21
5.6286796674870772
 31
0.0
  0
LINE
  5
22F
100
AcDbEntity
  8
0
  6
CONTINUOUS
 62
               7
100
AcDbLine
 10
7.6742640655248522
 20
6.9014718657632343
 30
0.0
 11
7.5328427171471901
 21
6.760050517385551
 31
0.0
  0
LINE
  5
230
100
AcDbEntity
  8
0
  6
CONTINUOUS
 62
               7
100
AcDbLine
 10
7.5328427171471901
 20
6.760050517385551
 30
0.0
 11
6.8257359359606369
 21
6.760050517385551
 31
0.0
  0
ARC
  5
231
100
AcDbEntity
  8
0
  6
CONTINUOUS
 62
               7
100
AcDbCircle
 10
7.4621320311688777
 20
7.1136039001191875
 30
0.0
 40
0.3
100
AcDbArc
 50
-44.999999999997172
 51
44.99999999999978
  0
ARC
  5
232
100
AcDbEntity
  8
0
  6
CONTINUOUS
 62
               7
100
AcDbCircle
 10
10.14913779967776
 20
4.4265981316103122
 30
0.0
 40
0.3
100
AcDbArc
 50
44.999999999999893
 51
135.00000000000281
  0
ARC
  5
233
100
AcDbEntity
  8
0
  6
CONTINUOUS
 62
               7
100
AcDbCircle
 10
10.149137799677774
 20
-4.4265981316103069
 30
0.0
 40
0.3
100
AcDbArc
 50
224.99999999999662
 51
314.99999999999903
  0
ARC
  5
234
100
AcDbEntity
  8
0
  6
CONTINUOUS
 62
               7
100
AcDbCircle
 10
7.4621320311688919
 20
-7.1136039001191929
 30
0.0
 40
0.3
100
AcDbArc
 50
314.99999999999937
 51
44.999999999997151
  0
CIRCLE
  5
235
100
AcDbEntity
  8
0
  6
CONTINUOUS
 62
               7
100
AcDbCircle
 10
3.0
 20
0.0
 30
0.0
 40
2.5
  0
ARC
  5
236
100
AcDbEntity
  8
0
  6
CONTINUOUS
 62
               7
100
AcDbCircle
 10
3.0
 20
0.0
 30
0.0
 40
2.2999999999999998
100
AcDbArc
 50
30.408148132507041
 51
89.591851867492579
  0
LINE
  5
237
100
AcDbEntity
  8
0
  6
CONTINUOUS
 62
               7
100
AcDbLine
 10
3.0
 20
2.3094009377364557
 30
0.0
 11
1.0
 21
1.1547003993572105
 31
0.0
  0
LINE
  5
238
100
AcDbEntity
  8
0
  6
CONTINUOUS
 62
               7
100
AcDbLine
 10
3.0
 20
2.3094009377364557
 30
0.0
 11
5.0
 21
1.1547003993572034
 31
0.0
  0
LINE
  5
239
100
AcDbEntity
  8
0
  6
CONTINUOUS
 62
               7
100
AcDbLine
 10
3.0
 20
-2.3094009377364557
 30
0.0
 11
5.0
 21
-1.1547003993572034
 31
0.0
  0
LINE
  5
23A
100
AcDbEntity
  8
0
  6
CONTINUOUS
 62
               7
100
AcDbLine
 10
3.0
 20
-2.3094009377364557
 30
0.0
 11
1.0
 21
-1.1547003993572105
 31
0.0
  0
ARC
  5
23B
100
AcDbEntity
  8
0
  6
CONTINUOUS
 62
               7
100
AcDbCircle
 10
3.0
 20
0.0
 30
0.0
 40
2.2999999999999998
100
AcDbArc
 50
270.40814813250665
 51
329.59185186749215
  0
ARC
  5
23C
100
AcDbEntity
  8
0
  6
CONTINUOUS
 62
               7
100
AcDbCircle
 10
3.0
 20
0.0
 30
0.0
 40
2.2999999999999998
100
AcDbArc
 50
210.40814813250682
 51
269.59185186749215
  0
ARC
  5
23D
100
AcDbEntity
  8
0
  6
CONTINUOUS
 62
               7
100
AcDbCircle
 10
3.0
 20
0.0
 30
0.0
 40
2.2999999999999998
100
AcDbArc
 50
150.07034004984791
 51
209.59184579395028
  0
ARC
  5
23E
100
AcDbEntity
  8
0
  6
CONTINUOUS
 62
               7
100
AcDbCircle
 10
3.0
 20
0.0
 30
0.0
 40
2.2999999999999998
100
AcDbArc
 50
90.408148132507023
 51
149.59185186749238
  0
CIRCLE
  5
23F
100
AcDbEntity
  8
0
  6
CONTINUOUS
 62
               7
100
AcDbCircle
 10
3.0
 20
0.0
 30
0.0
 40
2.0
  0
LINE
  5
240
100
AcDbEntity
  8
0
  6
CONTINUOUS
 62
               7
100
AcDbLine
 10
1.0
 20
-1.1547003993572105
 30
0.0
 11
1.0
 21
1.1547003993572105
 31
0.0
  0
CIRCLE
  5
241
100
AcDbEntity
  8
0
  6
CONTINUOUS
 62
               7
100
AcDbCircle
 10
3.0
 20
0.0
 30
0.0
 40
0.7
  0
CIRCLE
  5
242
100
AcDbEntity
  8
0
  6
CONTINUOUS
 62
               7
100
AcDbCircle
 10
3.0
 20
0.0
 30
0.0
 40
1.0
  0
LINE
  5
243
100
AcDbEntity
  8
0
  6
CONTINUOUS
 62
               7
100
AcDbLine
 10
5.0
 20
-1.1547003993572034
 30
0.0
 11
5.0
 21
1.1547003993572034
 31
0.0
  0
ARC
  5
244
100
AcDbEntity
  8
0
  6
CONTINUOUS
 62
               7
100
AcDbCircle
 10
3.0
 20
0.0
 30
0.0
 40
2.2999999999999998
100
AcDbArc
 50
330.40815420604849
 51
29.59184579395064
  0
LINE
  5
245
100
AcDbEntity
  8
0
  6
CONTINUOUS
 62
             200
100
AcDbLine
 10
7.9237717417098281
 20
3.4033135985116161
 30
0.0
 11
6.8641217202281553
 21
2.343663577029897
 31
0.0
  0
LINE
  5
246
100
AcDbEntity
  8
0
  6
CONTINUOUS
 62
               4
100
AcDbLine
 10
9.7592189190525005
 20
3.8265675155762828
 30
0.0
 11
8.6642135584364013
 21
2.7315621549602902
 31
0.0
  0
LINE
  5
247
100
AcDbEntity
  8
0
  6
CONTINUOUS
 62
               4
100
AcDbLine
 10
8.0641829457003382
 20
3.2629023945211628
 30
0.0
 11
7.1449441282090618
 21
2.343663577029897
 31
0.0
  0
LINE
  5
248
100
AcDbEntity
  8
0
  6
CONTINUOUS
 62
               4
100
AcDbLine
 10
6.4378373455235334
 20
2.343663577029897
 30
0.0
 11
7.1449441282090618
 21
2.343663577029897
 31
0.0
  0
ARC
  5
249
100
AcDbEntity
  8
0
  6
CONTINUOUS
 62
               4
100
AcDbCircle
 10
7.2136338487210452
 20
4.1810574785273928
 30
0.0
 40
2.0506628653391066
100
AcDbArc
 50
225.05843089091513
 51
315.02142384112307
  0
LINE
  5
24A
100
AcDbEntity
  8
0
  6
CONTINUOUS
 62
               4
100
AcDbLine
 10
9.7592189190525005
 20
3.8265675155762828
 30
0.0
 11
9.76123922414574
 21
4.6043849765304721
 31
0.0
  0
LINE
  5
24B
100
AcDbEntity
  8
0
  6
CONTINUOUS
 62
             200
100
AcDbLine
 10
6.4388474980702028
 20
4.8882378421514083
 30
0.0
 11
5.3771771714949494
 21
3.8265675155762828
 31
0.0
  0
LINE
  5
24C
100
AcDbEntity
  8
0
  6
CONTINUOUS
 62
               4
100
AcDbLine
 10
6.8600811100413353
 20
6.7257053245873202
 30
0.0
 11
5.7650757494254776
 21
5.6306999639713062
 31
0.0
  0
LINE
  5
24D
100
AcDbEntity
  8
0
  6
CONTINUOUS
 62
               4
100
AcDbLine
 10
6.2964159889861975
 20
5.0306693512352076
 30
0.0
 11
5.3771771714949494
 21
4.1114305337438815
 31
0.0
  0
LINE
  5
24E
100
AcDbEntity
  8
0
  6
CONTINUOUS
 62
               4
100
AcDbLine
 10
5.3771771714949494
 20
4.1114305337438815
 30
0.0
 11
5.3771771714949494
 21
3.4043237510583211
 31
0.0
  0
ARC
  5
24F
100
AcDbEntity
  8
0
  6
CONTINUOUS
 62
               4
100
AcDbCircle
 10
7.2164964228038286
 20
4.1801209069191039
 30
0.0
 40
2.0520237746840961
100
AcDbArc
 50
135.01661649434493
 51
224.98338350565427
  0
LINE
  5
250
100
AcDbEntity
  8
0
  6
CONTINUOUS
 62
               4
100
AcDbLine
 10
7.1449441282090618
 20
2.343663577029897
 30
0.0
 11
5.3771771714949494
 21
4.1114305337438815
 31
0.0
  0
LINE
  5
251
100
AcDbEntity
  8
0
  6
CONTINUOUS
 62
               4
100
AcDbLine
 10
8.6294744152836813
 20
2.6976109249379725
 30
0.0
 11
5.730730562837806
 21
5.5963547773837341
 31
0.0
  0
LINE
  5
252
100
AcDbEntity
  8
0
  6
CONTINUOUS
 62
               4
100
AcDbLine
 10
6.4378373455235334
 20
2.343663577029897
 30
0.0
 11
5.3771771714949494
 21
3.4043237510583211
 31
0.0
  0
LINE
  5
253
100
AcDbEntity
  8
0
  6
CONTINUOUS
 62
               4
100
AcDbLine
 10
12.24318397035249
 20
11.10067594329802
 30
0.0
 11
14.615030707104737
 21
13.472522680050186
 31
0.0
  0
LINE
  5
254
100
AcDbEntity
  8
0
  6
CONTINUOUS
 62
               4
100
AcDbLine
 10
14.152372283603654
 20
9.1914876300468773
 30
0.0
 11
16.248361300216587
 21
11.287476646659673
 31
0.0
  0
LINE
  5
255
100
AcDbEntity
  8
0
  6
PHANTOM
 62
             200
100
AcDbLine
 10
16.884129128852123
 20
10.23191429192981
 30
0.0
 11
13.868544087938915
 21
14.538616057271465
 31
0.0
  0
LINE
  5
256
100
AcDbEntity
  8
0
  6
CONTINUOUS
 62
               4
100
AcDbLine
 10
14.639265816890173
 20
8.7045940967603261
 30
0.0
 11
11.740128002098942
 21
11.603731911551485
 31
0.0
  0
LINE
  5
257
100
AcDbEntity
  8
0
  6
CONTINUOUS
 62
               4
100
AcDbLine
 10
11.527995975810171
 20
5.5933242556804288
 30
0.0
 11
10.750178510039277
 21
5.5933242556804288
 31
0.0
  0
LINE
  5
258
100
AcDbEntity
  8
0
  6
CONTINUOUS
 62
               4
100
AcDbLine
 10
8.6288581499403847
 20
7.7146445916952953
 30
0.0
 11
8.6288581619825493
 21
8.4924620695082034
 31
0.0
  0
LINE
  5
259
100
AcDbEntity
  8
0
  6
CONTINUOUS
 62
               4
100
AcDbLine
 10
14.639265811110064
 20
8.704594102540506
 30
0.0
 11
11.527995967293421
 21
5.5933242587237828
 31
0.0
  0
LINE
  5
25A
100
AcDbEntity
  8
0
  6
CONTINUOUS
 62
               4
100
AcDbLine
 10
11.740128002098942
 20
11.603731911551485
 30
0.0
 11
8.6288581582822701
 21
8.4924620677348006
 31
0.0
  0
LINE
  5
25B
100
AcDbEntity
  8
0
  6
CONTINUOUS
 62
               4
100
AcDbLine
 10
10.078427123807685
 20
4.9215728761922968
 30
0.0
 11
7.9571067757509155
 21
7.0428932242491022
 31
0.0
  0
LINE
  5
25C
100
AcDbEntity
  8
0
  6
CONTINUOUS
 62
               4
100
AcDbLine
 10
8.6288581619825493
 20
7.7146446104807396
 30
0.0
 11
7.6399188760890127
 21
6.7257053245873202
 31
0.0
  0
LINE
  5
25D
100
AcDbEntity
  8
0
  6
CENTER
 62
             200
100
AcDbLine
 10
16.426223961787656
 20
13.390690062229105
 30
0.0
 11
5.1228261982105323
 21
2.0872922986519455
 31
0.0
  0
LINE
  5
25E
100
AcDbEntity
  8
0
  6
CONTINUOUS
 62
               4
100
AcDbLine
 10
9.1935334929038675
 20
3.2608820894277777
 30
0.0
 11
6.294395683892958
 21
6.160019898438815
 31
0.0
  0
LINE
  5
25F
100
AcDbEntity
  8
0
  6
CONTINUOUS
 62
               4
100
AcDbLine
 10
6.8600811100413353
 20
6.7257053245873202
 30
0.0
 11
7.6399188760890127
 21
6.7257053245873202
 31
0.0
  0
LINE
  5
260
100
AcDbEntity
  8
0
  6
CONTINUOUS
 62
               4
100
AcDbLine
 10
10.750178503295814
 20
5.5933242556804288
 30
0.0
 11
9.76123922414574
 21
4.6043849765304721
 31
0.0
  0
LINE
  5
261
100
AcDbEntity
  8
0
  6
CENTER
 62
             200
100
AcDbLine
 10
16.426223946081677
 20
-13.390690046523147
 30
0.0
 11
5.122826206467721
 21
-2.0872923069091343
 31
0.0
  0
ARC
  5
262
100
AcDbEntity
  8
0
  6
CONTINUOUS
 62
               4
100
AcDbCircle
 10
7.2136338525457404
 20
-4.1810574823457927
 30
0.0
 40
2.0506628609917015
100
AcDbArc
 50
44.978576158876109
 51
134.94156910908407
  0
LINE
  5
263
100
AcDbEntity
  8
0
  6
CONTINUOUS
 62
               4
100
AcDbLine
 10
8.6288581628069778
 20
-7.7146446068079939
 30
0.0
 11
7.639918879009997
 21
-6.7257053230110699
 31
0.0
  0
LINE
  5
264
100
AcDbEntity
  8
0
  6
CONTINUOUS
 62
               4
100
AcDbLine
 10
10.750178499623075
 20
-5.5933242565048289
 30
0.0
 11
9.761239222569543
 21
-4.6043849794514102
 31
0.0
  0
LINE
  5
265
100
AcDbEntity
  8
0
  6
CONTINUOUS
 62
               4
100
AcDbLine
 10
9.7592189174805526
 20
-3.826567520146213
 30
0.0
 11
9.761239222569543
 21
-4.6043849794514102
 31
0.0
  0
LINE
  5
266
100
AcDbEntity
  8
0
  6
CONTINUOUS
 62
               4
100
AcDbLine
 10
6.860081114615582
 20
-6.7257053230110699
 30
0.0
 11
7.639918879009997
 21
-6.7257053230110699
 31
0.0
  0
LINE
  5
267
100
AcDbEntity
  8
0
  6
CONTINUOUS
 62
               4
100
AcDbLine
 10
6.860081114615582
 20
-6.7257053230110699
 30
0.0
 11
5.7650757563211528
 21
-5.6306999647164702
 31
0.0
  0
ARC
  5
268
100
AcDbEntity
  8
0
  6
CONTINUOUS
 62
               4
100
AcDbCircle
 10
7.2164964266224843
 20
-4.1801209107394897
 30
0.0
 40
2.0520237703338058
100
AcDbArc
 50
135.01661649434493
 51
224.98338350565427
  0
LINE
  5
269
100
AcDbEntity
  8
0
  6
CONTINUOUS
 62
               4
100
AcDbLine
 10
9.761239222569543
 20
-3.8245472150571089
 30
0.0
 11
8.6662338642751138
 21
-2.7295418567625092
 31
0.0
  0
LINE
  5
26A
100
AcDbEntity
  8
0
  6
CONTINUOUS
 62
               4
100
AcDbLine
 10
12.243183963514525
 20
-11.10067593244689
 30
0.0
 11
14.615030695238488
 21
-13.472522664170739
 31
0.0
  0
LINE
  5
26B
100
AcDbEntity
  8
0
  6
CONTINUOUS
 62
               4
100
AcDbLine
 10
14.152372272718253
 20
-9.1914876232432192
 30
0.0
 11
16.248361284887665
 21
-11.287476635412517
 31
0.0
  0
LINE
  5
26C
100
AcDbEntity
  8
0
  6
PHANTOM
 62
             200
100
AcDbLine
 10
16.884129112175401
 20
-10.231914282920442
 30
0.0
 11
13.868544077655201
 21
-14.538616039131838
 31
0.0
  0
LINE
  5
26D
100
AcDbEntity
  8
0
  6
CONTINUOUS
 62
               4
100
AcDbLine
 10
14.639265804972524
 20
-8.7045940909888913
 30
0.0
 11
11.740127996327487
 21
-11.603731899633871
 31
0.0
  0
LINE
  5
26E
100
AcDbEntity
  8
0
  6
CONTINUOUS
 62
               4
100
AcDbLine
 10
11.527995970488405
 20
-5.5933242565048289
 30
0.0
 11
10.750178506366524
 21
-5.5933242565048289
 31
0.0
  0
LINE
  5
26F
100
AcDbEntity
  8
0
  6
CONTINUOUS
 62
               4
100
AcDbLine
 10
8.6288581507648132
 20
-7.7146445880224945
 30
0.0
 11
8.6288581628069778
 21
-8.4924620641864834
 31
0.0
  0
LINE
  5
270
100
AcDbEntity
  8
0
  6
CONTINUOUS
 62
               4
100
AcDbLine
 10
14.639265799192458
 20
-8.7045940967690143
 30
0.0
 11
11.527995961971669
 21
-5.5933242595482255
 31
0.0
  0
LINE
  5
271
100
AcDbEntity
  8
0
  6
CONTINUOUS
 62
               4
100
AcDbLine
 10
11.740127996327487
 20
-11.603731899633871
 30
0.0
 11
8.6288581591066986
 21
-8.4924620624130824
 31
0.0
  0
LINE
  5
272
100
AcDbEntity
  8
0
  6
CONTINUOUS
 62
               4
100
AcDbLine
 10
13.932159023786085
 20
-7.997487309802338
 30
0.0
 11
11.033021215141048
 21
-10.896625118447318
 31
0.0
  0
LINE
  5
273
100
AcDbEntity
  8
0
  6
CENTER
 62
               2
100
AcDbLine
 10
-1.5
 20
5.0
 30
0.0
 11
5.25
 21
5.0
 31
0.0
  0
LINE
  5
274
100
AcDbEntity
  8
0
  6
CENTER
 62
               2
100
AcDbLine
 10
-1.5
 20
-5.0
 30
0.0
 11
5.25
 21
-5.0
 31
0.0
  0
ENDBLK
  5
275
100
AcDbEntity
  8
0
100
AcDbBlockEnd
  0
BLOCK
  5
276
100
AcDbEntity
  8
0
100
AcDbBlockBegin
  2
MS_7
 70
               0
 10
0.0
 20
0.0
 30
0.0
  3
MS_7
  1

  0
LINE
  5
277
100
AcDbEntity
  8
0
  6
CENTER
 62
               2
100
AcDbLine
 10
7.7742333359607585
 20
8.2000000000000028
 30
0.0
 11
30.846416164038573
 21
8.2000000000000028
 31
0.0
  0
LINE
  5
278
100
AcDbEntity
  8
0
  6
CONTINUOUS
 62
               7
100
AcDbLine
 10
0.0
 20
1.1008622114557483
 30
0.0
 11
8.0
 21
1.1008622114557483
 31
0.0
  0
LINE
  5
279
100
AcDbEntity
  8
0
  6
CONTINUOUS
 62
               7
100
AcDbLine
 10
0.0
 20
0.0
 30
0.0
 11
18.400000022047891
 21
0.0
 31
0.0
  0
LINE
  5
27A
100
AcDbEntity
  8
0
  6
CONTINUOUS
 62
               7
100
AcDbLine
 10
0.0
 20
0.0
 30
0.0
 11
0.0
 21
11.0
 31
0.0
  0
LINE
  5
27B
100
AcDbEntity
  8
0
  6
CONTINUOUS
 62
               7
100
AcDbLine
 10
30.000000000000114
 20
0.0
 30
0.0
 11
30.000000000000114
 21
11.0
 31
0.0
  0
LINE
  5
27C
100
AcDbEntity
  8
0
  6
CONTINUOUS
 62
               7
100
AcDbLine
 10
0.0
 20
11.0
 30
0.0
 11
30.000000000000114
 21
11.0
 31
0.0
  0
CIRCLE
  5
27D
100
AcDbEntity
  8
0
  6
DASHED
 62
               7
100
AcDbCircle
 10
27.0
 20
8.1999999999999886
 30
0.0
 40
1.1999999999999886
  0
CIRCLE
  5
27E
100
AcDbEntity
  8
0
  6
DASHED
 62
               2
100
AcDbCircle
 10
27.0
 20
8.1999999999999886
 30
0.0
 40
1.5
  0
LINE
  5
27F
100
AcDbEntity
  8
0
  6
CENTER
 62
               2
100
AcDbLine
 10
27.0
 20
6.0452224481113035
 30
0.0
 11
27.0
 21
9.9760956580291094
 31
0.0
  0
CIRCLE
  5
280
100
AcDbEntity
  8
0
  6
DASHED
 62
               7
100
AcDbCircle
 10
10.0
 20
8.1999999999999886
 30
0.0
 40
1.1999999999999886
  0
CIRCLE
  5
281
100
AcDbEntity
  8
0
  6
DASHED
 62
               2
100
AcDbCircle
 10
10.0
 20
8.1999999999999886
 30
0.0
 40
1.5
  0
LINE
  5
282
100
AcDbEntity
  8
0
  6
CENTER
 62
               2
100
AcDbLine
 10
10.0
 20
6.0452224481113035
 30
0.0
 11
10.0
 21
10.149151424312862
 31
0.0
  0
LINE
  5
283
100
AcDbEntity
  8
0
  6
CONTINUOUS
 62
               7
100
AcDbLine
 10
0.0
 20
3.3636038766828165
 30
0.0
 11
30.000000000000114
 21
3.3636038766828165
 31
0.0
  0
LINE
  5
284
100
AcDbEntity
  8
0
  6
CONTINUOUS
 62
               2
100
AcDbLine
 10
-1.0
 20
7.2999999999999972
 30
0.0
 11
-0.4803847577293539
 21
7.0
 31
0.0
  0
LINE
  5
285
100
AcDbEntity
  8
0
  6
CONTINUOUS
 62
               2
100
AcDbLine
 10
-1.0
 20
8.7000000000000028
 30
0.0
 11
-0.4803847577293539
 21
9.0
 31
0.0
  0
LINE
  5
286
100
AcDbEntity
  8
0
  6
CONTINUOUS
 62
               7
100
AcDbLine
 10
-6.7000000000000171
 20
9.0
 30
0.0
 11
-5.2000000000000028
 21
9.0
 31
0.0
  0
LINE
  5
287
100
AcDbEntity
  8
0
  6
CONTINUOUS
 62
               7
100
AcDbLine
 10
-7.0
 20
8.7000000000000028
 30
0.0
 11
-7.0
 21
7.2999999999999972
 31
0.0
  0
LINE
  5
288
100
AcDbEntity
  8
0
  6
CONTINUOUS
 62
               2
100
AcDbLine
 10
-7.0
 20
8.7000000000000028
 30
0.0
 11
-5.2000000000000028
 21
8.7000000000000028
 31
0.0
  0
LINE
  5
289
100
AcDbEntity
  8
0
  6
CONTINUOUS
 62
               7
100
AcDbLine
 10
-1.0
 20
9.0
 30
0.0
 11
-1.0
 21
7.0
 31
0.0
  0
LINE
  5
28A
100
AcDbEntity
  8
0
  6
CONTINUOUS
 62
               7
100
AcDbLine
 10
-6.7000000000000171
 20
9.0
 30
0.0
 11
-7.0
 21
8.7000000000000028
 31
0.0
  0
LINE
  5
28B
100
AcDbEntity
  8
0
  6
CONTINUOUS
 62
               7
100
AcDbLine
 10
-6.7000000000000171
 20
9.0
 30
0.0
 11
-6.7000000000000171
 21
7.0
 31
0.0
  0
LINE
  5
28C
100
AcDbEntity
  8
0
  6
CONTINUOUS
 62
               7
100
AcDbLine
 10
-6.7000000000000171
 20
7.0
 30
0.0
 11
-5.2000000000000028
 21
7.0
 31
0.0
  0
LINE
  5
28D
100
AcDbEntity
  8
0
  6
CONTINUOUS
 62
               2
100
AcDbLine
 10
-7.0
 20
7.2999999999999972
 30
0.0
 11
-5.2000000000000028
 21
7.2999999999999972
 31
0.0
  0
LINE
  5
28E
100
AcDbEntity
  8
0
  6
CONTINUOUS
 62
               7
100
AcDbLine
 10
-6.7000000000000171
 20
7.0
 30
0.0
 11
-7.0
 21
7.2999999999999972
 31
0.0
  0
LINE
  5
28F
100
AcDbEntity
  8
0
  6
CONTINUOUS
 62
               2
100
AcDbLine
 10
-2.0
 20
8.7000000000000028
 30
0.0
 11
-1.0
 21
8.7000000000000028
 31
0.0
  0
LINE
  5
290
100
AcDbEntity
  8
0
  6
CONTINUOUS
 62
               2
100
AcDbLine
 10
-2.0
 20
7.2999999999999972
 30
0.0
 11
-1.0
 21
7.2999999999999972
 31
0.0
  0
LINE
  5
291
100
AcDbEntity
  8
0
  6
CONTINUOUS
 62
               7
100
AcDbLine
 10
-2.0
 20
5.9999999620322626
 30
0.0
 11
-2.0
 21
10.000000021636907
 31
0.0
  0
LINE
  5
292
100
AcDbEntity
  8
0
  6
CONTINUOUS
 62
               7
100
AcDbLine
 10
-3.6000000000000085
 20
5.9999999620322626
 30
0.0
 11
-3.6000000000000085
 21
10.000000021636907
 31
0.0
  0
LINE
  5
293
100
AcDbEntity
  8
0
  6
CONTINUOUS
 62
               7
100
AcDbLine
 10
-5.2000000000000028
 20
5.9999999620322626
 30
0.0
 11
-5.2000000000000028
 21
10.000000021636907
 31
0.0
  0
LINE
  5
294
100
AcDbEntity
  8
0
  6
CONTINUOUS
 62
               7
100
AcDbLine
 10
-5.2000000000000028
 20
10.0
 30
0.0
 11
-2.0
 21
10.0
 31
0.0
  0
LINE
  5
295
100
AcDbEntity
  8
0
  6
CONTINUOUS
 62
               7
100
AcDbLine
 10
-5.2000000000000028
 20
6.0
 30
0.0
 11
-2.0
 21
6.0
 31
0.0
  0
LINE
  5
296
100
AcDbEntity
  8
0
  6
CONTINUOUS
 62
               7
100
AcDbLine
 10
-5.0213671974068177
 20
8.0
 30
0.0
 11
-3.6000000000000085
 21
8.0
 31
0.0
  0
LINE
  5
297
100
AcDbEntity
  8
0
  6
CONTINUOUS
 62
               7
100
AcDbLine
 10
-3.6000000000000085
 20
8.0
 30
0.0
 11
-2.1376445576398027
 21
8.0
 31
0.0
  0
ARC
  5
298
100
AcDbEntity
  8
0
  6
CONTINUOUS
 62
               7
100
AcDbCircle
 10
-2.3116456127252718
 20
8.9999999999999858
 30
0.0
 40
2.8883543872747346
100
AcDbArc
 50
159.74384115127785
 51
200.25615884872064
  0
ARC
  5
299
100
AcDbEntity
  8
0
  6
CONTINUOUS
 62
               7
100
AcDbCircle
 10
-2.3116456127252718
 20
7.0000000000000142
 30
0.0
 40
2.8883543872747346
100
AcDbArc
 50
159.74384115127856
 51
200.25615884872136
  0
ARC
  5
29A
100
AcDbEntity
  8
0
  6
CONTINUOUS
 62
               7
100
AcDbCircle
 10
-4.8883543872747452
 20
8.9999999999999858
 30
0.0
 40
2.8883543872747346
100
AcDbArc
 50
-20.256158848721032
 51
20.256158848721746
  0
ARC
  5
29B
100
AcDbEntity
  8
0
  6
CONTINUOUS
 62
               7
100
AcDbCircle
 10
-4.8883543872747452
 20
7.0000000000000142
 30
0.0
 40
2.8883543872747346
100
AcDbArc
 50
339.74384115127742
 51
20.256158848721032
  0
ARC
  5
29C
100
AcDbEntity
  8
0
  6
CONTINUOUS
 62
               7
100
AcDbCircle
 10
-6.4883543872747396
 20
7.0000000000000142
 30
0.0
 40
2.8883543872747346
100
AcDbArc
 50
339.74384115127742
 51
20.256158848721032
  0
ARC
  5
29D
100
AcDbEntity
  8
0
  6
CONTINUOUS
 62
               7
100
AcDbCircle
 10
-6.4883543872747396
 20
8.9999999999999858
 30
0.0
 40
2.8883543872747346
100
AcDbArc
 50
-20.256158848721032
 51
20.256158848721746
  0
ARC
  5
29E
100
AcDbEntity
  8
0
  6
CONTINUOUS
 62
               7
100
AcDbCircle
 10
-0.7116456127252633
 20
7.0000000000000142
 30
0.0
 40
2.8883543872747346
100
AcDbArc
 50
159.74384115127856
 51
200.25615884872136
  0
ARC
  5
29F
100
AcDbEntity
  8
0
  6
CONTINUOUS
 62
               7
100
AcDbCircle
 10
-0.7116456127252633
 20
8.9999999999999858
 30
0.0
 40
2.8883543872747346
100
AcDbArc
 50
159.74384115127785
 51
200.25615884872064
  0
LINE
  5
2A0
100
AcDbEntity
  8
0
  6
CONTINUOUS
 62
               7
100
AcDbLine
 10
-2.0
 20
7.0
 30
0.0
 11
0.0
 21
7.0
 31
0.0
  0
LINE
  5
2A1
100
AcDbEntity
  8
0
  6
CONTINUOUS
 62
               7
100
AcDbLine
 10
-2.0
 20
9.0
 30
0.0
 11
0.0
 21
9.0
 31
0.0
  0
LINE
  5
2A2
100
AcDbEntity
  8
0
  6
CENTER
 62
               2
100
AcDbLine
 10
-7.8441166040813073
 20
8.0
 30
0.0
 11
1.4066880850250811
 21
8.0
 31
0.0
  0
INSERT
  5
2AB
100
AcDbEntity
  8
0
  6
CONTINUOUS
 62
               7
100
AcDbBlockReference
  2
*X12
 10
0.0
 20
0.0
 30
0.0
  0
LINE
  5
2AC
100
AcDbEntity
  8
0
  6
CONTINUOUS
 62
               4
100
AcDbLine
 10
8.0
 20
0.921572876192343
 30
0.0
 11
8.0
 21
3.3636038766828165
 31
0.0
  0
LINE
  5
2AD
100
AcDbEntity
  8
0
  6
CONTINUOUS
 62
               4
100
AcDbLine
 10
9.7500000037099852
 20
1.1162076446002658
 30
0.0
 11
9.7500000037099852
 21
2.8482584558411119
 31
0.0
  0
LINE
  5
2AE
100
AcDbEntity
  8
0
  6
CONTINUOUS
 62
               4
100
AcDbLine
 10
10.250000004769987
 20
1.1162076446002658
 30
0.0
 11
10.250000004769987
 21
2.8482584558411119
 31
0.0
  0
ELLIPSE
  5
2AF
100
AcDbEntity
  8
0
  6
CONTINUOUS
 62
               4
100
AcDbEllipse
 10
10.000000004240022
 20
1.9822330502206498
 30
0.0
 11
-1.25000000265
 21
0.0000000000000002
 31
0.0
210
0.0
220
0.0
230
1.0
 40
0.7071067811865475
 41
0.0
 42
6.2831853071795862
  0
LINE
  5
2B0
100
AcDbEntity
  8
0
  6
CONTINUOUS
 62
               4
100
AcDbLine
 10
23.000000031799985
 20
3.3636038766828165
 30
0.0
 11
23.000000031799985
 21
-2.9321590010252194
 31
0.0
  0
LINE
  5
2B1
100
AcDbEntity
  8
0
  6
CONTINUOUS
 62
               4
100
AcDbLine
 10
18.400000022047891
 20
-2.1896969066046381
 30
0.0
 11
18.400000022047891
 21
1.9822330502206498
 31
0.0
  0
LINE
  5
2B2
100
AcDbEntity
  8
0
  6
CONTINUOUS
 62
               4
100
AcDbLine
 10
19.030306177714252
 20
3.0428932242490916
 30
0.0
 11
19.030306177714252
 21
2.3711418677617431
 31
0.0
  0
ELLIPSE
  5
2B3
100
AcDbEntity
  8
0
  6
CONTINUOUS
 62
               4
100
AcDbEllipse
 10
20.500000046264475
 20
1.9822330502206498
 30
0.0
 11
-2.1000000242166501
 21
0.0000000000000003
 31
0.0
210
0.0
220
0.0
230
1.0
 40
0.6902708989473662
 41
5.4875823576499068
 42
0.0
  0
LINE
  5
2B4
100
AcDbEntity
  8
0
  6
CONTINUOUS
 62
               4
100
AcDbLine
 10
19.030306177714252
 20
2.3711418447609347
 30
0.0
 11
23.000000031799985
 21
2.3711418447609347
 31
0.0
  0
ELLIPSE
  5
2B5
100
AcDbEntity
  8
0
  6
CONTINUOUS
 62
               4
100
AcDbEllipse
 10
20.500000026500004
 20
-2.1896969066046381
 30
0.0
 11
2.1000000044519944
 21
0.0
 31
0.0
210
0.0
220
0.0
230
1.0
 40
0.690270905444012
 41
-0.8725714153590118
 42
4.014164068948805
  0
ELLIPSE
  5
2B6
100
AcDbEntity
  8
0
  6
CONTINUOUS
 62
               4
100
AcDbEllipse
 10
20.500000026500004
 20
-1.4825901239190173
 30
0.0
 11
2.0999999884538685
 21
0.0
 31
0.0
210
0.0
220
0.0
230
1.0
 40
0.6902709107026031
 41
0.0
 42
1.5707963267948966
  0
ELLIPSE
  5
2B7
100
AcDbEntity
  8
0
  6
CONTINUOUS
 62
               4
100
AcDbEllipse
 10
20.500000026500004
 20
-5.189696912964628
 30
0.0
 11
1.3500000028620016
 21
0.0
 31
0.0
210
0.0
220
0.0
230
1.0
 40
0.7130928703394489
 41
0.0
 42
6.2831853071795862
  0
ELLIPSE
  5
2B8
100
AcDbEntity
  8
0
  6
CONTINUOUS
 62
               4
100
AcDbEllipse
 10
20.500000026500004
 20
-2.1896969066046381
 30
0.0
 11
1.3500000028620016
 21
0.0
 31
0.0
210
0.0
220
0.0
230
1.0
 40
0.7130928703394489
 41
0.0
 42
3.1415926535897931
  0
LINE
  5
2B9
100
AcDbEntity
  8
0
  6
CONTINUOUS
 62
               4
100
AcDbLine
 10
19.15000002363783
 20
-2.1896969008527023
 30
0.0
 11
19.15000002363783
 21
-5.1896969072127135
 31
0.0
  0
LINE
  5
2BA
100
AcDbEntity
  8
0
  6
CONTINUOUS
 62
               4
100
AcDbLine
 10
21.850000029361894
 20
-2.1896969008527023
 30
0.0
 11
21.850000029361894
 21
-5.1896969072127135
 31
0.0
  0
LINE
  5
2BB
100
AcDbEntity
  8
0
  6
CONTINUOUS
 62
               4
100
AcDbLine
 10
22.303625156899642
 20
-2.9321590284245289
 30
0.0
 11
23.000000031799985
 21
-2.9321590284245289
 31
0.0
  0
LINE
  5
2BC
100
AcDbEntity
  8
0
  6
CONTINUOUS
 62
               4
100
AcDbLine
 10
22.60000001495365
 20
-1.4825901239190173
 30
0.0
 11
22.60000001495365
 21
-2.1896969008527023
 31
0.0
  0
LINE
  5
2BD
100
AcDbEntity
  8
0
  6
CONTINUOUS
 62
               4
100
AcDbLine
 10
20.500000026500004
 20
-0.03302121941352
 30
0.0
 11
23.000000051564456
 21
-0.03302121941352
 31
0.0
  0
LINE
  5
2BE
100
AcDbEntity
  8
0
  6
CONTINUOUS
 62
               4
100
AcDbLine
 10
20.500000026500004
 20
-0.03302119990758
 30
0.0
 11
20.500000026500004
 21
-0.7401280020991194
 31
0.0
  0
LINE
  5
2BF
100
AcDbEntity
  8
0
  6
CONTINUOUS
 62
               4
100
AcDbLine
 10
8.0000000341668738
 20
3.0428932242490916
 30
0.0
 11
23.000000031799985
 21
3.0428932242490916
 31
0.0
  0
LINE
  5
2C0
100
AcDbEntity
  8
0
  6
CONTINUOUS
 62
               4
100
AcDbLine
 10
8.0000000341668738
 20
0.9215728761923643
 30
0.0
 11
18.400000022047891
 21
0.9215728761923643
 31
0.0
  0
LINE
  5
2C1
100
AcDbEntity
  8
0
  6
CONTINUOUS
 62
               4
100
AcDbLine
 10
12.999999968200129
 20
0.0
 30
0.0
 11
12.999999968200129
 21
-2.9321590010252194
 31
0.0
  0
ELLIPSE
  5
2C2
100
AcDbEntity
  8
0
  6
CONTINUOUS
 62
               4
100
AcDbEllipse
 10
15.49999997350011
 20
-2.1896969066046381
 30
0.0
 11
-2.1000000044519944
 21
0.0000000000000003
 31
0.0
210
0.0
220
0.0
230
1.0
 40
0.690270905444012
 41
0.5377441557282552
 42
3.1415926535897931
  0
LINE
  5
2C3
100
AcDbEntity
  8
0
  6
CONTINUOUS
 62
               4
100
AcDbLine
 10
15.49999997350011
 20
-2.9321590139495726
 30
0.0
 11
15.49999997350011
 21
-3.639265783034503
 31
0.0
  0
LINE
  5
2C4
100
AcDbEntity
  8
0
  6
CONTINUOUS
 62
               4
100
AcDbLine
 10
16.849999976362284
 20
-3.3000465275517428
 30
0.0
 11
16.849999976362284
 21
-5.1896969072127135
 31
0.0
  0
LINE
  5
2C5
100
AcDbEntity
  8
0
  6
CONTINUOUS
 62
               4
100
AcDbLine
 10
14.14999997063822
 20
-3.3000465275518991
 30
0.0
 11
14.14999997063822
 21
-5.1896969072127135
 31
0.0
  0
ELLIPSE
  5
2C6
100
AcDbEntity
  8
0
  6
CONTINUOUS
 62
               4
100
AcDbEllipse
 10
15.49999997350011
 20
-5.189696912964628
 30
0.0
 11
-1.3500000028620016
 21
0.0000000000000002
 31
0.0
210
0.0
220
0.0
230
1.0
 40
0.7130928703394489
 41
0.0
 42
3.1415926535897931
  0
LINE
  5
2C7
100
AcDbEntity
  8
0
  6
CONTINUOUS
 62
               4
100
AcDbLine
 10
15.49999997350011
 20
-2.9321590284245289
 30
0.0
 11
12.999999968200129
 21
-2.9321590284245289
 31
0.0
  0
LINE
  5
2C8
100
AcDbEntity
  8
0
  6
CONTINUOUS
 62
               4
100
AcDbLine
 10
17.599999977952223
 20
-2.1896969066046381
 30
0.0
 11
17.599999977952223
 21
0.0
 31
0.0
  0
LINE
  5
2C9
100
AcDbEntity
  8
0
  6
CONTINUOUS
 62
               7
100
AcDbLine
 10
23.000000031799985
 20
1.1008622114557483
 30
0.0
 11
30.000000000000114
 21
1.1008622114557483
 31
0.0
  0
LINE
  5
2CA
100
AcDbEntity
  8
0
  6
CONTINUOUS
 62
               7
100
AcDbLine
 10
23.000000031799985
 20
0.0
 30
0.0
 11
30.000000000000114
 21
0.0
 31
0.0
  0
LINE
  5
2CB
100
AcDbEntity
  8
0
  6
CENTER
 62
               2
100
AcDbLine
 10
5.0
 20
9.5
 30
0.0
 11
5.0
 21
12.5
 31
0.0
  0
ENDBLK
  5
2CC
100
AcDbEntity
  8
0
100
AcDbBlockEnd
  0
BLOCK
  5
2CD
100
AcDbEntity
  8
0
100
AcDbBlockBegin
  2
MS_8
 70
               0
 10
0.0
 20
0.0
 30
0.0
  3
MS_8
  1

  0
LINE
  5
2CE
100
AcDbEntity
  8
0
  6
CENTER
 62
               2
100
AcDbLine
 10
10.0
 20
4.9547775518886965
 30
0.0
 11
10.0
 21
0.8222042521190005
 31
0.0
  0
CIRCLE
  5
2CF
100
AcDbEntity
  8
0
  6
DASHED
 62
               2
100
AcDbCircle
 10
10.0
 20
2.8000000000000114
 30
0.0
 40
1.5
  0
CIRCLE
  5
2D0
100
AcDbEntity
  8
0
  6
DASHED
 62
               7
100
AcDbCircle
 10
10.0
 20
2.8000000000000114
 30
0.0
 40
1.1999999999999886
  0
LINE
  5
2D1
100
AcDbEntity
  8
0
  6
CENTER
 62
               2
100
AcDbLine
 10
27.0
 20
4.9547775518886965
 30
0.0
 11
27.0
 21
0.728946832672591
 31
0.0
  0
CIRCLE
  5
2D2
100
AcDbEntity
  8
0
  6
DASHED
 62
               2
100
AcDbCircle
 10
27.0
 20
2.8000000000000114
 30
0.0
 40
1.5
  0
CIRCLE
  5
2D3
100
AcDbEntity
  8
0
  6
DASHED
 62
               7
100
AcDbCircle
 10
27.0
 20
2.8000000000000114
 30
0.0
 40
1.1999999999999886
  0
LINE
  5
2D4
100
AcDbEntity
  8
0
  6
CONTINUOUS
 62
               7
100
AcDbLine
 10
0.0
 20
0.0
 30
0.0
 11
30.000000000000114
 21
0.0
 31
0.0
  0
LINE
  5
2D5
100
AcDbEntity
  8
0
  6
CONTINUOUS
 62
               7
100
AcDbLine
 10
30.000000000000114
 20
11.0
 30
0.0
 11
30.000000000000114
 21
0.0
 31
0.0
  0
LINE
  5
2D6
100
AcDbEntity
  8
0
  6
CENTER
 62
               2
100
AcDbLine
 10
7.2333464440407909
 20
2.7999999999999972
 30
0.0
 11
30.846416164038573
 21
2.7999999999999972
 31
0.0
  0
LINE
  5
2D7
100
AcDbEntity
  8
0
  6
CONTINUOUS
 62
               7
100
AcDbLine
 10
0.0
 20
11.0
 30
0.0
 11
0.0
 21
0.0
 31
0.0
  0
LINE
  5
2D8
100
AcDbEntity
  8
0
  6
CONTINUOUS
 62
               7
100
AcDbLine
 10
0.0
 20
11.0
 30
0.0
 11
12.999999968200129
 21
11.0
 31
0.0
  0
LINE
  5
2D9
100
AcDbEntity
  8
0
  6
CONTINUOUS
 62
               7
100
AcDbLine
 10
0.0
 20
9.8991377885442517
 30
0.0
 11
12.999999968200129
 21
9.8991377885442517
 31
0.0
  0
LINE
  5
2DA
100
AcDbEntity
  8
0
  6
CONTINUOUS
 62
               7
100
AcDbLine
 10
0.0
 20
7.6363961233171835
 30
0.0
 11
30.000000000000114
 21
7.6363961233171835
 31
0.0
  0
LINE
  5
2DB
100
AcDbEntity
  8
0
  6
CONTINUOUS
 62
               7
100
AcDbLine
 10
-2.0
 20
4.0
 30
0.0
 11
0.0
 21
4.0
 31
0.0
  0
LINE
  5
2DC
100
AcDbEntity
  8
0
  6
CONTINUOUS
 62
               7
100
AcDbLine
 10
-2.0
 20
2.0
 30
0.0
 11
0.0
 21
2.0
 31
0.0
  0
ARC
  5
2DD
100
AcDbEntity
  8
0
  6
CONTINUOUS
 62
               7
100
AcDbCircle
 10
-0.7116456127252633
 20
3.9999999999999858
 30
0.0
 40
2.8883543872747346
100
AcDbArc
 50
159.74384115127785
 51
200.25615884872064
  0
ARC
  5
2DE
100
AcDbEntity
  8
0
  6
CONTINUOUS
 62
               7
100
AcDbCircle
 10
-0.7116456127252633
 20
2.0000000000000142
 30
0.0
 40
2.8883543872747346
100
AcDbArc
 50
159.74384115127856
 51
200.25615884872136
  0
ARC
  5
2DF
100
AcDbEntity
  8
0
  6
CONTINUOUS
 62
               7
100
AcDbCircle
 10
-6.4883543872747396
 20
3.9999999999999858
 30
0.0
 40
2.8883543872747346
100
AcDbArc
 50
-20.256158848721032
 51
20.256158848721746
  0
ARC
  5
2E0
100
AcDbEntity
  8
0
  6
CONTINUOUS
 62
               7
100
AcDbCircle
 10
-6.4883543872747396
 20
2.0000000000000142
 30
0.0
 40
2.8883543872747346
100
AcDbArc
 50
339.74384115127742
 51
20.256158848721032
  0
ARC
  5
2E1
100
AcDbEntity
  8
0
  6
CONTINUOUS
 62
               7
100
AcDbCircle
 10
-4.8883543872747452
 20
2.0000000000000142
 30
0.0
 40
2.8883543872747346
100
AcDbArc
 50
339.74384115127742
 51
20.256158848721032
  0
ARC
  5
2E2
100
AcDbEntity
  8
0
  6
CONTINUOUS
 62
               7
100
AcDbCircle
 10
-4.8883543872747452
 20
3.9999999999999858
 30
0.0
 40
2.8883543872747346
100
AcDbArc
 50
-20.256158848721032
 51
20.256158848721746
  0
ARC
  5
2E3
100
AcDbEntity
  8
0
  6
CONTINUOUS
 62
               7
100
AcDbCircle
 10
-2.3116456127252718
 20
2.0000000000000142
 30
0.0
 40
2.8883543872747346
100
AcDbArc
 50
159.74384115127856
 51
200.25615884872136
  0
ARC
  5
2E4
100
AcDbEntity
  8
0
  6
CONTINUOUS
 62
               7
100
AcDbCircle
 10
-2.3116456127252718
 20
3.9999999999999858
 30
0.0
 40
2.8883543872747346
100
AcDbArc
 50
159.74384115127785
 51
200.25615884872064
  0
LINE
  5
2E5
100
AcDbEntity
  8
0
  6
CONTINUOUS
 62
               7
100
AcDbLine
 10
-3.6000000000000085
 20
3.0
 30
0.0
 11
-2.1376445576398027
 21
3.0
 31
0.0
  0
LINE
  5
2E6
100
AcDbEntity
  8
0
  6
CONTINUOUS
 62
               7
100
AcDbLine
 10
-5.0213671974068177
 20
3.0
 30
0.0
 11
-3.6000000000000085
 21
3.0
 31
0.0
  0
LINE
  5
2E7
100
AcDbEntity
  8
0
  6
CONTINUOUS
 62
               7
100
AcDbLine
 10
-5.2000000000000028
 20
1.0
 30
0.0
 11
-2.0
 21
1.0
 31
0.0
  0
LINE
  5
2E8
100
AcDbEntity
  8
0
  6
CONTINUOUS
 62
               7
100
AcDbLine
 10
-5.2000000000000028
 20
5.0
 30
0.0
 11
-2.0
 21
5.0
 31
0.0
  0
LINE
  5
2E9
100
AcDbEntity
  8
0
  6
CONTINUOUS
 62
               7
100
AcDbLine
 10
-5.2000000000000028
 20
0.9999999620322626
 30
0.0
 11
-5.2000000000000028
 21
5.0000000216369074
 31
0.0
  0
LINE
  5
2EA
100
AcDbEntity
  8
0
  6
CONTINUOUS
 62
               7
100
AcDbLine
 10
-3.6000000000000085
 20
0.9999999620322626
 30
0.0
 11
-3.6000000000000085
 21
5.0000000216369074
 31
0.0
  0
LINE
  5
2EB
100
AcDbEntity
  8
0
  6
CONTINUOUS
 62
               7
100
AcDbLine
 10
-2.0
 20
0.9999999620322626
 30
0.0
 11
-2.0
 21
5.0000000216369074
 31
0.0
  0
LINE
  5
2EC
100
AcDbEntity
  8
0
  6
CONTINUOUS
 62
               2
100
AcDbLine
 10
-2.0
 20
2.2999999999999972
 30
0.0
 11
-1.0
 21
2.2999999999999972
 31
0.0
  0
LINE
  5
2ED
100
AcDbEntity
  8
0
  6
CONTINUOUS
 62
               2
100
AcDbLine
 10
-2.0
 20
3.7000000000000028
 30
0.0
 11
-1.0
 21
3.7000000000000028
 31
0.0
  0
LINE
  5
2EE
100
AcDbEntity
  8
0
  6
CONTINUOUS
 62
               7
100
AcDbLine
 10
-6.7000000000000171
 20
2.0
 30
0.0
 11
-7.0
 21
2.2999999999999972
 31
0.0
  0
LINE
  5
2EF
100
AcDbEntity
  8
0
  6
CONTINUOUS
 62
               2
100
AcDbLine
 10
-7.0
 20
2.2999999999999972
 30
0.0
 11
-5.2000000000000028
 21
2.2999999999999972
 31
0.0
  0
LINE
  5
2F0
100
AcDbEntity
  8
0
  6
CONTINUOUS
 62
               7
100
AcDbLine
 10
-6.7000000000000171
 20
2.0
 30
0.0
 11
-5.2000000000000028
 21
2.0
 31
0.0
  0
LINE
  5
2F1
100
AcDbEntity
  8
0
  6
CONTINUOUS
 62
               7
100
AcDbLine
 10
-6.7000000000000171
 20
4.0
 30
0.0
 11
-6.7000000000000171
 21
2.0
 31
0.0
  0
LINE
  5
2F2
100
AcDbEntity
  8
0
  6
CONTINUOUS
 62
               7
100
AcDbLine
 10
-6.7000000000000171
 20
4.0
 30
0.0
 11
-7.0
 21
3.7000000000000028
 31
0.0
  0
LINE
  5
2F3
100
AcDbEntity
  8
0
  6
CONTINUOUS
 62
               7
100
AcDbLine
 10
-1.0
 20
4.0
 30
0.0
 11
-1.0
 21
2.0
 31
0.0
  0
LINE
  5
2F4
100
AcDbEntity
  8
0
  6
CONTINUOUS
 62
               2
100
AcDbLine
 10
-7.0
 20
3.7000000000000028
 30
0.0
 11
-5.2000000000000028
 21
3.7000000000000028
 31
0.0
  0
LINE
  5
2F5
100
AcDbEntity
  8
0
  6
CONTINUOUS
 62
               7
100
AcDbLine
 10
-7.0
 20
3.7000000000000028
 30
0.0
 11
-7.0
 21
2.2999999999999972
 31
0.0
  0
LINE
  5
2F6
100
AcDbEntity
  8
0
  6
CONTINUOUS
 62
               7
100
AcDbLine
 10
-6.7000000000000171
 20
4.0
 30
0.0
 11
-5.2000000000000028
 21
4.0
 31
0.0
  0
LINE
  5
2F7
100
AcDbEntity
  8
0
  6
CONTINUOUS
 62
               2
100
AcDbLine
 10
-1.0
 20
3.7000000000000028
 30
0.0
 11
-0.4803847577293539
 21
4.0
 31
0.0
  0
LINE
  5
2F8
100
AcDbEntity
  8
0
  6
CONTINUOUS
 62
               2
100
AcDbLine
 10
-1.0
 20
2.2999999999999972
 30
0.0
 11
-0.4803847577293539
 21
2.0
 31
0.0
  0
LINE
  5
2F9
100
AcDbEntity
  8
0
  6
CENTER
 62
               2
100
AcDbLine
 10
-8.1724203807038691
 20
3.0
 30
0.0
 11
1.40367590263088
 21
3.0
 31
0.0
  0
INSERT
  5
303
100
AcDbEntity
  8
0
  6
CONTINUOUS
 62
               7
100
AcDbBlockReference
  2
*X13
 10
0.0
 20
0.0
 30
0.0
  0
LINE
  5
304
100
AcDbEntity
  8
0
  6
CONTINUOUS
 62
               4
100
AcDbLine
 10
27.99999996583324
 20
10.078427123807636
 30
0.0
 11
17.599999977952223
 21
10.078427123807636
 31
0.0
  0
LINE
  5
305
100
AcDbEntity
  8
0
  6
CONTINUOUS
 62
               4
100
AcDbLine
 10
27.99999996583324
 20
7.9571067757509084
 30
0.0
 11
12.999999968200129
 21
7.9571067757509084
 31
0.0
  0
LINE
  5
306
100
AcDbEntity
  8
0
  6
CONTINUOUS
 62
               4
100
AcDbLine
 10
15.49999997350011
 20
11.03302119990758
 30
0.0
 11
15.49999997350011
 21
11.740128002099119
 31
0.0
  0
LINE
  5
307
100
AcDbEntity
  8
0
  6
CONTINUOUS
 62
               4
100
AcDbLine
 10
15.49999997350011
 20
11.03302121941352
 30
0.0
 11
12.999999948435658
 21
11.03302121941352
 31
0.0
  0
LINE
  5
308
100
AcDbEntity
  8
0
  6
CONTINUOUS
 62
               4
100
AcDbLine
 10
13.399999985046463
 20
12.482590123919017
 30
0.0
 11
13.399999985046463
 21
13.189696900852702
 31
0.0
  0
LINE
  5
309
100
AcDbEntity
  8
0
  6
CONTINUOUS
 62
               4
100
AcDbLine
 10
13.696374843100472
 20
13.932159028424529
 30
0.0
 11
12.999999968200129
 21
13.932159028424529
 31
0.0
  0
LINE
  5
30A
100
AcDbEntity
  8
0
  6
CONTINUOUS
 62
               4
100
AcDbLine
 10
14.14999997063822
 20
13.189696900852702
 30
0.0
 11
14.14999997063822
 21
16.189696907212713
 31
0.0
  0
LINE
  5
30B
100
AcDbEntity
  8
0
  6
CONTINUOUS
 62
               4
100
AcDbLine
 10
16.849999976362284
 20
13.189696900852702
 30
0.0
 11
16.849999976362284
 21
16.189696907212713
 31
0.0
  0
ELLIPSE
  5
30C
100
AcDbEntity
  8
0
  6
CONTINUOUS
 62
               4
100
AcDbEllipse
 10
15.49999997350011
 20
13.189696906604638
 30
0.0
 11
-1.3500000028620016
 21
0.0000000000000002
 31
0.0
210
0.0
220
0.0
230
1.0
 40
0.7130928703394489
 41
0.0
 42
3.1415926535897931
  0
ELLIPSE
  5
30D
100
AcDbEntity
  8
0
  6
CONTINUOUS
 62
               4
100
AcDbEllipse
 10
15.49999997350011
 20
16.189696912964628
 30
0.0
 11
-1.3500000028620016
 21
0.0000000000000002
 31
0.0
210
0.0
220
0.0
230
1.0
 40
0.7130928703394489
 41
0.0
 42
6.2831853071795862
  0
ELLIPSE
  5
30E
100
AcDbEntity
  8
0
  6
CONTINUOUS
 62
               4
100
AcDbEllipse
 10
15.49999997350011
 20
12.482590123919017
 30
0.0
 11
-2.0999999884538685
 21
0.0000000000000003
 31
0.0
210
0.0
220
0.0
230
1.0
 40
0.6902709107026031
 41
0.0
 42
1.5707963267948966
  0
ELLIPSE
  5
30F
100
AcDbEntity
  8
0
  6
CONTINUOUS
 62
               4
100
AcDbEllipse
 10
15.49999997350011
 20
13.189696906604638
 30
0.0
 11
-2.1000000044519944
 21
0.0000000000000003
 31
0.0
210
0.0
220
0.0
230
1.0
 40
0.690270905444012
 41
-0.8725714153590118
 42
4.014164068948805
  0
LINE
  5
310
100
AcDbEntity
  8
0
  6
CONTINUOUS
 62
               4
100
AcDbLine
 10
16.969693822285862
 20
8.6288581552390653
 30
0.0
 11
12.999999968200129
 21
8.6288581552390653
 31
0.0
  0
ELLIPSE
  5
311
100
AcDbEntity
  8
0
  6
CONTINUOUS
 62
               4
100
AcDbEllipse
 10
15.499999953735639
 20
9.0177669497793502
 30
0.0
 11
2.1000000242166501
 21
0.0
 31
0.0
210
0.0
220
0.0
230
1.0
 40
0.6902708989473662
 41
5.4875823576499068
 42
0.0
  0
LINE
  5
312
100
AcDbEntity
  8
0
  6
CONTINUOUS
 62
               4
100
AcDbLine
 10
16.969693822285862
 20
7.9571067757509084
 30
0.0
 11
16.969693822285862
 21
8.6288581322382569
 31
0.0
  0
LINE
  5
313
100
AcDbEntity
  8
0
  6
CONTINUOUS
 62
               4
100
AcDbLine
 10
17.599999977952223
 20
13.189696906604638
 30
0.0
 11
17.599999977952223
 21
9.0177669497793502
 31
0.0
  0
LINE
  5
314
100
AcDbEntity
  8
0
  6
CONTINUOUS
 62
               4
100
AcDbLine
 10
12.999999968200129
 20
7.6363961233171835
 30
0.0
 11
12.999999968200129
 21
13.932159001025219
 31
0.0
  0
ELLIPSE
  5
315
100
AcDbEntity
  8
0
  6
CONTINUOUS
 62
               4
100
AcDbEllipse
 10
25.999999995760092
 20
9.0177669497793502
 30
0.0
 11
1.25000000265
 21
0.0
 31
0.0
210
0.0
220
0.0
230
1.0
 40
0.7071067811865475
 41
0.0
 42
6.2831853071795862
  0
LINE
  5
316
100
AcDbEntity
  8
0
  6
CONTINUOUS
 62
               4
100
AcDbLine
 10
25.749999995230127
 20
9.8837923553997342
 30
0.0
 11
25.749999995230127
 21
8.1517415441588881
 31
0.0
  0
LINE
  5
317
100
AcDbEntity
  8
0
  6
CONTINUOUS
 62
               4
100
AcDbLine
 10
26.249999996290128
 20
9.8837923553997342
 30
0.0
 11
26.249999996290128
 21
8.1517415441588881
 31
0.0
  0
LINE
  5
318
100
AcDbEntity
  8
0
  6
CONTINUOUS
 62
               4
100
AcDbLine
 10
28.000000000000114
 20
10.078427123807657
 30
0.0
 11
28.000000000000114
 21
7.6363961233171835
 31
0.0
  0
LINE
  5
319
100
AcDbEntity
  8
0
  6
CONTINUOUS
 62
               7
100
AcDbLine
 10
17.599999977952223
 20
11.0
 30
0.0
 11
30.000000000000114
 21
11.0
 31
0.0
  0
LINE
  5
31A
100
AcDbEntity
  8
0
  6
CONTINUOUS
 62
               7
100
AcDbLine
 10
28.000000000000114
 20
9.8991377885442517
 30
0.0
 11
30.000000000000114
 21
9.8991377885442517
 31
0.0
  0
LINE
  5
31B
100
AcDbEntity
  8
0
  6
CONTINUOUS
 62
               4
100
AcDbLine
 10
20.500000026500004
 20
13.932159028424529
 30
0.0
 11
23.000000031799985
 21
13.932159028424529
 31
0.0
  0
ELLIPSE
  5
31C
100
AcDbEntity
  8
0
  6
CONTINUOUS
 62
               4
100
AcDbEllipse
 10
20.500000026500004
 20
16.189696912964628
 30
0.0
 11
1.3500000028620016
 21
0.0
 31
0.0
210
0.0
220
0.0
230
1.0
 40
0.7130928703394489
 41
0.0
 42
3.1415926535897931
  0
LINE
  5
31D
100
AcDbEntity
  8
0
  6
CONTINUOUS
 62
               4
100
AcDbLine
 10
23.000000031799985
 20
11.0
 30
0.0
 11
23.000000031799985
 21
13.932159001025219
 31
0.0
  0
LINE
  5
31E
100
AcDbEntity
  8
0
  6
CONTINUOUS
 62
               4
100
AcDbLine
 10
18.400000022047891
 20
13.189696906604638
 30
0.0
 11
18.400000022047891
 21
11.0
 31
0.0
  0
LINE
  5
31F
100
AcDbEntity
  8
0
  6
CONTINUOUS
 62
               4
100
AcDbLine
 10
21.850000029361894
 20
14.300046527551903
 30
0.0
 11
21.850000029361894
 21
16.189696907212713
 31
0.0
  0
LINE
  5
320
100
AcDbEntity
  8
0
  6
CONTINUOUS
 62
               4
100
AcDbLine
 10
19.15000002363783
 20
14.300046527551739
 30
0.0
 11
19.15000002363783
 21
16.189696907212713
 31
0.0
  0
ELLIPSE
  5
321
100
AcDbEntity
  8
0
  6
CONTINUOUS
 62
               4
100
AcDbEllipse
 10
20.500000026500004
 20
13.189696906604638
 30
0.0
 11
2.1000000044519944
 21
0.0
 31
0.0
210
0.0
220
0.0
230
1.0
 40
0.690270905444012
 41
0.5377441557282552
 42
3.1415926535897931
  0
LINE
  5
322
100
AcDbEntity
  8
0
  6
CONTINUOUS
 62
               4
100
AcDbLine
 10
20.500000026500004
 20
13.932159013949573
 30
0.0
 11
20.500000026500004
 21
14.639265783034503
 31
0.0
  0
LINE
  5
323
100
AcDbEntity
  8
0
  6
CENTER
 62
               2
100
AcDbLine
 10
5.0
 20
1.5
 30
0.0
 11
5.0
 21
-1.5
 31
0.0
  0
ENDBLK
  5
324
100
AcDbEntity
  8
0
100
AcDbBlockEnd
  0
BLOCK
  5
2C
100
AcDbEntity
  8
0
  6
ByBlock
 62
               0
100
AcDbBlockBegin
  2
*X8
 70
               1
 10
0.0
 20
0.0
 30
0.0
  3
*X8
  1

  0
LINE
  5
2D
100
AcDbEntity
  8
0
  6
ByBlock
 62
               0
100
AcDbLine
 10
10.119692732885158
 20
-1.1940157660996027
 30
0.0
 11
11.194015766099616
 21
-0.1196927328851443
 31
0.0
  0
LINE
  5
2E
100
AcDbEntity
  8
0
  6
ByBlock
 62
               0
100
AcDbLine
 10
9.1027086952509606
 20
-0.7967862413607038
 30
0.0
 11
10.796786241360717
 21
0.8972913047490526
 31
0.0
  0
LINE
  5
2F
100
AcDbEntity
  8
0
  6
ByBlock
 62
               0
100
AcDbLine
 10
8.8600091787553712
 20
0.374727804516799
 30
0.0
 11
9.6252721954832143
 21
1.1399908212446421
 31
0.0
  0
LINE
  5
30
100
AcDbEntity
  8
0
  6
ByBlock
 62
               0
100
AcDbLine
 10
9.6252721954831699
 20
-1.1399908212445997
 30
0.0
 11
8.8600091787553872
 21
-0.3747278045168172
 31
0.0
  0
LINE
  5
31
100
AcDbEntity
  8
0
  6
ByBlock
 62
               0
100
AcDbLine
 10
10.796786241360703
 20
-0.8972913047490397
 30
0.0
 11
9.1027086952509464
 21
0.7967862413607164
 31
0.0
  0
LINE
  5
32
100
AcDbEntity
  8
0
  6
ByBlock
 62
               0
100
AcDbLine
 10
11.194015766099621
 20
0.1196927328851398
 30
0.0
 11
10.119692732885127
 21
1.1940157660996349
 31
0.0
  0
ENDBLK
  5
33
100
AcDbEntity
  8
0
  6
ByBlock
 62
               0
100
AcDbBlockEnd
  0
BLOCK
  5
FE
100
AcDbEntity
  8
0
  6
ByBlock
 62
               0
100
AcDbBlockBegin
  2
*X9
 70
               1
 10
0.0
 20
0.0
 30
0.0
  3
*X9
  1

  0
LINE
  5
FF
100
AcDbEntity
  8
0
  6
ByBlock
 62
               0
100
AcDbLine
 10
9.8392436280267042
 20
7.0108165032805143
 30
0.0
 11
11.189183496719473
 21
8.3607563719732827
 31
0.0
  0
LINE
  5
100
100
AcDbEntity
  8
0
  6
ByBlock
 62
               0
100
AcDbLine
 10
8.9807943668202981
 20
7.5665808044472023
 30
0.0
 11
10.633419195552785
 21
9.2192056331796888
 31
0.0
  0
LINE
  5
101
100
AcDbEntity
  8
0
  6
ByBlock
 62
               0
100
AcDbLine
 10
9.9701924881199702
 20
7.0003702603571707
 30
0.0
 11
8.8003702603571821
 21
8.1701924881199588
 31
0.0
  0
LINE
  5
102
100
AcDbEntity
  8
0
  6
ByBlock
 62
               0
100
AcDbLine
 10
10.935871663703223
 20
7.4489046471470131
 30
0.0
 11
9.2489046471470253
 21
9.1358716637032096
 31
0.0
  0
LINE
  5
103
100
AcDbEntity
  8
0
  6
ByBlock
 62
               0
100
AcDbLine
 10
11.083762145997996
 20
8.7152277272253329
 30
0.0
 11
10.515227727225346
 21
9.2837621459979829
 31
0.0
  0
ENDBLK
  5
104
100
AcDbEntity
  8
0
  6
ByBlock
 62
               0
100
AcDbBlockEnd
  0
BLOCK
  5
144
100
AcDbEntity
  8
0
  6
ByBlock
 62
               0
100
AcDbBlockBegin
  2
*X10
 70
               1
 10
0.0
 20
0.0
 30
0.0
  3
*X10
  1

  0
LINE
  5
145
100
AcDbEntity
  8
0
  6
ByBlock
 62
               0
100
AcDbLine
 10
10.08855319650176
 20
1.603271822263189
 30
0.0
 11
11.196728177736821
 21
2.7114468034982497
 31
0.0
  0
LINE
  5
146
100
AcDbEntity
  8
0
  6
ByBlock
 62
               0
100
AcDbLine
 10
9.0894581866760689
 20
2.0183903748105938
 30
0.0
 11
10.781609625189418
 21
3.7105418133239421
 31
0.0
  0
LINE
  5
147
100
AcDbEntity
  8
0
  6
ByBlock
 62
               0
100
AcDbLine
 10
8.8753332304736308
 20
3.2184789809812502
 30
0.0
 11
9.5815210190187603
 21
3.9246667695263793
 31
0.0
  0
LINE
  5
148
100
AcDbEntity
  8
0
  6
ByBlock
 62
               0
100
AcDbLine
 10
9.6664081452160548
 20
1.6473003537687045
 30
0.0
 11
8.8473003537686932
 21
2.4664081452160667
 31
0.0
  0
LINE
  5
149
100
AcDbEntity
  8
0
  6
ByBlock
 62
               0
100
AcDbLine
 10
10.811723493100006
 20
1.9161985682578493
 30
0.0
 11
9.1161985682578379
 21
3.6117234931000182
 31
0.0
  0
LINE
  5
14A
100
AcDbEntity
  8
0
  6
ByBlock
 62
               0
100
AcDbLine
 10
11.190363480900054
 20
2.9517721428308965
 30
0.0
 11
10.151772142830884
 21
3.9903634809000663
 31
0.0
  0
ENDBLK
  5
14B
100
AcDbEntity
  8
0
  6
ByBlock
 62
               0
100
AcDbBlockEnd
  0
BLOCK
  5
1DA
100
AcDbEntity
  8
0
  6
ByBlock
 62
               0
100
AcDbBlockBegin
  2
*X11
 70
               1
 10
0.0
 20
0.0
 30
0.0
  3
*X11
  1

  0
LINE
  5
1DB
100
AcDbEntity
  8
0
  6
ByBlock
 62
               0
100
AcDbLine
 10
10.119692732885158
 20
-1.1940157660996027
 30
0.0
 11
11.194015766099616
 21
-0.1196927328851443
 31
0.0
  0
LINE
  5
1DC
100
AcDbEntity
  8
0
  6
ByBlock
 62
               0
100
AcDbLine
 10
9.1027086952509606
 20
-0.7967862413607038
 30
0.0
 11
10.796786241360717
 21
0.8972913047490526
 31
0.0
  0
LINE
  5
1DD
100
AcDbEntity
  8
0
  6
ByBlock
 62
               0
100
AcDbLine
 10
8.8600091787553712
 20
0.374727804516799
 30
0.0
 11
9.6252721954832143
 21
1.1399908212446421
 31
0.0
  0
LINE
  5
1DE
100
AcDbEntity
  8
0
  6
ByBlock
 62
               0
100
AcDbLine
 10
9.6252721954831699
 20
-1.1399908212445997
 30
0.0
 11
8.8600091787553872
 21
-0.3747278045168172
 31
0.0
  0
LINE
  5
1DF
100
AcDbEntity
  8
0
  6
ByBlock
 62
               0
100
AcDbLine
 10
10.796786241360703
 20
-0.8972913047490397
 30
0.0
 11
9.1027086952509464
 21
0.7967862413607164
 31
0.0
  0
LINE
  5
1E0
100
AcDbEntity
  8
0
  6
ByBlock
 62
               0
100
AcDbLine
 10
11.194015766099621
 20
0.1196927328851398
 30
0.0
 11
10.119692732885127
 21
1.1940157660996349
 31
0.0
  0
ENDBLK
  5
1E1
100
AcDbEntity
  8
0
  6
ByBlock
 62
               0
100
AcDbBlockEnd
  0
BLOCK
  5
2A4
100
AcDbEntity
  8
0
  6
ByBlock
 62
               0
100
AcDbBlockBegin
  2
*X12
 70
               1
 10
0.0
 20
0.0
 30
0.0
  3
*X12
  1

  0
LINE
  5
2A5
100
AcDbEntity
  8
0
  6
ByBlock
 62
               0
100
AcDbLine
 10
9.8392436280267042
 20
7.0108165032805143
 30
0.0
 11
11.189183496719473
 21
8.3607563719732827
 31
0.0
  0
LINE
  5
2A6
100
AcDbEntity
  8
0
  6
ByBlock
 62
               0
100
AcDbLine
 10
8.9807943668202981
 20
7.5665808044472023
 30
0.0
 11
10.633419195552785
 21
9.2192056331796888
 31
0.0
  0
LINE
  5
2A7
100
AcDbEntity
  8
0
  6
ByBlock
 62
               0
100
AcDbLine
 10
9.9701924881199702
 20
7.0003702603571707
 30
0.0
 11
8.8003702603571821
 21
8.1701924881199588
 31
0.0
  0
LINE
  5
2A8
100
AcDbEntity
  8
0
  6
ByBlock
 62
               0
100
AcDbLine
 10
10.935871663703223
 20
7.4489046471470131
 30
0.0
 11
9.2489046471470253
 21
9.1358716637032096
 31
0.0
  0
LINE
  5
2A9
100
AcDbEntity
  8
0
  6
ByBlock
 62
               0
100
AcDbLine
 10
11.083762145997996
 20
8.7152277272253329
 30
0.0
 11
10.515227727225346
 21
9.2837621459979829
 31
0.0
  0
ENDBLK
  5
2AA
100
AcDbEntity
  8
0
  6
ByBlock
 62
               0
100
AcDbBlockEnd
  0
BLOCK
  5
2FB
100
AcDbEntity
  8
0
  6
ByBlock
 62
               0
100
AcDbBlockBegin
  2
*X13
 70
               1
 10
0.0
 20
0.0
 30
0.0
  3
*X13
  1

  0
LINE
  5
2FC
100
AcDbEntity
  8
0
  6
ByBlock
 62
               0
100
AcDbLine
 10
10.08855319650176
 20
1.603271822263189
 30
0.0
 11
11.196728177736821
 21
2.7114468034982497
 31
0.0
  0
LINE
  5
2FD
100
AcDbEntity
  8
0
  6
ByBlock
 62
               0
100
AcDbLine
 10
9.0894581866760689
 20
2.0183903748105938
 30
0.0
 11
10.781609625189418
 21
3.7105418133239421
 31
0.0
  0
LINE
  5
2FE
100
AcDbEntity
  8
0
  6
ByBlock
 62
               0
100
AcDbLine
 10
8.8753332304736308
 20
3.2184789809812502
 30
0.0
 11
9.5815210190187603
 21
3.9246667695263793
 31
0.0
  0
LINE
  5
2FF
100
AcDbEntity
  8
0
  6
ByBlock
 62
               0
100
AcDbLine
 10
9.6664081452160548
 20
1.6473003537687045
 30
0.0
 11
8.8473003537686932
 21
2.4664081452160667
 31
0.0
  0
LINE
  5
300
100
AcDbEntity
  8
0
  6
ByBlock
 62
               0
100
AcDbLine
 10
10.811723493100006
 20
1.9161985682578493
 30
0.0
 11
9.1161985682578379
 21
3.6117234931000182
 31
0.0
  0
LINE
  5
301
100
AcDbEntity
  8
0
  6
ByBlock
 62
               0
100
AcDbLine
 10
11.190363480900054
 20
2.9517721428308965
 30
0.0
 11
10.151772142830884
 21
3.9903634809000663
 31
0.0
  0
ENDBLK
  5
302
100
AcDbEntity
  8
0
  6
ByBlock
 62
               0
100
AcDbBlockEnd
  0
BLOCK
  5
327
100
AcDbEntity
  8
0
  6
ByBlock
 62
               0
100
AcDbBlockBegin
  2
_OPEN30
 70
               2
 10
0.0
 20
0.0
 30
0.0
  3
_OPEN30
  1

  0
LINE
  5
328
100
AcDbEntity
  8
0
  6
ByBlock
 62
               0
100
AcDbLine
 10
-1.0
 20
0.267949
 30
0.0
 11
0.0
 21
0.0
 31
0.0
  0
LINE
  5
329
100
AcDbEntity
  8
0
  6
ByBlock
 62
               0
100
AcDbLine
 10
0.0
 20
0.0
 30
0.0
 11
-1.0
 21
-0.267949
 31
0.0
  0
LINE
  5
32A
100
AcDbEntity
  8
0
  6
ByBlock
 62
               0
100
AcDbLine
 10
0.0
 20
0.0
 30
0.0
 11
-1.0
 21
0.0
 31
0.0
  0
ENDBLK
  5
32B
100
AcDbEntity
  8
0
  6
ByBlock
 62
               0
100
AcDbBlockEnd
  0
ENDSEC
  0
SECTION
  2
ENTITIES
  0
LEADER
  5
325
100
AcDbEntity
  8
0
 62
               2
100
AcDbLeader
  3
MXDIMSTYLE
 73
               3
 74
               0
 75
               0
 40
0.0
 76
               3
 10
81.061088217089889
 20
-33.466349197301085
 30
0.0
 10
88.430106290303712
 20
-46.229862902000804
 30
0.0
 10
93.430106290303712
 20
-46.229862902000804
 30
0.0
 77
               2
1001
ACAD
1000
DSTYLE
1002
{
1070
               6
1000
_OPEN30
1070
               7
1000
_OPEN30
1070
              41
1040
2.77
1070
             173
1070
               1
1002
}
  0
MTEXT
  5
32C
100
AcDbEntity
  8
0
 62
               2
100
AcDbMText
 10
88.430106290303712
 20
-43.198612902000804
 30
0.0
 40
2.5
 41
0.0
 71
               4
 72
               1
  1
\A1;-R
  7
MX_NOTE_STANDARD
  0
LEADER
  5
32D
100
AcDbEntity
  8
0
 62
               2
100
AcDbLeader
  3
MXDIMSTYLE
 73
               3
 74
               0
 75
               0
 40
0.0
 76
               3
 10
79.561088217089889
 20
45.531727014052223
 30
0.0
 10
74.806021931963272
 20
53.767743413249349
 30
0.0
 10
69.689113031523533
 20
53.767743413249349
 30
0.0
 77
               2
1001
ACAD
1000
DSTYLE
1002
{
1070
               6
1000
_OPEN30
1070
               7
1000
_OPEN30
1070
              41
1040
2.77
1070
             173
1070
               1
1002
}
  0
MTEXT
  5
32E
100
AcDbEntity
  8
0
 62
               2
100
AcDbMText
 10
69.689113031523533
 20
56.798993413249349
 30
0.0
 40
2.5
 41
0.0
 71
               4
 72
               1
  1
\A1;-L
  7
MX_NOTE_STANDARD
  0
LINE
  5
32F
100
AcDbEntity
  8
0
  6
CONTINUOUS
 62
               7
100
AcDbLine
 10
-0.024993896484375
 20
84.5
 30
0.0
 11
-0.024993896484375
 21
-84.800003051757813
 31
0.0
  0
MTEXT
  5
330
100
AcDbEntity
  8
0
  6
CONTINUOUS
 62
               3
100
AcDbMText
 10
76.545401139387494
 20
21.415718580895771
 30
0.0
 40
3.2000000476837158
 41
0.0
 71
               4
 72
               1
  1
\W1.065;\A1;STRETCH LINE
  7
MX_NOTE_STANDARD
  0
LEADER
  5
331
100
AcDbEntity
  8
0
 62
               2
100
AcDbLeader
  3
MXDIMSTYLE
 73
               3
 74
               0
 75
               0
 40
0.0
 76
               3
 10
-53.938911782910118
 20
-33.466349197301085
 30
0.0
 10
-46.569893709696281
 20
-46.229862902000804
 30
0.0
 10
-41.569893709696281
 20
-46.229862902000804
 30
0.0
 77
               2
1001
ACAD
1000
DSTYLE
1002
{
1070
               6
1000
_OPEN30
1070
               7
1000
_OPEN30
1070
              41
1040
2.77
1070
             173
1070
               1
1002
}
  0
MTEXT
  5
332
100
AcDbEntity
  8
0
 62
               2
100
AcDbMText
 10
-46.569893709696281
 20
-43.198612902000804
 30
0.0
 40
2.5
 41
0.0
 71
               4
 72
               1
  1
\A1;-R
  7
MX_NOTE_STANDARD
  0
LEADER
  5
333
100
AcDbEntity
  8
0
 62
               2
100
AcDbLeader
  3
MXDIMSTYLE
 73
               3
 74
               0
 75
               0
 40
0.0
 76
               3
 10
-55.438911782910111
 20
45.531727014052223
 30
0.0
 10
-60.193978068036728
 20
53.767743413249349
 30
0.0
 10
-65.310886968476467
 20
53.767743413249349
 30
0.0
 77
               2
1001
ACAD
1000
DSTYLE
1002
{
1070
               6
1000
_OPEN30
1070
               7
1000
_OPEN30
1070
              41
1040
2.77
1070
             173
1070
               1
1002
}
  0
MTEXT
  5
334
100
AcDbEntity
  8
0
 62
               2
100
AcDbMText
 10
-65.310886968476467
 20
56.798993413249349
 30
0.0
 40
2.5
 41
0.0
 71
               4
 72
               1
  1
\A1;-L
  7
MX_NOTE_STANDARD
  0
INSERT
  5
335
100
AcDbEntity
  8
0
100
AcDbBlockReference
  2
MS_8
 10
70.311088217089889
 20
-34.967311091624438
 30
0.0
  0
INSERT
  5
336
100
AcDbEntity
  8
0
100
AcDbBlockReference
  2
MS_7
 10
70.311088217089889
 20
36.032688908375562
 30
0.0
  0
INSERT
  5
337
100
AcDbEntity
  8
0
100
AcDbBlockReference
  2
MS_6
 10
29.311088217089889
 20
1.0326889083755617
 30
0.0
  0
INSERT
  5
338
100
AcDbEntity
  8
0
100
AcDbBlockReference
  2
MS_5
 10
70.311088217089889
 20
1.0326889083755617
 30
0.0
  0
INSERT
  5
339
100
AcDbEntity
  8
0
100
AcDbBlockReference
  2
MS_4
 10
-64.688911782910111
 20
-34.967311091624438
 30
0.0
  0
INSERT
  5
33A
100
AcDbEntity
  8
0
100
AcDbBlockReference
  2
MS_3
 10
-64.688911782910111
 20
36.032688908375562
 30
0.0
  0
INSERT
  5
33B
100
AcDbEntity
  8
0
100
AcDbBlockReference
  2
MS_2
 10
-105.68891178291011
 20
1.0326889083755617
 30
0.0
  0
INSERT
  5
33C
100
AcDbEntity
  8
0
100
AcDbBlockReference
  2
MS_1
 10
-64.688911782910111
 20
1.0326889083755617
 30
0.0
  0
LINE
  5
33D
100
AcDbEntity
  8
0
  6
CONTINUOUS
 62
               7
100
AcDbLine
 10
-133.39999389648437
 20
-89.800003051757812
 30
0.0
 11
-78.999993896484384
 21
-89.800003051757812
 31
0.0
  0
LINE
  5
33E
100
AcDbEntity
  8
0
  6
CONTINUOUS
 62
               7
100
AcDbLine
 10
-133.39999389648437
 20
-77.800003051757812
 30
0.0
 11
-133.39999389648437
 21
-89.800003051757812
 31
0.0
  0
LINE
  5
33F
100
AcDbEntity
  8
0
  6
CONTINUOUS
 62
               7
100
AcDbLine
 10
-133.39999389648437
 20
-83.800003051757813
 30
0.0
 11
-78.999993896484384
 21
-83.800003051757813
 31
0.0
  0
LINE
  5
340
100
AcDbEntity
  8
0
  6
CONTINUOUS
 62
               7
100
AcDbLine
 10
-133.39999389648437
 20
-77.800003051757812
 30
0.0
 11
-78.999993896484384
 21
-77.800003051757812
 31
0.0
  0
MTEXT
  5
341
100
AcDbEntity
  8
0
  6
CONTINUOUS
 62
               7
100
AcDbMText
 10
-129.6666606982549
 20
-80.800003051757813
 30
0.0
 40
3.2000000476837158
 41
0.0
 71
               4
 72
               1
  1
\A1;STROKE
  7
MX_NOTE_STANDARD
  0
MTEXT
  5
342
100
AcDbEntity
  8
0
  6
CONTINUOUS
 62
               7
100
AcDbMText
 10
-131.26666072209676
 20
-86.800003051757813
 30
0.0
 40
3.2000000476837158
 41
0.0
 71
               4
 72
               1
  1
\A1;STRETCH
  7
MX_NOTE_STANDARD
  0
LINE
  5
343
100
AcDbEntity
  8
0
  6
CONTINUOUS
 62
               7
100
AcDbLine
 10
-107.79999389648438
 20
-77.800003051757812
 30
0.0
 11
-107.79999389648438
 21
-89.800003051757812
 31
0.0
  0
LINE
  5
344
100
AcDbEntity
  8
0
  6
CONTINUOUS
 62
               7
100
AcDbLine
 10
-98.199993896484386
 20
-77.800003051757812
 30
0.0
 11
-98.199993896484386
 21
-89.800003051757812
 31
0.0
  0
LINE
  5
345
100
AcDbEntity
  8
0
  6
CONTINUOUS
 62
               7
100
AcDbLine
 10
-88.599993896484378
 20
-77.800003051757812
 30
0.0
 11
-88.599993896484378
 21
-89.800003051757812
 31
0.0
  0
LINE
  5
346
100
AcDbEntity
  8
0
  6
CONTINUOUS
 62
               7
100
AcDbLine
 10
-78.999993896484384
 20
-77.800003051757812
 30
0.0
 11
-78.999993896484384
 21
-89.800003051757812
 31
0.0
  0
MTEXT
  5
347
100
AcDbEntity
  8
0
  6
CONTINUOUS
 62
               7
100
AcDbMText
 10
-104.06666057904562
 20
-80.800003051757813
 30
0.0
 40
3.2000000476837158
 41
0.0
 71
               4
 72
               1
  1
\A1;4
  7
MX_NOTE_STANDARD
  0
MTEXT
  5
348
100
AcDbEntity
  8
0
  6
CONTINUOUS
 62
               7
100
AcDbMText
 10
-94.466660579045623
 20
-80.800003051757813
 30
0.0
 40
3.2000000476837158
 41
0.0
 71
               4
 72
               1
  1
\A1;6
  7
MX_NOTE_STANDARD
  0
MTEXT
  5
349
100
AcDbEntity
  8
0
  6
CONTINUOUS
 62
               7
100
AcDbMText
 10
-84.866660579045629
 20
-80.800003051757813
 30
0.0
 40
3.2000000476837158
 41
0.0
 71
               4
 72
               1
  1
\A1;8
  7
MX_NOTE_STANDARD
  0
MTEXT
  5
34A
100
AcDbEntity
  8
0
  6
CONTINUOUS
 62
               7
100
AcDbMText
 10
-84.759993895530727
 20
-86.800003051757813
 30
0.0
 40
3.2000000476837158
 41
0.0
 71
               4
 72
               1
  1
\W1.200;\A1;0
  7
MX_NOTE_STANDARD
  0
MTEXT
  5
34B
100
AcDbEntity
  8
0
  6
CONTINUOUS
 62
               7
100
AcDbMText
 10
-96.066660602887481
 20
-86.800003051757813
 30
0.0
 40
3.2000000476837158
 41
0.0
 71
               4
 72
               1
  1
\A1;-2
  7
MX_NOTE_STANDARD
  0
MTEXT
  5
34C
100
AcDbEntity
  8
0
  6
CONTINUOUS
 62
               7
100
AcDbMText
 10
-105.66666060288748
 20
-86.800003051757813
 30
0.0
 40
3.2000000476837158
 41
0.0
 71
               4
 72
               1
  1
\A1;-4
  7
MX_NOTE_STANDARD
  0
MTEXT
  5
34D
100
AcDbEntity
  8
0
  6
CONTINUOUS
 62
               7
100
AcDbMText
 10
-88.023993985366843
 20
-75.800003051757813
 30
0.0
 40
3.2000000476837158
 41
0.0
 71
               4
 72
               1
  1
\W1.200;\A1;(mm)
  7
MX_NOTE_STANDARD
  0
MTEXT
  5
34E
100
AcDbEntity
  8
0
  6
CONTINUOUS
 62
               7
100
AcDbMText
 10
-129.6319468378457
 20
-74.800003051757813
 30
0.0
 40
3.2000000476837158
 41
0.0
 71
               4
 72
               1
  1
\W1.065;\A1;STRETCH LIST
  7
MX_NOTE_STANDARD
  0
MTEXT
  5
34F
100
AcDbEntity
  8
0
  6
CONTINUOUS
 62
               3
100
AcDbMText
 10
-58.454598860612506
 20
59.915432047944449
 30
0.0
 40
3.2000000476837158
 41
0.0
 71
               4
 72
               1
  1
\W1.065;\A1;STRETCH LINE
  7
MX_NOTE_STANDARD
  0
MTEXT
  5
350
100
AcDbEntity
  8
0
  6
CONTINUOUS
 62
               7
100
AcDbMText
 10
-62.228569271613139
 20
68.5
 30
0.0
 40
3.1999998092651367
 41
0.0
 71
               4
 72
               1
  1
\W1.071;\A1;ZE155
  7
MX_NOTE_STANDARD
  0
MTEXT
  5
351
100
AcDbEntity
  8
0
  6
CONTINUOUS
 62
               7
100
AcDbMText
 10
76.108335494995117
 20
68.5
 30
0.0
 40
3.1999998092651367
 41
0.0
 71
               4
 72
               1
  1
\A1;ZE255
  7
MX_NOTE_STANDARD
  0
MTEXT
  5
352
100
AcDbEntity
  8
0
  6
CONTINUOUS
 62
               7
100
AcDbMText
 10
8.9527839407876684
 20
74.5
 30
0.0
 40
3.1999998092651367
 41
0.0
 71
               4
 72
               1
  1
\W1.083;\A1;MODEL:MBSAS4.5*ST(8)-ZE235
  7
MX_NOTE_STANDARD
  0
MTEXT
  5
353
100
AcDbEntity
  8
0
  6
CONTINUOUS
 62
               7
100
AcDbMText
 10
-129.41407834505
 20
74.5
 30
0.0
 40
3.1999998092651367
 41
0.0
 71
               4
 72
               1
  1
\W1.099;\A1;MODEL:MBSAS4.5*ST(8)-ZE135
  7
MX_NOTE_STANDARD
  0
MTEXT
  5
354
100
AcDbEntity
  8
0
  6
CONTINUOUS
 62
               7
100
AcDbMText
 10
-130.90186156846724
 20
91.099999904632568
 30
0.0
 40
3.1999998092651367
 41
0.0
 71
               1
 72
               1
  1
\W1.121;\A1;MINIBIT CYLINDER
  7
MX_NOTE_STANDARD
  0
LINE
  5
355
100
AcDbEntity
  8
0
  6
CONTINUOUS
 62
               7
100
AcDbLine
 10
-138.39999389648437
 20
94.5
 30
0.0
 11
138.35000610351562
 21
94.5
 31
0.0
  0
LINE
  5
356
100
AcDbEntity
  8
0
  6
CONTINUOUS
 62
               7
100
AcDbLine
 10
138.35000610351562
 20
94.5
 30
0.0
 11
138.35000610351562
 21
-94.800003051757812
 31
0.0
  0
LINE
  5
357
100
AcDbEntity
  8
0
  6
CONTINUOUS
 62
               7
100
AcDbLine
 10
-138.39999389648437
 20
-94.800003051757812
 30
0.0
 11
138.35000610351562
 21
-94.800003051757812
 31
0.0
  0
LINE
  5
358
100
AcDbEntity
  8
0
  6
CONTINUOUS
 62
               7
100
AcDbLine
 10
-138.39999389648437
 20
94.5
 30
0.0
 11
-138.39999389648437
 21
-94.800003051757812
 31
0.0
  0
LINE
  5
359
100
AcDbEntity
  8
0
  6
CONTINUOUS
 62
               7
100
AcDbLine
 10
73.350006103515625
 20
-84.800003051757813
 30
0.0
 11
138.35000610351562
 21
-84.800003051757813
 31
0.0
  0
LINE
  5
35A
100
AcDbEntity
  8
0
  6
CONTINUOUS
 62
               7
100
AcDbLine
 10
-138.39999389648437
 20
84.5
 30
0.0
 11
-73.399993896484375
 21
84.5
 31
0.0
  0
LINE
  5
35B
100
AcDbEntity
  8
0
  6
CONTINUOUS
 62
               7
100
AcDbLine
 10
73.350006103515625
 20
84.5
 30
0.0
 11
138.35000610351562
 21
84.5
 31
0.0
  0
LINE
  5
35C
100
AcDbEntity
  8
0
  6
CONTINUOUS
 62
               7
100
AcDbLine
 10
73.350006103515625
 20
-84.800003051757813
 30
0.0
 11
73.350006103515625
 21
-94.800003051757812
 31
0.0
  0
LINE
  5
35D
100
AcDbEntity
  8
0
  6
CONTINUOUS
 62
               7
100
AcDbLine
 10
73.350006103515625
 20
94.5
 30
0.0
 11
73.350006103515625
 21
84.5
 31
0.0
  0
LINE
  5
35E
100
AcDbEntity
  8
0
  6
CONTINUOUS
 62
               7
100
AcDbLine
 10
-73.399993896484375
 20
94.5
 30
0.0
 11
-73.399993896484375
 21
84.5
 31
0.0
  0
MTEXT
  5
35F
100
AcDbEntity
  8
0
  6
CONTINUOUS
 62
               7
100
AcDbMText
 10
77.440529363489745
 20
-89.800003051757812
 30
0.0
 40
4.5
 41
0.0
 71
               4
 72
               1
  1
\W1.121;\A1;KOGANEI CORP.
  7
MX_NOTE_STANDARD
  0
MTEXT
  5
360
100
AcDbEntity
  8
0
  6
CONTINUOUS
 62
               7
100
AcDbMText
 10
93.749460369842424
 20
89.5
 30
0.0
 40
3.1999998092651367
 41
0.0
 71
               4
 72
               1
  1
\W1.311;\A1;Ver. 1.0
  7
MX_NOTE_STANDARD
  0
ENDSEC
  0
SECTION
  2
OBJECTS
  0
DICTIONARY
  5
19
100
AcDbDictionary
  3
ACAD_GROUP
350
1A
  3
ACAD_MLINESTYLE
350
1B
  0
DICTIONARY
  5
1A
102
{ACAD_REACTORS
330
19
102
}
100
AcDbDictionary
  0
DICTIONARY
  5
1B
102
{ACAD_REACTORS
330
19
102
}
100
AcDbDictionary
  3
STANDARD
350
1C
  0
MLINESTYLE
  5
1C
102
{ACAD_REACTORS
330
1B
102
}
100
AcDbMlineStyle
  2
Standard
 70
               0
  3

 62
               0
 51
90.0
 52
90.0
 71
               2
 49
0.5
 62
             256
  6
ByLayer
 49
-0.5
 62
             256
  6
ByLayer
  0
ENDSEC
  0
EOF
