  0
SECTION
  2
HEADER
  9
$ACADVER
  1
AC1012
  9
$DWGCODEPAGE
  3
dos932
  9
$INSBASE
 10
0.0
 20
0.0
 30
0.0
  9
$EXTMIN
 10
-194.25
 20
-133.5
 30
0.0
  9
$EXTMAX
 10
194.80000305
 20
132.6000061
 30
0.0
  9
$LIMMIN
 10
-194.25
 20
-133.5
  9
$LIMMAX
 10
194.80000305
 20
132.6000061
  9
$ORTHOMODE
 70
       0
  9
$REGENMODE
 70
       1
  9
$FILLMODE
 70
       1
  9
$QTEXTMODE
 70
       0
  9
$MIRRTEXT
 70
       1
  9
$DRAGMODE
 70
       2
  9
$LTSCALE
 40
1.0
  9
$OSMODE
 70
       0
  9
$ATTMODE
 70
       1
  9
$TEXTSIZE
 40
3.20000005
  9
$TRACEWID
 40
0.05
  9
$TEXTSTYLE
  7
MX_NOTE_STANDARD
  9
$CLAYER
  8
0
  9
$CELTYPE
  6
CONTINUOUS
  9
$CECOLOR
 62
     256
  9
$CELTSCALE
 40
1.0
  9
$DELOBJ
 70
       1
  9
$DISPSILH
 70
       0
  9
$DIMSCALE
 40
1.0
  9
$DIMASZ
 40
2.5
  9
$DIMEXO
 40
1.5
  9
$DIMDLI
 40
3.75
  9
$DIMRND
 40
0.0
  9
$DIMDLE
 40
0.0
  9
$DIMEXE
 40
1.5
  9
$DIMTP
 40
0.0
  9
$DIMTM
 40
0.0
  9
$DIMTXT
 40
3.20000005
  9
$DIMCEN
 40
2.5
  9
$DIMTSZ
 40
0.0
  9
$DIMTOL
 70
       0
  9
$DIMLIM
 70
       0
  9
$DIMTIH
 70
       0
  9
$DIMTOH
 70
       0
  9
$DIMSE1
 70
       0
  9
$DIMSE2
 70
       0
  9
$DIMTAD
 70
       1
  9
$DIMZIN
 70
       8
  9
$DIMBLK
  1

  9
$DIMASO
 70
       1
  9
$DIMSHO
 70
       1
  9
$DIMPOST
  1

  9
$DIMAPOST
  1

  9
$DIMALT
 70
       0
  9
$DIMALTD
 70
       4
  9
$DIMALTF
 40
0.03937008
  9
$DIMLFAC
 40
1.0
  9
$DIMTOFL
 70
       1
  9
$DIMTVP
 40
0.0
  9
$DIMTIX
 70
       0
  9
$DIMSOXD
 70
       0
  9
$DIMSAH
 70
       0
  9
$DIMBLK1
  1

  9
$DIMBLK2
  1

  9
$DIMSTYLE
  2
MXDIMSTYLE
  9
$DIMCLRD
 70
       0
  9
$DIMCLRE
 70
       0
  9
$DIMCLRT
 70
       0
  9
$DIMTFAC
 40
1.0
  9
$DIMGAP
 40
1.0
  9
$DIMJUST
 70
       0
  9
$DIMSD1
 70
       0
  9
$DIMSD2
 70
       0
  9
$DIMTOLJ
 70
       1
  9
$DIMTZIN
 70
       0
  9
$DIMALTZ
 70
       0
  9
$DIMALTTZ
 70
       0
  9
$DIMFIT
 70
       3
  9
$DIMUPT
 70
       1
  9
$DIMUNIT
 70
       2
  9
$DIMDEC
 70
       4
  9
$DIMTDEC
 70
       4
  9
$DIMALTU
 70
       2
  9
$DIMALTTD
 70
       4
  9
$DIMTXSTY
  7
MX_NOTE_STANDARD
  9
$DIMAUNIT
 70
       0
  9
$LUNITS
 70
       2
  9
$LUPREC
 70
       4
  9
$SKETCHINC
 40
0.1
  9
$FILLETRAD
 40
0.0
  9
$AUNITS
 70
       0
  9
$AUPREC
 70
       0
  9
$MENU
  1
acad
  9
$ELEVATION
 40
0.0
  9
$PELEVATION
 40
0.0
  9
$THICKNESS
 40
0.0
  9
$LIMCHECK
 70
       0
  9
$BLIPMODE
 70
       1
  9
$CHAMFERA
 40
0.0
  9
$CHAMFERB
 40
0.0
  9
$CHAMFERC
 40
0.0
  9
$CHAMFERD
 40
0.0
  9
$SKPOLY
 70
       0
  9
$TDCREATE
 40
2453257.700625000
  9
$TDUPDATE
 40
2453257.700625000
  9
$TDINDWG
 40
0.0000000000
  9
$TDUSRTIMER
 40
0.0000000000
  9
$USRTIMER
 70
       1
  9
$ANGBASE
 50
0.0
  9
$ANGDIR
 70
       0
  9
$PDMODE
 70
       0
  9
$PDSIZE
 40
0.0
  9
$PLINEWID
 40
0.0
  9
$COORDS
 70
       1
  9
$SPLFRAME
 70
       0
  9
$SPLINETYPE
 70
       6
  9
$SPLINESEGS
 70
       8
  9
$ATTDIA
 70
       0
  9
$ATTREQ
 70
       1
  9
$HANDLING
 70
       1
  9
$HANDSEED
  5
1C0
  9
$SURFTAB1
 70
       6
  9
$SURFTAB2
 70
       6
  9
$SURFTYPE
 70
       6
  9
$SURFU
 70
       6
  9
$SURFV
 70
       6
  9
$UCSNAME
  2

  9
$UCSORG
 10
0.0
 20
0.0
 30
0.0
  9
$UCSXDIR
 10
1.0
 20
0.0
 30
0.0
  9
$UCSYDIR
 10
0.0
 20
1.0
 30
0.0
  9
$PUCSNAME
  2

  9
$PUCSORG
 10
0.0
 20
0.0
 30
0.0
  9
$PUCSXDIR
 10
1.0
 20
0.0
 30
0.0
  9
$PUCSYDIR
 10
0.0
 20
1.0
 30
0.0
  9
$USERI1
 70
       0
  9
$USERI2
 70
       0
  9
$USERI3
 70
       0
  9
$USERI4
 70
       0
  9
$USERI5
 70
       0
  9
$USERR1
 40
0.0
  9
$USERR2
 40
0.0
  9
$USERR3
 40
0.0
  9
$USERR4
 40
0.0
  9
$USERR5
 40
0.0
  9
$WORLDVIEW
 70
       1
  9
$SHADEDGE
 70
       3
  9
$SHADEDIF
 70
      70
  9
$TILEMODE
 70
       1
  9
$MAXACTVP
 70
      16
  9
$PINSBASE
 10
0.0
 20
0.0
 30
0.0
  9
$PLIMCHECK
 70
       0
  9
$PEXTMIN
 10
1.00000000E+20
 20
1.00000000E+20
 30
1.00000000E+20
  9
$PEXTMAX
 10
-1.00000000E+20
 20
-1.00000000E+20
 30
-1.00000000E+20
  9
$PLIMMIN
 10
0.0
 20
0.0
  9
$PLIMMAX
 10
12.0
 20
9.0
  9
$UNITMODE
 70
       0
  9
$VISRETAIN
 70
       0
  9
$PLINEGEN
 70
       1
  9
$PSLTSCALE
 70
       0
  9
$TREEDEPTH
 70
    3020
  9
$PICKSTYLE
 70
       1
  9
$CMLSTYLE
  2
Standard
  9
$CMLJUST
 70
       0
  9
$CMLSCALE
 40
1.0
  9
$SAVEIMAGES
 70
       0
  0
ENDSEC
  0
SECTION
  2
CLASSES
  0
CLASS
  1
LWPOLYLINE
  2
AcDbPolyline
  3
"AutoCAD"
 90
        0
280
       0
281
       1
  0
CLASS
  1
IMAGE
  2
AcDbRasterImage
  3
ISM
 90
      127
280
       0
281
       1
  0
CLASS
  1
OLE2FRAME
  2
AcDbOle2Frame
  3
""
 90
        0
280
       0
281
       1
  0
CLASS
  1
HATCH
  2
AcDbHatch
  3
"ACAD_SEDONA"
 90
        0
280
       0
281
       1
  0
CLASS
  1
DICTIONARYVAR
  2
AcDbDictionaryVar
  3
"AutoCAD"
 90
        0
280
       0
281
       0
  0
CLASS
  1
RASTERVARIABLES
  2
AcDbRasterVariables
  3
ISM
 90
        0
280
       0
281
       0
  0
CLASS
  1
IMAGEDEF
  2
AcDbRasterImageDef
  3
ISM
 90
        0
280
       0
281
       0
  0
CLASS
  1
IMAGEDEF_REACTOR
  2
AcDbRasterImageDefReactor
  3
ISM
 90
        1
280
       0
281
       0
  0
CLASS
  1
IDBUFFER
  2
AcDbIdBuffer
  3
"Acad"
 90
        0
280
       0
281
       0
  0
CLASS
  1
SPATIAL_FILTER
  2
AcDbSpatialFilter
  3
"Acad"
 90
        0
280
       0
281
       0
  0
CLASS
  1
XRECORD
  2
AcDbXrecord
  3
"<Built In>"
 90
        0
280
       0
281
       0
  0
CLASS
  1
SORTENTSTABLE
  2
AcDbSortentsTable
  3
"AutoCAD"
 90
        0
280
       0
281
       0
  0
CLASS
  1
LAYER_INDEX
  2
AcDbLayerIndex
  3
"Acad"
 90
        0
280
       0
281
       0
  0
CLASS
  1
SPATIAL_INDEX
  2
AcDbSpatialIndex
  3
"Acad"
 90
        0
280
       0
281
       0
  0
CLASS
  1
OBJECT_PTR
  2
CAseDLPNTableRecord
  3
"ASE-LPNTableRecord"
 90
        1
280
       0
281
       0
  0
CLASS
  1
LAYOUT
  2
AcDbLayout
  3
"AutoCAD 2000"
 90
        1
280
       0
281
       0
  0
CLASS
  1
PLOTSETTINGS
  2
AcDbPlotSettings
  3
"AutoCAD 2000"
 90
        1
280
       0
281
       0
  0
CLASS
  1
ACDBDICTIONARYWDFLT
  2
AcDbDictionaryWithDefault
  3
"AutoCAD 2000"
 90
        1
280
       0
281
       0
  0
CLASS
  1
ACDBPLACEHOLDER
  2
AcDbPlaceHolder
  3
"AutoCAD 2000"
 90
        1
280
       0
281
       0
  0
ENDSEC
  0
SECTION
  2
TABLES
  0
TABLE
  2
VPORT
  5
7
100
AcDbSymbolTable
 70
       1
  0
VPORT
  5
15
100
AcDbSymbolTableRecord
100
AcDbViewportTableRecord
  2
*ACTIVE
 70
       0
 10
0.0
 20
0.0
 11
1.0
 21
1.0
 12
0.27500153
 22
-0.44999695
 13
0.0
 23
0.0
 14
1.0
 24
1.0
 15
0.0
 25
0.0
 16
0.0
 26
0.0
 36
1.0
 17
0.0
 27
0.0
 37
0.0
 40
268.76100616
 41
1.73205081
 42
50.0
 43
0.0
 44
0.0
 50
0.0
 51
0.0
 71
       0
 72
     100
 73
       1
 74
       1
 75
       0
 76
       0
 77
       0
 78
       0
  0
ENDTAB
  0
TABLE
  2
LTYPE
  5
4
100
AcDbSymbolTable
 70
       3
  0
LTYPE
  5
11
100
AcDbSymbolTableRecord
100
AcDbLinetypeTableRecord
  2
BYBLOCK
 70
      64
  3

 72
      65
 73
       0
 40
0.0
  0
LTYPE
  5
12
100
AcDbSymbolTableRecord
100
AcDbLinetypeTableRecord
  2
BYLAYER
 70
      64
  3

 72
      65
 73
       0
 40
0.0
  0
LTYPE
  5
13
100
AcDbSymbolTableRecord
100
AcDbLinetypeTableRecord
  2
CONTINUOUS
 70
      64
  3
Solid line
 72
      65
 73
       0
 40
0.0
  0
ENDTAB
  0
TABLE
  2
LAYER
  5
2
100
AcDbSymbolTable
 70
       2
  0
LAYER
  5
14
100
AcDbSymbolTableRecord
100
AcDbLayerTableRecord
  2
0
 70
       0
 62
       7
  6
CONTINUOUS
  0
LAYER
  5
1D
100
AcDbSymbolTableRecord
100
AcDbLayerTableRecord
  2
DEFPOINTS
 70
       0
 62
       7
  6
CONTINUOUS
  0
ENDTAB
  0
TABLE
  2
STYLE
  5
3
100
AcDbSymbolTable
 70
       1
  0
STYLE
  5
17
100
AcDbSymbolTableRecord
100
AcDbTextStyleTableRecord
  2
MX_NOTE_STANDARD
 70
       0
 40
0.0
 41
1.0
 50
0.0
 71
       0
 42
3.20000005
  3
txt.shx
  4
extfont.shx
  0
ENDTAB
  0
TABLE
  2
VIEW
  5
5
100
AcDbSymbolTable
 70
       0
  0
ENDTAB
  0
TABLE
  2
UCS
  5
6
100
AcDbSymbolTable
 70
       0
  0
ENDTAB
  0
TABLE
  2
APPID
  5
8
100
AcDbSymbolTable
 70
       1
  0
APPID
  5
16
100
AcDbSymbolTableRecord
100
AcDbRegAppTableRecord
  2
ACAD
 70
       0
  0
ENDTAB
  0
TABLE
  2
DIMSTYLE
  5
9
100
AcDbSymbolTable
 70
       1
  0
DIMSTYLE
105
18
100
AcDbSymbolTableRecord
100
AcDbDimStyleTableRecord
  2
MXDIMSTYLE
 70
       0
  3

  4

  5

  6

  7

 40
1.0
 41
2.5
 42
1.5
 43
3.75
 44
1.5
 45
0.0
 46
0.0
 47
0.0
 48
0.0
 71
       0
 72
       0
 73
       0
 74
       0
 75
       0
 76
       0
 77
       1
 78
       8
140
3.20000005
141
2.5
142
0.0
143
0.03937008
144
1.0
145
0.0
146
1.0
147
1.0
170
       0
171
       4
172
       1
173
       0
174
       0
175
       0
176
       0
177
       0
178
       0
270
       2
271
       4
272
       4
273
       2
274
       4
275
       0
280
       0
281
       0
282
       0
283
       1
284
       0
285
       0
286
       0
287
       3
288
       1
340
17
  0
ENDTAB
  0
TABLE
  2
BLOCK_RECORD
  5
1
100
AcDbSymbolTable
 70
       1
  0
BLOCK_RECORD
  5
A
100
AcDbSymbolTableRecord
100
AcDbBlockTableRecord
  2
*MODEL_SPACE
  0
BLOCK_RECORD
  5
B
100
AcDbSymbolTableRecord
100
AcDbBlockTableRecord
  2
*PAPER_SPACE
  0
BLOCK_RECORD
  5
6E
100
AcDbSymbolTableRecord
100
AcDbBlockTableRecord
  2
*X0
  0
ENDTAB
  0
ENDSEC
  0
SECTION
  2
BLOCKS
  0
BLOCK
  5
D
100
AcDbEntity
  8
0
100
AcDbBlockBegin
  2
*MODEL_SPACE
 70
       0
 10
0.0
 20
0.0
 30
0.0
  3
*MODEL_SPACE
  1

  0
ENDBLK
  5
E
100
AcDbEntity
  8
0
100
AcDbBlockEnd
  0
BLOCK
  5
F
100
AcDbEntity
 67
       1
  8
0
100
AcDbBlockBegin
  2
*PAPER_SPACE
 70
       0
 10
0.0
 20
0.0
 30
0.0
  3
*PAPER_SPACE
  1

  0
ENDBLK
  5
10
100
AcDbEntity
 67
       1
  8
0
100
AcDbBlockEnd
  0
BLOCK
  5
6F
100
AcDbEntity
  8
0
  6
ByBlock
 62
       0
100
AcDbBlockBegin
  2
*X0
 70
       1
 10
0.0
 20
0.0
 30
0.0
  3
*X0
  1

  0
LINE
  5
70
100
AcDbEntity
  8
0
  6
CONTINUOUS
 62
       0
100
AcDbLine
 10
-68.22877593
 20
-68.22877593
 30
0.0
 11
-67.86336454
 21
-67.86336454
 31
0.0
  0
LINE
  5
71
100
AcDbEntity
  8
0
  6
CONTINUOUS
 62
       0
100
AcDbLine
 10
-69.64298949
 20
-68.22877593
 30
0.0
 11
-67.86336454
 21
-66.44915098
 31
0.0
  0
LINE
  5
72
100
AcDbEntity
  8
0
  6
CONTINUOUS
 62
       0
100
AcDbLine
 10
-71.05720306
 20
-68.22877593
 30
0.0
 11
-67.86336454
 21
-65.03493742
 31
0.0
  0
LINE
  5
73
100
AcDbEntity
  8
0
  6
CONTINUOUS
 62
       0
100
AcDbLine
 10
-72.47141662
 20
-68.22877593
 30
0.0
 11
-68.67141662
 21
-64.42877593
 31
0.0
  0
LINE
  5
74
100
AcDbEntity
  8
0
  6
CONTINUOUS
 62
       0
100
AcDbLine
 10
-73.86336454
 20
-68.20651029
 30
0.0
 11
-70.08563018
 21
-64.42877593
 31
0.0
  0
LINE
  5
75
100
AcDbEntity
  8
0
  6
CONTINUOUS
 62
       0
100
AcDbLine
 10
-73.86336454
 20
-66.79229673
 30
0.0
 11
-71.49984374
 21
-64.42877593
 31
0.0
  0
LINE
  5
76
100
AcDbEntity
  8
0
  6
CONTINUOUS
 62
       0
100
AcDbLine
 10
-73.86336454
 20
-65.37808317
 30
0.0
 11
-72.91405731
 21
-64.42877593
 31
0.0
  0
LINE
  5
77
100
AcDbEntity
  8
0
  6
CONTINUOUS
 62
       0
100
AcDbLine
 10
-73.19258031
 20
-68.22877593
 30
0.0
 11
-73.86336454
 21
-67.55799169
 31
0.0
  0
LINE
  5
78
100
AcDbEntity
  8
0
  6
CONTINUOUS
 62
       0
100
AcDbLine
 10
-71.77836674
 20
-68.22877593
 30
0.0
 11
-73.86336454
 21
-66.14377813
 31
0.0
  0
LINE
  5
79
100
AcDbEntity
  8
0
  6
CONTINUOUS
 62
       0
100
AcDbLine
 10
-70.36415318
 20
-68.22877593
 30
0.0
 11
-73.86336454
 21
-64.72956457
 31
0.0
  0
LINE
  5
7A
100
AcDbEntity
  8
0
  6
CONTINUOUS
 62
       0
100
AcDbLine
 10
-68.94993962
 20
-68.22877593
 30
0.0
 11
-72.74993962
 21
-64.42877593
 31
0.0
  0
LINE
  5
7B
100
AcDbEntity
  8
0
  6
CONTINUOUS
 62
       0
100
AcDbLine
 10
-67.86336454
 20
-67.90113745
 30
0.0
 11
-71.33572606
 21
-64.42877593
 31
0.0
  0
LINE
  5
7C
100
AcDbEntity
  8
0
  6
CONTINUOUS
 62
       0
100
AcDbLine
 10
-67.86336454
 20
-66.48692388
 30
0.0
 11
-69.92151249
 21
-64.42877593
 31
0.0
  0
LINE
  5
7D
100
AcDbEntity
  8
0
  6
CONTINUOUS
 62
       0
100
AcDbLine
 10
-67.86336454
 20
-65.07271032
 30
0.0
 11
-68.50729893
 21
-64.42877593
 31
0.0
  0
ENDBLK
  5
7E
100
AcDbEntity
  8
0
  6
ByBlock
 62
       0
100
AcDbBlockEnd
  0
ENDSEC
  0
SECTION
  2
ENTITIES
  0
CIRCLE
  5
1E
100
AcDbEntity
  8
0
  6
CONTINUOUS
 62
       7
100
AcDbCircle
 10
-70.86336454
 20
-83.82876067
 30
0.0
 40
3.0
  0
ARC
  5
1F
100
AcDbEntity
  8
0
  6
CONTINUOUS
 62
       7
100
AcDbCircle
 10
-64.66335997
 20
-62.62877135
 30
0.0
 40
0.79999542
100
AcDbArc
 50
359.99967215
 51
90.00032785
  0
ARC
  5
20
100
AcDbEntity
  8
0
  6
CONTINUOUS
 62
       7
100
AcDbCircle
 10
-77.06337675
 20
-62.62876372
 30
0.0
 40
0.79998779
100
AcDbArc
 50
89.99912572
 51
180.00087428
  0
CIRCLE
  5
21
100
AcDbEntity
  8
0
  6
CONTINUOUS
 62
       7
100
AcDbCircle
 10
-76.86336454
 20
-73.32876067
 30
0.0
 40
2.80000019
  0
CIRCLE
  5
22
100
AcDbEntity
  8
0
  6
CONTINUOUS
 62
       7
100
AcDbCircle
 10
-64.8633798
 20
-94.32876067
 30
0.0
 40
2.80000019
  0
ARC
  5
23
100
AcDbEntity
  8
0
  6
CONTINUOUS
 62
       7
100
AcDbCircle
 10
-73.16336607
 20
-70.82877441
 30
0.0
 40
0.49999847
100
AcDbArc
 50
89.99982515
 51
180.00017485
  0
ARC
  5
24
100
AcDbEntity
  8
0
  6
CONTINUOUS
 62
       7
100
AcDbCircle
 10
-79.36338133
 20
-77.02875915
 30
0.0
 40
0.49998322
100
AcDbArc
 50
89.99807655
 51
180.00192345
  0
ARC
  5
25
100
AcDbEntity
  8
0
  6
CONTINUOUS
 62
       7
100
AcDbCircle
 10
-62.36337065
 20
-90.62876983
 30
0.0
 40
0.5000061
100
AcDbArc
 50
270.00069941
 51
359.99930059
  0
ARC
  5
26
100
AcDbEntity
  8
0
  6
CONTINUOUS
 62
       7
100
AcDbCircle
 10
-68.56337065
 20
-96.82876983
 30
0.0
 40
0.5000061
100
AcDbArc
 50
270.00069941
 51
359.99930059
  0
ARC
  5
27
100
AcDbEntity
  8
0
  6
CONTINUOUS
 62
       7
100
AcDbCircle
 10
-64.8633798
 20
-94.32876067
 30
0.0
 40
3.19998474
100
AcDbArc
 50
89.99972679
 51
180.00027321
  0
ARC
  5
28
100
AcDbEntity
  8
0
  6
CONTINUOUS
 62
       7
100
AcDbCircle
 10
-76.86337217
 20
-73.3287683
 30
0.0
 40
3.20000763
100
AcDbArc
 50
270.0001366
 51
359.9998634
  0
ARC
  5
29
100
AcDbEntity
  8
0
  6
CONTINUOUS
 62
       7
100
AcDbCircle
 10
-62.3633798
 20
-96.82876067
 30
0.0
 40
0.50001526
100
AcDbArc
 50
270.00174848
 51
359.99825152
  0
ARC
  5
2A
100
AcDbEntity
  8
0
  6
CONTINUOUS
 62
       7
100
AcDbCircle
 10
-62.36337217
 20
-70.82878356
 30
0.0
 40
0.50000763
100
AcDbArc
 50
0.00087426
 51
89.99912574
  0
ARC
  5
2B
100
AcDbEntity
  8
0
  6
CONTINUOUS
 62
       7
100
AcDbCircle
 10
-79.36337217
 20
-70.8287683
 30
0.0
 40
0.49999237
100
AcDbArc
 50
89.99912573
 51
180.00087427
  0
ARC
  5
2C
100
AcDbEntity
  8
0
  6
CONTINUOUS
 62
       7
100
AcDbCircle
 10
-79.36337217
 20
-96.82878356
 30
0.0
 40
0.49999237
100
AcDbArc
 50
179.99912573
 51
270.00087427
  0
LINE
  5
2D
100
AcDbEntity
  8
0
  6
CONTINUOUS
 62
       7
100
AcDbLine
 10
-77.86336454
 20
-70.32877593
 30
0.0
 11
-77.86336454
 21
-62.62877593
 31
0.0
  0
LINE
  5
2E
100
AcDbEntity
  8
0
  6
CONTINUOUS
 62
       7
100
AcDbLine
 10
-63.86336454
 20
-70.32877593
 30
0.0
 11
-63.86336454
 21
-62.62877593
 31
0.0
  0
LINE
  5
2F
100
AcDbEntity
  8
0
  6
CONTINUOUS
 62
       7
100
AcDbLine
 10
-77.06336454
 20
-61.82877593
 30
0.0
 11
-64.66336454
 21
-61.82877593
 31
0.0
  0
LINE
  5
30
100
AcDbEntity
  8
0
  6
CONTINUOUS
 62
       7
100
AcDbLine
 10
-79.36336454
 20
-76.52877593
 30
0.0
 11
-76.86336454
 21
-76.52877593
 31
0.0
  0
LINE
  5
31
100
AcDbEntity
  8
0
  6
CONTINUOUS
 62
       7
100
AcDbLine
 10
-73.66336454
 20
-73.32877593
 30
0.0
 11
-73.66336454
 21
-70.82877593
 31
0.0
  0
LINE
  5
32
100
AcDbEntity
  8
0
  6
CONTINUOUS
 62
       7
100
AcDbLine
 10
-68.06336454
 20
-96.82877593
 30
0.0
 11
-68.06336454
 21
-94.32877593
 31
0.0
  0
LINE
  5
33
100
AcDbEntity
  8
0
  6
CONTINUOUS
 62
       7
100
AcDbLine
 10
-64.86336454
 20
-91.12877593
 30
0.0
 11
-62.36336454
 21
-91.12877593
 31
0.0
  0
LINE
  5
34
100
AcDbEntity
  8
0
  6
CONTINUOUS
 62
       7
100
AcDbLine
 10
-79.36336454
 20
-70.32877593
 30
0.0
 11
-62.36336454
 21
-70.32877593
 31
0.0
  0
LINE
  5
35
100
AcDbEntity
  8
0
  6
CONTINUOUS
 62
       7
100
AcDbLine
 10
-79.86336454
 20
-96.82877593
 30
0.0
 11
-79.86336454
 21
-70.82877593
 31
0.0
  0
LINE
  5
36
100
AcDbEntity
  8
0
  6
CONTINUOUS
 62
       7
100
AcDbLine
 10
-61.86336454
 20
-96.82877593
 30
0.0
 11
-61.86336454
 21
-70.82877593
 31
0.0
  0
LINE
  5
37
100
AcDbEntity
  8
0
  6
CONTINUOUS
 62
       7
100
AcDbLine
 10
-63.6895382
 20
-95.50260227
 30
0.0
 11
-66.05958168
 21
-93.13255879
 31
0.0
  0
LINE
  5
38
100
AcDbEntity
  8
0
  6
CONTINUOUS
 62
       7
100
AcDbLine
 10
-65.93587831
 20
-95.4012897
 30
0.0
 11
-63.56583483
 21
-93.03124621
 31
0.0
  0
LINE
  5
39
100
AcDbEntity
  8
0
  6
CONTINUOUS
 62
       7
100
AcDbLine
 10
-75.6895382
 20
-74.50258701
 30
0.0
 11
-78.05958168
 21
-72.13254353
 31
0.0
  0
LINE
  5
3A
100
AcDbEntity
  8
0
  6
CONTINUOUS
 62
       7
100
AcDbLine
 10
-77.93587831
 20
-74.40127444
 30
0.0
 11
-75.56583483
 21
-72.03123096
 31
0.0
  0
ARC
  5
3B
100
AcDbEntity
  8
0
  6
CONTINUOUS
 62
       7
100
AcDbCircle
 10
-70.8633642
 20
-106.82875809
 30
0.0
 40
5.14936309
100
AcDbArc
 50
186.69145715
 51
353.30854285
  0
LINE
  5
3C
100
AcDbEntity
  8
0
  6
CONTINUOUS
 62
       7
100
AcDbLine
 10
-76.49193573
 20
-107.42877554
 30
0.0
 11
-65.24907839
 21
-107.42877554
 31
0.0
  0
LINE
  5
3D
100
AcDbEntity
  8
0
  6
CONTINUOUS
 62
       7
100
AcDbLine
 10
-76.49193573
 20
-106.22877552
 30
0.0
 11
-65.24907839
 21
-106.22877552
 31
0.0
  0
LINE
  5
3E
100
AcDbEntity
  8
0
  6
CONTINUOUS
 62
       2
100
AcDbLine
 10
-78.16336501
 20
-106.82877553
 30
0.0
 11
-63.56336408
 21
-106.82877553
 31
0.0
  0
LINE
  5
3F
100
AcDbEntity
  8
0
  6
CONTINUOUS
 62
       2
100
AcDbLine
 10
-77.62050786
 20
-122.3287758
 30
0.0
 11
-64.10622123
 21
-122.3287758
 31
0.0
  0
CIRCLE
  5
40
100
AcDbEntity
  8
0
  6
CONTINUOUS
 62
       7
100
AcDbCircle
 10
-70.86338164
 20
-122.32876708
 30
0.0
 40
4.27799913
  0
CIRCLE
  5
41
100
AcDbEntity
  8
0
  6
CONTINUOUS
 62
       2
100
AcDbCircle
 10
-70.86338164
 20
-122.32876708
 30
0.0
 40
4.86399931
  0
ARC
  5
42
100
AcDbEntity
  8
0
  6
CONTINUOUS
 62
       7
100
AcDbCircle
 10
-70.8633642
 20
-106.82875809
 30
0.0
 40
5.14935902
100
AcDbArc
 50
6.69107172
 51
173.30892828
  0
CIRCLE
  5
43
100
AcDbEntity
  8
0
  6
CONTINUOUS
 62
       7
100
AcDbCircle
 10
-70.86338164
 20
-106.82875809
 30
0.0
 40
5.64999999
  0
LINE
  5
44
100
AcDbEntity
  8
0
  6
CONTINUOUS
 62
       2
100
AcDbLine
 10
-70.86336454
 20
-43.9793854
 30
0.0
 11
-70.86336454
 21
-128.33825944
 31
0.0
  0
LINE
  5
45
100
AcDbEntity
  8
0
  6
CONTINUOUS
 62
       7
100
AcDbLine
 10
-80.86336454
 20
-130.32877593
 30
0.0
 11
-50.86336454
 21
-130.32877593
 31
0.0
  0
LINE
  5
46
100
AcDbEntity
  8
0
  6
CONTINUOUS
 62
       7
100
AcDbLine
 10
-80.86336454
 20
-98.32877593
 30
0.0
 11
-80.86336454
 21
-130.32877593
 31
0.0
  0
LINE
  5
47
100
AcDbEntity
  8
0
  6
CONTINUOUS
 62
       7
100
AcDbLine
 10
-80.86336454
 20
-98.32877593
 30
0.0
 11
-50.86336454
 21
-98.32877593
 31
0.0
  0
LINE
  5
48
100
AcDbEntity
  8
0
  6
CONTINUOUS
 62
       7
100
AcDbLine
 10
-76.36336454
 20
-61.82877593
 30
0.0
 11
-76.36336454
 21
-51.32877593
 31
0.0
  0
LINE
  5
49
100
AcDbEntity
  8
0
  6
CONTINUOUS
 62
       7
100
AcDbLine
 10
-65.36336454
 20
-61.82877593
 30
0.0
 11
-65.36336454
 21
-51.32877593
 31
0.0
  0
LINE
  5
4A
100
AcDbEntity
  8
0
  6
CONTINUOUS
 62
       7
100
AcDbLine
 10
-74.86336454
 20
-61.82877593
 30
0.0
 11
-74.86336454
 21
-51.32877593
 31
0.0
  0
LINE
  5
4B
100
AcDbEntity
  8
0
  6
CONTINUOUS
 62
       7
100
AcDbLine
 10
-66.86336454
 20
-61.82877593
 30
0.0
 11
-66.86336454
 21
-51.32877593
 31
0.0
  0
LINE
  5
4C
100
AcDbEntity
  8
0
  6
CONTINUOUS
 62
       2
100
AcDbLine
 10
-66.40803316
 20
-48.82710644
 30
0.0
 11
-75.20801136
 21
-46.46021575
 31
0.0
  0
LINE
  5
4D
100
AcDbEntity
  8
0
  6
CONTINUOUS
 62
       2
100
AcDbLine
 10
-66.40140883
 20
-47.78619513
 30
0.0
 11
-75.0097227
 21
-45.48569746
 31
0.0
  0
LINE
  5
4E
100
AcDbEntity
  8
0
  6
CONTINUOUS
 62
       7
100
AcDbLine
 10
-67.76336454
 20
-43.82877593
 30
0.0
 11
-67.76336454
 21
-47.42222421
 31
0.0
  0
LINE
  5
4F
100
AcDbEntity
  8
0
  6
CONTINUOUS
 62
       7
100
AcDbLine
 10
-69.06336454
 20
-43.82877593
 30
0.0
 11
-69.06336454
 21
-47.07481041
 31
0.0
  0
LINE
  5
50
100
AcDbEntity
  8
0
  6
CONTINUOUS
 62
       7
100
AcDbLine
 10
-72.66336454
 20
-43.82877593
 30
0.0
 11
-72.66336454
 21
-46.11274145
 31
0.0
  0
LINE
  5
51
100
AcDbEntity
  8
0
  6
CONTINUOUS
 62
       7
100
AcDbLine
 10
-73.96336454
 20
-43.82877593
 30
0.0
 11
-73.96336454
 21
-45.76532766
 31
0.0
  0
LINE
  5
52
100
AcDbEntity
  8
0
  6
CONTINUOUS
 62
       7
100
AcDbLine
 10
-73.96336454
 20
-43.82877593
 30
0.0
 11
-72.66336454
 21
-43.82877593
 31
0.0
  0
LINE
  5
53
100
AcDbEntity
  8
0
  6
CONTINUOUS
 62
       7
100
AcDbLine
 10
-73.56336454
 20
-40.32877593
 30
0.0
 11
-73.56336454
 21
-43.82877593
 31
0.0
  0
LINE
  5
54
100
AcDbEntity
  8
0
  6
CONTINUOUS
 62
       7
100
AcDbLine
 10
-73.06336454
 20
-40.32877593
 30
0.0
 11
-73.06336454
 21
-43.82877593
 31
0.0
  0
LINE
  5
55
100
AcDbEntity
  8
0
  6
CONTINUOUS
 62
       7
100
AcDbLine
 10
-73.56336454
 20
-40.32877593
 30
0.0
 11
-73.06336454
 21
-40.32877593
 31
0.0
  0
LINE
  5
56
100
AcDbEntity
  8
0
  6
CONTINUOUS
 62
       7
100
AcDbLine
 10
-68.66336454
 20
-40.32877593
 30
0.0
 11
-68.16336454
 21
-40.32877593
 31
0.0
  0
LINE
  5
57
100
AcDbEntity
  8
0
  6
CONTINUOUS
 62
       7
100
AcDbLine
 10
-68.66336454
 20
-40.32877593
 30
0.0
 11
-68.66336454
 21
-43.82877593
 31
0.0
  0
LINE
  5
58
100
AcDbEntity
  8
0
  6
CONTINUOUS
 62
       7
100
AcDbLine
 10
-68.16336454
 20
-40.32877593
 30
0.0
 11
-68.16336454
 21
-43.82877593
 31
0.0
  0
LINE
  5
59
100
AcDbEntity
  8
0
  6
CONTINUOUS
 62
       7
100
AcDbLine
 10
-69.06336454
 20
-43.82877593
 30
0.0
 11
-67.76336454
 21
-43.82877593
 31
0.0
  0
LINE
  5
5A
100
AcDbEntity
  8
0
  6
CONTINUOUS
 62
       7
100
AcDbLine
 10
-67.76336454
 20
-48.46256904
 30
0.0
 11
-67.76336454
 21
-51.32877593
 31
0.0
  0
LINE
  5
5B
100
AcDbEntity
  8
0
  6
CONTINUOUS
 62
       7
100
AcDbLine
 10
-69.06336454
 20
-48.11291386
 30
0.0
 11
-69.06336454
 21
-51.32877593
 31
0.0
  0
LINE
  5
5C
100
AcDbEntity
  8
0
  6
CONTINUOUS
 62
       7
100
AcDbLine
 10
-73.96336454
 20
-46.79498283
 30
0.0
 11
-73.96336454
 21
-51.32877593
 31
0.0
  0
LINE
  5
5D
100
AcDbEntity
  8
0
  6
CONTINUOUS
 62
       7
100
AcDbLine
 10
-72.66336454
 20
-47.144638
 30
0.0
 11
-72.66336454
 21
-51.32877593
 31
0.0
  0
LINE
  5
5E
100
AcDbEntity
  8
0
  6
CONTINUOUS
 62
       7
100
AcDbLine
 10
-74.86336454
 20
-59.32877593
 30
0.0
 11
-66.86336454
 21
-59.32877593
 31
0.0
  0
LINE
  5
5F
100
AcDbEntity
  8
0
  6
CONTINUOUS
 62
       7
100
AcDbLine
 10
-74.86336454
 20
-52.82877593
 30
0.0
 11
-65.36336454
 21
-52.82877593
 31
0.0
  0
LINE
  5
60
100
AcDbEntity
  8
0
  6
CONTINUOUS
 62
       7
100
AcDbLine
 10
-70.86336454
 20
-51.32877593
 30
0.0
 11
-65.36336454
 21
-51.32877593
 31
0.0
  0
LINE
  5
61
100
AcDbEntity
  8
0
  6
CONTINUOUS
 62
       7
100
AcDbLine
 10
-76.36336454
 20
-51.32877593
 30
0.0
 11
-70.86336454
 21
-51.32877593
 31
0.0
  0
LINE
  5
62
100
AcDbEntity
  8
0
  6
CONTINUOUS
 62
       7
100
AcDbLine
 10
-69.26336454
 20
-68.82877591
 30
0.0
 11
-69.26336454
 21
-70.32877593
 31
0.0
  0
LINE
  5
63
100
AcDbEntity
  8
0
  6
CONTINUOUS
 62
       7
100
AcDbLine
 10
-72.46336454
 20
-68.82877591
 30
0.0
 11
-72.46336454
 21
-70.32877593
 31
0.0
  0
LINE
  5
64
100
AcDbEntity
  8
0
  6
CONTINUOUS
 62
       7
100
AcDbLine
 10
-68.46336454
 20
-63.82877593
 30
0.0
 11
-67.86336454
 21
-64.42877593
 31
0.0
  0
LINE
  5
65
100
AcDbEntity
  8
0
  6
CONTINUOUS
 62
       7
100
AcDbLine
 10
-67.86336454
 20
-68.22877593
 30
0.0
 11
-68.46336454
 21
-68.82877593
 31
0.0
  0
LINE
  5
66
100
AcDbEntity
  8
0
  6
CONTINUOUS
 62
       7
100
AcDbLine
 10
-73.86336454
 20
-68.22877593
 30
0.0
 11
-67.86336454
 21
-68.22877593
 31
0.0
  0
LINE
  5
67
100
AcDbEntity
  8
0
  6
CONTINUOUS
 62
       7
100
AcDbLine
 10
-73.86336454
 20
-64.42877593
 30
0.0
 11
-67.86336454
 21
-64.42877593
 31
0.0
  0
LINE
  5
68
100
AcDbEntity
  8
0
  6
CONTINUOUS
 62
       7
100
AcDbLine
 10
-73.86336454
 20
-68.22877593
 30
0.0
 11
-73.26336454
 21
-68.82877593
 31
0.0
  0
LINE
  5
69
100
AcDbEntity
  8
0
  6
CONTINUOUS
 62
       7
100
AcDbLine
 10
-73.86336454
 20
-64.42877593
 30
0.0
 11
-73.26336454
 21
-63.82877593
 31
0.0
  0
LINE
  5
6A
100
AcDbEntity
  8
0
  6
CONTINUOUS
 62
       7
100
AcDbLine
 10
-73.86336454
 20
-64.42877593
 30
0.0
 11
-73.86336454
 21
-68.22877593
 31
0.0
  0
LINE
  5
6B
100
AcDbEntity
  8
0
  6
CONTINUOUS
 62
       7
100
AcDbLine
 10
-68.46336454
 20
-68.82877593
 30
0.0
 11
-73.26336454
 21
-68.82877593
 31
0.0
  0
LINE
  5
6C
100
AcDbEntity
  8
0
  6
CONTINUOUS
 62
       7
100
AcDbLine
 10
-73.26336454
 20
-63.82877593
 30
0.0
 11
-68.46336454
 21
-63.82877593
 31
0.0
  0
LINE
  5
6D
100
AcDbEntity
  8
0
  6
CONTINUOUS
 62
       7
100
AcDbLine
 10
-67.86336454
 20
-64.42877593
 30
0.0
 11
-67.86336454
 21
-68.22877593
 31
0.0
  0
INSERT
  5
7F
100
AcDbEntity
  8
0
  6
ByBlock
 62
       7
100
AcDbBlockReference
  2
*X0
 10
0.0
 20
0.0
 30
0.0
  0
LINE
  5
80
100
AcDbEntity
  8
0
  6
CONTINUOUS
 62
       7
100
AcDbLine
 10
-50.86336454
 20
-130.32877594
 30
0.0
 11
-50.86336454
 21
-98.32877594
 31
0.0
  0
LINE
  5
81
100
AcDbEntity
  8
0
  6
CONTINUOUS
 62
       7
100
AcDbLine
 10
-79.36336478
 20
-97.32877796
 30
0.0
 11
-79.36336454
 21
-98.32877796
 31
0.0
  0
LINE
  5
82
100
AcDbEntity
  8
0
  6
CONTINUOUS
 62
       7
100
AcDbLine
 10
-62.36336478
 20
-97.32877391
 30
0.0
 11
-62.36336454
 21
-98.32877391
 31
0.0
  0
LINE
  5
83
100
AcDbEntity
  8
0
  6
CONTINUOUS
 62
       7
100
AcDbLine
 10
-79.36336478
 20
-97.32877796
 30
0.0
 11
-62.36336478
 21
-97.32877391
 31
0.0
  0
LINE
  5
84
100
AcDbEntity
  8
0
  6
CONTINUOUS
 62
       2
100
AcDbLine
 10
-70.86336454
 20
77.10073988
 30
0.0
 11
-70.86336454
 21
-23.54211623
 31
0.0
  0
ARC
  5
85
100
AcDbEntity
  8
0
  6
CONTINUOUS
 62
       7
100
AcDbCircle
 10
-64.91293205
 20
65.37429539
 30
0.0
 40
0.79727493
100
AcDbArc
 50
62.38357861
 51
74.01360242
  0
ARC
  5
86
100
AcDbEntity
  8
0
  6
CONTINUOUS
 62
       7
100
AcDbCircle
 10
-66.33608379
 20
60.37454989
 30
0.0
 40
5.99562136
100
AcDbArc
 50
74.09828294
 51
95.04535542
  0
ARC
  5
87
100
AcDbEntity
  8
0
  6
CONTINUOUS
 62
       7
100
AcDbCircle
 10
-76.8147447
 20
65.37262816
 30
0.0
 40
0.79861278
100
AcDbArc
 50
105.8868121
 51
180.13565113
  0
ARC
  5
88
100
AcDbEntity
  8
0
  6
CONTINUOUS
 62
       7
100
AcDbCircle
 10
-75.39062995
 20
60.3745644
 30
0.0
 40
5.99560651
100
AcDbArc
 50
84.95477928
 51
105.9017252
  0
ARC
  5
89
100
AcDbEntity
  8
0
  6
CONTINUOUS
 62
       7
100
AcDbCircle
 10
-64.66335639
 20
38.68073854
 30
0.0
 40
0.80000114
100
AcDbArc
 50
270.00008196
 51
359.99991804
  0
ARC
  5
8A
100
AcDbEntity
  8
0
  6
CONTINUOUS
 62
       7
100
AcDbCircle
 10
-77.0633541
 20
38.68073854
 30
0.0
 40
0.80000114
100
AcDbArc
 50
180.00008196
 51
269.99991804
  0
ARC
  5
8B
100
AcDbEntity
  8
0
  6
CONTINUOUS
 62
       7
100
AcDbCircle
 10
-64.6633583
 20
58.08073435
 30
0.0
 40
0.80000305
100
AcDbArc
 50
0.00021857
 51
89.99978143
  0
ARC
  5
8C
100
AcDbEntity
  8
0
  6
CONTINUOUS
 62
       7
100
AcDbCircle
 10
-77.06335219
 20
58.08073435
 30
0.0
 40
0.80000305
100
AcDbArc
 50
90.00021857
 51
179.99978143
  0
LINE
  5
8D
100
AcDbEntity
  8
0
  6
CONTINUOUS
 62
       7
100
AcDbLine
 10
-78.36335524
 20
64.0807374
 30
0.0
 11
-77.86336454
 21
64.0807374
 31
0.0
  0
LINE
  5
8E
100
AcDbEntity
  8
0
  6
CONTINUOUS
 62
       7
100
AcDbLine
 10
-63.36335524
 20
64.0807374
 30
0.0
 11
-63.86336454
 21
64.0807374
 31
0.0
  0
LINE
  5
8F
100
AcDbEntity
  8
0
  6
CONTINUOUS
 62
       7
100
AcDbLine
 10
-77.86335524
 20
58.8807374
 30
0.0
 11
-63.86335524
 21
58.8807374
 31
0.0
  0
LINE
  5
90
100
AcDbEntity
  8
0
  6
CONTINUOUS
 62
       7
100
AcDbLine
 10
-66.86336454
 20
66.0807374
 30
0.0
 11
-64.36335524
 21
66.0807374
 31
0.0
  0
LINE
  5
91
100
AcDbEntity
  8
0
  6
CONTINUOUS
 62
       7
100
AcDbLine
 10
-63.36335524
 20
64.0807374
 30
0.0
 11
-64.36335524
 21
66.0807374
 31
0.0
  0
LINE
  5
92
100
AcDbEntity
  8
0
  6
CONTINUOUS
 62
       7
100
AcDbLine
 10
-78.36335524
 20
64.0807374
 30
0.0
 11
-77.36335524
 21
66.0807374
 31
0.0
  0
LINE
  5
93
100
AcDbEntity
  8
0
  6
CONTINUOUS
 62
       7
100
AcDbLine
 10
-77.36335524
 20
66.0807374
 30
0.0
 11
-77.18335524
 21
66.0807374
 31
0.0
  0
LINE
  5
94
100
AcDbEntity
  8
0
  6
CONTINUOUS
 62
       7
100
AcDbLine
 10
-72.86335524
 20
49.3807374
 30
0.0
 11
-73.36335524
 21
48.8807374
 31
0.0
  0
LINE
  5
95
100
AcDbEntity
  8
0
  6
CONTINUOUS
 62
       7
100
AcDbLine
 10
-68.86335524
 20
49.3807374
 30
0.0
 11
-68.36335524
 21
48.8807374
 31
0.0
  0
LINE
  5
96
100
AcDbEntity
  8
0
  6
CONTINUOUS
 62
       7
100
AcDbLine
 10
-68.86335524
 20
51.3807374
 30
0.0
 11
-68.36335524
 21
51.8807374
 31
0.0
  0
LINE
  5
97
100
AcDbEntity
  8
0
  6
CONTINUOUS
 62
       7
100
AcDbLine
 10
-72.86335524
 20
51.3807374
 30
0.0
 11
-73.36335524
 21
51.8807374
 31
0.0
  0
LINE
  5
98
100
AcDbEntity
  8
0
  6
CONTINUOUS
 62
       7
100
AcDbLine
 10
-68.36335524
 20
51.8807374
 30
0.0
 11
-68.36335524
 21
48.8807374
 31
0.0
  0
LINE
  5
99
100
AcDbEntity
  8
0
  6
CONTINUOUS
 62
       7
100
AcDbLine
 10
-73.36335524
 20
48.8807374
 30
0.0
 11
-68.36335524
 21
48.8807374
 31
0.0
  0
LINE
  5
9A
100
AcDbEntity
  8
0
  6
CONTINUOUS
 62
       7
100
AcDbLine
 10
-73.36335524
 20
51.8807374
 30
0.0
 11
-73.36335524
 21
48.8807374
 31
0.0
  0
LINE
  5
9B
100
AcDbEntity
  8
0
  6
CONTINUOUS
 62
       7
100
AcDbLine
 10
-73.36335524
 20
51.8807374
 30
0.0
 11
-68.36335524
 21
51.8807374
 31
0.0
  0
LINE
  5
9C
100
AcDbEntity
  8
0
  6
CONTINUOUS
 62
       7
100
AcDbLine
 10
-68.86335524
 20
51.3807374
 30
0.0
 11
-68.86335524
 21
49.3807374
 31
0.0
  0
LINE
  5
9D
100
AcDbEntity
  8
0
  6
CONTINUOUS
 62
       7
100
AcDbLine
 10
-72.86335524
 20
51.3807374
 30
0.0
 11
-72.86335524
 21
49.3807374
 31
0.0
  0
LINE
  5
9E
100
AcDbEntity
  8
0
  6
CONTINUOUS
 62
       7
100
AcDbLine
 10
-72.86335524
 20
49.3807374
 30
0.0
 11
-68.86335524
 21
49.3807374
 31
0.0
  0
LINE
  5
9F
100
AcDbEntity
  8
0
  6
CONTINUOUS
 62
       7
100
AcDbLine
 10
-72.86335524
 20
51.3807374
 30
0.0
 11
-68.86335524
 21
51.3807374
 31
0.0
  0
LINE
  5
A0
100
AcDbEntity
  8
0
  6
CONTINUOUS
 62
       7
100
AcDbLine
 10
-65.36335524
 20
47.8807374
 30
0.0
 11
-65.36335524
 21
39.3807374
 31
0.0
  0
LINE
  5
A1
100
AcDbEntity
  8
0
  6
CONTINUOUS
 62
       7
100
AcDbLine
 10
-76.36335524
 20
47.8807374
 30
0.0
 11
-76.36335524
 21
39.3807374
 31
0.0
  0
LINE
  5
A2
100
AcDbEntity
  8
0
  6
CONTINUOUS
 62
       7
100
AcDbLine
 10
-76.36335524
 20
47.8807374
 30
0.0
 11
-65.36335524
 21
47.8807374
 31
0.0
  0
LINE
  5
A3
100
AcDbEntity
  8
0
  6
CONTINUOUS
 62
       7
100
AcDbLine
 10
-76.36335524
 20
39.3807374
 30
0.0
 11
-65.36335524
 21
39.3807374
 31
0.0
  0
LINE
  5
A4
100
AcDbEntity
  8
0
  6
CONTINUOUS
 62
       7
100
AcDbLine
 10
-63.86335524
 20
58.0807374
 30
0.0
 11
-63.86335524
 21
38.6807374
 31
0.0
  0
LINE
  5
A5
100
AcDbEntity
  8
0
  6
CONTINUOUS
 62
       7
100
AcDbLine
 10
-77.86335524
 20
58.0807374
 30
0.0
 11
-77.86335524
 21
38.6807374
 31
0.0
  0
LINE
  5
A6
100
AcDbEntity
  8
0
  6
CONTINUOUS
 62
       7
100
AcDbLine
 10
-63.86335524
 20
63.0807374
 30
0.0
 11
-63.36335524
 21
63.0807374
 31
0.0
  0
LINE
  5
A7
100
AcDbEntity
  8
0
  6
CONTINUOUS
 62
       7
100
AcDbLine
 10
-78.36335524
 20
37.8807374
 30
0.0
 11
-63.36335524
 21
37.8807374
 31
0.0
  0
LINE
  5
A8
100
AcDbEntity
  8
0
  6
CONTINUOUS
 62
       7
100
AcDbLine
 10
-78.36335524
 20
63.0807374
 30
0.0
 11
-77.86335524
 21
63.0807374
 31
0.0
  0
CIRCLE
  5
A9
100
AcDbEntity
  8
0
  6
CONTINUOUS
 62
       7
100
AcDbCircle
 10
-55.86336454
 20
11.67122407
 30
0.0
 40
2.1
  0
LINE
  5
AA
100
AcDbEntity
  8
0
  6
CONTINUOUS
 62
       2
100
AcDbLine
 10
-59.0073537
 20
11.67122407
 30
0.0
 11
-52.4896192
 21
11.67122407
 31
0.0
  0
LINE
  5
AB
100
AcDbEntity
  8
0
  6
CONTINUOUS
 62
       7
100
AcDbLine
 10
75.24751135
 20
104.6712262
 30
0.0
 11
75.24751135
 21
99.67122611
 31
0.0
  0
LINE
  5
AC
100
AcDbEntity
  8
0
  6
CONTINUOUS
 62
       7
100
AcDbLine
 10
73.24751131
 20
104.6712262
 30
0.0
 11
73.24751131
 21
99.67122611
 31
0.0
  0
LINE
  5
AD
100
AcDbEntity
  8
0
  6
CONTINUOUS
 62
       7
100
AcDbLine
 10
74.24751133
 20
104.6712262
 30
0.0
 11
74.24751133
 21
99.67122611
 31
0.0
  0
LINE
  5
AE
100
AcDbEntity
  8
0
  6
CONTINUOUS
 62
       7
100
AcDbLine
 10
57.74751105
 20
-5.82877568
 30
0.0
 11
57.74751105
 21
-20.32877593
 31
0.0
  0
LINE
  5
AF
100
AcDbEntity
  8
0
  6
CONTINUOUS
 62
       7
100
AcDbLine
 10
57.74751105
 20
20.17122476
 30
0.0
 11
56.74751103
 21
20.17122476
 31
0.0
  0
LINE
  5
B0
100
AcDbEntity
  8
0
  6
CONTINUOUS
 62
       7
100
AcDbLine
 10
72.7475113
 20
92.79979742
 30
0.0
 11
72.7475113
 21
84.67122586
 31
0.0
  0
LINE
  5
B1
100
AcDbEntity
  8
0
  6
CONTINUOUS
 62
       7
100
AcDbLine
 10
75.74751136
 20
91.99979741
 30
0.0
 11
75.74751136
 21
84.67122586
 31
0.0
  0
LINE
  5
B2
100
AcDbEntity
  8
0
  6
CONTINUOUS
 62
       2
100
AcDbLine
 10
79.47608285
 20
90.99979739
 30
0.0
 11
68.56179695
 21
93.91408316
 31
0.0
  0
LINE
  5
B3
100
AcDbEntity
  8
0
  6
CONTINUOUS
 62
       2
100
AcDbLine
 10
79.29036856
 20
92.59979742
 30
0.0
 11
68.74751124
 21
95.4283689
 31
0.0
  0
LINE
  5
B4
100
AcDbEntity
  8
0
  6
CONTINUOUS
 62
       7
100
AcDbLine
 10
75.74751136
 20
99.67122611
 30
0.0
 11
72.7475113
 21
99.67122611
 31
0.0
  0
LINE
  5
B5
100
AcDbEntity
  8
0
  6
CONTINUOUS
 62
       7
100
AcDbLine
 10
72.7475113
 20
99.67122611
 30
0.0
 11
72.7475113
 21
94.35694031
 31
0.0
  0
LINE
  5
B6
100
AcDbEntity
  8
0
  6
CONTINUOUS
 62
       7
100
AcDbLine
 10
75.74751136
 20
99.67122611
 30
0.0
 11
75.74751136
 21
93.54265458
 31
0.0
  0
LINE
  5
B7
100
AcDbEntity
  8
0
  6
CONTINUOUS
 62
       7
100
AcDbLine
 10
78.74751141
 20
42.17122513
 30
0.0
 11
58.74751107
 21
42.17122513
 31
0.0
  0
LINE
  5
B8
100
AcDbEntity
  8
0
  6
CONTINUOUS
 62
       7
100
AcDbLine
 10
78.74751141
 20
82.67122582
 30
0.0
 11
58.74751107
 21
82.67122582
 31
0.0
  0
LINE
  5
B9
100
AcDbEntity
  8
0
  6
CONTINUOUS
 62
       7
100
AcDbLine
 10
60.7475111
 20
84.67122586
 30
0.0
 11
58.74751107
 21
82.67122582
 31
0.0
  0
LINE
  5
BA
100
AcDbEntity
  8
0
  6
CONTINUOUS
 62
       7
100
AcDbLine
 10
78.74751141
 20
82.67122582
 30
0.0
 11
76.74751137
 21
84.67122586
 31
0.0
  0
LINE
  5
BB
100
AcDbEntity
  8
0
  6
CONTINUOUS
 62
       7
100
AcDbLine
 10
76.74751137
 20
84.67122586
 30
0.0
 11
60.7475111
 21
84.67122586
 31
0.0
  0
LINE
  5
BC
100
AcDbEntity
  8
0
  6
CONTINUOUS
 62
       7
100
AcDbLine
 10
58.74751107
 20
82.67122582
 30
0.0
 11
58.74751107
 21
41.67122512
 31
0.0
  0
LINE
  5
BD
100
AcDbEntity
  8
0
  6
CONTINUOUS
 62
       7
100
AcDbLine
 10
78.74751141
 20
82.67122582
 30
0.0
 11
78.74751141
 21
41.67122512
 31
0.0
  0
LINE
  5
BE
100
AcDbEntity
  8
0
  6
CONTINUOUS
 62
       7
100
AcDbLine
 10
58.74751107
 20
31.17122495
 30
0.0
 11
57.74751105
 21
30.17122493
 31
0.0
  0
LINE
  5
BF
100
AcDbEntity
  8
0
  6
CONTINUOUS
 62
       7
100
AcDbLine
 10
58.74751107
 20
41.67122512
 30
0.0
 11
58.74751107
 21
31.17122495
 31
0.0
  0
LINE
  5
C0
100
AcDbEntity
  8
0
  6
CONTINUOUS
 62
       7
100
AcDbLine
 10
89.74751159
 20
41.67122512
 30
0.0
 11
89.74751159
 21
-20.32877593
 31
0.0
  0
LINE
  5
C1
100
AcDbEntity
  8
0
  6
CONTINUOUS
 62
       7
100
AcDbLine
 10
89.74751159
 20
41.67122512
 30
0.0
 11
58.74751107
 21
41.67122512
 31
0.0
  0
CIRCLE
  5
C2
100
AcDbEntity
  8
0
  6
CONTINUOUS
 62
       7
100
AcDbCircle
 10
72.75702494
 20
21.68074278
 30
0.0
 40
4.27799913
  0
CIRCLE
  5
C3
100
AcDbEntity
  8
0
  6
CONTINUOUS
 62
       2
100
AcDbCircle
 10
72.75702494
 20
21.68074278
 30
0.0
 40
4.86399931
  0
LINE
  5
C4
100
AcDbEntity
  8
0
  6
CONTINUOUS
 62
       2
100
AcDbLine
 10
72.7475113
 20
29.09979634
 30
0.0
 11
72.7475113
 21
14.34265323
 31
0.0
  0
LINE
  5
C5
100
AcDbEntity
  8
0
  6
CONTINUOUS
 62
       2
100
AcDbLine
 10
80.97608287
 20
21.67122478
 30
0.0
 11
65.36179689
 21
21.67122478
 31
0.0
  0
LINE
  5
C6
100
AcDbEntity
  8
0
  6
CONTINUOUS
 62
       7
100
AcDbLine
 10
57.74751105
 20
30.17122493
 30
0.0
 11
57.74751105
 21
20.17122476
 31
0.0
  0
LINE
  5
C7
100
AcDbEntity
  8
0
  6
CONTINUOUS
 62
       7
100
AcDbLine
 10
89.74751159
 20
-20.32877593
 30
0.0
 11
57.74751105
 21
-20.32877593
 31
0.0
  0
LINE
  5
C8
100
AcDbEntity
  8
0
  6
CONTINUOUS
 62
       7
100
AcDbLine
 10
31.24751103
 20
58.87122476
 30
0.0
 11
22.04751103
 21
58.87122476
 31
0.0
  0
LINE
  5
C9
100
AcDbEntity
  8
0
  6
CONTINUOUS
 62
       7
100
AcDbLine
 10
31.24751103
 20
63.07122476
 30
0.0
 11
55.24751103
 21
63.07122476
 31
0.0
  0
LINE
  5
CA
100
AcDbEntity
  8
0
  6
CONTINUOUS
 62
       7
100
AcDbLine
 10
32.24751103
 20
66.07122476
 30
0.0
 11
50.41751103
 21
66.07122476
 31
0.0
  0
LINE
  5
CB
100
AcDbEntity
  8
0
  6
CONTINUOUS
 62
       7
100
AcDbLine
 10
31.24751103
 20
64.07122476
 30
0.0
 11
55.24751103
 21
64.07122476
 31
0.0
  0
LINE
  5
CC
100
AcDbEntity
  8
0
  6
CONTINUOUS
 62
       7
100
AcDbLine
 10
31.24751103
 20
64.07122476
 30
0.0
 11
32.24751103
 21
66.07122476
 31
0.0
  0
LINE
  5
CD
100
AcDbEntity
  8
0
  6
CONTINUOUS
 62
       7
100
AcDbLine
 10
55.24751103
 20
64.07122476
 30
0.0
 11
54.24751103
 21
66.07122476
 31
0.0
  0
LINE
  5
CE
100
AcDbEntity
  8
0
  6
CONTINUOUS
 62
       7
100
AcDbLine
 10
49.24751103
 20
66.07122476
 30
0.0
 11
49.24751103
 21
64.07122476
 31
0.0
  0
LINE
  5
CF
100
AcDbEntity
  8
0
  6
CONTINUOUS
 62
       7
100
AcDbLine
 10
54.79751103
 20
64.67122476
 30
0.0
 11
49.69751103
 21
64.67122476
 31
0.0
  0
LINE
  5
D0
100
AcDbEntity
  8
0
  6
CONTINUOUS
 62
       7
100
AcDbLine
 10
51.94751103
 20
64.07122476
 30
0.0
 11
51.77751103
 21
64.67122476
 31
0.0
  0
LINE
  5
D1
100
AcDbEntity
  8
0
  6
CONTINUOUS
 62
       7
100
AcDbLine
 10
52.54751103
 20
64.67122476
 30
0.0
 11
52.70751103
 21
64.07122476
 31
0.0
  0
LINE
  5
D2
100
AcDbEntity
  8
0
  6
CONTINUOUS
 62
       7
100
AcDbLine
 10
49.69751103
 20
64.67122476
 30
0.0
 11
49.69751103
 21
64.07122476
 31
0.0
  0
LINE
  5
D3
100
AcDbEntity
  8
0
  6
CONTINUOUS
 62
       7
100
AcDbLine
 10
54.49751103
 20
65.36122476
 30
0.0
 11
54.49751103
 21
64.67122476
 31
0.0
  0
LINE
  5
D4
100
AcDbEntity
  8
0
  6
CONTINUOUS
 62
       7
100
AcDbLine
 10
49.99751103
 20
65.36122476
 30
0.0
 11
49.99751103
 21
64.67122476
 31
0.0
  0
LINE
  5
D5
100
AcDbEntity
  8
0
  6
CONTINUOUS
 62
       7
100
AcDbLine
 10
54.06751103
 20
66.07122476
 30
0.0
 11
54.24751103
 21
66.07122476
 31
0.0
  0
LINE
  5
D6
100
AcDbEntity
  8
0
  6
CONTINUOUS
 62
       7
100
AcDbLine
 10
55.24751103
 20
64.07122476
 30
0.0
 11
55.24751103
 21
37.87122476
 31
0.0
  0
LINE
  5
D7
100
AcDbEntity
  8
0
  6
CONTINUOUS
 62
       7
100
AcDbLine
 10
55.74751103
 20
37.87122476
 30
0.0
 11
22.04751103
 21
37.87122476
 31
0.0
  0
LINE
  5
D8
100
AcDbEntity
  8
0
  6
CONTINUOUS
 62
       7
100
AcDbLine
 10
31.24751103
 20
64.87122476
 30
0.0
 11
31.24751103
 21
37.87122476
 31
0.0
  0
LINE
  5
D9
100
AcDbEntity
  8
0
  6
CONTINUOUS
 62
       7
100
AcDbLine
 10
21.24751103
 20
58.07122476
 30
0.0
 11
21.24751103
 21
38.67122476
 31
0.0
  0
ARC
  5
DA
100
AcDbEntity
  8
0
  6
CONTINUOUS
 62
       7
100
AcDbCircle
 10
22.04750645
 20
58.07122934
 30
0.0
 40
0.79999542
100
AcDbArc
 50
89.99967215
 51
180.00032785
  0
ARC
  5
DB
100
AcDbEntity
  8
0
  6
CONTINUOUS
 62
       7
100
AcDbCircle
 10
22.04751408
 20
38.67122781
 30
0.0
 40
0.80000305
100
AcDbArc
 50
180.00021857
 51
269.99978143
  0
ARC
  5
DC
100
AcDbEntity
  8
0
  6
CONTINUOUS
 62
       7
100
AcDbCircle
 10
52.24251103
 20
60.37125327
 30
0.0
 40
5.99857454
100
AcDbArc
 50
73.78556655
 51
106.21443345
  0
ARC
  5
DD
100
AcDbEntity
  8
0
  6
CONTINUOUS
 62
       7
100
AcDbCircle
 10
53.69891511
 20
65.36312653
 30
0.0
 40
0.79859819
100
AcDbArc
 50
359.86355626
 51
74.11398052
  0
ARC
  5
DE
100
AcDbEntity
  8
0
  6
CONTINUOUS
 62
       7
100
AcDbCircle
 10
50.79749923
 20
65.36499972
 30
0.0
 40
0.79999711
100
AcDbArc
 50
106.70752368
 51
180.27036408
  0
ARC
  5
DF
100
AcDbEntity
  8
0
  6
CONTINUOUS
 62
       7
100
AcDbCircle
 10
34.25251103
 20
60.37122276
 30
0.0
 40
5.99860384
100
AcDbArc
 50
73.78564794
 51
106.21435206
  0
ARC
  5
E0
100
AcDbEntity
  8
0
  6
CONTINUOUS
 62
       7
100
AcDbCircle
 10
53.6979416
 20
65.36480117
 30
0.0
 40
0.79725519
100
AcDbArc
 50
62.38343415
 51
74.01374688
  0
ARC
  5
E1
100
AcDbEntity
  8
0
  6
CONTINUOUS
 62
       7
100
AcDbCircle
 10
35.70653614
 20
65.36128752
 30
0.0
 40
0.80102013
100
AcDbArc
 50
62.41085998
 51
73.98632104
  0
LINE
  5
E2
100
AcDbEntity
  8
0
  6
CONTINUOUS
 62
       7
100
AcDbLine
 10
29.74751103
 20
36.87122476
 30
0.0
 11
29.74751103
 21
-20.22877524
 31
0.0
  0
LINE
  5
E3
100
AcDbEntity
  8
0
  6
CONTINUOUS
 62
       7
100
AcDbLine
 10
32.74751103
 20
4.33122476
 30
0.0
 11
29.74751103
 21
4.33122476
 31
0.0
  0
LINE
  5
E4
100
AcDbEntity
  8
0
  6
CONTINUOUS
 62
       7
100
AcDbLine
 10
32.74751103
 20
1.02122476
 30
0.0
 11
29.74751103
 21
1.02122476
 31
0.0
  0
LINE
  5
E5
100
AcDbEntity
  8
0
  6
CONTINUOUS
 62
       7
100
AcDbLine
 10
32.74751103
 20
4.33122476
 30
0.0
 11
32.74751103
 21
1.02122476
 31
0.0
  0
LINE
  5
E6
100
AcDbEntity
  8
0
  6
CONTINUOUS
 62
       7
100
AcDbLine
 10
51.04751103
 20
-17.32877524
 30
0.0
 11
56.54751103
 21
-17.32877524
 31
0.0
  0
LINE
  5
E7
100
AcDbEntity
  8
0
  6
CONTINUOUS
 62
       7
100
AcDbLine
 10
50.54751103
 20
-17.82877524
 30
0.0
 11
50.54751103
 21
-20.22877524
 31
0.0
  0
LINE
  5
E8
100
AcDbEntity
  8
0
  6
CONTINUOUS
 62
       7
100
AcDbLine
 10
50.94751103
 20
-18.49877524
 30
0.0
 11
50.94751103
 21
-17.32877524
 31
0.0
  0
LINE
  5
E9
100
AcDbEntity
  8
0
  6
CONTINUOUS
 62
       7
100
AcDbLine
 10
56.54751103
 20
-18.49877524
 30
0.0
 11
56.54751103
 21
-17.32877524
 31
0.0
  0
LINE
  5
EA
100
AcDbEntity
  8
0
  6
CONTINUOUS
 62
       7
100
AcDbLine
 10
56.74751103
 20
36.87122476
 30
0.0
 11
29.74751103
 21
36.87122476
 31
0.0
  0
LINE
  5
EB
100
AcDbEntity
  8
0
  6
CONTINUOUS
 62
       7
100
AcDbLine
 10
55.74751103
 20
37.87122476
 30
0.0
 11
56.74751103
 21
36.87122476
 31
0.0
  0
LINE
  5
EC
100
AcDbEntity
  8
0
  6
CONTINUOUS
 62
       7
100
AcDbLine
 10
30.74751103
 20
37.87122476
 30
0.0
 11
29.74751103
 21
36.87122476
 31
0.0
  0
LINE
  5
ED
100
AcDbEntity
  8
0
  6
CONTINUOUS
 62
       7
100
AcDbLine
 10
32.24751103
 20
1.02122476
 30
0.0
 11
32.24751103
 21
4.33122476
 31
0.0
  0
LINE
  5
EE
100
AcDbEntity
  8
0
  6
CONTINUOUS
 62
       7
100
AcDbLine
 10
56.74751103
 20
-5.32877524
 30
0.0
 11
56.74751103
 21
-20.22877524
 31
0.0
  0
LINE
  5
EF
100
AcDbEntity
  8
0
  6
CONTINUOUS
 62
       7
100
AcDbLine
 10
56.74751103
 20
36.87122476
 30
0.0
 11
56.74751103
 21
20.1807384
 31
0.0
  0
LINE
  5
F0
100
AcDbEntity
  8
0
  6
CONTINUOUS
 62
       7
100
AcDbLine
 10
56.74751103
 20
19.67122476
 30
0.0
 11
29.74751103
 21
19.67122476
 31
0.0
  0
ARC
  5
F1
100
AcDbEntity
  8
0
  6
CONTINUOUS
 62
       7
100
AcDbCircle
 10
51.04751103
 20
-17.82877524
 30
0.0
 40
0.5
100
AcDbArc
 50
90.00000002
 51
179.99999998
  0
ARC
  5
F2
100
AcDbEntity
  8
0
  6
CONTINUOUS
 62
       7
100
AcDbCircle
 10
56.24751714
 20
-16.82878135
 30
0.0
 40
0.4999939
100
AcDbArc
 50
269.99930058
 51
0.00069942
  0
ARC
  5
F3
100
AcDbEntity
  8
0
  6
CONTINUOUS
 62
       7
100
AcDbCircle
 10
53.74251103
 20
-14.72877917
 30
0.0
 40
4.99986908
100
AcDbArc
 50
240.46119555
 51
299.53880445
  0
ARC
  5
F4
100
AcDbEntity
  8
0
  6
CONTINUOUS
 62
       7
100
AcDbCircle
 10
51.61534325
 20
-18.50268105
 30
0.0
 40
0.66784364
100
AcDbArc
 50
179.66491029
 51
239.61185708
  0
ARC
  5
F5
100
AcDbEntity
  8
0
  6
CONTINUOUS
 62
       7
100
AcDbCircle
 10
55.88214398
 20
-18.49838766
 30
0.0
 40
0.66536716
100
AcDbArc
 50
299.27512309
 51
359.96662489
  0
ARC
  5
F6
100
AcDbEntity
  8
0
  6
CONTINUOUS
 62
       7
100
AcDbCircle
 10
34.84751951
 20
2.67622476
 30
0.0
 40
4.99231458
100
AcDbArc
 50
160.63957485
 51
199.36042515
  0
LINE
  5
F7
100
AcDbEntity
  8
0
  6
CONTINUOUS
 62
       7
100
AcDbLine
 10
56.74751103
 20
-5.32877524
 30
0.0
 11
29.74751103
 21
-5.32877524
 31
0.0
  0
LINE
  5
F8
100
AcDbEntity
  8
0
  6
CONTINUOUS
 62
       7
100
AcDbLine
 10
29.74751103
 20
-20.32877524
 30
0.0
 11
56.74751103
 21
-20.32877524
 31
0.0
  0
LINE
  5
F9
100
AcDbEntity
  8
0
  6
CONTINUOUS
 62
       7
100
AcDbLine
 10
-63.36335524
 20
41.67122407
 30
0.0
 11
-50.86336454
 21
41.67122407
 31
0.0
  0
LINE
  5
FA
100
AcDbEntity
  8
0
  6
CONTINUOUS
 62
       7
100
AcDbLine
 10
-61.86336497
 20
26.91408159
 30
0.0
 11
-61.86336497
 21
9.328367
 31
0.0
  0
LINE
  5
FB
100
AcDbEntity
  8
0
  6
CONTINUOUS
 62
       7
100
AcDbLine
 10
-61.86336497
 20
6.01408123
 30
0.0
 11
-61.86336497
 21
-1.28591889
 31
0.0
  0
LINE
  5
FC
100
AcDbEntity
  8
0
  6
CONTINUOUS
 62
       7
100
AcDbLine
 10
-61.87050726
 20
-20.32877593
 30
0.0
 11
-50.86336454
 21
-20.32877593
 31
0.0
  0
LINE
  5
FD
100
AcDbEntity
  8
0
  6
CONTINUOUS
 62
       7
100
AcDbLine
 10
-61.87050726
 20
30.1712245
 30
0.0
 11
-50.86336454
 21
30.1712245
 31
0.0
  0
LINE
  5
FE
100
AcDbEntity
  8
0
  6
CONTINUOUS
 62
       7
100
AcDbLine
 10
-61.87050726
 20
31.17122452
 30
0.0
 11
-50.86336454
 21
31.17122452
 31
0.0
  0
LINE
  5
FF
100
AcDbEntity
  8
0
  6
CONTINUOUS
 62
       7
100
AcDbLine
 10
-79.87050726
 20
-5.32877902
 30
0.0
 11
-61.87050726
 21
-5.32877902
 31
0.0
  0
CIRCLE
  5
100
100
AcDbEntity
  8
0
  6
CONTINUOUS
 62
       7
100
AcDbCircle
 10
-77.37050726
 20
2.67122403
 30
0.0
 40
2.79999924
  0
CIRCLE
  5
101
100
AcDbEntity
  8
0
  6
CONTINUOUS
 62
       7
100
AcDbCircle
 10
-64.370492
 20
2.67122403
 30
0.0
 40
2.79999924
  0
ARC
  5
102
100
AcDbEntity
  8
0
  6
CONTINUOUS
 62
       7
100
AcDbCircle
 10
-74.73588092
 20
-18.49838756
 30
0.0
 40
0.66537378
100
AcDbArc
 50
299.27545688
 51
359.96629109
  0
ARC
  5
103
100
AcDbEntity
  8
0
  6
CONTINUOUS
 62
       7
100
AcDbCircle
 10
-79.00264543
 20
-18.50266798
 30
0.0
 40
0.66787315
100
AcDbArc
 50
179.66637031
 51
239.61039707
  0
ARC
  5
104
100
AcDbEntity
  8
0
  6
CONTINUOUS
 62
       7
100
AcDbCircle
 10
-76.87550726
 20
-14.72878293
 30
0.0
 40
4.99986909
100
AcDbArc
 50
240.46119562
 51
299.53880438
  0
ARC
  5
105
100
AcDbEntity
  8
0
  6
CONTINUOUS
 62
       7
100
AcDbCircle
 10
-79.37050573
 20
-16.82877749
 30
0.0
 40
0.50000153
100
AcDbArc
 50
180.00017485
 51
269.99982515
  0
ARC
  5
106
100
AcDbEntity
  8
0
  6
CONTINUOUS
 62
       7
100
AcDbCircle
 10
-74.17051488
 20
-17.82878665
 30
0.0
 40
0.50000763
100
AcDbArc
 50
0.00087426
 51
89.99912574
  0
ARC
  5
107
100
AcDbEntity
  8
0
  6
CONTINUOUS
 62
       7
100
AcDbCircle
 10
-77.3682146
 20
2.67191212
 30
0.0
 40
2.99770742
100
AcDbArc
 50
213.4116983
 51
359.98679017
  0
ARC
  5
108
100
AcDbEntity
  8
0
  6
CONTINUOUS
 62
       7
100
AcDbCircle
 10
-77.370973
 20
2.67136459
 30
0.0
 40
3.00046575
100
AcDbArc
 50
359.99725766
 51
146.41320443
  0
ARC
  5
109
100
AcDbEntity
  8
0
  6
CONTINUOUS
 62
       7
100
AcDbCircle
 10
-64.37049547
 20
2.67622098
 30
0.0
 40
2.99816045
100
AcDbArc
 50
33.50468351
 51
326.49531649
  0
LINE
  5
10A
100
AcDbEntity
  8
0
  6
CONTINUOUS
 62
       7
100
AcDbLine
 10
-79.87050726
 20
19.67122098
 30
0.0
 11
-61.87050726
 21
19.67122098
 31
0.0
  0
LINE
  5
10B
100
AcDbEntity
  8
0
  6
CONTINUOUS
 62
       7
100
AcDbLine
 10
-61.87050726
 20
1.41122098
 30
0.0
 11
-61.87050726
 21
-20.32877902
 31
0.0
  0
LINE
  5
10C
100
AcDbEntity
  8
0
  6
CONTINUOUS
 62
       7
100
AcDbLine
 10
-79.87050726
 20
1.41122098
 30
0.0
 11
-79.87050726
 21
-20.32877902
 31
0.0
  0
LINE
  5
10D
100
AcDbEntity
  8
0
  6
CONTINUOUS
 62
       7
100
AcDbLine
 10
-79.87050726
 20
36.87122098
 30
0.0
 11
-72.52879665
 21
36.87122098
 31
0.0
  0
LINE
  5
10E
100
AcDbEntity
  8
0
  6
CONTINUOUS
 62
       7
100
AcDbLine
 10
-74.07050726
 20
-18.49877902
 30
0.0
 11
-74.07050726
 21
-17.32877902
 31
0.0
  0
LINE
  5
10F
100
AcDbEntity
  8
0
  6
CONTINUOUS
 62
       7
100
AcDbLine
 10
-79.67050726
 20
-18.49877902
 30
0.0
 11
-79.67050726
 21
-17.32877902
 31
0.0
  0
LINE
  5
110
100
AcDbEntity
  8
0
  6
CONTINUOUS
 62
       7
100
AcDbLine
 10
-79.67050726
 20
-17.32877902
 30
0.0
 11
-74.17050726
 21
-17.32877902
 31
0.0
  0
LINE
  5
111
100
AcDbEntity
  8
0
  6
CONTINUOUS
 62
       7
100
AcDbLine
 10
-73.67050726
 20
-17.82877902
 30
0.0
 11
-73.67050726
 21
-20.22877902
 31
0.0
  0
LINE
  5
112
100
AcDbEntity
  8
0
  6
CONTINUOUS
 62
       7
100
AcDbLine
 10
-78.87050726
 20
37.87122098
 30
0.0
 11
-62.87050726
 21
37.87122098
 31
0.0
  0
LINE
  5
113
100
AcDbEntity
  8
0
  6
CONTINUOUS
 62
       7
100
AcDbLine
 10
-65.59392663
 20
1.44780161
 30
0.0
 11
-62.95577544
 21
4.0859528
 31
0.0
  0
LINE
  5
114
100
AcDbEntity
  8
0
  6
CONTINUOUS
 62
       7
100
AcDbLine
 10
-65.63244555
 20
3.93315927
 30
0.0
 11
-62.99429436
 21
1.29500808
 31
0.0
  0
LINE
  5
115
100
AcDbEntity
  8
0
  6
CONTINUOUS
 62
       7
100
AcDbLine
 10
-62.87050726
 20
37.87122098
 30
0.0
 11
-61.87050726
 21
36.87122098
 31
0.0
  0
LINE
  5
116
100
AcDbEntity
  8
0
  6
CONTINUOUS
 62
       7
100
AcDbLine
 10
-78.87050726
 20
37.87122098
 30
0.0
 11
-79.87050726
 21
36.87122098
 31
0.0
  0
LINE
  5
117
100
AcDbEntity
  8
0
  6
CONTINUOUS
 62
       7
100
AcDbLine
 10
-79.87050726
 20
36.87122098
 30
0.0
 11
-79.87050726
 21
3.94122098
 31
0.0
  0
LINE
  5
118
100
AcDbEntity
  8
0
  6
CONTINUOUS
 62
       7
100
AcDbLine
 10
-61.87050726
 20
36.87122098
 30
0.0
 11
-61.87050726
 21
3.94122098
 31
0.0
  0
LINE
  5
119
100
AcDbEntity
  8
0
  6
CONTINUOUS
 62
       7
100
AcDbLine
 10
-78.59392663
 20
1.44780466
 30
0.0
 11
-75.95577544
 21
4.08595585
 31
0.0
  0
LINE
  5
11A
100
AcDbEntity
  8
0
  6
CONTINUOUS
 62
       7
100
AcDbLine
 10
-78.63244555
 20
3.93316233
 30
0.0
 11
-75.99429436
 21
1.29501114
 31
0.0
  0
LINE
  5
11B
100
AcDbEntity
  8
0
  6
CONTINUOUS
 62
       2
100
AcDbLine
 10
-70.86336454
 20
88.00495079
 30
0.0
 11
-70.86336454
 21
78.65573989
 31
0.0
  0
LINE
  5
11C
100
AcDbEntity
  8
0
  6
CONTINUOUS
 62
       7
100
AcDbLine
 10
-80.86336463
 20
31.17122452
 30
0.0
 11
-79.87050726
 21
31.17122452
 31
0.0
  0
LINE
  5
11D
100
AcDbEntity
  8
0
  6
CONTINUOUS
 62
       7
100
AcDbLine
 10
-80.86336463
 20
30.1712245
 30
0.0
 11
-79.87050726
 21
30.1712245
 31
0.0
  0
LINE
  5
11E
100
AcDbEntity
  8
0
  6
CONTINUOUS
 62
       7
100
AcDbLine
 10
-78.36336409
 20
82.6712254
 30
0.0
 11
-76.36336406
 21
84.67122543
 31
0.0
  0
LINE
  5
11F
100
AcDbEntity
  8
0
  6
CONTINUOUS
 62
       7
100
AcDbLine
 10
-63.36336384
 20
82.6712254
 30
0.0
 11
-65.36336387
 21
84.67122543
 31
0.0
  0
LINE
  5
120
100
AcDbEntity
  8
0
  6
CONTINUOUS
 62
       7
100
AcDbLine
 10
-78.36336409
 20
82.6712254
 30
0.0
 11
-63.36336384
 21
82.6712254
 31
0.0
  0
LINE
  5
121
100
AcDbEntity
  8
0
  6
CONTINUOUS
 62
       7
100
AcDbLine
 10
-72.36336399
 20
99.67122569
 30
0.0
 11
-69.36336394
 21
99.67122569
 31
0.0
  0
LINE
  5
122
100
AcDbEntity
  8
0
  6
CONTINUOUS
 62
       2
100
AcDbLine
 10
-75.43479261
 20
92.34265413
 30
0.0
 11
-66.66336389
 21
94.68551132
 31
0.0
  0
LINE
  5
123
100
AcDbEntity
  8
0
  6
CONTINUOUS
 62
       2
100
AcDbLine
 10
-75.57764976
 20
90.74265411
 30
0.0
 11
-66.67764961
 21
93.12836843
 31
0.0
  0
LINE
  5
124
100
AcDbEntity
  8
0
  6
CONTINUOUS
 62
       7
100
AcDbLine
 10
-69.36336394
 20
99.67122569
 30
0.0
 11
-69.36336394
 21
93.97122559
 31
0.0
  0
LINE
  5
125
100
AcDbEntity
  8
0
  6
CONTINUOUS
 62
       7
100
AcDbLine
 10
-72.36336399
 20
99.67122569
 30
0.0
 11
-72.36336399
 21
93.15693986
 31
0.0
  0
LINE
  5
126
100
AcDbEntity
  8
0
  6
CONTINUOUS
 62
       7
100
AcDbLine
 10
-72.36336399
 20
91.61408269
 30
0.0
 11
-72.36336399
 21
84.67122543
 31
0.0
  0
LINE
  5
127
100
AcDbEntity
  8
0
  6
CONTINUOUS
 62
       7
100
AcDbLine
 10
-69.36336394
 20
92.41408271
 30
0.0
 11
-69.36336394
 21
84.67122543
 31
0.0
  0
ARC
  5
128
100
AcDbEntity
  8
0
  6
CONTINUOUS
 62
       7
100
AcDbCircle
 10
-70.86336396
 20
82.68073903
 30
0.0
 40
1.5000302
100
AcDbArc
 50
359.63661071
 51
180.36338929
  0
LINE
  5
129
100
AcDbEntity
  8
0
  6
CONTINUOUS
 62
       7
100
AcDbLine
 10
-76.36336406
 20
84.67122543
 30
0.0
 11
-65.36336387
 21
84.67122543
 31
0.0
  0
LINE
  5
12A
100
AcDbEntity
  8
0
  6
CONTINUOUS
 62
       7
100
AcDbLine
 10
-70.86336396
 20
104.67122577
 30
0.0
 11
-70.86336396
 21
99.67122569
 31
0.0
  0
LINE
  5
12B
100
AcDbEntity
  8
0
  6
CONTINUOUS
 62
       7
100
AcDbLine
 10
-69.86336395
 20
104.67122577
 30
0.0
 11
-69.86336395
 21
99.67122569
 31
0.0
  0
LINE
  5
12C
100
AcDbEntity
  8
0
  6
CONTINUOUS
 62
       7
100
AcDbLine
 10
-71.86336398
 20
104.67122577
 30
0.0
 11
-71.86336398
 21
99.67122569
 31
0.0
  0
LINE
  5
12D
100
AcDbEntity
  8
0
  6
CONTINUOUS
 62
       7
100
AcDbLine
 10
-80.86336454
 20
41.67122407
 30
0.0
 11
-78.36335524
 21
41.67122407
 31
0.0
  0
CIRCLE
  5
12E
100
AcDbEntity
  8
0
  6
CONTINUOUS
 62
       7
100
AcDbCircle
 10
-55.86336454
 20
-10.32877593
 30
0.0
 40
2.1
  0
LINE
  5
12F
100
AcDbEntity
  8
0
  6
CONTINUOUS
 62
       7
100
AcDbLine
 10
-50.86336454
 20
41.67122407
 30
0.0
 11
-50.86336454
 21
-20.32877593
 31
0.0
  0
LINE
  5
130
100
AcDbEntity
  8
0
  6
CONTINUOUS
 62
       7
100
AcDbLine
 10
-80.86336454
 20
41.67122407
 30
0.0
 11
-80.86336454
 21
-20.32877593
 31
0.0
  0
LINE
  5
131
100
AcDbEntity
  8
0
  6
CONTINUOUS
 62
       2
100
AcDbLine
 10
-59.0073537
 20
-10.32877593
 30
0.0
 11
-52.4896192
 21
-10.32877593
 31
0.0
  0
LINE
  5
132
100
AcDbEntity
  8
0
  6
CONTINUOUS
 62
       7
100
AcDbLine
 10
31.24751103
 20
64.87122476
 30
0.0
 11
22.14751103
 21
64.87122476
 31
0.0
  0
LINE
  5
133
100
AcDbEntity
  8
0
  6
CONTINUOUS
 62
       7
100
AcDbLine
 10
22.14751103
 20
64.87122476
 30
0.0
 11
22.14751103
 21
58.87122476
 31
0.0
  0
LINE
  5
134
100
AcDbEntity
  8
0
  6
CONTINUOUS
 62
       7
100
AcDbLine
 10
10.24751103
 20
63.87122476
 30
0.0
 11
10.24751103
 21
58.87122476
 31
0.0
  0
LINE
  5
135
100
AcDbEntity
  8
0
  6
CONTINUOUS
 62
       7
100
AcDbLine
 10
20.43751103
 20
61.27122476
 30
0.0
 11
20.43751103
 21
59.77122476
 31
0.0
  0
LINE
  5
136
100
AcDbEntity
  8
0
  6
CONTINUOUS
 62
       2
100
AcDbLine
 10
-0.75248897
 20
62.37122476
 30
0.0
 11
13.25751103
 21
62.37122476
 31
0.0
  0
LINE
  5
137
100
AcDbEntity
  8
0
  6
CONTINUOUS
 62
       7
100
AcDbLine
 10
32.69004474
 20
66.36546365
 30
0.0
 11
36.19004474
 21
66.36546365
 31
0.0
  0
LINE
  5
138
100
AcDbEntity
  8
0
  6
CONTINUOUS
 62
       7
100
AcDbLine
 10
32.69004474
 20
65.86546365
 30
0.0
 11
36.19004474
 21
65.86546365
 31
0.0
  0
LINE
  5
139
100
AcDbEntity
  8
0
  6
CONTINUOUS
 62
       7
100
AcDbLine
 10
2.74751103
 20
63.02122476
 30
0.0
 11
5.36751103
 21
63.02122476
 31
0.0
  0
LINE
  5
13A
100
AcDbEntity
  8
0
  6
CONTINUOUS
 62
       7
100
AcDbLine
 10
2.74751103
 20
61.72122476
 30
0.0
 11
5.71751103
 21
61.72122476
 31
0.0
  0
LINE
  5
13B
100
AcDbEntity
  8
0
  6
CONTINUOUS
 62
       7
100
AcDbLine
 10
36.19004474
 20
65.46546365
 30
0.0
 11
36.19004474
 21
66.76546365
 31
0.0
  0
LINE
  5
13C
100
AcDbEntity
  8
0
  6
CONTINUOUS
 62
       2
100
AcDbLine
 10
7.01751103
 20
60.72122476
 30
0.0
 11
6.13751103
 21
64.02122476
 31
0.0
  0
LINE
  5
13D
100
AcDbEntity
  8
0
  6
CONTINUOUS
 62
       2
100
AcDbLine
 10
5.98751103
 20
60.72122476
 30
0.0
 11
5.09751103
 21
64.02122476
 31
0.0
  0
LINE
  5
13E
100
AcDbEntity
  8
0
  6
CONTINUOUS
 62
       7
100
AcDbLine
 10
6.39751103
 20
63.02122476
 30
0.0
 11
10.24751103
 21
63.02122476
 31
0.0
  0
LINE
  5
13F
100
AcDbEntity
  8
0
  6
CONTINUOUS
 62
       7
100
AcDbLine
 10
6.74751103
 20
61.72122476
 30
0.0
 11
10.24751103
 21
61.72122476
 31
0.0
  0
LINE
  5
140
100
AcDbEntity
  8
0
  6
CONTINUOUS
 62
       7
100
AcDbLine
 10
22.14751103
 20
64.87122476
 30
0.0
 11
19.73751103
 21
64.87122476
 31
0.0
  0
ARC
  5
141
100
AcDbEntity
  8
0
  6
CONTINUOUS
 62
       7
100
AcDbCircle
 10
19.74419804
 20
64.37122476
 30
0.0
 40
0.50004471
100
AcDbArc
 50
90.76622942
 51
269.23377058
  0
ARC
  5
142
100
AcDbEntity
  8
0
  6
CONTINUOUS
 62
       7
100
AcDbCircle
 10
17.74419804
 20
64.37122476
 30
0.0
 40
0.50004471
100
AcDbArc
 50
269.23377058
 51
90.76622942
  0
ARC
  5
143
100
AcDbEntity
  8
0
  6
CONTINUOUS
 62
       7
100
AcDbCircle
 10
28.74083414
 20
65.37454787
 30
0.0
 40
0.49668801
100
AcDbArc
 50
359.61665743
 51
90.38334257
  0
LINE
  5
144
100
AcDbEntity
  8
0
  6
CONTINUOUS
 62
       7
100
AcDbLine
 10
17.73751103
 20
63.87122476
 30
0.0
 11
10.24751103
 21
63.87122476
 31
0.0
  0
LINE
  5
145
100
AcDbEntity
  8
0
  6
CONTINUOUS
 62
       7
100
AcDbLine
 10
17.73751103
 20
64.87122476
 30
0.0
 11
17.40751103
 21
64.87122476
 31
0.0
  0
LINE
  5
146
100
AcDbEntity
  8
0
  6
CONTINUOUS
 62
       7
100
AcDbLine
 10
16.43751103
 20
64.17122476
 30
0.0
 11
10.54751103
 21
64.17122476
 31
0.0
  0
LINE
  5
147
100
AcDbEntity
  8
0
  6
CONTINUOUS
 62
       7
100
AcDbLine
 10
21.03751103
 20
64.17122476
 30
0.0
 11
20.73751103
 21
63.87122476
 31
0.0
  0
LINE
  5
148
100
AcDbEntity
  8
0
  6
CONTINUOUS
 62
       7
100
AcDbLine
 10
16.73751103
 20
63.87122476
 30
0.0
 11
16.43751103
 21
64.17122476
 31
0.0
  0
LINE
  5
149
100
AcDbEntity
  8
0
  6
CONTINUOUS
 62
       7
100
AcDbLine
 10
10.54751103
 20
64.17122476
 30
0.0
 11
10.24751103
 21
63.87122476
 31
0.0
  0
LINE
  5
14A
100
AcDbEntity
  8
0
  6
CONTINUOUS
 62
       7
100
AcDbLine
 10
22.14751103
 20
64.17122476
 30
0.0
 11
21.03751103
 21
64.17122476
 31
0.0
  0
LINE
  5
14B
100
AcDbEntity
  8
0
  6
CONTINUOUS
 62
       7
100
AcDbLine
 10
22.14751103
 20
63.87122476
 30
0.0
 11
19.73751103
 21
63.87122476
 31
0.0
  0
LINE
  5
14C
100
AcDbEntity
  8
0
  6
CONTINUOUS
 62
       7
100
AcDbLine
 10
11.74751103
 20
65.87122476
 30
0.0
 11
17.40751103
 21
64.87122476
 31
0.0
  0
LINE
  5
14D
100
AcDbEntity
  8
0
  6
CONTINUOUS
 62
       7
100
AcDbLine
 10
12.24751103
 20
66.87122476
 30
0.0
 11
17.90751103
 21
65.87122476
 31
0.0
  0
LINE
  5
14E
100
AcDbEntity
  8
0
  6
CONTINUOUS
 62
       7
100
AcDbLine
 10
10.24751103
 20
65.87122476
 30
0.0
 11
11.74751103
 21
65.87122476
 31
0.0
  0
LINE
  5
14F
100
AcDbEntity
  8
0
  6
CONTINUOUS
 62
       7
100
AcDbLine
 10
10.24751103
 20
66.87122476
 30
0.0
 11
12.24751103
 21
66.87122476
 31
0.0
  0
LINE
  5
150
100
AcDbEntity
  8
0
  6
CONTINUOUS
 62
       7
100
AcDbLine
 10
28.73751103
 20
65.87122476
 30
0.0
 11
17.90751103
 21
65.87122476
 31
0.0
  0
LINE
  5
151
100
AcDbEntity
  8
0
  6
CONTINUOUS
 62
       7
100
AcDbLine
 10
10.24751103
 20
63.07122476
 30
0.0
 11
22.14751103
 21
63.07122476
 31
0.0
  0
LINE
  5
152
100
AcDbEntity
  8
0
  6
CONTINUOUS
 62
       7
100
AcDbLine
 10
10.24751103
 20
61.27122476
 30
0.0
 11
22.14751103
 21
61.27122476
 31
0.0
  0
LINE
  5
153
100
AcDbEntity
  8
0
  6
CONTINUOUS
 62
       7
100
AcDbLine
 10
29.23751103
 20
65.37122476
 30
0.0
 11
29.23751103
 21
64.87122476
 31
0.0
  0
LINE
  5
154
100
AcDbEntity
  8
0
  6
CONTINUOUS
 62
       7
100
AcDbLine
 10
10.24751103
 20
66.87122476
 30
0.0
 11
10.24751103
 21
65.87122476
 31
0.0
  0
LINE
  5
155
100
AcDbEntity
  8
0
  6
CONTINUOUS
 62
       7
100
AcDbLine
 10
20.43751103
 20
59.77122476
 30
0.0
 11
22.14751103
 21
59.77122476
 31
0.0
  0
LINE
  5
156
100
AcDbEntity
  8
0
  6
CONTINUOUS
 62
       7
100
AcDbLine
 10
21.63751103
 20
58.87122476
 30
0.0
 11
18.23751103
 21
58.87122476
 31
0.0
  0
LINE
  5
157
100
AcDbEntity
  8
0
  6
CONTINUOUS
 62
       7
100
AcDbLine
 10
18.23751103
 20
59.87122476
 30
0.0
 11
18.23751103
 21
58.87122476
 31
0.0
  0
LINE
  5
158
100
AcDbEntity
  8
0
  6
CONTINUOUS
 62
       7
100
AcDbLine
 10
11.74751103
 20
59.87122476
 30
0.0
 11
18.23751103
 21
59.87122476
 31
0.0
  0
LINE
  5
159
100
AcDbEntity
  8
0
  6
CONTINUOUS
 62
       7
100
AcDbLine
 10
10.24751103
 20
58.87122476
 30
0.0
 11
11.74751103
 21
58.87122476
 31
0.0
  0
LINE
  5
15A
100
AcDbEntity
  8
0
  6
CONTINUOUS
 62
       7
100
AcDbLine
 10
11.74751103
 20
59.87122476
 30
0.0
 11
11.74751103
 21
58.87122476
 31
0.0
  0
LINE
  5
15B
100
AcDbEntity
  8
0
  6
CONTINUOUS
 62
       7
100
AcDbLine
 10
32.69004474
 20
65.86546365
 30
0.0
 11
32.69004474
 21
66.36546365
 31
0.0
  0
LINE
  5
15C
100
AcDbEntity
  8
0
  6
CONTINUOUS
 62
       7
100
AcDbLine
 10
-77.86336454
 20
64.8807374
 30
0.0
 11
-74.86336454
 21
64.8807374
 31
0.0
  0
LINE
  5
15D
100
AcDbEntity
  8
0
  6
CONTINUOUS
 62
       7
100
AcDbLine
 10
-75.06336454
 20
61.2807374
 30
0.0
 11
-75.06336454
 21
58.8807374
 31
0.0
  0
LINE
  5
15E
100
AcDbEntity
  8
0
  6
CONTINUOUS
 62
       7
100
AcDbLine
 10
-66.66336454
 20
61.2807374
 30
0.0
 11
-66.66336454
 21
58.8807374
 31
0.0
  0
LINE
  5
15F
100
AcDbEntity
  8
0
  6
CONTINUOUS
 62
       7
100
AcDbLine
 10
-74.86336454
 20
61.2807374
 30
0.0
 11
-74.86336454
 21
58.8807374
 31
0.0
  0
LINE
  5
160
100
AcDbEntity
  8
0
  6
CONTINUOUS
 62
       7
100
AcDbLine
 10
-66.86336454
 20
61.2807374
 30
0.0
 11
-66.86336454
 21
58.8807374
 31
0.0
  0
LINE
  5
161
100
AcDbEntity
  8
0
  6
CONTINUOUS
 62
       7
100
AcDbLine
 10
-66.86336454
 20
66.8807374
 30
0.0
 11
-66.86336454
 21
63.0807374
 31
0.0
  0
LINE
  5
162
100
AcDbEntity
  8
0
  6
CONTINUOUS
 62
       7
100
AcDbLine
 10
-74.86336454
 20
66.8807374
 30
0.0
 11
-74.86336454
 21
63.0807374
 31
0.0
  0
LINE
  5
163
100
AcDbEntity
  8
0
  6
CONTINUOUS
 62
       7
100
AcDbLine
 10
-73.36336454
 20
60.5007374
 30
0.0
 11
-73.36336454
 21
59.5007374
 31
0.0
  0
ARC
  5
164
100
AcDbEntity
  8
0
  6
CONTINUOUS
 62
       7
100
AcDbCircle
 10
-70.86338227
 20
60.0007374
 30
0.0
 40
0.49498728
100
AcDbArc
 50
44.99854906
 51
315.00145094
  0
LINE
  5
165
100
AcDbEntity
  8
0
  6
CONTINUOUS
 62
       7
100
AcDbLine
 10
-66.86336454
 20
64.8807374
 30
0.0
 11
-63.86336454
 21
64.8807374
 31
0.0
  0
LINE
  5
166
100
AcDbEntity
  8
0
  6
CONTINUOUS
 62
       7
100
AcDbLine
 10
-74.86336454
 20
64.8807374
 30
0.0
 11
-66.86336454
 21
64.8807374
 31
0.0
  0
LINE
  5
167
100
AcDbEntity
  8
0
  6
CONTINUOUS
 62
       7
100
AcDbLine
 10
-66.66336454
 20
61.2807374
 30
0.0
 11
-65.16336454
 21
61.2807374
 31
0.0
  0
LINE
  5
168
100
AcDbEntity
  8
0
  6
CONTINUOUS
 62
       7
100
AcDbLine
 10
-75.06336454
 20
61.2807374
 30
0.0
 11
-74.86336454
 21
61.2807374
 31
0.0
  0
LINE
  5
169
100
AcDbEntity
  8
0
  6
CONTINUOUS
 62
       7
100
AcDbLine
 10
-68.86336454
 20
60.0007374
 30
0.0
 11
-67.86336454
 21
60.0007374
 31
0.0
  0
LINE
  5
16A
100
AcDbEntity
  8
0
  6
CONTINUOUS
 62
       7
100
AcDbLine
 10
-73.86336454
 20
60.0007374
 30
0.0
 11
-72.86336454
 21
60.0007374
 31
0.0
  0
LINE
  5
16B
100
AcDbEntity
  8
0
  6
CONTINUOUS
 62
       7
100
AcDbLine
 10
-68.86336454
 20
61.4307374
 30
0.0
 11
-68.86336454
 21
61.1307374
 31
0.0
  0
LINE
  5
16C
100
AcDbEntity
  8
0
  6
CONTINUOUS
 62
       7
100
AcDbLine
 10
-67.86336454
 20
61.4307374
 30
0.0
 11
-67.86336454
 21
61.1307374
 31
0.0
  0
LINE
  5
16D
100
AcDbEntity
  8
0
  6
CONTINUOUS
 62
       7
100
AcDbLine
 10
-70.36336454
 20
61.4307374
 30
0.0
 11
-70.36336454
 21
61.1307374
 31
0.0
  0
LINE
  5
16E
100
AcDbEntity
  8
0
  6
CONTINUOUS
 62
       7
100
AcDbLine
 10
-71.36336454
 20
61.4307374
 30
0.0
 11
-71.36336454
 21
61.1307374
 31
0.0
  0
LINE
  5
16F
100
AcDbEntity
  8
0
  6
CONTINUOUS
 62
       7
100
AcDbLine
 10
-72.86336454
 20
61.4307374
 30
0.0
 11
-72.86336454
 21
61.1307374
 31
0.0
  0
LINE
  5
170
100
AcDbEntity
  8
0
  6
CONTINUOUS
 62
       7
100
AcDbLine
 10
-73.86336454
 20
61.4307374
 30
0.0
 11
-73.86336454
 21
61.1307374
 31
0.0
  0
LINE
  5
171
100
AcDbEntity
  8
0
  6
CONTINUOUS
 62
       7
100
AcDbLine
 10
-68.86336454
 20
61.1307374
 30
0.0
 11
-67.86336454
 21
61.1307374
 31
0.0
  0
LINE
  5
172
100
AcDbEntity
  8
0
  6
CONTINUOUS
 62
       7
100
AcDbLine
 10
-71.36336454
 20
61.1307374
 30
0.0
 11
-70.36336454
 21
61.1307374
 31
0.0
  0
LINE
  5
173
100
AcDbEntity
  8
0
  6
CONTINUOUS
 62
       7
100
AcDbLine
 10
-73.86336454
 20
61.1307374
 30
0.0
 11
-72.86336454
 21
61.1307374
 31
0.0
  0
LINE
  5
174
100
AcDbEntity
  8
0
  6
CONTINUOUS
 62
       7
100
AcDbLine
 10
-69.31336454
 20
63.5307374
 30
0.0
 11
-67.41336454
 21
63.5307374
 31
0.0
  0
LINE
  5
175
100
AcDbEntity
  8
0
  6
CONTINUOUS
 62
       7
100
AcDbLine
 10
-71.81336454
 20
63.5307374
 30
0.0
 11
-69.91336454
 21
63.5307374
 31
0.0
  0
LINE
  5
176
100
AcDbEntity
  8
0
  6
CONTINUOUS
 62
       7
100
AcDbLine
 10
-74.31336454
 20
63.5307374
 30
0.0
 11
-72.41336454
 21
63.5307374
 31
0.0
  0
LINE
  5
177
100
AcDbEntity
  8
0
  6
CONTINUOUS
 62
       7
100
AcDbLine
 10
-74.56336454
 20
64.1807374
 30
0.0
 11
-67.16336454
 21
64.1807374
 31
0.0
  0
LINE
  5
178
100
AcDbEntity
  8
0
  6
CONTINUOUS
 62
       7
100
AcDbLine
 10
-75.06336454
 20
63.8807374
 30
0.0
 11
-66.66336454
 21
63.8807374
 31
0.0
  0
LINE
  5
179
100
AcDbEntity
  8
0
  6
CONTINUOUS
 62
       7
100
AcDbLine
 10
-69.31336454
 20
63.3307374
 30
0.0
 11
-67.41336454
 21
63.3307374
 31
0.0
  0
LINE
  5
17A
100
AcDbEntity
  8
0
  6
CONTINUOUS
 62
       7
100
AcDbLine
 10
-69.31336454
 20
61.4307374
 30
0.0
 11
-67.41336454
 21
61.4307374
 31
0.0
  0
LINE
  5
17B
100
AcDbEntity
  8
0
  6
CONTINUOUS
 62
       7
100
AcDbLine
 10
-71.81336454
 20
61.4307374
 30
0.0
 11
-69.91336454
 21
61.4307374
 31
0.0
  0
LINE
  5
17C
100
AcDbEntity
  8
0
  6
CONTINUOUS
 62
       7
100
AcDbLine
 10
-71.81336454
 20
63.3307374
 30
0.0
 11
-69.91336454
 21
63.3307374
 31
0.0
  0
LINE
  5
17D
100
AcDbEntity
  8
0
  6
CONTINUOUS
 62
       7
100
AcDbLine
 10
-69.31336454
 20
63.5307374
 30
0.0
 11
-69.31336454
 21
61.4307374
 31
0.0
  0
LINE
  5
17E
100
AcDbEntity
  8
0
  6
CONTINUOUS
 62
       7
100
AcDbLine
 10
-67.41336454
 20
63.5307374
 30
0.0
 11
-67.41336454
 21
61.4307374
 31
0.0
  0
LINE
  5
17F
100
AcDbEntity
  8
0
  6
CONTINUOUS
 62
       7
100
AcDbLine
 10
-69.91336454
 20
63.5307374
 30
0.0
 11
-69.91336454
 21
61.4307374
 31
0.0
  0
LINE
  5
180
100
AcDbEntity
  8
0
  6
CONTINUOUS
 62
       7
100
AcDbLine
 10
-71.81336454
 20
63.5307374
 30
0.0
 11
-71.81336454
 21
61.4307374
 31
0.0
  0
LINE
  5
181
100
AcDbEntity
  8
0
  6
CONTINUOUS
 62
       7
100
AcDbLine
 10
-72.41336454
 20
63.5307374
 30
0.0
 11
-72.41336454
 21
61.4307374
 31
0.0
  0
LINE
  5
182
100
AcDbEntity
  8
0
  6
CONTINUOUS
 62
       7
100
AcDbLine
 10
-74.31336454
 20
63.5307374
 30
0.0
 11
-74.31336454
 21
61.4307374
 31
0.0
  0
LINE
  5
183
100
AcDbEntity
  8
0
  6
CONTINUOUS
 62
       7
100
AcDbLine
 10
-74.31336454
 20
61.4307374
 30
0.0
 11
-72.41336454
 21
61.4307374
 31
0.0
  0
LINE
  5
184
100
AcDbEntity
  8
0
  6
CONTINUOUS
 62
       7
100
AcDbLine
 10
-74.31336454
 20
63.3307374
 30
0.0
 11
-72.41336454
 21
63.3307374
 31
0.0
  0
LINE
  5
185
100
AcDbEntity
  8
0
  6
CONTINUOUS
 62
       7
100
AcDbLine
 10
-66.86336454
 20
63.0807374
 30
0.0
 11
-65.36336454
 21
63.0807374
 31
0.0
  0
LINE
  5
186
100
AcDbEntity
  8
0
  6
CONTINUOUS
 62
       7
100
AcDbLine
 10
-66.86336454
 20
63.8807374
 30
0.0
 11
-67.16336454
 21
64.1807374
 31
0.0
  0
LINE
  5
187
100
AcDbEntity
  8
0
  6
CONTINUOUS
 62
       7
100
AcDbLine
 10
-74.86336454
 20
63.8807374
 30
0.0
 11
-74.56336454
 21
64.1807374
 31
0.0
  0
LINE
  5
188
100
AcDbEntity
  8
0
  6
CONTINUOUS
 62
       7
100
AcDbLine
 10
-65.36336454
 20
63.0807374
 30
0.0
 11
-65.36336454
 21
61.2807374
 31
0.0
  0
LINE
  5
189
100
AcDbEntity
  8
0
  6
CONTINUOUS
 62
       7
100
AcDbLine
 10
-76.36336454
 20
63.0807374
 30
0.0
 11
-76.36336454
 21
61.2807374
 31
0.0
  0
LINE
  5
18A
100
AcDbEntity
  8
0
  6
CONTINUOUS
 62
       7
100
AcDbLine
 10
-76.36336454
 20
63.0807374
 30
0.0
 11
-74.86336454
 21
63.0807374
 31
0.0
  0
LINE
  5
18B
100
AcDbEntity
  8
0
  6
CONTINUOUS
 62
       7
100
AcDbLine
 10
-66.86336454
 20
61.2807374
 30
0.0
 11
-66.66336454
 21
61.2807374
 31
0.0
  0
LINE
  5
18C
100
AcDbEntity
  8
0
  6
CONTINUOUS
 62
       7
100
AcDbLine
 10
-66.66336454
 20
63.2807374
 30
0.0
 11
-65.16336454
 21
63.2807374
 31
0.0
  0
LINE
  5
18D
100
AcDbEntity
  8
0
  6
CONTINUOUS
 62
       7
100
AcDbLine
 10
-76.56336454
 20
63.2807374
 30
0.0
 11
-76.56336454
 21
61.2807374
 31
0.0
  0
LINE
  5
18E
100
AcDbEntity
  8
0
  6
CONTINUOUS
 62
       7
100
AcDbLine
 10
-65.16336454
 20
63.2807374
 30
0.0
 11
-65.16336454
 21
61.2807374
 31
0.0
  0
LINE
  5
18F
100
AcDbEntity
  8
0
  6
CONTINUOUS
 62
       7
100
AcDbLine
 10
-75.06336454
 20
64.8807374
 30
0.0
 11
-75.06336454
 21
63.2807374
 31
0.0
  0
LINE
  5
190
100
AcDbEntity
  8
0
  6
CONTINUOUS
 62
       7
100
AcDbLine
 10
-66.66336454
 20
64.8807374
 30
0.0
 11
-66.66336454
 21
63.2807374
 31
0.0
  0
LINE
  5
191
100
AcDbEntity
  8
0
  6
CONTINUOUS
 62
       7
100
AcDbLine
 10
-76.56336454
 20
63.2807374
 30
0.0
 11
-75.06336454
 21
63.2807374
 31
0.0
  0
LINE
  5
192
100
AcDbEntity
  8
0
  6
CONTINUOUS
 62
       7
100
AcDbLine
 10
-76.56336454
 20
61.2807374
 30
0.0
 11
-75.06336454
 21
61.2807374
 31
0.0
  0
LINE
  5
193
100
AcDbEntity
  8
0
  6
CONTINUOUS
 62
       7
100
AcDbLine
 10
-63.86336454
 20
64.8807374
 30
0.0
 11
-63.86336454
 21
58.8807374
 31
0.0
  0
LINE
  5
194
100
AcDbEntity
  8
0
  6
CONTINUOUS
 62
       7
100
AcDbLine
 10
-74.86336454
 20
65.8807374
 30
0.0
 11
-66.86336454
 21
65.8807374
 31
0.0
  0
LINE
  5
195
100
AcDbEntity
  8
0
  6
CONTINUOUS
 62
       7
100
AcDbLine
 10
-74.86336454
 20
66.8807374
 30
0.0
 11
-66.86336454
 21
66.8807374
 31
0.0
  0
LINE
  5
196
100
AcDbEntity
  8
0
  6
CONTINUOUS
 62
       7
100
AcDbLine
 10
-77.86336454
 20
64.8807374
 30
0.0
 11
-77.86336454
 21
58.8807374
 31
0.0
  0
LINE
  5
197
100
AcDbEntity
  8
0
  6
CONTINUOUS
 62
       7
100
AcDbLine
 10
-77.61336454
 20
65.3707374
 30
0.0
 11
-77.61336454
 21
64.8807374
 31
0.0
  0
CIRCLE
  5
198
100
AcDbEntity
  8
0
  6
CONTINUOUS
 62
       7
100
AcDbCircle
 10
-70.87050726
 20
34.37120572
 30
0.0
 40
3.0
  0
ARC
  5
199
100
AcDbEntity
  8
0
  6
CONTINUOUS
 62
       7
100
AcDbCircle
 10
-70.87050726
 20
34.37120572
 30
0.0
 40
2.4
100
AcDbArc
 50
192.02469918
 51
347.97530082
  0
LINE
  5
19A
100
AcDbEntity
  8
0
  6
CONTINUOUS
 62
       7
100
AcDbLine
 10
-73.82854714
 20
34.87120572
 30
0.0
 11
-67.91246738
 21
34.87120572
 31
0.0
  0
LINE
  5
19B
100
AcDbEntity
  8
0
  6
CONTINUOUS
 62
       7
100
AcDbLine
 10
-73.82854714
 20
33.87120572
 30
0.0
 11
-67.91246736
 21
33.87120572
 31
0.0
  0
ARC
  5
19C
100
AcDbEntity
  8
0
  6
CONTINUOUS
 62
       7
100
AcDbCircle
 10
-70.87050726
 20
34.37120572
 30
0.0
 40
2.4
100
AcDbArc
 50
12.02469918
 51
167.97530082
  0
LINE
  5
19D
100
AcDbEntity
  8
0
  6
CONTINUOUS
 62
       7
100
AcDbLine
 10
-69.21221786
 20
36.87122098
 30
0.0
 11
-61.87050726
 21
36.87122098
 31
0.0
  0
LINE
  5
19E
100
AcDbEntity
  8
0
  6
CONTINUOUS
 62
       7
100
AcDbLine
 10
23.24751103
 20
36.77120572
 30
0.0
 11
23.24751103
 21
34.87120572
 31
0.0
  0
LINE
  5
19F
100
AcDbEntity
  8
0
  6
CONTINUOUS
 62
       7
100
AcDbLine
 10
28.24751103
 20
36.77120572
 30
0.0
 11
28.24751103
 21
31.97120572
 31
0.0
  0
LINE
  5
1A0
100
AcDbEntity
  8
0
  6
CONTINUOUS
 62
       7
100
AcDbLine
 10
28.24751101
 20
35.97120572
 30
0.0
 11
29.74751103
 21
35.97120572
 31
0.0
  0
LINE
  5
1A1
100
AcDbEntity
  8
0
  6
CONTINUOUS
 62
       7
100
AcDbLine
 10
28.24751101
 20
32.77120572
 30
0.0
 11
29.74751103
 21
32.77120572
 31
0.0
  0
LINE
  5
1A2
100
AcDbEntity
  8
0
  6
CONTINUOUS
 62
       7
100
AcDbLine
 10
23.84751103
 20
37.37120572
 30
0.0
 11
27.64751103
 21
37.37120572
 31
0.0
  0
LINE
  5
1A3
100
AcDbEntity
  8
0
  6
CONTINUOUS
 62
       7
100
AcDbLine
 10
23.84751103
 20
31.37120572
 30
0.0
 11
27.64751103
 21
31.37120572
 31
0.0
  0
LINE
  5
1A4
100
AcDbEntity
  8
0
  6
CONTINUOUS
 62
       7
100
AcDbLine
 10
23.24751103
 20
36.77120572
 30
0.0
 11
23.84751103
 21
37.37120572
 31
0.0
  0
LINE
  5
1A5
100
AcDbEntity
  8
0
  6
CONTINUOUS
 62
       7
100
AcDbLine
 10
23.84751103
 20
31.37120572
 30
0.0
 11
23.24751103
 21
31.97120572
 31
0.0
  0
LINE
  5
1A6
100
AcDbEntity
  8
0
  6
CONTINUOUS
 62
       7
100
AcDbLine
 10
27.64751103
 20
37.37120572
 30
0.0
 11
28.24751103
 21
36.77120572
 31
0.0
  0
LINE
  5
1A7
100
AcDbEntity
  8
0
  6
CONTINUOUS
 62
       7
100
AcDbLine
 10
27.64751103
 20
31.37120572
 30
0.0
 11
28.24751103
 21
31.97120572
 31
0.0
  0
LINE
  5
1A8
100
AcDbEntity
  8
0
  6
CONTINUOUS
 62
       7
100
AcDbLine
 10
23.84751103
 20
37.37120572
 30
0.0
 11
23.84751103
 21
34.87120572
 31
0.0
  0
LINE
  5
1A9
100
AcDbEntity
  8
0
  6
CONTINUOUS
 62
       7
100
AcDbLine
 10
27.64751103
 20
31.37120572
 30
0.0
 11
27.64751103
 21
37.37120572
 31
0.0
  0
LINE
  5
1AA
100
AcDbEntity
  8
0
  6
CONTINUOUS
 62
       7
100
AcDbLine
 10
23.24751101
 20
34.87120572
 30
0.0
 11
24.24751103
 21
34.87120572
 31
0.0
  0
LINE
  5
1AB
100
AcDbEntity
  8
0
  6
CONTINUOUS
 62
       7
100
AcDbLine
 10
23.24751101
 20
33.87120572
 30
0.0
 11
24.24751103
 21
33.87120572
 31
0.0
  0
LINE
  5
1AC
100
AcDbEntity
  8
0
  6
CONTINUOUS
 62
       7
100
AcDbLine
 10
24.24751103
 20
34.87120572
 30
0.0
 11
24.24751103
 21
33.87120572
 31
0.0
  0
LINE
  5
1AD
100
AcDbEntity
  8
0
  6
CONTINUOUS
 62
       7
100
AcDbLine
 10
23.84751103
 20
33.87120572
 30
0.0
 11
23.84751103
 21
31.37120572
 31
0.0
  0
LINE
  5
1AE
100
AcDbEntity
  8
0
  6
CONTINUOUS
 62
       7
100
AcDbLine
 10
23.24751103
 20
33.87120572
 30
0.0
 11
23.24751103
 21
31.97120572
 31
0.0
  0
LINE
  5
1AF
100
AcDbEntity
  8
0
  6
CONTINUOUS
 62
       7
100
AcDbLine
 10
56.75702903
 20
20.1807384
 30
0.0
 11
56.75702903
 21
-5.8192616
 31
0.0
  0
LINE
  5
1B0
100
AcDbEntity
  8
0
  6
CONTINUOUS
 62
       7
100
AcDbLine
 10
57.75702903
 20
20.1807384
 30
0.0
 11
57.75702903
 21
-5.8192616
 31
0.0
  0
LINE
  5
1B1
100
AcDbEntity
  8
0
  6
CONTINUOUS
 62
       7
100
AcDbLine
 10
57.75702903
 20
20.1807384
 30
0.0
 11
56.75702903
 21
20.1807384
 31
0.0
  0
LINE
  5
1B2
100
AcDbEntity
  8
0
  6
CONTINUOUS
 62
       7
100
AcDbLine
 10
57.75702903
 20
-5.8192616
 30
0.0
 11
56.75702903
 21
-5.8192616
 31
0.0
  0
LINE
  5
1B3
100
AcDbEntity
  8
0
  6
CONTINUOUS
 62
       2
100
AcDbLine
 10
-55.86336454
 20
14.727119
 30
0.0
 11
-55.86336454
 21
-13.83766787
 31
0.0
  0
LINE
  5
1B4
100
AcDbEntity
  8
0
  6
CONTINUOUS
 62
       7
100
AcDbLine
 10
-80.86336454
 20
-20.32877593
 30
0.0
 11
-61.87050726
 21
-20.32877902
 31
0.0
  0
LINE
  5
1B5
100
AcDbEntity
  8
0
  6
CONTINUOUS
 62
       7
100
AcDbLine
 10
-63.36336384
 20
82.6712254
 30
0.0
 11
-63.36335524
 21
37.8807374
 31
0.0
  0
LINE
  5
1B6
100
AcDbEntity
  8
0
  6
CONTINUOUS
 62
       7
100
AcDbLine
 10
-78.36336409
 20
82.6712254
 30
0.0
 11
-78.36335524
 21
37.8807374
 31
0.0
  0
LINE
  5
1B7
100
AcDbEntity
  8
0
  6
CONTINUOUS
 62
       2
100
AcDbLine
 10
43.24751103
 20
70.12836816
 30
0.0
 11
43.24751103
 21
-25.44882713
 31
0.0
  0
MTEXT
  5
1B8
100
AcDbEntity
  8
0
  6
CONTINUOUS
 62
       7
100
AcDbMText
 10
-158.69938651
 20
114.8500061
 30
0.0
 40
4.5
 41
0.0
 71
       1
 72
       1
  1
\W1.067;\A1;stn.1:AME07-E1-83-PLL-DC24V-E
  0
MTEXT
  5
1B9
100
AcDbEntity
  8
0
  6
CONTINUOUS
 62
       7
100
AcDbMText
 10
-185.68181818
 20
122.6000061
 30
0.0
 40
4.5
 41
0.0
 71
       4
 72
       1
  1
\W1.091;\A1;MODEL:ME07M1AS
  0
LINE
  5
1BA
100
AcDbEntity
  8
0
  6
CONTINUOUS
 62
       7
100
AcDbLine
 10
-194.25
 20
132.6000061
 30
0.0
 11
194.80000305
 21
132.6000061
 31
0.0
  0
LINE
  5
1BB
100
AcDbEntity
  8
0
  6
CONTINUOUS
 62
       7
100
AcDbLine
 10
194.80000305
 20
132.6000061
 30
0.0
 11
194.80000305
 21
-133.5
 31
0.0
  0
LINE
  5
1BC
100
AcDbEntity
  8
0
  6
CONTINUOUS
 62
       7
100
AcDbLine
 10
-194.25
 20
132.6000061
 30
0.0
 11
-194.25
 21
-133.5
 31
0.0
  0
LINE
  5
1BD
100
AcDbEntity
  8
0
  6
CONTINUOUS
 62
       7
100
AcDbLine
 10
-194.25
 20
-133.5
 30
0.0
 11
194.80000305
 21
-133.5
 31
0.0
  0
ENDSEC
  0
SECTION
  2
OBJECTS
  0
DICTIONARY
  5
19
100
AcDbDictionary
  3
ACAD_GROUP
350
1A
  3
ACAD_MLINESTYLE
350
1B
  0
DICTIONARY
  5
1A
102
{ACAD_REACTORS
330
19
102
}
100
AcDbDictionary
  0
DICTIONARY
  5
1B
102
{ACAD_REACTORS
330
19
102
}
100
AcDbDictionary
  3
STANDARD
350
1C
  0
MLINESTYLE
  5
1C
102
{ACAD_REACTORS
330
1B
102
}
100
AcDbMlineStyle
  2
Standard
 70
       0
  3

 62
       0
 51
90.0
 52
90.0
 71
       2
 49
0.5
 62
     256
  6
ByLayer
 49
-0.5
 62
     256
  6
ByLayer
  0
ENDSEC
  0
EOF
