  0
SECTION
  2
HEADER
  9
$ACADVER
  1
AC1009
  9
$INSBASE
 10
0.0
 20
0.0
 30
0.0
  9
$EXTMIN
 10
-138.3999939
 20
-94.80000305
 30
0.0
  9
$EXTMAX
 10
138.3500061
 20
94.5
 30
0.0
  9
$LIMMIN
 10
-138.3999939
 20
-94.80000305
  9
$LIMMAX
 10
138.3500061
 20
94.5
  9
$ORTHOMODE
 70
       0
  9
$REGENMODE
 70
       1
  9
$FILLMODE
 70
       1
  9
$QTEXTMODE
 70
       0
  9
$MIRRTEXT
 70
       1
  9
$DRAGMODE
 70
       2
  9
$LTSCALE
 40
1.0
  9
$OSMODE
 70
       0
  9
$ATTMODE
 70
       1
  9
$TEXTSIZE
 40
3.20000005
  9
$TRACEWID
 40
0.05
  9
$TEXTSTYLE
  7
MX_NOTE_STANDARD
  9
$CLAYER
  8
0
  9
$CELTYPE
  6
CONTINUOUS
  9
$CECOLOR
 62
     256
  9
$DIMSCALE
 40
1.0
  9
$DIMASZ
 40
2.5
  9
$DIMEXO
 40
1.5
  9
$DIMDLI
 40
3.75
  9
$DIMRND
 40
0.0
  9
$DIMDLE
 40
0.0
  9
$DIMEXE
 40
1.5
  9
$DIMTP
 40
0.0
  9
$DIMTM
 40
0.0
  9
$DIMTXT
 40
3.20000005
  9
$DIMCEN
 40
2.5
  9
$DIMTSZ
 40
0.0
  9
$DIMTOL
 70
       0
  9
$DIMLIM
 70
       0
  9
$DIMTIH
 70
       0
  9
$DIMTOH
 70
       0
  9
$DIMSE1
 70
       0
  9
$DIMSE2
 70
       0
  9
$DIMTAD
 70
       1
  9
$DIMZIN
 70
       8
  9
$DIMBLK
  1

  9
$DIMASO
 70
       1
  9
$DIMSHO
 70
       1
  9
$DIMPOST
  1

  9
$DIMAPOST
  1

  9
$DIMALT
 70
       0
  9
$DIMALTD
 70
       4
  9
$DIMALTF
 40
0.0394
  9
$DIMLFAC
 40
1.0
  9
$DIMTOFL
 70
       1
  9
$DIMTVP
 40
0.0
  9
$DIMTIX
 70
       0
  9
$DIMSOXD
 70
       0
  9
$DIMSAH
 70
       0
  9
$DIMBLK1
  1

  9
$DIMBLK2
  1

  9
$DIMSTYLE
  2
MXDIMSTYLE
  9
$DIMCLRD
 70
       0
  9
$DIMCLRE
 70
       0
  9
$DIMCLRT
 70
       0
  9
$DIMTFAC
 40
1.0
  9
$DIMGAP
 40
1.0
  9
$LUNITS
 70
       2
  9
$LUPREC
 70
       4
  9
$AXISMODE
 70
       0
  9
$AXISUNIT
 10
0.0
 20
0.0
  9
$SKETCHINC
 40
0.1
  9
$FILLETRAD
 40
0.0
  9
$AUNITS
 70
       0
  9
$AUPREC
 70
       0
  9
$MENU
  1
acad
  9
$ELEVATION
 40
0.0
  9
$PELEVATION
 40
0.0
  9
$THICKNESS
 40
0.0
  9
$LIMCHECK
 70
       0
  9
$BLIPMODE
 70
       1
  9
$CHAMFERA
 40
0.0
  9
$CHAMFERB
 40
0.0
  9
$SKPOLY
 70
       0
  9
$TDCREATE
 40
2452550.733217593
  9
$TDUPDATE
 40
2452550.733217593
  9
$TDINDWG
 40
0.0000000000
  9
$TDUSRTIMER
 40
0.0000000000
  9
$USRTIMER
 70
       1
  9
$ANGBASE
 50
0.0
  9
$ANGDIR
 70
       0
  9
$PDMODE
 70
       0
  9
$PDSIZE
 40
0.0
  9
$PLINEWID
 40
0.0
  9
$COORDS
 70
       1
  9
$SPLFRAME
 70
       0
  9
$SPLINETYPE
 70
       6
  9
$SPLINESEGS
 70
       8
  9
$ATTDIA
 70
       0
  9
$ATTREQ
 70
       1
  9
$HANDLING
 70
       1
  9
$HANDSEED
  5
121
  9
$SURFTAB1
 70
       6
  9
$SURFTAB2
 70
       6
  9
$SURFTYPE
 70
       6
  9
$SURFU
 70
       6
  9
$SURFV
 70
       6
  9
$UCSNAME
  2

  9
$UCSORG
 10
0.0
 20
0.0
 30
0.0
  9
$UCSXDIR
 10
1.0
 20
0.0
 30
0.0
  9
$UCSYDIR
 10
0.0
 20
1.0
 30
0.0
  9
$PUCSNAME
  2

  9
$PUCSORG
 10
0.0
 20
0.0
 30
0.0
  9
$PUCSXDIR
 10
1.0
 20
0.0
 30
0.0
  9
$PUCSYDIR
 10
0.0
 20
1.0
 30
0.0
  9
$USERI1
 70
       0
  9
$USERI2
 70
       0
  9
$USERI3
 70
       0
  9
$USERI4
 70
       0
  9
$USERI5
 70
       0
  9
$USERR1
 40
0.0
  9
$USERR2
 40
0.0
  9
$USERR3
 40
0.0
  9
$USERR4
 40
0.0
  9
$USERR5
 40
0.0
  9
$WORLDVIEW
 70
       1
  9
$SHADEDGE
 70
       3
  9
$SHADEDIF
 70
      70
  9
$TILEMODE
 70
       1
  9
$MAXACTVP
 70
      16
  9
$PINSBASE
 10
0.0
 20
0.0
 30
0.0
  9
$PLIMCHECK
 70
       0
  9
$PEXTMIN
 10
1.00000000E+20
 20
1.00000000E+20
 30
1.00000000E+20
  9
$PEXTMAX
 10
-1.00000000E+20
 20
-1.00000000E+20
 30
-1.00000000E+20
  9
$PLIMMIN
 10
0.0
 20
0.0
  9
$PLIMMAX
 10
12.0
 20
9.0
  9
$UNITMODE
 70
       0
  9
$VISRETAIN
 70
       0
  9
$PLINEGEN
 70
       1
  9
$PSLTSCALE
 70
       0
  9
$TREEDEPTH
 70
    3020
  9
$DWGCODEPAGE
  3
dos932
  0
ENDSEC
  0
SECTION
  2
TABLES
  0
TABLE
  2
VPORT
 70
       1
  0
VPORT
  2
*ACTIVE
 70
       0
 10
0.0
 20
0.0
 11
1.0
 21
1.0
 12
-0.0249939
 22
-0.15000153
 13
0.0
 23
0.0
 14
1.0
 24
1.0
 15
0.0
 25
0.0
 16
0.0
 26
0.0
 36
1.0
 17
0.0
 27
0.0
 37
0.0
 40
191.19300308
 41
1.73205081
 42
50.0
 43
0.0
 44
0.0
 50
0.0
 51
0.0
 71
       0
 72
     100
 73
       1
 74
       1
 75
       0
 76
       0
 77
       0
 78
       0
  0
ENDTAB
  0
TABLE
  2
LTYPE
 70
       2
  0
LTYPE
  2
CONTINUOUS
 70
      64
  3
Solid line
 72
      65
 73
       0
 40
0.0
  0
LTYPE
  2
CENTER
 70
      64
  3
Center ____ _ ____ _ ____ _ ____ _ ____ _ ____
 72
      65
 73
       4
 40
50.8
 49
31.75
 49
-6.35
 49
6.35
 49
-6.35
  0
ENDTAB
  0
TABLE
  2
LAYER
 70
       2
  0
LAYER
  2
0
 70
       0
 62
       7
  6
CONTINUOUS
  0
LAYER
  2
DEFPOINTS
 70
       0
 62
       7
  6
CONTINUOUS
  0
ENDTAB
  0
TABLE
  2
STYLE
 70
       1
  0
STYLE
  2
MX_NOTE_STANDARD
 70
       0
 40
3.20000005
 41
1.0
 50
0.0
 71
       0
 42
3.20000005
  3
txt.shx
  4
extfont.shx
  0
ENDTAB
  0
TABLE
  2
VIEW
 70
       0
  0
ENDTAB
  0
TABLE
  2
UCS
 70
       0
  0
ENDTAB
  0
TABLE
  2
APPID
 70
       1
  0
APPID
  2
ACAD
 70
       0
  0
ENDTAB
  0
TABLE
  2
DIMSTYLE
 70
       1
  0
DIMSTYLE
  2
MXDIMSTYLE
 70
       0
  3

  4

  5

  6

  7

 40
1.0
 41
2.5
 42
1.5
 43
3.75
 44
1.5
 45
0.0
 46
0.0
 47
0.0
 48
0.0
 71
       0
 72
       0
 73
       0
 74
       0
 75
       0
 76
       0
 77
       1
 78
       8
140
3.20000005
141
2.5
142
0.0
143
0.0394
144
1.0
145
0.0
146
1.0
147
1.0
170
       0
171
       4
172
       1
173
       0
174
       0
175
       0
176
       0
177
       0
178
       0
  0
ENDTAB
  0
ENDSEC
  0
SECTION
  2
BLOCKS
  0
ENDSEC
  0
SECTION
  2
ENTITIES
  0
LINE
  8
0
  6
CENTER
 62
       2
  5
1F
 10
31.91570765
 20
-24.58944012
 30
0.0
 11
39.71337549
 21
-24.58944012
 31
0.0
  0
LINE
  8
0
  6
CONTINUOUS
 62
       7
  5
20
 10
-95.39545843
 20
-7.58944012
 30
0.0
 11
-95.39545843
 21
-41.58944012
 31
0.0
  0
LINE
  8
0
  6
CONTINUOUS
 62
       7
  5
21
 10
-79.39545843
 20
-7.58944012
 30
0.0
 11
-79.39545843
 21
-41.58944012
 31
0.0
  0
LINE
  8
0
  6
CONTINUOUS
 62
       7
  5
22
 10
-95.39545843
 20
-41.58944012
 30
0.0
 11
-79.39545843
 21
-41.58944012
 31
0.0
  0
LINE
  8
0
  6
CONTINUOUS
 62
       7
  5
23
 10
-95.39545843
 20
-25.58944012
 30
0.0
 11
-79.39545843
 21
-25.58944012
 31
0.0
  0
LINE
  8
0
  6
CONTINUOUS
 62
       7
  5
24
 10
-95.39545843
 20
-7.58944012
 30
0.0
 11
-79.39545843
 21
-7.58944012
 31
0.0
  0
LINE
  8
0
  6
CENTER
 62
       2
  5
25
 10
-96.99545843
 20
-16.58944012
 30
0.0
 11
-76.73545843
 21
-16.58944012
 31
0.0
  0
LINE
  8
0
  6
CENTER
 62
       2
  5
26
 10
-94.26545843
 20
-33.58944012
 30
0.0
 11
-79.39545843
 21
-33.58944012
 31
0.0
  0
LINE
  8
0
  6
CENTER
 62
       2
  5
27
 10
-87.39545843
 20
-6.16944012
 30
0.0
 11
-87.39545843
 21
-43.78944012
 31
0.0
  0
CIRCLE
  8
0
  6
CONTINUOUS
 62
       2
  5
28
 10
-87.40363531
 20
-33.58949444
 30
0.0
 40
4.86399937
  0
CIRCLE
  8
0
  6
CONTINUOUS
 62
       7
  5
29
 10
-87.40363531
 20
-33.58949444
 30
0.0
 40
4.27799988
  0
CIRCLE
  8
0
  6
CONTINUOUS
 62
       7
  5
2A
 10
-87.40363531
 20
-16.58949444
 30
0.0
 40
8.0
  0
CIRCLE
  8
0
  6
CONTINUOUS
 62
       7
  5
2B
 10
-87.40363531
 20
-16.58949444
 30
0.0
 40
7.0
  0
LINE
  8
0
  6
CENTER
 62
       2
  5
2C
 10
-81.39545843
 20
-6.71040656
 30
0.0
 11
-81.39545843
 21
-11.307278
 31
0.0
  0
LINE
  8
0
  6
CENTER
 62
       2
  5
2D
 10
-93.39545843
 20
-21.89025436
 30
0.0
 11
-93.39545843
 21
-26.74944012
 31
0.0
  0
LINE
  8
0
  6
CENTER
 62
       2
  5
2E
 10
-83.53075014
 20
-9.58944012
 30
0.0
 11
-78.67545843
 21
-9.58944012
 31
0.0
  0
LINE
  8
0
  6
CENTER
 62
       2
  5
2F
 10
-96.37727999
 20
-23.58944012
 30
0.0
 11
-91.27671683
 21
-23.58944012
 31
0.0
  0
ARC
  8
0
  6
CONTINUOUS
 62
       7
  5
30
 10
-93.39632567
 20
-23.5959768
 30
0.0
 40
2.00087792
 50
96.86405015
 51
0.18718024
  0
ARC
  8
0
  6
CONTINUOUS
 62
       7
  5
31
 10
-81.39748017
 20
-9.59497203
 30
0.0
 40
1.99798591
 50
276.66868016
 51
179.84136262
  0
LINE
  8
0
  6
CONTINUOUS
 62
       7
  5
32
 10
-82.24545843
 20
-8.74944012
 30
0.0
 11
-80.55545843
 21
-10.43944012
 31
0.0
  0
LINE
  8
0
  6
CONTINUOUS
 62
       7
  5
33
 10
-82.24545843
 20
-10.43944012
 30
0.0
 11
-80.55545843
 21
-8.74944012
 31
0.0
  0
LINE
  8
0
  6
CONTINUOUS
 62
       7
  5
34
 10
-94.24545843
 20
-22.74944012
 30
0.0
 11
-92.55545843
 21
-24.43944012
 31
0.0
  0
LINE
  8
0
  6
CONTINUOUS
 62
       7
  5
35
 10
-94.24545843
 20
-24.43944012
 30
0.0
 11
-92.55545843
 21
-22.74944012
 31
0.0
  0
LINE
  8
0
  6
CONTINUOUS
 62
       7
  5
36
 10
92.94454157
 20
-7.58944012
 30
0.0
 11
92.94454157
 21
-41.58944012
 31
0.0
  0
LINE
  8
0
  6
CONTINUOUS
 62
       7
  5
37
 10
76.94454157
 20
-7.58944012
 30
0.0
 11
76.94454157
 21
-41.58944012
 31
0.0
  0
LINE
  8
0
  6
CONTINUOUS
 62
       7
  5
38
 10
92.94454157
 20
-25.58944012
 30
0.0
 11
76.94454157
 21
-25.58944012
 31
0.0
  0
LINE
  8
0
  6
CONTINUOUS
 62
       7
  5
39
 10
92.94454157
 20
-7.58944012
 30
0.0
 11
76.94454157
 21
-7.58944012
 31
0.0
  0
LINE
  8
0
  6
CENTER
 62
       2
  5
3A
 10
94.54454157
 20
-16.58944012
 30
0.0
 11
74.28454157
 21
-16.58944012
 31
0.0
  0
LINE
  8
0
  6
CENTER
 62
       2
  5
3B
 10
94.65454157
 20
-33.58944012
 30
0.0
 11
75.58454157
 21
-33.58944012
 31
0.0
  0
LINE
  8
0
  6
CENTER
 62
       2
  5
3C
 10
84.94454157
 20
-6.16944012
 30
0.0
 11
84.94454157
 21
-44.36944012
 31
0.0
  0
ARC
  8
0
  6
CONTINUOUS
 62
       7
  5
3D
 10
84.94831186
 20
-16.5946334
 30
0.0
 40
8.00051114
 50
59.9505851
 51
218.81521851
  0
LINE
  8
0
  6
CENTER
 62
       2
  5
3E
 10
90.94454157
 20
-6.60074432
 30
0.0
 11
90.94454157
 21
-12.47944012
 31
0.0
  0
LINE
  8
0
  6
CENTER
 62
       2
  5
3F
 10
78.94454157
 20
-20.26944012
 30
0.0
 11
78.94454157
 21
-26.74944012
 31
0.0
  0
LINE
  8
0
  6
CENTER
 62
       2
  5
40
 10
87.90454157
 20
-9.58944012
 30
0.0
 11
93.67454157
 21
-9.58944012
 31
0.0
  0
LINE
  8
0
  6
CENTER
 62
       2
  5
41
 10
75.61454157
 20
-23.58944012
 30
0.0
 11
82.39454157
 21
-23.58944012
 31
0.0
  0
ARC
  8
0
  6
CONTINUOUS
 62
       7
  5
42
 10
78.95241011
 20
-23.55444012
 30
0.0
 40
1.9924389
 50
1.00653296
 51
358.99346704
  0
ARC
  8
0
  6
CONTINUOUS
 62
       7
  5
43
 10
90.93764047
 20
-9.58092776
 30
0.0
 40
2.0039762
 50
188.27763608
 51
185.97239662
  0
LINE
  8
0
  6
CONTINUOUS
 62
       7
  5
44
 10
90.10454157
 20
-8.74944012
 30
0.0
 11
91.79454157
 21
-10.43944012
 31
0.0
  0
LINE
  8
0
  6
CONTINUOUS
 62
       7
  5
45
 10
90.10454157
 20
-10.43944012
 30
0.0
 11
91.79454157
 21
-8.74944012
 31
0.0
  0
LINE
  8
0
  6
CONTINUOUS
 62
       7
  5
46
 10
78.10454157
 20
-22.74944012
 30
0.0
 11
79.79454157
 21
-24.43944012
 31
0.0
  0
LINE
  8
0
  6
CONTINUOUS
 62
       7
  5
47
 10
78.10454157
 20
-24.43944012
 30
0.0
 11
79.79454157
 21
-22.74944012
 31
0.0
  0
CIRCLE
  8
0
  6
CONTINUOUS
 62
       7
  5
48
 10
84.95271845
 20
-16.58949444
 30
0.0
 40
2.5
  0
CIRCLE
  8
0
  6
CONTINUOUS
 62
       7
  5
49
 10
84.95271845
 20
-16.58949444
 30
0.0
 40
6.5
  0
CIRCLE
  8
0
  6
CONTINUOUS
 62
       2
  5
4A
 10
84.95271845
 20
-16.58949444
 30
0.0
 40
4.86399937
  0
CIRCLE
  8
0
  6
CONTINUOUS
 62
       7
  5
4B
 10
84.95271845
 20
-16.58949444
 30
0.0
 40
4.27799988
  0
ARC
  8
0
  6
CONTINUOUS
 62
       7
  5
4C
 10
84.94954459
 20
-16.5931948
 30
0.0
 40
8.00080767
 50
239.96196164
 51
38.80384196
  0
CIRCLE
  8
0
  6
CONTINUOUS
 62
       7
  5
4D
 10
84.95271845
 20
-33.58949444
 30
0.0
 40
4.5
  0
CIRCLE
  8
0
  6
CONTINUOUS
 62
       7
  5
4E
 10
84.95271845
 20
-33.58949444
 30
0.0
 40
7.0
  0
ARC
  8
0
  6
CONTINUOUS
 62
       7
  5
4F
 10
84.94954157
 20
-33.58949476
 30
0.0
 40
4.0019663
 50
14.47105151
 51
165.52894849
  0
LINE
  8
0
  6
CONTINUOUS
 62
       7
  5
50
 10
89.33454157
 20
-32.58944012
 30
0.0
 11
80.56454157
 21
-32.58944012
 31
0.0
  0
LINE
  8
0
  6
CONTINUOUS
 62
       7
  5
51
 10
89.33454157
 20
-34.58944012
 30
0.0
 11
80.56454157
 21
-34.58944012
 31
0.0
  0
ARC
  8
0
  6
CONTINUOUS
 62
       7
  5
52
 10
84.94954157
 20
-33.58949413
 30
0.0
 40
4.00193915
 50
194.46954542
 51
345.53045458
  0
CIRCLE
  8
0
  6
CONTINUOUS
 62
       7
  5
53
 10
-87.40363531
 20
-33.58949444
 30
0.0
 40
2.5
  0
LINE
  8
0
  6
CONTINUOUS
 62
       7
  5
54
 10
-8.17545843
 20
-41.58944012
 30
0.0
 11
44.81454157
 21
-41.58944012
 31
0.0
  0
LINE
  8
0
  6
CONTINUOUS
 62
       7
  5
55
 10
-8.17545843
 20
-7.58944012
 30
0.0
 11
-8.17545843
 21
-41.58944012
 31
0.0
  0
LINE
  8
0
  6
CONTINUOUS
 62
       7
  5
56
 10
44.81454157
 20
-7.58944012
 30
0.0
 11
44.81454157
 21
-41.58944012
 31
0.0
  0
LINE
  8
0
  6
CONTINUOUS
 62
       7
  5
57
 10
-8.17545843
 20
-7.58944012
 30
0.0
 11
44.81454157
 21
-7.58944012
 31
0.0
  0
LINE
  8
0
  6
CONTINUOUS
 62
       7
  5
58
 10
-8.17545843
 20
-25.58944012
 30
0.0
 11
-4.18545843
 21
-25.58944012
 31
0.0
  0
LINE
  8
0
  6
CONTINUOUS
 62
       7
  5
59
 10
-4.18545843
 20
-7.58944012
 30
0.0
 11
-4.18545843
 21
-25.58944012
 31
0.0
  0
LINE
  8
0
  6
CONTINUOUS
 62
       7
  5
5A
 10
40.81454157
 20
-7.58944012
 30
0.0
 11
40.81454157
 21
-25.58944012
 31
0.0
  0
LINE
  8
0
  6
CONTINUOUS
 62
       7
  5
5B
 10
40.81454157
 20
-25.58944012
 30
0.0
 11
44.81454157
 21
-25.58944012
 31
0.0
  0
LINE
  8
0
  6
CENTER
 62
       2
  5
5C
 10
-12.31545843
 20
-33.58944012
 30
0.0
 11
3.11454157
 21
-33.58944012
 31
0.0
  0
LINE
  8
0
  6
CONTINUOUS
 62
       7
  5
5D
 10
2.81454157
 20
-11.58944012
 30
0.0
 11
40.81454157
 21
-11.58944012
 31
0.0
  0
LINE
  8
0
  6
CONTINUOUS
 62
       7
  5
5E
 10
2.81454157
 20
-7.58944012
 30
0.0
 11
2.81454157
 21
-11.58944012
 31
0.0
  0
LINE
  8
0
  6
CENTER
 62
       2
  5
5F
 10
-2.74545843
 20
-24.58944012
 30
0.0
 11
4.53421808
 21
-24.58944012
 31
0.0
  0
LINE
  8
0
  6
CENTER
 62
       2
  5
60
 10
35.81454157
 20
-20.6906062
 30
0.0
 11
35.81454157
 21
-28.95944012
 31
0.0
  0
LINE
  8
0
  6
CENTER
 62
       2
  5
61
 10
0.81454157
 20
-20.6906062
 30
0.0
 11
0.81454157
 21
-28.73944012
 31
0.0
  0
CIRCLE
  8
0
  6
CONTINUOUS
 62
       7
  5
62
 10
0.81979914
 20
-24.58949444
 30
0.0
 40
1.60000038
  0
CIRCLE
  8
0
  6
CONTINUOUS
 62
       7
  5
63
 10
35.81979914
 20
-24.58949444
 30
0.0
 40
1.60000038
  0
LINE
  8
0
  6
CONTINUOUS
 62
       7
  5
64
 10
50.81454157
 20
-10.08944012
 30
0.0
 11
50.81454157
 21
-23.08944012
 31
0.0
  0
LINE
  8
0
  6
CONTINUOUS
 62
       7
  5
65
 10
-54.17545843
 20
-9.58944012
 30
0.0
 11
-54.17545843
 21
-23.58944012
 31
0.0
  0
LINE
  8
0
  6
CENTER
 62
       2
  5
66
 10
42.68454157
 20
-33.58944012
 30
0.0
 11
51.15454157
 21
-33.58944012
 31
0.0
  0
LINE
  8
0
  6
CONTINUOUS
 62
       7
  5
67
 10
44.81454157
 20
-29.08944012
 30
0.0
 11
49.83454157
 21
-29.08944012
 31
0.0
  0
LINE
  8
0
  6
CONTINUOUS
 62
       7
  5
68
 10
44.81454157
 20
-38.08944012
 30
0.0
 11
49.83454157
 21
-38.08944012
 31
0.0
  0
LINE
  8
0
  6
CONTINUOUS
 62
       7
  5
69
 10
50.33454157
 20
-29.58944012
 30
0.0
 11
50.33454157
 21
-32.58944012
 31
0.0
  0
LINE
  8
0
  6
CONTINUOUS
 62
       7
  5
6A
 10
50.33454157
 20
-29.58944012
 30
0.0
 11
49.83454157
 21
-29.08944012
 31
0.0
  0
LINE
  8
0
  6
CONTINUOUS
 62
       7
  5
6B
 10
50.33454157
 20
-37.58944012
 30
0.0
 11
49.83454157
 21
-38.08944012
 31
0.0
  0
LINE
  8
0
  6
CONTINUOUS
 62
       7
  5
6C
 10
48.33454157
 20
-32.58944012
 30
0.0
 11
50.33454157
 21
-32.58944012
 31
0.0
  0
LINE
  8
0
  6
CONTINUOUS
 62
       7
  5
6D
 10
48.33454157
 20
-34.58944012
 30
0.0
 11
50.33454157
 21
-34.58944012
 31
0.0
  0
LINE
  8
0
  6
CONTINUOUS
 62
       7
  5
6E
 10
48.33454157
 20
-32.58944012
 30
0.0
 11
48.33454157
 21
-34.58944012
 31
0.0
  0
LINE
  8
0
  6
CONTINUOUS
 62
       7
  5
6F
 10
50.33454157
 20
-34.58944012
 30
0.0
 11
50.33454157
 21
-37.58944012
 31
0.0
  0
LINE
  8
0
  6
CONTINUOUS
 62
       7
  5
70
 10
49.83454157
 20
-38.08944012
 30
0.0
 11
49.83454157
 21
-34.58944012
 31
0.0
  0
LINE
  8
0
  6
CONTINUOUS
 62
       7
  5
71
 10
49.83454157
 20
-32.58944012
 30
0.0
 11
49.83454157
 21
-29.08944012
 31
0.0
  0
LINE
  8
0
  6
CENTER
 62
       2
  5
72
 10
43.23454157
 20
-16.58944012
 30
0.0
 11
54.42454157
 21
-16.58944012
 31
0.0
  0
LINE
  8
0
  6
CONTINUOUS
 62
       7
  5
73
 10
44.81454157
 20
-8.58944012
 30
0.0
 11
50.81454157
 21
-10.08944012
 31
0.0
  0
LINE
  8
0
  6
CONTINUOUS
 62
       7
  5
74
 10
50.81454157
 20
-23.08944012
 30
0.0
 11
47.31454157
 21
-23.96944012
 31
0.0
  0
LINE
  8
0
  6
CENTER
 62
       2
  5
75
 10
44.05454157
 20
-23.58944012
 30
0.0
 11
48.32454157
 21
-23.58944012
 31
0.0
  0
LINE
  8
0
  6
CONTINUOUS
 62
       7
  5
76
 10
44.81454157
 20
-21.58944012
 30
0.0
 11
50.81454157
 21
-21.58944012
 31
0.0
  0
LINE
  8
0
  6
CONTINUOUS
 62
       7
  5
77
 10
44.81454157
 20
-25.58944012
 30
0.0
 11
46.81454157
 21
-25.58944012
 31
0.0
  0
LINE
  8
0
  6
CONTINUOUS
 62
       7
  5
78
 10
45.81454157
 20
-21.58944012
 30
0.0
 11
45.81454157
 21
-25.58944012
 31
0.0
  0
LINE
  8
0
  6
CONTINUOUS
 62
       7
  5
79
 10
47.31454157
 20
-22.08944012
 30
0.0
 11
47.31454157
 21
-25.08944012
 31
0.0
  0
ARC
  8
0
  6
CONTINUOUS
 62
       7
  5
7A
 10
46.81713614
 20
-22.08684555
 30
0.0
 40
0.4974122
 50
359.70113605
 51
90.29886395
  0
ARC
  8
0
  6
CONTINUOUS
 62
       7
  5
7B
 10
46.81719075
 20
-25.0920893
 30
0.0
 40
0.49735788
 50
269.6948126
 51
0.3051874
  0
LINE
  8
0
  6
CONTINUOUS
 62
       7
  5
7C
 10
50.69454157
 20
-22.60944012
 30
0.0
 11
47.19454157
 21
-23.47944012
 31
0.0
  0
LINE
  8
0
  6
CENTER
 62
       2
  5
7D
 10
37.31454157
 20
-6.03398306
 30
0.0
 11
37.31454157
 21
-12.67944012
 31
0.0
  0
LINE
  8
0
  6
CONTINUOUS
 62
       7
  5
7E
 10
35.31454157
 20
-9.08944012
 30
0.0
 11
39.31454157
 21
-9.08944012
 31
0.0
  0
LINE
  8
0
  6
CONTINUOUS
 62
       7
  5
7F
 10
34.81454157
 20
-10.08944012
 30
0.0
 11
39.81454157
 21
-10.08944012
 31
0.0
  0
LINE
  8
0
  6
CONTINUOUS
 62
       7
  5
80
 10
-14.17545843
 20
-10.08944012
 30
0.0
 11
-14.17545843
 21
-23.08944012
 31
0.0
  0
LINE
  8
0
  6
CENTER
 62
       2
  5
81
 10
-6.59545843
 20
-16.58944012
 30
0.0
 11
-59.89545843
 21
-16.58944012
 31
0.0
  0
LINE
  8
0
  6
CONTINUOUS
 62
       7
  5
82
 10
-8.17545843
 20
-24.58944012
 30
0.0
 11
-14.17545843
 21
-23.08944012
 31
0.0
  0
LINE
  8
0
  6
CONTINUOUS
 62
       7
  5
83
 10
-14.17545843
 20
-10.08944012
 30
0.0
 11
-10.67545843
 21
-9.21944012
 31
0.0
  0
LINE
  8
0
  6
CENTER
 62
       2
  5
84
 10
-7.41545843
 20
-9.58944012
 30
0.0
 11
-11.68545843
 21
-9.58944012
 31
0.0
  0
LINE
  8
0
  6
CONTINUOUS
 62
       7
  5
85
 10
-8.17545843
 20
-11.58944012
 30
0.0
 11
-14.17545843
 21
-11.58944012
 31
0.0
  0
LINE
  8
0
  6
CONTINUOUS
 62
       7
  5
86
 10
-8.17545843
 20
-7.58944012
 30
0.0
 11
-10.17545843
 21
-7.58944012
 31
0.0
  0
LINE
  8
0
  6
CONTINUOUS
 62
       7
  5
87
 10
-9.17545843
 20
-11.58944012
 30
0.0
 11
-9.17545843
 21
-7.58944012
 31
0.0
  0
LINE
  8
0
  6
CONTINUOUS
 62
       7
  5
88
 10
-10.67545843
 20
-11.08944012
 30
0.0
 11
-10.67545843
 21
-8.08944012
 31
0.0
  0
ARC
  8
0
  6
CONTINUOUS
 62
       7
  5
89
 10
-10.17785131
 20
-11.091833
 30
0.0
 40
0.49761287
 50
179.72447945
 51
270.27552055
  0
ARC
  8
0
  6
CONTINUOUS
 62
       7
  5
8A
 10
-10.17779673
 20
-8.08710182
 30
0.0
 40
0.49766719
 50
89.73079319
 51
180.26920681
  0
LINE
  8
0
  6
CONTINUOUS
 62
       7
  5
8B
 10
-14.05545843
 20
-10.57944012
 30
0.0
 11
-10.55545843
 21
-9.69944012
 31
0.0
  0
LINE
  8
0
  6
CONTINUOUS
 62
       7
  5
8C
 10
-51.67545843
 20
-8.58944012
 30
0.0
 11
-53.17545843
 21
-8.58944012
 31
0.0
  0
LINE
  8
0
  6
CONTINUOUS
 62
       7
  5
8D
 10
-51.67545843
 20
-24.58944012
 30
0.0
 11
-53.17545843
 21
-24.58944012
 31
0.0
  0
LINE
  8
0
  6
CONTINUOUS
 62
       7
  5
8E
 10
-51.67545843
 20
-8.58944012
 30
0.0
 11
-51.67545843
 21
-24.58944012
 31
0.0
  0
LINE
  8
0
  6
CONTINUOUS
 62
       7
  5
8F
 10
-53.17545843
 20
-8.58944012
 30
0.0
 11
-54.17545843
 21
-9.58944012
 31
0.0
  0
LINE
  8
0
  6
CONTINUOUS
 62
       7
  5
90
 10
-54.17545843
 20
-23.58944012
 30
0.0
 11
-53.17545843
 21
-24.58944012
 31
0.0
  0
LINE
  8
0
  6
CONTINUOUS
 62
       7
  5
91
 10
-53.17545843
 20
-8.58944012
 30
0.0
 11
-53.17545843
 21
-24.58944012
 31
0.0
  0
LINE
  8
0
  6
CONTINUOUS
 62
       7
  5
92
 10
-44.17545843
 20
-10.08944012
 30
0.0
 11
-45.67545843
 21
-10.08944012
 31
0.0
  0
LINE
  8
0
  6
CONTINUOUS
 62
       7
  5
93
 10
-44.17545843
 20
-23.08944012
 30
0.0
 11
-45.67545843
 21
-23.08944012
 31
0.0
  0
LINE
  8
0
  6
CONTINUOUS
 62
       7
  5
94
 10
-50.17545843
 20
-8.58944012
 30
0.0
 11
-50.17545843
 21
-24.58944012
 31
0.0
  0
LINE
  8
0
  6
CONTINUOUS
 62
       7
  5
95
 10
-48.67545843
 20
-8.58944012
 30
0.0
 11
-48.67545843
 21
-24.58944012
 31
0.0
  0
LINE
  8
0
  6
CONTINUOUS
 62
       7
  5
96
 10
-47.17545843
 20
-8.58944012
 30
0.0
 11
-47.17545843
 21
-24.58944012
 31
0.0
  0
LINE
  8
0
  6
CONTINUOUS
 62
       7
  5
97
 10
-45.67545843
 20
-8.58944012
 30
0.0
 11
-45.67545843
 21
-24.58944012
 31
0.0
  0
LINE
  8
0
  6
CONTINUOUS
 62
       7
  5
98
 10
-44.17545843
 20
-8.58944012
 30
0.0
 11
-44.17545843
 21
-24.58944012
 31
0.0
  0
LINE
  8
0
  6
CONTINUOUS
 62
       7
  5
99
 10
-42.67545843
 20
-8.58944012
 30
0.0
 11
-42.67545843
 21
-24.58944012
 31
0.0
  0
LINE
  8
0
  6
CONTINUOUS
 62
       7
  5
9A
 10
-41.17545843
 20
-8.58944012
 30
0.0
 11
-41.17545843
 21
-24.58944012
 31
0.0
  0
LINE
  8
0
  6
CONTINUOUS
 62
       7
  5
9B
 10
-38.17545843
 20
-8.58944012
 30
0.0
 11
-38.17545843
 21
-24.58944012
 31
0.0
  0
LINE
  8
0
  6
CONTINUOUS
 62
       7
  5
9C
 10
-47.17545843
 20
-10.08944012
 30
0.0
 11
-48.67545843
 21
-10.08944012
 31
0.0
  0
LINE
  8
0
  6
CONTINUOUS
 62
       7
  5
9D
 10
-50.17545843
 20
-10.08944012
 30
0.0
 11
-51.67545843
 21
-10.08944012
 31
0.0
  0
LINE
  8
0
  6
CONTINUOUS
 62
       7
  5
9E
 10
-47.17545843
 20
-23.08944012
 30
0.0
 11
-48.67545843
 21
-23.08944012
 31
0.0
  0
LINE
  8
0
  6
CONTINUOUS
 62
       7
  5
9F
 10
-50.17545843
 20
-23.08944012
 30
0.0
 11
-51.67545843
 21
-23.08944012
 31
0.0
  0
LINE
  8
0
  6
CONTINUOUS
 62
       7
  5
A0
 10
-44.17545843
 20
-14.08944012
 30
0.0
 11
-45.67545843
 21
-14.08944012
 31
0.0
  0
LINE
  8
0
  6
CONTINUOUS
 62
       7
  5
A1
 10
-44.17545843
 20
-19.08944012
 30
0.0
 11
-45.67545843
 21
-19.08944012
 31
0.0
  0
LINE
  8
0
  6
CONTINUOUS
 62
       7
  5
A2
 10
-50.17545843
 20
-14.08944012
 30
0.0
 11
-51.67545843
 21
-14.08944012
 31
0.0
  0
LINE
  8
0
  6
CONTINUOUS
 62
       7
  5
A3
 10
-47.17545843
 20
-14.08944012
 30
0.0
 11
-48.67545843
 21
-14.08944012
 31
0.0
  0
LINE
  8
0
  6
CONTINUOUS
 62
       7
  5
A4
 10
-50.17545843
 20
-19.08944012
 30
0.0
 11
-51.67545843
 21
-19.08944012
 31
0.0
  0
LINE
  8
0
  6
CONTINUOUS
 62
       7
  5
A5
 10
-47.17545843
 20
-19.08944012
 30
0.0
 11
-48.67545843
 21
-19.08944012
 31
0.0
  0
LINE
  8
0
  6
CONTINUOUS
 62
       7
  5
A6
 10
-50.17545843
 20
-8.58944012
 30
0.0
 11
-48.67545843
 21
-8.58944012
 31
0.0
  0
LINE
  8
0
  6
CONTINUOUS
 62
       7
  5
A7
 10
-50.17545843
 20
-24.58944012
 30
0.0
 11
-48.67545843
 21
-24.58944012
 31
0.0
  0
LINE
  8
0
  6
CONTINUOUS
 62
       7
  5
A8
 10
-47.17545843
 20
-8.58944012
 30
0.0
 11
-45.67545843
 21
-8.58944012
 31
0.0
  0
LINE
  8
0
  6
CONTINUOUS
 62
       7
  5
A9
 10
-44.17545843
 20
-8.58944012
 30
0.0
 11
-42.67545843
 21
-8.58944012
 31
0.0
  0
LINE
  8
0
  6
CONTINUOUS
 62
       7
  5
AA
 10
-47.17545843
 20
-24.58944012
 30
0.0
 11
-45.67545843
 21
-24.58944012
 31
0.0
  0
LINE
  8
0
  6
CONTINUOUS
 62
       7
  5
AB
 10
-44.17545843
 20
-24.58944012
 30
0.0
 11
-42.67545843
 21
-24.58944012
 31
0.0
  0
LINE
  8
0
  6
CONTINUOUS
 62
       7
  5
AC
 10
-41.17545843
 20
-9.08944012
 30
0.0
 11
-42.67545843
 21
-9.08944012
 31
0.0
  0
LINE
  8
0
  6
CONTINUOUS
 62
       7
  5
AD
 10
-38.17545843
 20
-9.08944012
 30
0.0
 11
-39.67545843
 21
-9.08944012
 31
0.0
  0
LINE
  8
0
  6
CONTINUOUS
 62
       7
  5
AE
 10
-41.17545843
 20
-24.08944012
 30
0.0
 11
-42.67545843
 21
-24.08944012
 31
0.0
  0
LINE
  8
0
  6
CONTINUOUS
 62
       7
  5
AF
 10
-38.17545843
 20
-24.08944012
 30
0.0
 11
-39.67545843
 21
-24.08944012
 31
0.0
  0
LINE
  8
0
  6
CONTINUOUS
 62
       7
  5
B0
 10
-39.67545843
 20
-8.58944012
 30
0.0
 11
-39.67545843
 21
-24.58944012
 31
0.0
  0
LINE
  8
0
  6
CONTINUOUS
 62
       7
  5
B1
 10
-41.17545843
 20
-8.58944012
 30
0.0
 11
-39.67545843
 21
-8.58944012
 31
0.0
  0
LINE
  8
0
  6
CONTINUOUS
 62
       7
  5
B2
 10
-41.17545843
 20
-24.58944012
 30
0.0
 11
-39.67545843
 21
-24.58944012
 31
0.0
  0
LINE
  8
0
  6
CONTINUOUS
 62
       7
  5
B3
 10
-33.17545843
 20
-8.58944012
 30
0.0
 11
-33.17545843
 21
-24.58944012
 31
0.0
  0
LINE
  8
0
  6
CONTINUOUS
 62
       7
  5
B4
 10
-38.17545843
 20
-8.58944012
 30
0.0
 11
-33.17545843
 21
-8.58944012
 31
0.0
  0
LINE
  8
0
  6
CONTINUOUS
 62
       7
  5
B5
 10
-38.17545843
 20
-24.58944012
 30
0.0
 11
-33.17545843
 21
-24.58944012
 31
0.0
  0
LINE
  8
0
  6
CONTINUOUS
 62
       7
  5
B6
 10
-33.17545843
 20
-8.58944012
 30
0.0
 11
-14.17545843
 21
-10.08944012
 31
0.0
  0
LINE
  8
0
  6
CONTINUOUS
 62
       7
  5
B7
 10
-33.17545843
 20
-24.58944012
 30
0.0
 11
-14.17545843
 21
-23.08944012
 31
0.0
  0
LINE
  8
0
  6
CONTINUOUS
 62
       7
  5
B8
 10
-8.17545843
 20
41.41055988
 30
0.0
 11
-8.17545843
 21
25.41055988
 31
0.0
  0
LINE
  8
0
  6
CONTINUOUS
 62
       7
  5
B9
 10
44.81454157
 20
41.41055988
 30
0.0
 11
44.81454157
 21
25.41055988
 31
0.0
  0
LINE
  8
0
  6
CONTINUOUS
 62
       7
  5
BA
 10
-4.18545843
 20
41.41055988
 30
0.0
 11
-4.18545843
 21
25.41055988
 31
0.0
  0
LINE
  8
0
  6
CONTINUOUS
 62
       7
  5
BB
 10
40.81454157
 20
41.41055988
 30
0.0
 11
40.81454157
 21
25.41055988
 31
0.0
  0
LINE
  8
0
  6
CONTINUOUS
 62
       7
  5
BC
 10
50.81454157
 20
39.91055988
 30
0.0
 11
50.81454157
 21
26.91055988
 31
0.0
  0
LINE
  8
0
  6
CONTINUOUS
 62
       7
  5
BD
 10
-54.17545843
 20
40.41055988
 30
0.0
 11
-54.17545843
 21
26.41055988
 31
0.0
  0
LINE
  8
0
  6
CONTINUOUS
 62
       7
  5
BE
 10
44.81454157
 20
41.41055988
 30
0.0
 11
50.81454157
 21
39.91055988
 31
0.0
  0
LINE
  8
0
  6
CENTER
 62
       2
  5
BF
 10
44.05454157
 20
38.91055988
 30
0.0
 11
48.32454157
 21
38.91055988
 31
0.0
  0
LINE
  8
0
  6
CONTINUOUS
 62
       7
  5
C0
 10
44.81454157
 20
36.91055988
 30
0.0
 11
50.81454157
 21
36.91055988
 31
0.0
  0
LINE
  8
0
  6
CONTINUOUS
 62
       7
  5
C1
 10
45.81454157
 20
40.91055988
 30
0.0
 11
45.81454157
 21
36.91055988
 31
0.0
  0
LINE
  8
0
  6
CONTINUOUS
 62
       7
  5
C2
 10
47.31454157
 20
40.41055988
 30
0.0
 11
47.31454157
 21
37.41055988
 31
0.0
  0
ARC
  8
0
  6
CONTINUOUS
 62
       7
  5
C3
 10
46.81713614
 20
40.41315445
 30
0.0
 40
0.4974122
 50
359.70113605
 51
90.29886395
  0
ARC
  8
0
  6
CONTINUOUS
 62
       7
  5
C4
 10
46.81719075
 20
37.4079107
 30
0.0
 40
0.49735788
 50
269.6948126
 51
0.3051874
  0
LINE
  8
0
  6
CENTER
 62
       2
  5
C5
 10
37.31454157
 20
30.81055988
 30
0.0
 11
37.31454157
 21
24.51055988
 31
0.0
  0
LINE
  8
0
  6
CONTINUOUS
 62
       7
  5
C6
 10
-14.17545843
 20
39.91055988
 30
0.0
 11
-14.17545843
 21
26.91055988
 31
0.0
  0
LINE
  8
0
  6
CENTER
 62
       2
  5
C7
 10
54.20454157
 20
33.41055988
 30
0.0
 11
-59.89545843
 21
33.41055988
 31
0.0
  0
LINE
  8
0
  6
CONTINUOUS
 62
       7
  5
C8
 10
-8.17545843
 20
25.41055988
 30
0.0
 11
-14.17545843
 21
26.91055988
 31
0.0
  0
LINE
  8
0
  6
CONTINUOUS
 62
       7
  5
C9
 10
-51.67545843
 20
41.41055988
 30
0.0
 11
-53.17545843
 21
41.41055988
 31
0.0
  0
LINE
  8
0
  6
CONTINUOUS
 62
       7
  5
CA
 10
-51.67545843
 20
25.41055988
 30
0.0
 11
-53.17545843
 21
25.41055988
 31
0.0
  0
LINE
  8
0
  6
CONTINUOUS
 62
       7
  5
CB
 10
-51.67545843
 20
41.41055988
 30
0.0
 11
-51.67545843
 21
25.41055988
 31
0.0
  0
LINE
  8
0
  6
CONTINUOUS
 62
       7
  5
CC
 10
-53.17545843
 20
41.41055988
 30
0.0
 11
-54.17545843
 21
40.41055988
 31
0.0
  0
LINE
  8
0
  6
CONTINUOUS
 62
       7
  5
CD
 10
-54.17545843
 20
26.41055988
 30
0.0
 11
-53.17545843
 21
25.41055988
 31
0.0
  0
LINE
  8
0
  6
CONTINUOUS
 62
       7
  5
CE
 10
-53.17545843
 20
41.41055988
 30
0.0
 11
-53.17545843
 21
25.41055988
 31
0.0
  0
LINE
  8
0
  6
CONTINUOUS
 62
       7
  5
CF
 10
-44.17545843
 20
39.91055988
 30
0.0
 11
-45.67545843
 21
39.91055988
 31
0.0
  0
LINE
  8
0
  6
CONTINUOUS
 62
       7
  5
D0
 10
-44.17545843
 20
26.91055988
 30
0.0
 11
-45.67545843
 21
26.91055988
 31
0.0
  0
LINE
  8
0
  6
CONTINUOUS
 62
       7
  5
D1
 10
-50.17545843
 20
41.41055988
 30
0.0
 11
-50.17545843
 21
25.41055988
 31
0.0
  0
LINE
  8
0
  6
CONTINUOUS
 62
       7
  5
D2
 10
-48.67545843
 20
41.41055988
 30
0.0
 11
-48.67545843
 21
25.41055988
 31
0.0
  0
LINE
  8
0
  6
CONTINUOUS
 62
       7
  5
D3
 10
-47.17545843
 20
41.41055988
 30
0.0
 11
-47.17545843
 21
25.41055988
 31
0.0
  0
LINE
  8
0
  6
CONTINUOUS
 62
       7
  5
D4
 10
-45.67545843
 20
41.41055988
 30
0.0
 11
-45.67545843
 21
25.41055988
 31
0.0
  0
LINE
  8
0
  6
CONTINUOUS
 62
       7
  5
D5
 10
-44.17545843
 20
41.41055988
 30
0.0
 11
-44.17545843
 21
25.41055988
 31
0.0
  0
LINE
  8
0
  6
CONTINUOUS
 62
       7
  5
D6
 10
-42.67545843
 20
41.41055988
 30
0.0
 11
-42.67545843
 21
25.41055988
 31
0.0
  0
LINE
  8
0
  6
CONTINUOUS
 62
       7
  5
D7
 10
-41.17545843
 20
41.41055988
 30
0.0
 11
-41.17545843
 21
25.41055988
 31
0.0
  0
LINE
  8
0
  6
CONTINUOUS
 62
       7
  5
D8
 10
-38.17545843
 20
41.41055988
 30
0.0
 11
-38.17545843
 21
25.41055988
 31
0.0
  0
LINE
  8
0
  6
CONTINUOUS
 62
       7
  5
D9
 10
-47.17545843
 20
39.91055988
 30
0.0
 11
-48.67545843
 21
39.91055988
 31
0.0
  0
LINE
  8
0
  6
CONTINUOUS
 62
       7
  5
DA
 10
-50.17545843
 20
39.91055988
 30
0.0
 11
-51.67545843
 21
39.91055988
 31
0.0
  0
LINE
  8
0
  6
CONTINUOUS
 62
       7
  5
DB
 10
-47.17545843
 20
26.91055988
 30
0.0
 11
-48.67545843
 21
26.91055988
 31
0.0
  0
LINE
  8
0
  6
CONTINUOUS
 62
       7
  5
DC
 10
-50.17545843
 20
26.91055988
 30
0.0
 11
-51.67545843
 21
26.91055988
 31
0.0
  0
LINE
  8
0
  6
CONTINUOUS
 62
       7
  5
DD
 10
-44.17545843
 20
35.91055988
 30
0.0
 11
-45.67545843
 21
35.91055988
 31
0.0
  0
LINE
  8
0
  6
CONTINUOUS
 62
       7
  5
DE
 10
-44.17545843
 20
30.91055988
 30
0.0
 11
-45.67545843
 21
30.91055988
 31
0.0
  0
LINE
  8
0
  6
CONTINUOUS
 62
       7
  5
DF
 10
-50.17545843
 20
35.91055988
 30
0.0
 11
-51.67545843
 21
35.91055988
 31
0.0
  0
LINE
  8
0
  6
CONTINUOUS
 62
       7
  5
E0
 10
-47.17545843
 20
35.91055988
 30
0.0
 11
-48.67545843
 21
35.91055988
 31
0.0
  0
LINE
  8
0
  6
CONTINUOUS
 62
       7
  5
E1
 10
-50.17545843
 20
30.91055988
 30
0.0
 11
-51.67545843
 21
30.91055988
 31
0.0
  0
LINE
  8
0
  6
CONTINUOUS
 62
       7
  5
E2
 10
-47.17545843
 20
30.91055988
 30
0.0
 11
-48.67545843
 21
30.91055988
 31
0.0
  0
LINE
  8
0
  6
CONTINUOUS
 62
       7
  5
E3
 10
-50.17545843
 20
41.41055988
 30
0.0
 11
-48.67545843
 21
41.41055988
 31
0.0
  0
LINE
  8
0
  6
CONTINUOUS
 62
       7
  5
E4
 10
-50.17545843
 20
25.41055988
 30
0.0
 11
-48.67545843
 21
25.41055988
 31
0.0
  0
LINE
  8
0
  6
CONTINUOUS
 62
       7
  5
E5
 10
-47.17545843
 20
41.41055988
 30
0.0
 11
-45.67545843
 21
41.41055988
 31
0.0
  0
LINE
  8
0
  6
CONTINUOUS
 62
       7
  5
E6
 10
-44.17545843
 20
41.41055988
 30
0.0
 11
-42.67545843
 21
41.41055988
 31
0.0
  0
LINE
  8
0
  6
CONTINUOUS
 62
       7
  5
E7
 10
-47.17545843
 20
25.41055988
 30
0.0
 11
-45.67545843
 21
25.41055988
 31
0.0
  0
LINE
  8
0
  6
CONTINUOUS
 62
       7
  5
E8
 10
-44.17545843
 20
25.41055988
 30
0.0
 11
-42.67545843
 21
25.41055988
 31
0.0
  0
LINE
  8
0
  6
CONTINUOUS
 62
       7
  5
E9
 10
-41.17545843
 20
40.91055988
 30
0.0
 11
-42.67545843
 21
40.91055988
 31
0.0
  0
LINE
  8
0
  6
CONTINUOUS
 62
       7
  5
EA
 10
-38.17545843
 20
40.91055988
 30
0.0
 11
-39.67545843
 21
40.91055988
 31
0.0
  0
LINE
  8
0
  6
CONTINUOUS
 62
       7
  5
EB
 10
-41.17545843
 20
25.91055988
 30
0.0
 11
-42.67545843
 21
25.91055988
 31
0.0
  0
LINE
  8
0
  6
CONTINUOUS
 62
       7
  5
EC
 10
-38.17545843
 20
25.91055988
 30
0.0
 11
-39.67545843
 21
25.91055988
 31
0.0
  0
LINE
  8
0
  6
CONTINUOUS
 62
       7
  5
ED
 10
-39.67545843
 20
41.41055988
 30
0.0
 11
-39.67545843
 21
25.41055988
 31
0.0
  0
LINE
  8
0
  6
CONTINUOUS
 62
       7
  5
EE
 10
-41.17545843
 20
41.41055988
 30
0.0
 11
-39.67545843
 21
41.41055988
 31
0.0
  0
LINE
  8
0
  6
CONTINUOUS
 62
       7
  5
EF
 10
-41.17545843
 20
25.41055988
 30
0.0
 11
-39.67545843
 21
25.41055988
 31
0.0
  0
LINE
  8
0
  6
CONTINUOUS
 62
       7
  5
F0
 10
-33.17545843
 20
41.41055988
 30
0.0
 11
-33.17545843
 21
25.41055988
 31
0.0
  0
LINE
  8
0
  6
CONTINUOUS
 62
       7
  5
F1
 10
-38.17545843
 20
41.41055988
 30
0.0
 11
-33.17545843
 21
41.41055988
 31
0.0
  0
LINE
  8
0
  6
CONTINUOUS
 62
       7
  5
F2
 10
-38.17545843
 20
25.41055988
 30
0.0
 11
-33.17545843
 21
25.41055988
 31
0.0
  0
LINE
  8
0
  6
CONTINUOUS
 62
       7
  5
F3
 10
-33.17545843
 20
41.41055988
 30
0.0
 11
-14.17545843
 21
39.91055988
 31
0.0
  0
LINE
  8
0
  6
CONTINUOUS
 62
       7
  5
F4
 10
-33.17545843
 20
25.41055988
 30
0.0
 11
-14.17545843
 21
26.91055988
 31
0.0
  0
LINE
  8
0
  6
CONTINUOUS
 62
       7
  5
F5
 10
44.81454157
 20
25.41055988
 30
0.0
 11
-8.17545843
 21
25.41055988
 31
0.0
  0
LINE
  8
0
  6
CONTINUOUS
 62
       7
  5
F6
 10
44.81454157
 20
41.41055988
 30
0.0
 11
-8.17545843
 21
41.41055988
 31
0.0
  0
LINE
  8
0
  6
CONTINUOUS
 62
       7
  5
F7
 10
44.81454157
 20
25.41055988
 30
0.0
 11
50.81454157
 21
26.91055988
 31
0.0
  0
LINE
  8
0
  6
CONTINUOUS
 62
       7
  5
F8
 10
44.81454157
 20
40.91055988
 30
0.0
 11
46.81454157
 21
40.91055988
 31
0.0
  0
LINE
  8
0
  6
CENTER
 62
       2
  5
F9
 10
40.47074461
 20
27.41055988
 30
0.0
 11
33.97454157
 21
27.41055988
 31
0.0
  0
CIRCLE
  8
0
  6
CONTINUOUS
 62
       7
  5
FA
 10
37.31979914
 20
27.41050556
 30
0.0
 40
2.0
  0
LINE
  8
0
  6
CONTINUOUS
 62
       7
  5
FB
 10
35.31454157
 20
-9.08944012
 30
0.0
 11
35.31454157
 21
-10.08944012
 31
0.0
  0
LINE
  8
0
  6
CONTINUOUS
 62
       7
  5
FC
 10
39.31454157
 20
-9.08944012
 30
0.0
 11
39.31454157
 21
-10.08944012
 31
0.0
  0
ARC
  8
0
  6
CONTINUOUS
 62
       7
  5
FD
 10
37.31454157
 20
-9.67282455
 30
0.0
 40
2.08334764
 50
16.26155364
 51
163.73844636
  0
LINE
  8
0
  6
CONTINUOUS
 62
       7
  5
FE
 10
34.81454157
 20
-7.58944012
 30
0.0
 11
34.81454157
 21
-10.08944012
 31
0.0
  0
LINE
  8
0
  6
CONTINUOUS
 62
       7
  5
FF
 10
39.81454157
 20
-7.58944012
 30
0.0
 11
39.81454157
 21
-10.08944012
 31
0.0
  0
LINE
  8
0
  6
CONTINUOUS
 62
       7
  5
100
 10
34.81454157
 20
27.41055988
 30
0.0
 11
34.81454157
 21
25.41055988
 31
0.0
  0
LINE
  8
0
  6
CONTINUOUS
 62
       7
  5
101
 10
39.81454157
 20
27.41055988
 30
0.0
 11
39.81454157
 21
25.41055988
 31
0.0
  0
ARC
  8
0
  6
CONTINUOUS
 62
       7
  5
102
 10
37.31454157
 20
27.41055988
 30
0.0
 40
2.5
 50
0.0
 51
180.0
  0
LINE
  8
0
  6
CONTINUOUS
 62
       7
  5
103
 10
36.46454157
 20
28.25055988
 30
0.0
 11
38.16454157
 21
26.56055988
 31
0.0
  0
LINE
  8
0
  6
CONTINUOUS
 62
       7
  5
104
 10
36.46454157
 20
26.56055988
 30
0.0
 11
38.16454157
 21
28.25055988
 31
0.0
  0
LINE
  8
0
  6
CENTER
 62
       2
  5
105
 10
-7.41545843
 20
27.91055988
 30
0.0
 11
-11.68545843
 21
27.91055988
 31
0.0
  0
LINE
  8
0
  6
CONTINUOUS
 62
       7
  5
106
 10
-8.17545843
 20
29.91055988
 30
0.0
 11
-14.17545843
 21
29.91055988
 31
0.0
  0
LINE
  8
0
  6
CONTINUOUS
 62
       7
  5
107
 10
-9.17545843
 20
25.91055988
 30
0.0
 11
-9.17545843
 21
29.91055988
 31
0.0
  0
LINE
  8
0
  6
CONTINUOUS
 62
       7
  5
108
 10
-10.67545843
 20
26.41055988
 30
0.0
 11
-10.67545843
 21
29.41055988
 31
0.0
  0
ARC
  8
0
  6
CONTINUOUS
 62
       7
  5
109
 10
-10.17785131
 20
26.408167
 30
0.0
 40
0.49761287
 50
179.72447945
 51
270.27552055
  0
ARC
  8
0
  6
CONTINUOUS
 62
       7
  5
10A
 10
-10.17779673
 20
29.41289818
 30
0.0
 40
0.49766719
 50
89.73079319
 51
180.26920681
  0
LINE
  8
0
  6
CONTINUOUS
 62
       7
  5
10B
 10
-8.17545843
 20
25.91055988
 30
0.0
 11
-10.17545843
 21
25.91055988
 31
0.0
  0
LINE
  8
0
  6
CONTINUOUS
 62
       7
  5
10C
 10
-10.67545843
 20
26.55055988
 30
0.0
 11
-14.17545843
 21
27.42055988
 31
0.0
  0
LINE
  8
0
  6
CONTINUOUS
 62
       7
  5
10D
 10
47.31454157
 20
40.27055988
 30
0.0
 11
50.69454157
 21
39.42055988
 31
0.0
  0
LINE
  8
0
  6
CONTINUOUS
 62
       7
  5
10E
 10
-8.17545843
 20
41.41055988
 30
0.0
 11
-14.17545843
 21
39.91055988
 31
0.0
  0
LINE
  8
0
  6
CENTER
 62
       2
  5
10F
 10
-0.68545843
 20
36.38607468
 30
0.0
 11
-0.68545843
 21
42.07358273
 31
0.0
  0
LINE
  8
0
  6
CENTER
 62
       2
  5
110
 10
-3.73327828
 20
39.41055988
 30
0.0
 11
2.65454157
 21
39.41055988
 31
0.0
  0
CIRCLE
  8
0
  6
CONTINUOUS
 62
       7
  5
111
 10
-0.68020086
 20
39.41050556
 30
0.0
 40
2.0
  0
LINE
  8
0
  6
CONTINUOUS
 62
       7
  5
112
 10
1.81454157
 20
39.41055988
 30
0.0
 11
1.81454157
 21
41.41055988
 31
0.0
  0
LINE
  8
0
  6
CONTINUOUS
 62
       7
  5
113
 10
-3.18545843
 20
39.41055988
 30
0.0
 11
-3.18545843
 21
41.41055988
 31
0.0
  0
ARC
  8
0
  6
CONTINUOUS
 62
       7
  5
114
 10
-0.68545843
 20
39.41055988
 30
0.0
 40
2.5
 50
180.0
 51
0.0
  0
LINE
  8
0
  6
CONTINUOUS
 62
       7
  5
115
 10
0.16454157
 20
38.56055988
 30
0.0
 11
-1.53545843
 21
40.25055988
 31
0.0
  0
LINE
  8
0
  6
CONTINUOUS
 62
       7
  5
116
 10
0.16454157
 20
40.25055988
 30
0.0
 11
-1.53545843
 21
38.56055988
 31
0.0
  0
LINE
  8
0
  6
CONTINUOUS
 62
       7
  5
117
 10
33.81454157
 20
41.41055988
 30
0.0
 11
40.81454157
 21
34.41055988
 31
0.0
  0
LINE
  8
0
  6
CONTINUOUS
 62
       7
  5
118
 10
-4.18545843
 20
32.41055988
 30
0.0
 11
2.81454157
 21
25.41055988
 31
0.0
  0
LINE
  8
0
  6
CONTINUOUS
 62
       7
  5
119
 10
76.94454157
 20
-41.58944012
 30
0.0
 11
92.94454157
 21
-41.58944012
 31
0.0
  0
LINE
  8
0
  6
CONTINUOUS
 62
       7
  5
11A
 10
-138.3999939
 20
94.5
 30
0.0
 11
138.3500061
 21
94.5
 31
0.0
  0
LINE
  8
0
  6
CONTINUOUS
 62
       7
  5
11B
 10
138.3500061
 20
94.5
 30
0.0
 11
138.3500061
 21
-94.80000305
 31
0.0
  0
LINE
  8
0
  6
CONTINUOUS
 62
       7
  5
11C
 10
-138.3999939
 20
-94.80000305
 30
0.0
 11
138.3500061
 21
-94.80000305
 31
0.0
  0
LINE
  8
0
  6
CONTINUOUS
 62
       7
  5
11D
 10
-138.3999939
 20
94.5
 30
0.0
 11
-138.3999939
 21
-94.80000305
 31
0.0
  0
TEXT
  8
0
  6
CONTINUOUS
 62
       7
  5
11E
 10
-129.4651749
 20
72.9000001
 30
0.0
 40
3.19999981
  1
MODEL:ＭＥＤＴ07
 41
1.0027855
  7
MX_NOTE_STANDARD
 11
-129.4651749
 21
74.5
 31
0.0
 73
       2
  0
ENDSEC
  0
EOF
