  0
SECTION
  2
HEADER
  9
$ACADVER
  1
AC1009
  9
$DWGCODEPAGE
  3
dos932
  9
$INSBASE
 10
0.0
 20
0.0
 30
0.0
  9
$EXTMIN
 10
-194.25
 20
-133.5
 30
0.0
  9
$EXTMAX
 10
194.80000305
 20
132.6000061
 30
0.0
  9
$LIMMIN
 10
-194.25
 20
-133.5
  9
$LIMMAX
 10
194.80000305
 20
132.6000061
  9
$ORTHOMODE
 70
       0
  9
$REGENMODE
 70
       1
  9
$FILLMODE
 70
       1
  9
$QTEXTMODE
 70
       0
  9
$MIRRTEXT
 70
       1
  9
$DRAGMODE
 70
       2
  9
$LTSCALE
 40
1.0
  9
$OSMODE
 70
       0
  9
$ATTMODE
 70
       1
  9
$TEXTSIZE
 40
3.20000005
  9
$TRACEWID
 40
0.05
  9
$TEXTSTYLE
  7
MX_NOTE_STANDARD
  9
$CLAYER
  8
0
  9
$CELTYPE
  6
CONTINUOUS
  9
$CECOLOR
 62
     256
  9
$DIMSCALE
 40
1.0
  9
$DIMASZ
 40
2.5
  9
$DIMEXO
 40
1.5
  9
$DIMDLI
 40
3.75
  9
$DIMRND
 40
0.0
  9
$DIMDLE
 40
0.0
  9
$DIMEXE
 40
1.5
  9
$DIMTP
 40
0.0
  9
$DIMTM
 40
0.0
  9
$DIMTXT
 40
3.20000005
  9
$DIMCEN
 40
2.5
  9
$DIMTSZ
 40
0.0
  9
$DIMTOL
 70
       0
  9
$DIMLIM
 70
       0
  9
$DIMTIH
 70
       0
  9
$DIMTOH
 70
       0
  9
$DIMSE1
 70
       0
  9
$DIMSE2
 70
       0
  9
$DIMTAD
 70
       1
  9
$DIMZIN
 70
       8
  9
$DIMBLK
  1

  9
$DIMASO
 70
       1
  9
$DIMSHO
 70
       1
  9
$DIMPOST
  1

  9
$DIMAPOST
  1

  9
$DIMALT
 70
       0
  9
$DIMALTD
 70
       4
  9
$DIMALTF
 40
0.03937008
  9
$DIMLFAC
 40
1.0
  9
$DIMTOFL
 70
       1
  9
$DIMTVP
 40
0.0
  9
$DIMTIX
 70
       0
  9
$DIMSOXD
 70
       0
  9
$DIMSAH
 70
       0
  9
$DIMBLK1
  1

  9
$DIMBLK2
  1

  9
$DIMSTYLE
  2
MXDIMSTYLE
  9
$DIMCLRD
 70
       0
  9
$DIMCLRE
 70
       0
  9
$DIMCLRT
 70
       0
  9
$DIMTFAC
 40
1.0
  9
$DIMGAP
 40
1.0
  9
$LUNITS
 70
       2
  9
$LUPREC
 70
       4
  9
$AXISMODE
 70
       0
  9
$AXISUNIT
 10
0.0
 20
0.0
  9
$SKETCHINC
 40
0.1
  9
$FILLETRAD
 40
0.0
  9
$AUNITS
 70
       0
  9
$AUPREC
 70
       0
  9
$MENU
  1
acad
  9
$ELEVATION
 40
0.0
  9
$PELEVATION
 40
0.0
  9
$THICKNESS
 40
0.0
  9
$LIMCHECK
 70
       0
  9
$BLIPMODE
 70
       1
  9
$CHAMFERA
 40
0.0
  9
$CHAMFERB
 40
0.0
  9
$SKPOLY
 70
       0
  9
$TDCREATE
 40
2453770.647118056
  9
$TDUPDATE
 40
2453770.647118056
  9
$TDINDWG
 40
0.0000000000
  9
$TDUSRTIMER
 40
0.0000000000
  9
$USRTIMER
 70
       1
  9
$ANGBASE
 50
0.0
  9
$ANGDIR
 70
       0
  9
$PDMODE
 70
       0
  9
$PDSIZE
 40
0.0
  9
$PLINEWID
 40
0.0
  9
$COORDS
 70
       1
  9
$SPLFRAME
 70
       0
  9
$SPLINETYPE
 70
       6
  9
$SPLINESEGS
 70
       8
  9
$ATTDIA
 70
       0
  9
$ATTREQ
 70
       1
  9
$HANDLING
 70
       1
  9
$HANDSEED
  5
16F
  9
$SURFTAB1
 70
       6
  9
$SURFTAB2
 70
       6
  9
$SURFTYPE
 70
       6
  9
$SURFU
 70
       6
  9
$SURFV
 70
       6
  9
$UCSNAME
  2

  9
$UCSORG
 10
0.0
 20
0.0
 30
0.0
  9
$UCSXDIR
 10
1.0
 20
0.0
 30
0.0
  9
$UCSYDIR
 10
0.0
 20
1.0
 30
0.0
  9
$PUCSNAME
  2

  9
$PUCSORG
 10
0.0
 20
0.0
 30
0.0
  9
$PUCSXDIR
 10
1.0
 20
0.0
 30
0.0
  9
$PUCSYDIR
 10
0.0
 20
1.0
 30
0.0
  9
$USERI1
 70
       0
  9
$USERI2
 70
       0
  9
$USERI3
 70
       0
  9
$USERI4
 70
       0
  9
$USERI5
 70
       0
  9
$USERR1
 40
0.0
  9
$USERR2
 40
0.0
  9
$USERR3
 40
0.0
  9
$USERR4
 40
0.0
  9
$USERR5
 40
0.0
  9
$WORLDVIEW
 70
       1
  9
$SHADEDGE
 70
       3
  9
$SHADEDIF
 70
      70
  9
$TILEMODE
 70
       1
  9
$MAXACTVP
 70
      16
  9
$PINSBASE
 10
0.0
 20
0.0
 30
0.0
  9
$PLIMCHECK
 70
       0
  9
$PEXTMIN
 10
1.00000000E+20
 20
1.00000000E+20
 30
1.00000000E+20
  9
$PEXTMAX
 10
-1.00000000E+20
 20
-1.00000000E+20
 30
-1.00000000E+20
  9
$PLIMMIN
 10
0.0
 20
0.0
  9
$PLIMMAX
 10
12.0
 20
9.0
  9
$UNITMODE
 70
       0
  9
$VISRETAIN
 70
       0
  9
$PLINEGEN
 70
       1
  9
$PSLTSCALE
 70
       0
  9
$TREEDEPTH
 70
    3020
  9
$DWGCODEPAGE
  3
dos932
  0
ENDSEC
  0
SECTION
  2
TABLES
  0
TABLE
  2
VPORT
 70
       1
  0
VPORT
  2
*ACTIVE
 70
       0
 10
0.0
 20
0.0
 11
1.0
 21
1.0
 12
0.27500153
 22
-0.44999695
 13
0.0
 23
0.0
 14
1.0
 24
1.0
 15
0.0
 25
0.0
 16
0.0
 26
0.0
 36
1.0
 17
0.0
 27
0.0
 37
0.0
 40
268.76100616
 41
1.73205081
 42
50.0
 43
0.0
 44
0.0
 50
0.0
 51
0.0
 71
       0
 72
     100
 73
       1
 74
       1
 75
       0
 76
       0
 77
       0
 78
       0
  0
ENDTAB
  0
TABLE
  2
LTYPE
 70
       2
  0
LTYPE
  2
CONTINUOUS
 70
      64
  3
Solid line
 72
      65
 73
       0
 40
0.0
  0
LTYPE
  2
PHANTOM
 70
      64
  3
Phantom ______  __  __  ______  __  __  ______
 72
      65
 73
       6
 40
30.0
 49
20.0
 49
-2.0
 49
2.0
 49
-2.0
 49
2.0
 49
-2.0
  0
ENDTAB
  0
TABLE
  2
LAYER
 70
       2
  0
LAYER
  2
0
 70
       0
 62
       7
  6
CONTINUOUS
  0
LAYER
  2
DEFPOINTS
 70
       0
 62
       7
  6
CONTINUOUS
  0
ENDTAB
  0
TABLE
  2
STYLE
 70
       1
  0
STYLE
  2
MX_NOTE_STANDARD
 70
       0
 40
0.0
 41
1.0
 50
0.0
 71
       0
 42
3.20000005
  3
txt.shx
  4
extfont.shx
  0
ENDTAB
  0
TABLE
  2
VIEW
 70
       0
  0
ENDTAB
  0
TABLE
  2
UCS
 70
       0
  0
ENDTAB
  0
TABLE
  2
APPID
 70
       1
  0
APPID
  2
ACAD
 70
       0
  0
ENDTAB
  0
TABLE
  2
DIMSTYLE
 70
       1
  0
DIMSTYLE
  2
MXDIMSTYLE
 70
       0
  3

  4

  5

  6

  7

 40
1.0
 41
2.5
 42
1.5
 43
3.75
 44
1.5
 45
0.0
 46
0.0
 47
0.0
 48
0.0
 71
       0
 72
       0
 73
       0
 74
       0
 75
       0
 76
       0
 77
       1
 78
       8
140
3.20000005
141
2.5
142
0.0
143
0.03937008
144
1.0
145
0.0
146
1.0
147
1.0
170
       0
171
       4
172
       1
173
       0
174
       0
175
       0
176
       0
177
       0
178
       0
  0
ENDTAB
  0
ENDSEC
  0
SECTION
  2
BLOCKS
  0
ENDSEC
  0
SECTION
  2
ENTITIES
  0
CIRCLE
  8
0
  6
CONTINUOUS
 62
       7
  5
1E
 10
-11.72382403
 20
-21.61145436
 30
0.0
 40
2.25
  0
CIRCLE
  8
0
  6
CONTINUOUS
 62
       7
  5
1F
 10
28.27617597
 20
-21.61145436
 30
0.0
 40
2.25
  0
LINE
  8
0
  6
CONTINUOUS
 62
       2
  5
20
 10
110.77617597
 20
2.38854564
 30
0.0
 11
110.77617597
 21
-60.18995416
 31
0.0
  0
LINE
  8
0
  6
CONTINUOUS
 62
       7
  5
21
 10
-25.39564944
 20
54.38854487
 30
0.0
 11
-24.22382403
 21
54.38854487
 31
0.0
  0
LINE
  8
0
  6
CONTINUOUS
 62
       7
  5
22
 10
-25.39564944
 20
49.3885464
 30
0.0
 11
-24.22382403
 21
49.3885464
 31
0.0
  0
ARC
  8
0
  6
CONTINUOUS
 62
       7
  5
23
 10
-25.39564944
 20
53.72187884
 30
0.0
 40
0.66666669
 50
89.99998201
 51
150.50764432
  0
ARC
  8
0
  6
CONTINUOUS
 62
       7
  5
24
 10
-25.39564944
 20
50.05521243
 30
0.0
 40
0.66666669
 50
209.49235568
 51
270.00001799
  0
LINE
  8
0
  6
CONTINUOUS
 62
       2
  5
25
 10
-27.72382403
 20
51.88854564
 30
0.0
 11
-22.72382403
 21
51.88854564
 31
0.0
  0
ARC
  8
0
  6
CONTINUOUS
 62
       7
  5
26
 10
-22.69415405
 20
51.88854564
 30
0.0
 40
3.9296696
 50
145.04636224
 51
214.95363776
  0
LINE
  8
0
  6
CONTINUOUS
 62
       7
  5
27
 10
-16.64306317
 20
66.46930683
 30
0.0
 11
-14.80458514
 21
68.3077847
 31
0.0
  0
LINE
  8
0
  6
CONTINUOUS
 62
       7
  5
28
 10
-16.64306254
 20
68.30778372
 30
0.0
 11
-14.80458535
 21
66.46930637
 31
0.0
  0
LINE
  8
0
  6
CONTINUOUS
 62
       2
  5
29
 10
-17.97382403
 20
67.38854564
 30
0.0
 11
-13.47382403
 21
67.38854564
 31
0.0
  0
LINE
  8
0
  6
CONTINUOUS
 62
       2
  5
2A
 10
-15.72382403
 20
65.13854564
 30
0.0
 11
-15.72382403
 21
69.63854564
 31
0.0
  0
CIRCLE
  8
0
  6
CONTINUOUS
 62
       7
  5
2B
 10
-15.72382403
 20
67.38854564
 30
0.0
 40
2.0
  0
LINE
  8
0
  6
CONTINUOUS
 62
       7
  5
2C
 10
33.19541511
 20
52.30778444
 30
0.0
 11
31.35693709
 21
50.46930657
 31
0.0
  0
LINE
  8
0
  6
CONTINUOUS
 62
       7
  5
2D
 10
33.19541448
 20
50.46930755
 30
0.0
 11
31.35693729
 21
52.3077849
 31
0.0
  0
LINE
  8
0
  6
CONTINUOUS
 62
       2
  5
2E
 10
34.52617597
 20
51.38854564
 30
0.0
 11
30.02617597
 21
51.38854564
 31
0.0
  0
LINE
  8
0
  6
CONTINUOUS
 62
       2
  5
2F
 10
32.27617597
 20
53.63854564
 30
0.0
 11
32.27617597
 21
49.13854564
 31
0.0
  0
CIRCLE
  8
0
  6
CONTINUOUS
 62
       7
  5
30
 10
32.27617597
 20
51.38854564
 30
0.0
 40
2.0
  0
LINE
  8
0
  6
CONTINUOUS
 62
       7
  5
31
 10
41.94800138
 20
64.3885464
 30
0.0
 11
40.77617597
 21
64.3885464
 31
0.0
  0
LINE
  8
0
  6
CONTINUOUS
 62
       7
  5
32
 10
41.94800138
 20
69.38854487
 30
0.0
 11
40.77617597
 21
69.38854487
 31
0.0
  0
ARC
  8
0
  6
CONTINUOUS
 62
       7
  5
33
 10
41.94800138
 20
65.05521243
 30
0.0
 40
0.66666669
 50
269.99998201
 51
330.50764432
  0
ARC
  8
0
  6
CONTINUOUS
 62
       7
  5
34
 10
41.94800138
 20
68.72187884
 30
0.0
 40
0.66666669
 50
29.49235568
 51
90.00001799
  0
LINE
  8
0
  6
CONTINUOUS
 62
       2
  5
35
 10
44.27617597
 20
66.88854564
 30
0.0
 11
39.27617597
 21
66.88854564
 31
0.0
  0
ARC
  8
0
  6
CONTINUOUS
 62
       7
  5
36
 10
39.24650599
 20
66.88854564
 30
0.0
 40
3.9296696
 50
325.04636224
 51
34.95363776
  0
LINE
  8
0
  6
CONTINUOUS
 62
       2
  5
37
 10
-126.72382403
 20
-45.68995416
 30
0.0
 11
-118.72382403
 21
-45.68995416
 31
0.0
  0
LINE
  8
0
  6
CONTINUOUS
 62
       2
  5
38
 10
-122.72382403
 20
-41.68995416
 30
0.0
 11
-122.72382403
 21
-49.68995416
 31
0.0
  0
LINE
  8
0
  6
PHANTOM
 62
       2
  5
3A
 10
-121.80458522
 20
-46.6091933
 30
0.0
 11
-123.64306309
 21
-44.77071527
 31
0.0
  0
LINE
  8
0
  6
PHANTOM
 62
       2
  5
3B
 10
-123.64306211
 20
-46.60919267
 30
0.0
 11
-121.80458476
 21
-44.77071548
 31
0.0
  0
CIRCLE
  8
0
  6
PHANTOM
 62
       2
  5
3C
 10
-122.72382403
 20
-45.68995416
 30
0.0
 40
2.0
  0
LINE
  8
0
  6
CONTINUOUS
 62
       2
  5
3D
 10
-139.72382403
 20
-53.68995416
 30
0.0
 11
-131.72382403
 21
-53.68995416
 31
0.0
  0
LINE
  8
0
  6
CONTINUOUS
 62
       2
  5
3E
 10
-135.72382403
 20
-49.68995416
 30
0.0
 11
-135.72382403
 21
-57.68995416
 31
0.0
  0
LINE
  8
0
  6
PHANTOM
 62
       2
  5
3F
 10
-134.80458522
 20
-54.6091933
 30
0.0
 11
-136.64306309
 21
-52.77071527
 31
0.0
  0
LINE
  8
0
  6
PHANTOM
 62
       2
  5
40
 10
-136.64306211
 20
-54.60919267
 30
0.0
 11
-134.80458476
 21
-52.77071548
 31
0.0
  0
CIRCLE
  8
0
  6
PHANTOM
 62
       2
  5
41
 10
-135.72382403
 20
-53.68995416
 30
0.0
 40
2.0
  0
LINE
  8
0
  6
CONTINUOUS
 62
       7
  5
42
 10
41.94800138
 20
-16.61145513
 30
0.0
 11
40.77617597
 21
-16.61145513
 31
0.0
  0
LINE
  8
0
  6
CONTINUOUS
 62
       7
  5
43
 10
41.94800138
 20
-21.6114536
 30
0.0
 11
40.77617597
 21
-21.6114536
 31
0.0
  0
ARC
  8
0
  6
CONTINUOUS
 62
       7
  5
44
 10
41.94800138
 20
-17.27812116
 30
0.0
 40
0.66666669
 50
29.49235568
 51
90.00001799
  0
ARC
  8
0
  6
CONTINUOUS
 62
       7
  5
45
 10
41.94800138
 20
-20.94478757
 30
0.0
 40
0.66666669
 50
269.99998201
 51
330.50764432
  0
LINE
  8
0
  6
CONTINUOUS
 62
       2
  5
46
 10
44.27617597
 20
-19.11145436
 30
0.0
 11
39.27617597
 21
-19.11145436
 31
0.0
  0
ARC
  8
0
  6
CONTINUOUS
 62
       7
  5
47
 10
39.24650599
 20
-19.11145436
 30
0.0
 40
3.9296696
 50
325.04636224
 51
34.95363776
  0
LINE
  8
0
  6
CONTINUOUS
 62
       7
  5
48
 10
-25.39564944
 20
-6.6114536
 30
0.0
 11
-24.22382403
 21
-6.6114536
 31
0.0
  0
LINE
  8
0
  6
CONTINUOUS
 62
       7
  5
49
 10
-25.39564944
 20
-1.61145513
 30
0.0
 11
-24.22382403
 21
-1.61145513
 31
0.0
  0
ARC
  8
0
  6
CONTINUOUS
 62
       7
  5
4A
 10
-25.39564944
 20
-5.94478757
 30
0.0
 40
0.66666669
 50
209.49235568
 51
270.00001799
  0
ARC
  8
0
  6
CONTINUOUS
 62
       7
  5
4B
 10
-25.39564944
 20
-2.27812116
 30
0.0
 40
0.66666669
 50
89.99998201
 51
150.50764432
  0
LINE
  8
0
  6
CONTINUOUS
 62
       2
  5
4C
 10
-27.72382403
 20
-4.11145436
 30
0.0
 11
-22.72382403
 21
-4.11145436
 31
0.0
  0
ARC
  8
0
  6
CONTINUOUS
 62
       7
  5
4D
 10
-22.69415405
 20
-4.11145436
 30
0.0
 40
3.9296696
 50
145.04636224
 51
214.95363776
  0
LINE
  8
0
  6
CONTINUOUS
 62
       7
  5
4E
 10
102.21551594
 20
-3.050794
 30
0.0
 11
104.33683625
 21
-5.17211448
 31
0.0
  0
LINE
  8
0
  6
CONTINUOUS
 62
       7
  5
4F
 10
104.33683592
 20
-3.05079392
 30
0.0
 11
102.21551543
 21
-5.17211422
 31
0.0
  0
LINE
  8
0
  6
CONTINUOUS
 62
       2
  5
50
 10
103.2761758
 20
-1.31145513
 30
0.0
 11
103.2761758
 21
-6.9114536
 31
0.0
  0
LINE
  8
0
  6
CONTINUOUS
 62
       2
  5
51
 10
100.47617673
 20
-4.11145436
 30
0.0
 11
106.07617521
 21
-4.11145436
 31
0.0
  0
CIRCLE
  8
0
  6
CONTINUOUS
 62
       7
  5
52
 10
103.27617538
 20
-4.11145436
 30
0.0
 40
2.5
  0
LINE
  8
0
  6
CONTINUOUS
 62
       7
  5
53
 10
117.21551594
 20
-18.050794
 30
0.0
 11
119.33683625
 21
-20.17211448
 31
0.0
  0
LINE
  8
0
  6
CONTINUOUS
 62
       7
  5
54
 10
119.33683592
 20
-18.05079392
 30
0.0
 11
117.21551543
 21
-20.17211422
 31
0.0
  0
LINE
  8
0
  6
CONTINUOUS
 62
       2
  5
55
 10
118.2761758
 20
-16.31145513
 30
0.0
 11
118.2761758
 21
-21.9114536
 31
0.0
  0
LINE
  8
0
  6
CONTINUOUS
 62
       2
  5
56
 10
115.47617673
 20
-19.11145436
 30
0.0
 11
121.07617521
 21
-19.11145436
 31
0.0
  0
CIRCLE
  8
0
  6
CONTINUOUS
 62
       7
  5
57
 10
118.27617538
 20
-19.11145436
 30
0.0
 40
2.5
  0
LINE
  8
0
  6
PHANTOM
 62
       2
  5
58
 10
57.77617696
 20
-48.61145421
 30
0.0
 11
57.77617696
 21
-51.61145426
 31
0.0
  0
LINE
  8
0
  6
PHANTOM
 62
       2
  5
59
 10
50.98692692
 20
-47.55919273
 30
0.0
 11
52.33962793
 21
-52.62357333
 31
0.0
  0
LINE
  8
0
  6
PHANTOM
 62
       2
  5
5A
 10
49.44119882
 20
-47.61159189
 30
0.0
 11
50.84757814
 21
-52.85814468
 31
0.0
  0
LINE
  8
0
  6
PHANTOM
 62
       2
  5
5B
 10
57.77617696
 20
-51.61145426
 30
0.0
 11
52.07617686
 21
-51.61145426
 31
0.0
  0
LINE
  8
0
  6
PHANTOM
 62
       2
  5
5C
 10
57.77617696
 20
-48.61145421
 30
0.0
 11
51.26189113
 21
-48.61145421
 31
0.0
  0
LINE
  8
0
  6
PHANTOM
 62
       2
  5
5D
 10
62.77617704
 20
-49.11145422
 30
0.0
 11
57.77617696
 21
-49.11145422
 31
0.0
  0
LINE
  8
0
  6
PHANTOM
 62
       2
  5
5E
 10
62.77617704
 20
-51.11145425
 30
0.0
 11
57.77617696
 21
-51.11145425
 31
0.0
  0
LINE
  8
0
  6
PHANTOM
 62
       2
  5
5F
 10
62.77617704
 20
-50.11145424
 30
0.0
 11
57.77617696
 21
-50.11145424
 31
0.0
  0
ARC
  8
0
  6
CONTINUOUS
 62
       7
  5
60
 10
110.77617597
 20
-32.61145436
 30
0.0
 40
5.5
 50
187.83747976
 51
352.16252024
  0
LINE
  8
0
  6
CONTINUOUS
 62
       7
  5
61
 10
104.82323552
 20
-33.36145436
 30
0.0
 11
116.72911642
 21
-33.36145436
 31
0.0
  0
LINE
  8
0
  6
CONTINUOUS
 62
       7
  5
62
 10
104.82323552
 20
-31.86145436
 30
0.0
 11
116.72911642
 21
-31.86145436
 31
0.0
  0
CIRCLE
  8
0
  6
CONTINUOUS
 62
       7
  5
63
 10
110.77617597
 20
-32.61145436
 30
0.0
 40
9.0
  0
CIRCLE
  8
0
  6
CONTINUOUS
 62
       7
  5
64
 10
110.77617597
 20
-11.61145436
 30
0.0
 40
3.5
  0
ARC
  8
0
  6
CONTINUOUS
 62
       7
  5
65
 10
110.77617597
 20
-11.61145436
 30
0.0
 40
10.0
 50
148.52405667
 51
301.47594163
  0
CIRCLE
  8
0
  6
CONTINUOUS
 62
       2
  5
66
 10
110.77617597
 20
-11.61145436
 30
0.0
 40
6.57849979
  0
CIRCLE
  8
0
  6
CONTINUOUS
 62
       7
  5
67
 10
110.77617597
 20
-11.61145436
 30
0.0
 40
5.72249985
  0
ARC
  8
0
  6
CONTINUOUS
 62
       7
  5
68
 10
110.77617597
 20
-32.61145436
 30
0.0
 40
5.5
 50
7.83747976
 51
172.16252024
  0
CIRCLE
  8
0
  6
CONTINUOUS
 62
       7
  5
69
 10
110.77617597
 20
-32.61145436
 30
0.0
 40
6.0
  0
CIRCLE
  8
0
  6
CONTINUOUS
 62
       7
  5
6A
 10
110.77617597
 20
-11.61145436
 30
0.0
 40
8.0
  0
ARC
  8
0
  6
CONTINUOUS
 62
       7
  5
6B
 10
110.77617597
 20
-11.61145436
 30
0.0
 40
10.0
 50
328.52405387
 51
121.47594782
  0
LINE
  8
0
  6
CONTINUOUS
 62
       7
  5
6C
 10
100.77617597
 20
-42.61145436
 30
0.0
 11
120.77617597
 21
-42.61145436
 31
0.0
  0
LINE
  8
0
  6
CONTINUOUS
 62
       7
  5
6D
 10
100.77617597
 20
-22.61145436
 30
0.0
 11
120.77617597
 21
-22.61145436
 31
0.0
  0
LINE
  8
0
  6
CONTINUOUS
 62
       7
  5
6E
 10
100.77617597
 20
-0.61145436
 30
0.0
 11
120.77617597
 21
-0.61145436
 31
0.0
  0
LINE
  8
0
  6
CONTINUOUS
 62
       7
  5
6F
 10
120.77617597
 20
-42.61145436
 30
0.0
 11
120.77617597
 21
-0.61145436
 31
0.0
  0
LINE
  8
0
  6
CONTINUOUS
 62
       7
  5
70
 10
100.77617597
 20
-42.61145436
 30
0.0
 11
100.77617597
 21
-0.61145436
 31
0.0
  0
LINE
  8
0
  6
CONTINUOUS
 62
       2
  5
71
 10
122.77617597
 20
-32.61145436
 30
0.0
 11
98.77617597
 21
-32.61145436
 31
0.0
  0
LINE
  8
0
  6
CONTINUOUS
 62
       2
  5
72
 10
123.77617597
 20
-11.61145436
 30
0.0
 11
97.77617597
 21
-11.61145436
 31
0.0
  0
LINE
  8
0
  6
PHANTOM
 62
       2
  5
73
 10
120.77617597
 20
-57.61145436
 30
0.0
 11
120.77617597
 21
-42.61145436
 31
0.0
  0
LINE
  8
0
  6
PHANTOM
 62
       2
  5
74
 10
100.77617597
 20
-57.61145436
 30
0.0
 11
100.77617597
 21
-42.61145436
 31
0.0
  0
LINE
  8
0
  6
PHANTOM
 62
       2
  5
75
 10
101.37617597
 20
-56.61145436
 30
0.0
 11
101.37617597
 21
-43.61145436
 31
0.0
  0
LINE
  8
0
  6
PHANTOM
 62
       2
  5
76
 10
101.37617597
 20
-56.61145436
 30
0.0
 11
119.77617597
 21
-56.61145436
 31
0.0
  0
LINE
  8
0
  6
PHANTOM
 62
       2
  5
77
 10
101.37617597
 20
-43.61145436
 30
0.0
 11
119.77617597
 21
-43.61145436
 31
0.0
  0
LINE
  8
0
  6
PHANTOM
 62
       2
  5
78
 10
119.77617597
 20
-56.61145436
 30
0.0
 11
119.77617597
 21
-43.61145436
 31
0.0
  0
LINE
  8
0
  6
PHANTOM
 62
       2
  5
79
 10
104.77617597
 20
-56.61145436
 30
0.0
 11
104.77617597
 21
-51.49145436
 31
0.0
  0
LINE
  8
0
  6
PHANTOM
 62
       2
  5
7A
 10
105.27617597
 20
-55.61145436
 30
0.0
 11
105.27617597
 21
-50.91145436
 31
0.0
  0
LINE
  8
0
  6
PHANTOM
 62
       2
  5
7B
 10
105.27617597
 20
-55.61145436
 30
0.0
 11
118.77617597
 21
-55.61145436
 31
0.0
  0
LINE
  8
0
  6
PHANTOM
 62
       2
  5
7C
 10
105.27617597
 20
-44.61145436
 30
0.0
 11
118.77617597
 21
-44.61145436
 31
0.0
  0
LINE
  8
0
  6
PHANTOM
 62
       2
  5
7D
 10
118.77617597
 20
-55.61145436
 30
0.0
 11
118.77617597
 21
-44.61145436
 31
0.0
  0
LINE
  8
0
  6
PHANTOM
 62
       2
  5
7E
 10
118.77617597
 20
-55.61145436
 30
0.0
 11
119.77617597
 21
-56.61145436
 31
0.0
  0
LINE
  8
0
  6
PHANTOM
 62
       2
  5
7F
 10
118.77617597
 20
-44.61145436
 30
0.0
 11
119.77617597
 21
-43.61145436
 31
0.0
  0
LINE
  8
0
  6
PHANTOM
 62
       2
  5
80
 10
105.27617597
 20
-44.61145436
 30
0.0
 11
104.77617597
 21
-43.61145436
 31
0.0
  0
LINE
  8
0
  6
PHANTOM
 62
       2
  5
81
 10
105.27617597
 20
-55.61145436
 30
0.0
 11
104.77617597
 21
-56.61145436
 31
0.0
  0
LINE
  8
0
  6
PHANTOM
 62
       2
  5
82
 10
104.77617597
 20
-48.74145436
 30
0.0
 11
104.77617597
 21
-43.61145436
 31
0.0
  0
LINE
  8
0
  6
PHANTOM
 62
       2
  5
83
 10
105.27617597
 20
-49.31145436
 30
0.0
 11
105.27617597
 21
-44.61145436
 31
0.0
  0
LINE
  8
0
  6
PHANTOM
 62
       2
  5
84
 10
107.27617597
 20
-50.31145436
 30
0.0
 11
107.27617597
 21
-49.92145436
 31
0.0
  0
LINE
  8
0
  6
PHANTOM
 62
       2
  5
85
 10
110.27617597
 20
-50.31145436
 30
0.0
 11
110.27617597
 21
-49.92145436
 31
0.0
  0
LINE
  8
0
  6
PHANTOM
 62
       2
  5
86
 10
107.32617597
 20
-53.01145436
 30
0.0
 11
110.22617597
 21
-53.01145436
 31
0.0
  0
LINE
  8
0
  6
PHANTOM
 62
       2
  5
87
 10
107.32617597
 20
-52.21145436
 30
0.0
 11
110.22617597
 21
-52.21145436
 31
0.0
  0
LINE
  8
0
  6
PHANTOM
 62
       2
  5
88
 10
107.32617597
 20
-48.01145436
 30
0.0
 11
110.22617597
 21
-48.01145436
 31
0.0
  0
LINE
  8
0
  6
PHANTOM
 62
       2
  5
89
 10
107.32617597
 20
-47.21145436
 30
0.0
 11
110.22617597
 21
-47.21145436
 31
0.0
  0
LINE
  8
0
  6
PHANTOM
 62
       2
  5
8A
 10
105.27617597
 20
-50.31145436
 30
0.0
 11
105.27617597
 21
-49.92145436
 31
0.0
  0
LINE
  8
0
  6
PHANTOM
 62
       2
  5
8B
 10
114.07617597
 20
-55.31145436
 30
0.0
 11
114.07617597
 21
-51.26145436
 31
0.0
  0
LINE
  8
0
  6
PHANTOM
 62
       2
  5
8C
 10
114.07617597
 20
-49.45145436
 30
0.0
 11
114.07617597
 21
-45.03145436
 31
0.0
  0
ARC
  8
0
  6
PHANTOM
 62
       2
  5
8D
 10
103.77949685
 20
-50.11645436
 30
0.0
 40
1.69823269
 50
305.93676153
 51
54.06323847
  0
CIRCLE
  8
0
  6
PHANTOM
 62
       2
  5
8E
 10
108.77950117
 20
-47.61145436
 30
0.0
 40
1.5
  0
CIRCLE
  8
0
  6
PHANTOM
 62
       2
  5
8F
 10
116.29085371
 20
-49.61146962
 30
0.0
 40
0.5
  0
CIRCLE
  8
0
  6
PHANTOM
 62
       2
  5
90
 10
108.77950117
 20
-52.61145436
 30
0.0
 40
2.25
  0
CIRCLE
  8
0
  6
PHANTOM
 62
       2
  5
91
 10
116.29085371
 20
-50.61146962
 30
0.0
 40
0.5
  0
ARC
  8
0
  6
PHANTOM
 62
       2
  5
92
 10
108.77617597
 20
-52.61145605
 30
0.0
 40
2.74590746
 50
123.11132274
 51
56.88867726
  0
ARC
  8
0
  6
PHANTOM
 62
       2
  5
93
 10
108.77617597
 20
-47.61145268
 30
0.0
 40
2.75428898
 50
302.99768603
 51
237.00231397
  0
CIRCLE
  8
0
  6
PHANTOM
 62
       2
  5
94
 10
108.77950117
 20
-47.61145436
 30
0.0
 40
2.25
  0
CIRCLE
  8
0
  6
PHANTOM
 62
       2
  5
95
 10
108.77950117
 20
-52.61145436
 30
0.0
 40
1.5
  0
CIRCLE
  8
0
  6
PHANTOM
 62
       2
  5
96
 10
103.77950117
 20
-50.11145436
 30
0.0
 40
1.5
  0
CIRCLE
  8
0
  6
PHANTOM
 62
       2
  5
97
 10
116.57951948
 20
-50.11146962
 30
0.0
 40
1.5
  0
CIRCLE
  8
0
  6
PHANTOM
 62
       2
  5
98
 10
117.15688154
 20
-50.11146962
 30
0.0
 40
0.5
  0
LINE
  8
0
  6
PHANTOM
 62
       2
  5
99
 10
100.77617597
 20
-57.61145436
 30
0.0
 11
120.77617597
 21
-57.61145436
 31
0.0
  0
LINE
  8
0
  6
CONTINUOUS
 62
       2
  5
9A
 10
-11.72382403
 20
-25.90502327
 30
0.0
 11
-11.72382403
 21
-17.94691563
 31
0.0
  0
LINE
  8
0
  6
CONTINUOUS
 62
       2
  5
9B
 10
28.27617597
 20
-26.32832686
 30
0.0
 11
28.27617597
 21
-17.52361203
 31
0.0
  0
LINE
  8
0
  6
CONTINUOUS
 62
       2
  5
9C
 10
32.84182831
 20
-21.61145436
 30
0.0
 11
-15.7534247
 21
-21.61145436
 31
0.0
  0
LINE
  8
0
  6
CONTINUOUS
 62
       7
  5
9D
 10
-19.22382403
 20
-22.61145436
 30
0.0
 11
-24.22382403
 21
-22.61145436
 31
0.0
  0
LINE
  8
0
  6
CONTINUOUS
 62
       7
  5
9E
 10
47.77617597
 20
-38.61145436
 30
0.0
 11
47.77617597
 21
-33.36145436
 31
0.0
  0
LINE
  8
0
  6
CONTINUOUS
 62
       7
  5
9F
 10
47.77617597
 20
-26.61145436
 30
0.0
 11
47.77617597
 21
-31.86145436
 31
0.0
  0
LINE
  8
0
  6
CONTINUOUS
 62
       7
  5
A0
 10
48.27617597
 20
-31.86145436
 30
0.0
 11
48.27617597
 21
-27.11145436
 31
0.0
  0
LINE
  8
0
  6
CONTINUOUS
 62
       7
  5
A1
 10
48.27617597
 20
-31.86145436
 30
0.0
 11
45.77617597
 21
-31.86145436
 31
0.0
  0
LINE
  8
0
  6
CONTINUOUS
 62
       7
  5
A2
 10
48.27617597
 20
-33.36145436
 30
0.0
 11
45.77617597
 21
-33.36145436
 31
0.0
  0
LINE
  8
0
  6
CONTINUOUS
 62
       7
  5
A3
 10
45.77617597
 20
-33.36145436
 30
0.0
 11
45.77617597
 21
-31.86145436
 31
0.0
  0
LINE
  8
0
  6
CONTINUOUS
 62
       7
  5
A4
 10
48.27617597
 20
-38.11145436
 30
0.0
 11
47.77617597
 21
-38.61145436
 31
0.0
  0
LINE
  8
0
  6
CONTINUOUS
 62
       7
  5
A5
 10
47.77617597
 20
-26.61145436
 30
0.0
 11
48.27617597
 21
-27.11145436
 31
0.0
  0
LINE
  8
0
  6
CONTINUOUS
 62
       7
  5
A6
 10
47.77617597
 20
-26.61145436
 30
0.0
 11
40.77617597
 21
-26.61145436
 31
0.0
  0
LINE
  8
0
  6
CONTINUOUS
 62
       7
  5
A7
 10
47.77617597
 20
-38.61145436
 30
0.0
 11
40.77617597
 21
-38.61145436
 31
0.0
  0
LINE
  8
0
  6
CONTINUOUS
 62
       7
  5
A8
 10
48.27617597
 20
-38.11145436
 30
0.0
 11
48.27617597
 21
-33.36145436
 31
0.0
  0
LINE
  8
0
  6
CONTINUOUS
 62
       7
  5
A9
 10
40.77617597
 20
-42.61145436
 30
0.0
 11
-24.22382403
 21
-42.61145436
 31
0.0
  0
LINE
  8
0
  6
CONTINUOUS
 62
       7
  5
AA
 10
34.27617597
 20
-1.91770875
 30
0.0
 11
34.27617597
 21
-2.61145436
 31
0.0
  0
LINE
  8
0
  6
CONTINUOUS
 62
       7
  5
AB
 10
30.27617597
 20
-1.91770875
 30
0.0
 11
30.27617597
 21
-2.61145436
 31
0.0
  0
ARC
  8
0
  6
CONTINUOUS
 62
       7
  5
AC
 10
33.47617578
 20
-1.91770875
 30
0.0
 40
0.80000001
 50
359.99998201
 51
73.80864543
  0
ARC
  8
0
  6
CONTINUOUS
 62
       7
  5
AD
 10
31.07617616
 20
-1.91770875
 30
0.0
 40
0.80000001
 50
106.19135457
 51
180.00001799
  0
LINE
  8
0
  6
CONTINUOUS
 62
       2
  5
AE
 10
32.27617597
 20
0.38854564
 30
0.0
 11
32.27617597
 21
-3.61145436
 31
0.0
  0
ARC
  8
0
  6
CONTINUOUS
 62
       7
  5
AF
 10
32.27617597
 20
-5.28521693
 30
0.0
 40
4.37376237
 50
69.76109822
 51
110.23890178
  0
LINE
  8
0
  6
CONTINUOUS
 62
       7
  5
B0
 10
34.77617597
 20
-2.61145436
 30
0.0
 11
29.77617597
 21
-2.61145436
 31
0.0
  0
LINE
  8
0
  6
CONTINUOUS
 62
       7
  5
B1
 10
35.77617597
 20
-4.61145436
 30
0.0
 11
-9.22382403
 21
-4.61145436
 31
0.0
  0
LINE
  8
0
  6
CONTINUOUS
 62
       7
  5
B2
 10
-9.22382403
 20
-4.61145436
 30
0.0
 11
-9.22382403
 21
-0.61145436
 31
0.0
  0
LINE
  8
0
  6
CONTINUOUS
 62
       7
  5
B3
 10
-81.72382403
 20
-2.81145436
 30
0.0
 11
-81.72382403
 21
-20.41145436
 31
0.0
  0
LINE
  8
0
  6
CONTINUOUS
 62
       7
  5
B4
 10
-31.72382403
 20
-3.61145436
 30
0.0
 11
-31.72382403
 21
-19.61145436
 31
0.0
  0
LINE
  8
0
  6
CONTINUOUS
 62
       7
  5
B5
 10
-78.72382403
 20
-1.61145436
 30
0.0
 11
-80.52382403
 21
-1.61145436
 31
0.0
  0
LINE
  8
0
  6
CONTINUOUS
 62
       7
  5
B6
 10
-78.72382403
 20
-21.61145436
 30
0.0
 11
-80.52382403
 21
-21.61145436
 31
0.0
  0
LINE
  8
0
  6
CONTINUOUS
 62
       7
  5
B7
 10
-78.72382403
 20
-1.61145436
 30
0.0
 11
-78.72382403
 21
-21.61145436
 31
0.0
  0
LINE
  8
0
  6
CONTINUOUS
 62
       7
  5
B8
 10
-80.52382403
 20
-1.61145436
 30
0.0
 11
-81.72382403
 21
-2.81145436
 31
0.0
  0
LINE
  8
0
  6
CONTINUOUS
 62
       7
  5
B9
 10
-81.72382403
 20
-20.41145436
 30
0.0
 11
-80.52382403
 21
-21.61145436
 31
0.0
  0
LINE
  8
0
  6
CONTINUOUS
 62
       7
  5
BA
 10
-80.52382403
 20
-1.61145436
 30
0.0
 11
-80.52382403
 21
-21.61145436
 31
0.0
  0
LINE
  8
0
  6
CONTINUOUS
 62
       7
  5
BB
 10
-69.72382403
 20
-3.81145436
 30
0.0
 11
-71.52382403
 21
-3.81145436
 31
0.0
  0
LINE
  8
0
  6
CONTINUOUS
 62
       7
  5
BC
 10
-69.72382403
 20
-19.41145436
 30
0.0
 11
-71.52382403
 21
-19.41145436
 31
0.0
  0
LINE
  8
0
  6
CONTINUOUS
 62
       7
  5
BD
 10
-76.92382403
 20
-1.61145436
 30
0.0
 11
-76.92382403
 21
-21.61145436
 31
0.0
  0
LINE
  8
0
  6
CONTINUOUS
 62
       7
  5
BE
 10
-75.12382403
 20
-1.61145436
 30
0.0
 11
-75.12382403
 21
-21.61145436
 31
0.0
  0
LINE
  8
0
  6
CONTINUOUS
 62
       7
  5
BF
 10
-73.32382403
 20
-1.61145436
 30
0.0
 11
-73.32382403
 21
-21.61145436
 31
0.0
  0
LINE
  8
0
  6
CONTINUOUS
 62
       7
  5
C0
 10
-71.52382403
 20
-1.61145436
 30
0.0
 11
-71.52382403
 21
-21.61145436
 31
0.0
  0
LINE
  8
0
  6
CONTINUOUS
 62
       7
  5
C1
 10
-69.72382403
 20
-1.61145436
 30
0.0
 11
-69.72382403
 21
-21.61145436
 31
0.0
  0
LINE
  8
0
  6
CONTINUOUS
 62
       7
  5
C2
 10
-67.92382403
 20
-1.61145436
 30
0.0
 11
-67.92382403
 21
-21.61145436
 31
0.0
  0
LINE
  8
0
  6
CONTINUOUS
 62
       7
  5
C3
 10
-66.12382403
 20
-1.61145436
 30
0.0
 11
-66.12382403
 21
-21.61145436
 31
0.0
  0
LINE
  8
0
  6
CONTINUOUS
 62
       7
  5
C4
 10
-62.52382403
 20
-1.61145436
 30
0.0
 11
-62.52382403
 21
-21.61145436
 31
0.0
  0
LINE
  8
0
  6
CONTINUOUS
 62
       7
  5
C5
 10
-73.32382403
 20
-3.81145436
 30
0.0
 11
-75.12382403
 21
-3.81145436
 31
0.0
  0
LINE
  8
0
  6
CONTINUOUS
 62
       7
  5
C6
 10
-76.92382403
 20
-3.81145436
 30
0.0
 11
-78.72382403
 21
-3.81145436
 31
0.0
  0
LINE
  8
0
  6
CONTINUOUS
 62
       7
  5
C7
 10
-73.32382403
 20
-19.41145436
 30
0.0
 11
-75.12382403
 21
-19.41145436
 31
0.0
  0
LINE
  8
0
  6
CONTINUOUS
 62
       7
  5
C8
 10
-76.92382403
 20
-19.41145436
 30
0.0
 11
-78.72382403
 21
-19.41145436
 31
0.0
  0
LINE
  8
0
  6
CONTINUOUS
 62
       7
  5
C9
 10
-69.72382403
 20
-8.61145436
 30
0.0
 11
-71.52382403
 21
-8.61145436
 31
0.0
  0
LINE
  8
0
  6
CONTINUOUS
 62
       7
  5
CA
 10
-69.72382403
 20
-14.61145436
 30
0.0
 11
-71.52382403
 21
-14.61145436
 31
0.0
  0
LINE
  8
0
  6
CONTINUOUS
 62
       7
  5
CB
 10
-76.92382403
 20
-8.61145436
 30
0.0
 11
-78.72382403
 21
-8.61145436
 31
0.0
  0
LINE
  8
0
  6
CONTINUOUS
 62
       7
  5
CC
 10
-73.32382403
 20
-8.61145436
 30
0.0
 11
-75.12382403
 21
-8.61145436
 31
0.0
  0
LINE
  8
0
  6
CONTINUOUS
 62
       7
  5
CD
 10
-76.92382403
 20
-14.61145436
 30
0.0
 11
-78.72382403
 21
-14.61145436
 31
0.0
  0
LINE
  8
0
  6
CONTINUOUS
 62
       7
  5
CE
 10
-73.32382403
 20
-14.61145436
 30
0.0
 11
-75.12382403
 21
-14.61145436
 31
0.0
  0
LINE
  8
0
  6
CONTINUOUS
 62
       7
  5
CF
 10
-76.92382403
 20
-1.61145436
 30
0.0
 11
-75.12382403
 21
-1.61145436
 31
0.0
  0
LINE
  8
0
  6
CONTINUOUS
 62
       7
  5
D0
 10
-76.92382403
 20
-21.61145436
 30
0.0
 11
-75.12382403
 21
-21.61145436
 31
0.0
  0
LINE
  8
0
  6
CONTINUOUS
 62
       7
  5
D1
 10
-73.32382403
 20
-1.61145436
 30
0.0
 11
-71.52382403
 21
-1.61145436
 31
0.0
  0
LINE
  8
0
  6
CONTINUOUS
 62
       7
  5
D2
 10
-69.72382403
 20
-1.61145436
 30
0.0
 11
-67.92382403
 21
-1.61145436
 31
0.0
  0
LINE
  8
0
  6
CONTINUOUS
 62
       7
  5
D3
 10
-73.32382403
 20
-21.61145436
 30
0.0
 11
-71.52382403
 21
-21.61145436
 31
0.0
  0
LINE
  8
0
  6
CONTINUOUS
 62
       7
  5
D4
 10
-69.72382403
 20
-21.61145436
 30
0.0
 11
-67.92382403
 21
-21.61145436
 31
0.0
  0
LINE
  8
0
  6
CONTINUOUS
 62
       7
  5
D5
 10
-66.12382403
 20
-2.21145436
 30
0.0
 11
-67.92382403
 21
-2.21145436
 31
0.0
  0
LINE
  8
0
  6
CONTINUOUS
 62
       7
  5
D6
 10
-62.52382403
 20
-2.21145436
 30
0.0
 11
-64.32382403
 21
-2.21145436
 31
0.0
  0
LINE
  8
0
  6
CONTINUOUS
 62
       7
  5
D7
 10
-66.12382403
 20
-21.01145436
 30
0.0
 11
-67.92382403
 21
-21.01145436
 31
0.0
  0
LINE
  8
0
  6
CONTINUOUS
 62
       7
  5
D8
 10
-62.52382403
 20
-21.01145436
 30
0.0
 11
-64.32382403
 21
-21.01145436
 31
0.0
  0
LINE
  8
0
  6
CONTINUOUS
 62
       7
  5
D9
 10
-64.32382403
 20
-1.61145436
 30
0.0
 11
-64.32382403
 21
-21.61145436
 31
0.0
  0
LINE
  8
0
  6
CONTINUOUS
 62
       7
  5
DA
 10
-66.12382403
 20
-1.61145436
 30
0.0
 11
-64.32382403
 21
-1.61145436
 31
0.0
  0
LINE
  8
0
  6
CONTINUOUS
 62
       7
  5
DB
 10
-66.12382403
 20
-21.61145436
 30
0.0
 11
-64.32382403
 21
-21.61145436
 31
0.0
  0
LINE
  8
0
  6
CONTINUOUS
 62
       7
  5
DC
 10
-56.52382403
 20
-1.61145436
 30
0.0
 11
-56.52382403
 21
-21.61145436
 31
0.0
  0
LINE
  8
0
  6
CONTINUOUS
 62
       7
  5
DD
 10
-62.52382403
 20
-1.61145436
 30
0.0
 11
-56.52382403
 21
-1.61145436
 31
0.0
  0
LINE
  8
0
  6
CONTINUOUS
 62
       7
  5
DE
 10
-62.52382403
 20
-21.61145436
 30
0.0
 11
-56.52382403
 21
-21.61145436
 31
0.0
  0
LINE
  8
0
  6
CONTINUOUS
 62
       7
  5
DF
 10
-69.72382403
 20
-2.21145436
 30
0.0
 11
-71.52382403
 21
-2.21145436
 31
0.0
  0
LINE
  8
0
  6
CONTINUOUS
 62
       7
  5
E0
 10
-69.72382403
 20
-21.01145436
 30
0.0
 11
-71.52382403
 21
-21.01145436
 31
0.0
  0
LINE
  8
0
  6
CONTINUOUS
 62
       7
  5
E1
 10
-73.32382403
 20
-2.21145436
 30
0.0
 11
-75.12382403
 21
-2.21145436
 31
0.0
  0
LINE
  8
0
  6
CONTINUOUS
 62
       7
  5
E2
 10
-73.32382403
 20
-21.01145436
 30
0.0
 11
-75.12382403
 21
-21.01145436
 31
0.0
  0
LINE
  8
0
  6
CONTINUOUS
 62
       7
  5
E3
 10
-76.92382403
 20
-2.21145436
 30
0.0
 11
-78.72382403
 21
-2.21145436
 31
0.0
  0
LINE
  8
0
  6
CONTINUOUS
 62
       7
  5
E4
 10
-76.92382403
 20
-21.01145436
 30
0.0
 11
-78.72382403
 21
-21.01145436
 31
0.0
  0
LINE
  8
0
  6
CONTINUOUS
 62
       7
  5
E5
 10
-24.22382403
 20
-0.61145436
 30
0.0
 11
-24.22382403
 21
-42.61145436
 31
0.0
  0
LINE
  8
0
  6
CONTINUOUS
 62
       7
  5
E6
 10
-19.22382403
 20
-0.61145436
 30
0.0
 11
-19.22382403
 21
-22.61145436
 31
0.0
  0
LINE
  8
0
  6
CONTINUOUS
 62
       7
  5
E7
 10
-56.52382403
 20
-1.61145436
 30
0.0
 11
-31.72382403
 21
-3.61145436
 31
0.0
  0
LINE
  8
0
  6
CONTINUOUS
 62
       7
  5
E8
 10
-31.72382403
 20
-19.61145436
 30
0.0
 11
-56.52382403
 21
-21.61145436
 31
0.0
  0
LINE
  8
0
  6
CONTINUOUS
 62
       7
  5
E9
 10
40.77617597
 20
-22.61145436
 30
0.0
 11
35.77617597
 21
-22.61145436
 31
0.0
  0
LINE
  8
0
  6
CONTINUOUS
 62
       7
  5
EA
 10
40.77617597
 20
-0.61145436
 30
0.0
 11
-24.22382403
 21
-0.61145436
 31
0.0
  0
LINE
  8
0
  6
CONTINUOUS
 62
       7
  5
EB
 10
-24.22382403
 20
-21.61145436
 30
0.0
 11
-31.72382403
 21
-19.61145436
 31
0.0
  0
LINE
  8
0
  6
CONTINUOUS
 62
       7
  5
EC
 10
-31.72382403
 20
-3.61145436
 30
0.0
 11
-26.07266769
 21
-2.10447934
 31
0.0
  0
LINE
  8
0
  6
CONTINUOUS
 62
       7
  5
ED
 10
40.77617597
 20
-1.61145436
 30
0.0
 11
48.27617597
 21
-3.61145436
 31
0.0
  0
LINE
  8
0
  6
CONTINUOUS
 62
       7
  5
EE
 10
48.27617597
 20
-19.61145436
 30
0.0
 11
42.62501963
 21
-21.11842939
 31
0.0
  0
LINE
  8
0
  6
CONTINUOUS
 62
       7
  5
EF
 10
29.77617597
 20
-0.61145436
 30
0.0
 11
29.77617597
 21
-2.61145436
 31
0.0
  0
LINE
  8
0
  6
CONTINUOUS
 62
       7
  5
F0
 10
34.77617597
 20
-0.61145436
 30
0.0
 11
34.77617597
 21
-2.61145436
 31
0.0
  0
LINE
  8
0
  6
CONTINUOUS
 62
       7
  5
F1
 10
35.77617597
 20
-22.61145436
 30
0.0
 11
35.77617597
 21
-0.61145436
 31
0.0
  0
LINE
  8
0
  6
CONTINUOUS
 62
       7
  5
F2
 10
48.27617597
 20
-3.61145436
 30
0.0
 11
48.27617597
 21
-19.61145436
 31
0.0
  0
LINE
  8
0
  6
CONTINUOUS
 62
       7
  5
F3
 10
40.77617597
 20
-42.61145436
 30
0.0
 11
40.77617597
 21
-0.61145436
 31
0.0
  0
LINE
  8
0
  6
PHANTOM
 62
       2
  5
F4
 10
40.77617597
 20
-57.61145436
 30
0.0
 11
-24.22382403
 21
-57.61145436
 31
0.0
  0
LINE
  8
0
  6
PHANTOM
 62
       2
  5
F5
 10
0.77617597
 20
-42.61145436
 30
0.0
 11
0.77617597
 21
-57.61145436
 31
0.0
  0
LINE
  8
0
  6
PHANTOM
 62
       2
  5
F6
 10
-24.22382403
 20
-42.61145436
 30
0.0
 11
-24.22382403
 21
-57.61145436
 31
0.0
  0
LINE
  8
0
  6
PHANTOM
 62
       2
  5
F7
 10
-10.22382403
 20
-53.61145436
 30
0.0
 11
-10.22382403
 21
-49.61145436
 31
0.0
  0
ARC
  8
0
  6
PHANTOM
 62
       2
  5
F8
 10
-10.22382403
 20
-47.9376918
 30
0.0
 40
4.37376237
 50
255.57275583
 51
284.42724417
  0
LINE
  8
0
  6
PHANTOM
 62
       2
  5
F9
 10
-9.13409929
 20
-50.61145436
 30
0.0
 11
-11.31354877
 21
-50.61145436
 31
0.0
  0
LINE
  8
0
  6
PHANTOM
 62
       2
  5
FA
 10
-9.13409929
 20
-57.61145436
 30
0.0
 11
-9.13409929
 21
-50.61145436
 31
0.0
  0
LINE
  8
0
  6
PHANTOM
 62
       2
  5
FB
 10
-11.31354877
 20
-57.61145436
 30
0.0
 11
-11.31354877
 21
-50.61145436
 31
0.0
  0
LINE
  8
0
  6
PHANTOM
 62
       2
  5
FC
 10
40.77617597
 20
-57.61145436
 30
0.0
 11
40.77617597
 21
-42.61145436
 31
0.0
  0
LINE
  8
0
  6
PHANTOM
 62
       2
  5
FD
 10
40.77617667
 20
-57.61145436
 30
0.0
 11
42.7761767
 21
-55.61145433
 31
0.0
  0
LINE
  8
0
  6
PHANTOM
 62
       2
  5
FE
 10
40.77617667
 20
-42.61145411
 30
0.0
 11
42.7761767
 21
-44.61145414
 31
0.0
  0
ARC
  8
0
  6
PHANTOM
 62
       2
  5
FF
 10
40.78569031
 20
-50.11145424
 30
0.0
 40
1.5000302
 50
269.63661071
 51
90.36338929
  0
LINE
  8
0
  6
PHANTOM
 62
       2
  5
100
 10
42.7761767
 20
-44.61145414
 30
0.0
 11
42.7761767
 21
-55.61145433
 31
0.0
  0
LINE
  8
0
  6
PHANTOM
 62
       2
  5
101
 10
50.51903398
 20
-51.61145426
 30
0.0
 11
42.7761767
 21
-51.61145426
 31
0.0
  0
LINE
  8
0
  6
PHANTOM
 62
       2
  5
102
 10
49.71903396
 20
-48.61145421
 30
0.0
 11
42.7761767
 21
-48.61145421
 31
0.0
  0
LINE
  8
0
  6
CONTINUOUS
 62
       2
  5
103
 10
51.27617597
 20
-11.61145436
 30
0.0
 11
-84.72382403
 21
-11.61145436
 31
0.0
  0
LINE
  8
0
  6
CONTINUOUS
 62
       2
  5
104
 10
49.53451479
 20
-32.61145436
 30
0.0
 11
39.37080309
 21
-32.61145436
 31
0.0
  0
CIRCLE
  8
0
  6
CONTINUOUS
 62
       2
  5
105
 10
-129.22382403
 20
-32.61145436
 30
0.0
 40
6.57849979
  0
CIRCLE
  8
0
  6
CONTINUOUS
 62
       7
  5
106
 10
-129.22382403
 20
-32.61145436
 30
0.0
 40
5.72249985
  0
CIRCLE
  8
0
  6
CONTINUOUS
 62
       7
  5
107
 10
-129.22382403
 20
-11.61145436
 30
0.0
 40
9.0
  0
LINE
  8
0
  6
CONTINUOUS
 62
       7
  5
108
 10
-122.15275607
 20
-18.68252203
 30
0.0
 11
-120.66316375
 21
-20.17211448
 31
0.0
  0
LINE
  8
0
  6
CONTINUOUS
 62
       7
  5
109
 10
-120.66316408
 20
-18.05079392
 30
0.0
 11
-122.78448457
 21
-20.17211422
 31
0.0
  0
LINE
  8
0
  6
CONTINUOUS
 62
       2
  5
10A
 10
-121.7238242
 20
-18.22583283
 30
0.0
 11
-121.7238242
 21
-21.9114536
 31
0.0
  0
LINE
  8
0
  6
CONTINUOUS
 62
       2
  5
10B
 10
-122.60944575
 20
-19.11145436
 30
0.0
 11
-118.92382479
 21
-19.11145436
 31
0.0
  0
ARC
  8
0
  6
CONTINUOUS
 62
       7
  5
10C
 10
-121.72382462
 20
-19.11145436
 30
0.0
 40
2.5
 50
204.29519604
 51
65.70479946
  0
LINE
  8
0
  6
CONTINUOUS
 62
       7
  5
10D
 10
-137.78448406
 20
-3.050794
 30
0.0
 11
-136.29489173
 21
-4.54038644
 31
0.0
  0
LINE
  8
0
  6
CONTINUOUS
 62
       7
  5
10E
 10
-135.66316408
 20
-3.05079392
 30
0.0
 11
-137.78448457
 21
-5.17211422
 31
0.0
  0
LINE
  8
0
  6
CONTINUOUS
 62
       2
  5
10F
 10
-136.7238242
 20
-1.31145513
 30
0.0
 11
-136.7238242
 21
-4.99707628
 31
0.0
  0
LINE
  8
0
  6
CONTINUOUS
 62
       2
  5
110
 10
-139.52382327
 20
-4.11145436
 30
0.0
 11
-135.83820231
 21
-4.11145436
 31
0.0
  0
ARC
  8
0
  6
CONTINUOUS
 62
       7
  5
111
 10
-136.72382462
 20
-4.11145436
 30
0.0
 40
2.5
 50
24.29518185
 51
245.70482265
  0
LINE
  8
0
  6
CONTINUOUS
 62
       7
  5
112
 10
-139.22382403
 20
-0.61145436
 30
0.0
 11
-119.22382403
 21
-0.61145436
 31
0.0
  0
LINE
  8
0
  6
CONTINUOUS
 62
       7
  5
113
 10
-139.22382403
 20
-22.61145436
 30
0.0
 11
-119.22382403
 21
-22.61145436
 31
0.0
  0
LINE
  8
0
  6
CONTINUOUS
 62
       7
  5
114
 10
-139.22382403
 20
-42.61145436
 30
0.0
 11
-119.22382403
 21
-42.61145436
 31
0.0
  0
CIRCLE
  8
0
  6
CONTINUOUS
 62
       7
  5
115
 10
-129.22382403
 20
-11.61145436
 30
0.0
 40
10.0
  0
LINE
  8
0
  6
CONTINUOUS
 62
       7
  5
116
 10
-139.22382403
 20
-42.61145436
 30
0.0
 11
-139.22382403
 21
-0.61145436
 31
0.0
  0
LINE
  8
0
  6
CONTINUOUS
 62
       7
  5
117
 10
-119.22382403
 20
-42.61145436
 30
0.0
 11
-119.22382403
 21
-0.61145436
 31
0.0
  0
LINE
  8
0
  6
PHANTOM
 62
       2
  5
118
 10
-139.22382403
 20
-57.18995416
 30
0.0
 11
-139.22382403
 21
-42.18995416
 31
0.0
  0
LINE
  8
0
  6
PHANTOM
 62
       2
  5
119
 10
-139.22382403
 20
-57.18995416
 30
0.0
 11
-119.22382403
 21
-57.18995416
 31
0.0
  0
CIRCLE
  8
0
  6
PHANTOM
 62
       2
  5
11A
 10
-135.72382403
 20
-53.68995416
 30
0.0
 40
2.5
  0
CIRCLE
  8
0
  6
PHANTOM
 62
       2
  5
11B
 10
-122.72382403
 20
-45.68995416
 30
0.0
 40
2.5
  0
LINE
  8
0
  6
PHANTOM
 62
       2
  5
11C
 10
-119.22382403
 20
-57.18995416
 30
0.0
 11
-119.22382403
 21
-42.18995416
 31
0.0
  0
LINE
  8
0
  6
CONTINUOUS
 62
       2
  5
11D
 10
-116.22382403
 20
-11.61145436
 30
0.0
 11
-142.22382403
 21
-11.61145436
 31
0.0
  0
LINE
  8
0
  6
CONTINUOUS
 62
       2
  5
11E
 10
-120.22382403
 20
-32.61145436
 30
0.0
 11
-138.22382403
 21
-32.61145436
 31
0.0
  0
LINE
  8
0
  6
CONTINUOUS
 62
       2
  5
11F
 10
-129.22382403
 20
2.38854564
 30
0.0
 11
-129.22382403
 21
-60.18995416
 31
0.0
  0
LINE
  8
0
  6
CONTINUOUS
 62
       7
  5
120
 10
48.27617597
 20
67.38854564
 30
0.0
 11
48.27617597
 21
51.38854564
 31
0.0
  0
LINE
  8
0
  6
CONTINUOUS
 62
       7
  5
121
 10
40.77617597
 20
49.38854564
 30
0.0
 11
40.77617597
 21
69.38854564
 31
0.0
  0
LINE
  8
0
  6
CONTINUOUS
 62
       7
  5
122
 10
35.77617597
 20
49.38854564
 30
0.0
 11
35.77617597
 21
69.38854564
 31
0.0
  0
LINE
  8
0
  6
CONTINUOUS
 62
       7
  5
123
 10
35.77617597
 20
59.38854564
 30
0.0
 11
25.77617597
 21
69.38854564
 31
0.0
  0
ARC
  8
0
  6
CONTINUOUS
 62
       7
  5
124
 10
32.27617597
 20
51.38854538
 30
0.0
 40
2.5
 50
0.00000726
 51
180.0
  0
LINE
  8
0
  6
CONTINUOUS
 62
       7
  5
125
 10
34.77617597
 20
51.3885457
 30
0.0
 11
34.77617597
 21
49.38854564
 31
0.0
  0
LINE
  8
0
  6
CONTINUOUS
 62
       7
  5
126
 10
29.77617597
 20
51.38854538
 30
0.0
 11
29.77617597
 21
49.38854564
 31
0.0
  0
LINE
  8
0
  6
CONTINUOUS
 62
       7
  5
127
 10
48.27617597
 20
67.38854564
 30
0.0
 11
42.62501963
 21
68.89552066
 31
0.0
  0
LINE
  8
0
  6
CONTINUOUS
 62
       7
  5
128
 10
40.77617597
 20
49.38854564
 30
0.0
 11
48.27617597
 21
51.38854564
 31
0.0
  0
LINE
  8
0
  6
CONTINUOUS
 62
       7
  5
129
 10
-13.22382403
 20
67.38854589
 30
0.0
 11
-13.22382403
 21
69.38854564
 31
0.0
  0
LINE
  8
0
  6
CONTINUOUS
 62
       7
  5
12A
 10
-18.22382403
 20
67.38854557
 30
0.0
 11
-18.22382403
 21
69.38854564
 31
0.0
  0
ARC
  8
0
  6
CONTINUOUS
 62
       7
  5
12B
 10
-15.72382403
 20
67.38854589
 30
0.0
 40
2.5
 50
180.00000726
 51
0.0
  0
LINE
  8
0
  6
CONTINUOUS
 62
       7
  5
12C
 10
-19.22382403
 20
59.38854564
 30
0.0
 11
-9.22382403
 21
49.38854564
 31
0.0
  0
LINE
  8
0
  6
CONTINUOUS
 62
       7
  5
12D
 10
-31.72382403
 20
51.38854564
 30
0.0
 11
-26.07266769
 21
49.88157061
 31
0.0
  0
LINE
  8
0
  6
CONTINUOUS
 62
       7
  5
12E
 10
-24.22382403
 20
69.38854564
 30
0.0
 11
-31.72382403
 21
67.38854564
 31
0.0
  0
LINE
  8
0
  6
CONTINUOUS
 62
       7
  5
12F
 10
40.77617597
 20
69.38854564
 30
0.0
 11
-24.22382403
 21
69.38854564
 31
0.0
  0
LINE
  8
0
  6
CONTINUOUS
 62
       7
  5
130
 10
40.77617597
 20
49.38854564
 30
0.0
 11
-24.22382403
 21
49.38854564
 31
0.0
  0
LINE
  8
0
  6
CONTINUOUS
 62
       7
  5
131
 10
-31.72382403
 20
51.38854564
 30
0.0
 11
-56.52382403
 21
49.38854564
 31
0.0
  0
LINE
  8
0
  6
CONTINUOUS
 62
       7
  5
132
 10
-56.52382403
 20
69.38854564
 30
0.0
 11
-31.72382403
 21
67.38854564
 31
0.0
  0
LINE
  8
0
  6
CONTINUOUS
 62
       7
  5
133
 10
-19.22382403
 20
69.38854564
 30
0.0
 11
-19.22382403
 21
49.38854564
 31
0.0
  0
LINE
  8
0
  6
CONTINUOUS
 62
       7
  5
134
 10
-24.22382403
 20
69.38854564
 30
0.0
 11
-24.22382403
 21
49.38854564
 31
0.0
  0
LINE
  8
0
  6
CONTINUOUS
 62
       7
  5
135
 10
-76.92382403
 20
49.98854564
 30
0.0
 11
-78.72382403
 21
49.98854564
 31
0.0
  0
LINE
  8
0
  6
CONTINUOUS
 62
       7
  5
136
 10
-76.92382403
 20
68.78854564
 30
0.0
 11
-78.72382403
 21
68.78854564
 31
0.0
  0
LINE
  8
0
  6
CONTINUOUS
 62
       7
  5
137
 10
-73.32382403
 20
49.98854564
 30
0.0
 11
-75.12382403
 21
49.98854564
 31
0.0
  0
LINE
  8
0
  6
CONTINUOUS
 62
       7
  5
138
 10
-73.32382403
 20
68.78854564
 30
0.0
 11
-75.12382403
 21
68.78854564
 31
0.0
  0
LINE
  8
0
  6
CONTINUOUS
 62
       7
  5
139
 10
-69.72382403
 20
49.98854564
 30
0.0
 11
-71.52382403
 21
49.98854564
 31
0.0
  0
LINE
  8
0
  6
CONTINUOUS
 62
       7
  5
13A
 10
-69.72382403
 20
68.78854564
 30
0.0
 11
-71.52382403
 21
68.78854564
 31
0.0
  0
LINE
  8
0
  6
CONTINUOUS
 62
       7
  5
13B
 10
-62.52382403
 20
49.38854564
 30
0.0
 11
-56.52382403
 21
49.38854564
 31
0.0
  0
LINE
  8
0
  6
CONTINUOUS
 62
       7
  5
13C
 10
-62.52382403
 20
69.38854564
 30
0.0
 11
-56.52382403
 21
69.38854564
 31
0.0
  0
LINE
  8
0
  6
CONTINUOUS
 62
       7
  5
13D
 10
-56.52382403
 20
69.38854564
 30
0.0
 11
-56.52382403
 21
49.38854564
 31
0.0
  0
LINE
  8
0
  6
CONTINUOUS
 62
       7
  5
13E
 10
-66.12382403
 20
49.38854564
 30
0.0
 11
-64.32382403
 21
49.38854564
 31
0.0
  0
LINE
  8
0
  6
CONTINUOUS
 62
       7
  5
13F
 10
-66.12382403
 20
69.38854564
 30
0.0
 11
-64.32382403
 21
69.38854564
 31
0.0
  0
LINE
  8
0
  6
CONTINUOUS
 62
       7
  5
140
 10
-64.32382403
 20
69.38854564
 30
0.0
 11
-64.32382403
 21
49.38854564
 31
0.0
  0
LINE
  8
0
  6
CONTINUOUS
 62
       7
  5
141
 10
-62.52382403
 20
49.98854564
 30
0.0
 11
-64.32382403
 21
49.98854564
 31
0.0
  0
LINE
  8
0
  6
CONTINUOUS
 62
       7
  5
142
 10
-66.12382403
 20
49.98854564
 30
0.0
 11
-67.92382403
 21
49.98854564
 31
0.0
  0
LINE
  8
0
  6
CONTINUOUS
 62
       7
  5
143
 10
-62.52382403
 20
68.78854564
 30
0.0
 11
-64.32382403
 21
68.78854564
 31
0.0
  0
LINE
  8
0
  6
CONTINUOUS
 62
       7
  5
144
 10
-66.12382403
 20
68.78854564
 30
0.0
 11
-67.92382403
 21
68.78854564
 31
0.0
  0
LINE
  8
0
  6
CONTINUOUS
 62
       7
  5
145
 10
-69.72382403
 20
49.38854564
 30
0.0
 11
-67.92382403
 21
49.38854564
 31
0.0
  0
LINE
  8
0
  6
CONTINUOUS
 62
       7
  5
146
 10
-73.32382403
 20
49.38854564
 30
0.0
 11
-71.52382403
 21
49.38854564
 31
0.0
  0
LINE
  8
0
  6
CONTINUOUS
 62
       7
  5
147
 10
-69.72382403
 20
69.38854564
 30
0.0
 11
-67.92382403
 21
69.38854564
 31
0.0
  0
LINE
  8
0
  6
CONTINUOUS
 62
       7
  5
148
 10
-73.32382403
 20
69.38854564
 30
0.0
 11
-71.52382403
 21
69.38854564
 31
0.0
  0
LINE
  8
0
  6
CONTINUOUS
 62
       7
  5
149
 10
-76.92382403
 20
49.38854564
 30
0.0
 11
-75.12382403
 21
49.38854564
 31
0.0
  0
LINE
  8
0
  6
CONTINUOUS
 62
       7
  5
14A
 10
-76.92382403
 20
69.38854564
 30
0.0
 11
-75.12382403
 21
69.38854564
 31
0.0
  0
LINE
  8
0
  6
CONTINUOUS
 62
       7
  5
14B
 10
-73.32382403
 20
56.38854564
 30
0.0
 11
-75.12382403
 21
56.38854564
 31
0.0
  0
LINE
  8
0
  6
CONTINUOUS
 62
       7
  5
14C
 10
-76.92382403
 20
56.38854564
 30
0.0
 11
-78.72382403
 21
56.38854564
 31
0.0
  0
LINE
  8
0
  6
CONTINUOUS
 62
       7
  5
14D
 10
-73.32382403
 20
62.38854564
 30
0.0
 11
-75.12382403
 21
62.38854564
 31
0.0
  0
LINE
  8
0
  6
CONTINUOUS
 62
       7
  5
14E
 10
-76.92382403
 20
62.38854564
 30
0.0
 11
-78.72382403
 21
62.38854564
 31
0.0
  0
LINE
  8
0
  6
CONTINUOUS
 62
       7
  5
14F
 10
-69.72382403
 20
56.38854564
 30
0.0
 11
-71.52382403
 21
56.38854564
 31
0.0
  0
LINE
  8
0
  6
CONTINUOUS
 62
       7
  5
150
 10
-69.72382403
 20
62.38854564
 30
0.0
 11
-71.52382403
 21
62.38854564
 31
0.0
  0
LINE
  8
0
  6
CONTINUOUS
 62
       7
  5
151
 10
-76.92382403
 20
51.58854564
 30
0.0
 11
-78.72382403
 21
51.58854564
 31
0.0
  0
LINE
  8
0
  6
CONTINUOUS
 62
       7
  5
152
 10
-73.32382403
 20
51.58854564
 30
0.0
 11
-75.12382403
 21
51.58854564
 31
0.0
  0
LINE
  8
0
  6
CONTINUOUS
 62
       7
  5
153
 10
-76.92382403
 20
67.18854564
 30
0.0
 11
-78.72382403
 21
67.18854564
 31
0.0
  0
LINE
  8
0
  6
CONTINUOUS
 62
       7
  5
154
 10
-73.32382403
 20
67.18854564
 30
0.0
 11
-75.12382403
 21
67.18854564
 31
0.0
  0
LINE
  8
0
  6
CONTINUOUS
 62
       7
  5
155
 10
-62.52382403
 20
69.38854564
 30
0.0
 11
-62.52382403
 21
49.38854564
 31
0.0
  0
LINE
  8
0
  6
CONTINUOUS
 62
       7
  5
156
 10
-66.12382403
 20
69.38854564
 30
0.0
 11
-66.12382403
 21
49.38854564
 31
0.0
  0
LINE
  8
0
  6
CONTINUOUS
 62
       7
  5
157
 10
-67.92382403
 20
69.38854564
 30
0.0
 11
-67.92382403
 21
49.38854564
 31
0.0
  0
LINE
  8
0
  6
CONTINUOUS
 62
       7
  5
158
 10
-69.72382403
 20
69.38854564
 30
0.0
 11
-69.72382403
 21
49.38854564
 31
0.0
  0
LINE
  8
0
  6
CONTINUOUS
 62
       7
  5
159
 10
-71.52382403
 20
69.38854564
 30
0.0
 11
-71.52382403
 21
49.38854564
 31
0.0
  0
LINE
  8
0
  6
CONTINUOUS
 62
       7
  5
15A
 10
-73.32382403
 20
69.38854564
 30
0.0
 11
-73.32382403
 21
49.38854564
 31
0.0
  0
LINE
  8
0
  6
CONTINUOUS
 62
       7
  5
15B
 10
-75.12382403
 20
69.38854564
 30
0.0
 11
-75.12382403
 21
49.38854564
 31
0.0
  0
LINE
  8
0
  6
CONTINUOUS
 62
       7
  5
15C
 10
-76.92382403
 20
69.38854564
 30
0.0
 11
-76.92382403
 21
49.38854564
 31
0.0
  0
LINE
  8
0
  6
CONTINUOUS
 62
       7
  5
15D
 10
-69.72382403
 20
51.58854564
 30
0.0
 11
-71.52382403
 21
51.58854564
 31
0.0
  0
LINE
  8
0
  6
CONTINUOUS
 62
       7
  5
15E
 10
-69.72382403
 20
67.18854564
 30
0.0
 11
-71.52382403
 21
67.18854564
 31
0.0
  0
LINE
  8
0
  6
CONTINUOUS
 62
       7
  5
15F
 10
-80.52382403
 20
69.38854564
 30
0.0
 11
-80.52382403
 21
49.38854564
 31
0.0
  0
LINE
  8
0
  6
CONTINUOUS
 62
       7
  5
160
 10
-81.72382403
 20
50.58854564
 30
0.0
 11
-80.52382403
 21
49.38854564
 31
0.0
  0
LINE
  8
0
  6
CONTINUOUS
 62
       7
  5
161
 10
-80.52382403
 20
69.38854564
 30
0.0
 11
-81.72382403
 21
68.18854564
 31
0.0
  0
LINE
  8
0
  6
CONTINUOUS
 62
       7
  5
162
 10
-78.72382403
 20
69.38854564
 30
0.0
 11
-78.72382403
 21
49.38854564
 31
0.0
  0
LINE
  8
0
  6
CONTINUOUS
 62
       7
  5
163
 10
-78.72382403
 20
49.38854564
 30
0.0
 11
-80.52382403
 21
49.38854564
 31
0.0
  0
LINE
  8
0
  6
CONTINUOUS
 62
       7
  5
164
 10
-78.72382403
 20
69.38854564
 30
0.0
 11
-80.52382403
 21
69.38854564
 31
0.0
  0
LINE
  8
0
  6
CONTINUOUS
 62
       2
  5
165
 10
51.27617597
 20
59.38854564
 30
0.0
 11
-84.72382403
 21
59.38854564
 31
0.0
  0
LINE
  8
0
  6
CONTINUOUS
 62
       7
  5
166
 10
-31.72382403
 20
67.38854564
 30
0.0
 11
-31.72382403
 21
51.38854564
 31
0.0
  0
LINE
  8
0
  6
CONTINUOUS
 62
       7
  5
167
 10
-81.72382403
 20
68.18854564
 30
0.0
 11
-81.72382403
 21
50.58854564
 31
0.0
  0
TEXT
  8
0
  6
CONTINUOUS
 62
       7
  5
168
 10
-185.68181818
 20
115.3500061
 30
0.0
 40
4.5
  1
MODEL:MEDT14
 41
1.09090909
  7
MX_NOTE_STANDARD
 11
-185.68181818
 21
117.6000061
 31
0.0
 73
       2
  0
LINE
  8
0
  6
CONTINUOUS
 62
       7
  5
169
 10
-194.25
 20
132.6000061
 30
0.0
 11
194.80000305
 21
132.6000061
 31
0.0
  0
LINE
  8
0
  6
CONTINUOUS
 62
       7
  5
16A
 10
194.80000305
 20
132.6000061
 30
0.0
 11
194.80000305
 21
-133.5
 31
0.0
  0
LINE
  8
0
  6
CONTINUOUS
 62
       7
  5
16B
 10
-194.25
 20
132.6000061
 30
0.0
 11
-194.25
 21
-133.5
 31
0.0
  0
LINE
  8
0
  6
CONTINUOUS
 62
       7
  5
16C
 10
-194.25
 20
-133.5
 30
0.0
 11
194.80000305
 21
-133.5
 31
0.0
  0
ENDSEC
  0
EOF
