  0
SECTION
  2
HEADER
  9
$ACADVER
  1
AC1003
  9
$EXTMIN
 10
-3.99250000E+02
 20
-2.76750000E+02
  9
$EXTMAX
 10
3.99799805E+02
 20
2.76250000E+02
  9
$LIMMIN
 10
-3.99251000E+02
 20
-2.76751000E+02
  9
$LIMMAX
 10
3.99800805E+02
 20
2.76251000E+02
  9
$SNAPUNIT
 10
1
 20
1
  9
$SNAPBASE
 10
0
 20
0
  9
$GRIDMODE
 70
0
  9
$GRIDUNIT
 10
0
 20
0
  9
$LTSCALE
 40
1.33174967E+01
  9
$TEXTSIZE
 40
3.2
  9
$DIMTAD
 70
0
  9
$LUNITS
 70
2
  9
$LUPREC
 70
4
  9
$FILLETRAD
 40
0
  9
$AUNITS
 70
0
  9
$AUPREC
 70
0
  0
ENDSEC
  0
SECTION
  2
TABLES
  0
TABLE
  2
LTYPE
 70
2
  0
LTYPE
  2
CONTINUOUS
 70
64
  3
Solid-Line
 72
65
 73
0
 40
0
  0
LTYPE
  2
DASHED
 70
64
  3
DASHED
 72
65
 73
2
 40
.75
 49
.5
 49
-.25
  0
LTYPE
  2
HIDDEN
 70
64
  3
HIDDEN
 72
65
 73
2
 40
.375
 49
.25
 49
-.125
  0
LTYPE
  2
CENTER
 70
64
  3
CENTER
 72
65
 73
4
 40
2
 49
1.25
 49
-.25
 49
.25
 49
-.25
  0
LTYPE
  2
PHANTOM
 70
64
  3
PHANTOM
 72
65
 73
6
 40
2.5
 49
1.25
 49
-.25
 49
.25
 49
-.25
 49
.25
 49
-.25
  0
ENDTAB
  0
TABLE
  2
LAYER
 70
1
  0
LAYER
  2
0
 70
0
 62
3
  6
CONTINUOUS
 0
ENDTAB
  0
TABLE
  2
STYLE
 70
2
  0
STYLE
  2
MONOTXT
 70
0
 40
0
 41
1
 50
0
 71
0
 42
.2
  3
monotxt
  0
STYLE
  2
BIGFONT
 70
0
 40
0
 41
1
 50
0
 71
0
 42
.2
  3
txt
  4
bigfont
  0
ENDTAB
  0
ENDSEC
  0
SECTION
  2
ENTITIES
  0
LINE
  8
0
  6
CENTER
 62
2
 10
-2.60230712E+02
 20
4.60761825E+01
 11
-9.57907123E+01
 21
4.60761825E+01
  0
LINE
  8
0
  6
CENTER
 62
2
 10
-1.78010712E+02
 20
1.07076183E+02
 11
-1.78010712E+02
 21
-2.66403817E+02
  0
LINE
  8
0
 62
7
 10
-2.33010712E+02
 20
6.09618253E+00
 11
-1.23010712E+02
 21
6.09618253E+00
  0
LINE
  8
0
 62
7
 10
-2.38010712E+02
 20
2.10761825E+01
 11
-1.18010712E+02
 21
2.10761825E+01
  0
LINE
  8
0
 62
7
 10
-1.23010712E+02
 20
1.95761825E+01
 11
-1.23010712E+02
 21
-3.90381747E+00
  0
LINE
  8
0
 62
7
 10
-2.33010712E+02
 20
1.95761825E+01
 11
-2.33010712E+02
 21
-3.90381747E+00
  0
LINE
  8
0
 62
7
 10
-2.15510712E+02
 20
1.90961825E+01
 11
-2.15510712E+02
 21
1.29961825E+01
  0
LINE
  8
0
 62
7
 10
-1.40510712E+02
 20
1.90961825E+01
 11
-1.40510712E+02
 21
1.29961825E+01
  0
LINE
  8
0
 62
7
 10
-2.31010712E+02
 20
1.24961825E+01
 11
-2.16010712E+02
 21
1.24961825E+01
  0
LINE
  8
0
 62
7
 10
-1.40010712E+02
 20
1.24961825E+01
 11
-1.25010712E+02
 21
1.24961825E+01
  0
LINE
  8
0
  6
CENTER
 62
2
 10
-1.33010712E+02
 20
2.50761825E+01
 11
-1.33010712E+02
 21
8.49618253E+00
  0
LINE
  8
0
  6
CENTER
 62
2
 10
-2.23010712E+02
 20
2.50761825E+01
 11
-2.23010712E+02
 21
8.49618253E+00
  0
LINE
  8
0
 62
7
 10
-2.33010712E+02
 20
-3.90381747E+00
 11
-1.23010712E+02
 21
-3.90381747E+00
  0
LINE
  8
0
 62
7
 10
-2.23010712E+02
 20
-1.79203817E+02
 11
-1.33010712E+02
 21
-1.79203817E+02
  0
LINE
  8
0
 62
7
 10
-2.28930712E+02
 20
-5.82381747E+00
 11
-2.25910712E+02
 21
-1.77543817E+02
  0
LINE
  8
0
 62
7
 10
-1.27070712E+02
 20
-5.82381747E+00
 11
-1.30090712E+02
 21
-1.77543817E+02
  0
LINE
  8
0
 62
7
 10
-2.24430712E+02
 20
-1.80023817E+02
 11
-2.14450712E+02
 21
-1.85783817E+02
  0
LINE
  8
0
 62
7
 10
-1.31590712E+02
 20
-1.80023817E+02
 11
-1.41570712E+02
 21
-1.85783817E+02
  0
LINE
  8
0
 62
7
 10
-2.10510712E+02
 20
-1.86623817E+02
 11
-1.45510712E+02
 21
-1.86623817E+02
  0
LINE
  8
0
  6
CENTER
 62
2
 10
-2.02010712E+02
 20
-2.09203817E+02
 11
-1.54010712E+02
 21
-2.09203817E+02
  0
LINE
  8
0
 62
7
 10
-1.19510712E+02
 20
7.10761825E+01
 11
-1.19510712E+02
 21
2.10761825E+01
  0
LINE
  8
0
 62
7
 10
-2.36510712E+02
 20
7.10761825E+01
 11
-1.19510712E+02
 21
7.10761825E+01
  0
LINE
  8
0
 62
7
 10
-1.18010712E+02
 20
6.95761825E+01
 11
-1.18010712E+02
 21
2.10761825E+01
  0
LINE
  8
0
 62
7
 10
-2.38010712E+02
 20
6.95761825E+01
 11
-2.38010712E+02
 21
2.10761825E+01
  0
LINE
  8
0
 62
7
 10
-2.38010712E+02
 20
6.95761825E+01
 11
-2.36510712E+02
 21
7.10761825E+01
  0
LINE
  8
0
 62
7
 10
-1.19510712E+02
 20
7.10761825E+01
 11
-1.18010712E+02
 21
6.95761825E+01
  0
LINE
  8
0
 62
7
 10
-2.38010712E+02
 20
6.95761825E+01
 11
-1.18010712E+02
 21
6.95761825E+01
  0
LINE
  8
0
 62
7
 10
-2.12230712E+02
 20
6.80761825E+01
 11
-1.43790712E+02
 21
6.80761825E+01
  0
LINE
  8
0
 62
7
 10
-1.25010712E+02
 20
6.10761825E+01
 11
-1.25010712E+02
 21
3.10761825E+01
  0
LINE
  8
0
 62
7
 10
-1.39010712E+02
 20
6.10761825E+01
 11
-1.39010712E+02
 21
3.10761825E+01
  0
LINE
  8
0
 62
7
 10
-2.15410712E+02
 20
2.10761825E+01
 11
-2.13830712E+02
 21
6.65761825E+01
  0
LINE
  8
0
 62
7
 10
-1.40590712E+02
 20
2.10761825E+01
 11
-1.42170712E+02
 21
6.65761825E+01
  0
LINE
  8
0
 62
7
 10
-2.13830712E+02
 20
6.65761825E+01
 11
-2.12230712E+02
 21
6.80761825E+01
  0
LINE
  8
0
 62
7
 10
-1.42170712E+02
 20
6.65761825E+01
 11
-1.43790712E+02
 21
6.80761825E+01
  0
LINE
  8
0
 62
7
 10
-2.13830712E+02
 20
6.65761825E+01
 11
-1.42170712E+02
 21
6.65761825E+01
  0
LINE
  8
0
 62
7
 10
-1.39010712E+02
 20
6.10761825E+01
 11
-1.25010712E+02
 21
6.10761825E+01
  0
LINE
  8
0
 62
7
 10
-1.39010712E+02
 20
3.10761825E+01
 11
-1.25010712E+02
 21
3.10761825E+01
  0
LINE
  8
0
 62
7
 10
-1.38130712E+02
 20
6.02561825E+01
 11
-1.38130712E+02
 21
3.19161825E+01
  0
LINE
  8
0
 62
7
 10
-1.25890712E+02
 20
6.02561825E+01
 11
-1.25890712E+02
 21
3.19161825E+01
  0
LINE
  8
0
 62
7
 10
-1.38130712E+02
 20
6.02561825E+01
 11
-1.25890712E+02
 21
6.02561825E+01
  0
LINE
  8
0
 62
7
 10
-1.38130712E+02
 20
3.19161825E+01
 11
-1.25890712E+02
 21
3.19161825E+01
  0
LINE
  8
0
 62
7
 10
-1.39010712E+02
 20
3.10761825E+01
 11
-1.38130712E+02
 21
3.19161825E+01
  0
LINE
  8
0
 62
7
 10
-1.25890712E+02
 20
3.19161825E+01
 11
-1.25010712E+02
 21
3.10761825E+01
  0
LINE
  8
0
 62
7
 10
-1.25010712E+02
 20
6.10761825E+01
 11
-1.25890712E+02
 21
6.02561825E+01
  0
LINE
  8
0
 62
7
 10
-1.39010712E+02
 20
6.10761825E+01
 11
-1.38130712E+02
 21
6.02561825E+01
  0
LINE
  8
0
 62
7
 10
-2.31010712E+02
 20
6.10761825E+01
 11
-2.31010712E+02
 21
3.10761825E+01
  0
LINE
  8
0
 62
7
 10
-2.17010712E+02
 20
6.10761825E+01
 11
-2.17010712E+02
 21
3.10761825E+01
  0
LINE
  8
0
 62
7
 10
-2.17010712E+02
 20
6.10761825E+01
 11
-2.31010712E+02
 21
6.10761825E+01
  0
LINE
  8
0
 62
7
 10
-2.17010712E+02
 20
3.10761825E+01
 11
-2.31010712E+02
 21
3.10761825E+01
  0
LINE
  8
0
 62
7
 10
-2.17890712E+02
 20
6.02561825E+01
 11
-2.17890712E+02
 21
3.19161825E+01
  0
LINE
  8
0
 62
7
 10
-2.30130712E+02
 20
6.02561825E+01
 11
-2.30130712E+02
 21
3.19161825E+01
  0
LINE
  8
0
 62
7
 10
-2.17890712E+02
 20
6.02561825E+01
 11
-2.30130712E+02
 21
6.02561825E+01
  0
LINE
  8
0
 62
7
 10
-2.17890712E+02
 20
3.19161825E+01
 11
-2.30130712E+02
 21
3.19161825E+01
  0
LINE
  8
0
 62
7
 10
-2.17010712E+02
 20
3.10761825E+01
 11
-2.17890712E+02
 21
3.19161825E+01
  0
LINE
  8
0
 62
7
 10
-2.30130712E+02
 20
3.19161825E+01
 11
-2.31010712E+02
 21
3.10761825E+01
  0
LINE
  8
0
 62
7
 10
-2.31010712E+02
 20
6.10761825E+01
 11
-2.30130712E+02
 21
6.02561825E+01
  0
LINE
  8
0
 62
7
 10
-2.17010712E+02
 20
6.10761825E+01
 11
-2.17890712E+02
 21
6.02561825E+01
  0
LINE
  8
0
 62
7
 10
-2.36510712E+02
 20
7.10761825E+01
 11
-2.36510712E+02
 21
2.10761825E+01
  0
LINE
  8
0
  6
CENTER
 62
2
 10
-2.13010712E+02
 20
7.67561825E+01
 11
-2.13010712E+02
 21
6.70761825E+01
  0
LINE
  8
0
  6
CENTER
 62
2
 10
-1.43010712E+02
 20
7.67561825E+01
 11
-1.43010712E+02
 21
6.70761825E+01
  0
LINE
  8
0
 62
4
 10
-2.18370712E+02
 20
7.27561825E+01
 11
-2.07630712E+02
 21
7.27561825E+01
  0
LINE
  8
0
 62
6
 10
-2.07290712E+02
 20
7.25561825E+01
 11
-2.07290712E+02
 21
7.10761825E+01
  0
LINE
  8
0
 62
6
 10
-2.18730712E+02
 20
7.25561825E+01
 11
-2.18730712E+02
 21
7.10761825E+01
  0
LINE
  8
0
 62
4
 10
-2.19590712E+02
 20
7.20561825E+01
 11
-2.06430712E+02
 21
7.20561825E+01
  0
LINE
  8
0
 62
4
 10
-2.19590712E+02
 20
7.20561825E+01
 11
-2.18370712E+02
 21
7.27561825E+01
  0
LINE
  8
0
 62
4
 10
-2.07630712E+02
 20
7.27561825E+01
 11
-2.06430712E+02
 21
7.20561825E+01
  0
LINE
  8
0
 62
4
 10
-2.19590712E+02
 20
7.20561825E+01
 11
-2.19550712E+02
 21
7.10761825E+01
  0
LINE
  8
0
 62
4
 10
-2.06430712E+02
 20
7.20561825E+01
 11
-2.06450712E+02
 21
7.10761825E+01
  0
LINE
  8
0
  6
PHANTOM
 62
6
 10
-2.27010712E+02
 20
1.01076183E+02
 11
-1.29010712E+02
 21
1.01076183E+02
  0
LINE
  8
0
  6
PHANTOM
 62
6
 10
-2.32010712E+02
 20
9.60761825E+01
 11
-2.32010712E+02
 21
7.10761825E+01
  0
LINE
  8
0
  6
PHANTOM
 62
6
 10
-1.24010712E+02
 20
9.60761825E+01
 11
-1.24010712E+02
 21
7.10761825E+01
  0
LINE
  8
0
  6
PHANTOM
 62
6
 10
-2.27010712E+02
 20
1.01076183E+02
 11
-2.32010712E+02
 21
9.60761825E+01
  0
LINE
  8
0
  6
PHANTOM
 62
6
 10
-1.29010712E+02
 20
1.01076183E+02
 11
-1.24010712E+02
 21
9.60761825E+01
  0
LINE
  8
0
  6
CENTER
 62
6
 10
-2.28750712E+02
 20
9.10761825E+01
 11
-2.07250712E+02
 21
9.10761825E+01
  0
LINE
  8
0
  6
CENTER
 62
6
 10
-2.18010712E+02
 20
9.93361825E+01
 11
-2.18010712E+02
 21
8.28361825E+01
  0
LINE
  8
0
  6
CENTER
 62
6
 10
-2.15510712E+02
 20
9.93361825E+01
 11
-2.15510712E+02
 21
8.28361825E+01
  0
LINE
  8
0
  6
CENTER
 62
6
 10
-2.20510712E+02
 20
9.93361825E+01
 11
-2.20510712E+02
 21
8.28361825E+01
  0
LINE
  8
0
  6
PHANTOM
 62
6
 10
-2.20510712E+02
 20
9.53361825E+01
 11
-2.15510712E+02
 21
9.53361825E+01
  0
LINE
  8
0
  6
PHANTOM
 62
6
 10
-2.20510712E+02
 20
8.68361825E+01
 11
-2.15510712E+02
 21
8.68361825E+01
  0
LINE
  8
0
  6
CENTER
 62
6
 10
-1.40510712E+02
 20
9.93361825E+01
 11
-1.40510712E+02
 21
8.28361825E+01
  0
LINE
  8
0
  6
CENTER
 62
6
 10
-1.38010712E+02
 20
9.93361825E+01
 11
-1.38010712E+02
 21
8.28361825E+01
  0
LINE
  8
0
  6
PHANTOM
 62
6
 10
-1.35510712E+02
 20
9.53361825E+01
 11
-1.40510712E+02
 21
9.53361825E+01
  0
LINE
  8
0
  6
CENTER
 62
6
 10
-1.35510712E+02
 20
9.93361825E+01
 11
-1.35510712E+02
 21
8.28361825E+01
  0
LINE
  8
0
  6
CENTER
 62
6
 10
-1.27250712E+02
 20
9.10761825E+01
 11
-1.48750712E+02
 21
9.10761825E+01
  0
LINE
  8
0
  6
PHANTOM
 62
6
 10
-1.35510712E+02
 20
8.68361825E+01
 11
-1.40510712E+02
 21
8.68361825E+01
  0
LINE
  8
0
 62
7
 10
-1.93390712E+02
 20
-2.39203817E+02
 11
-1.62610712E+02
 21
-2.39203817E+02
  0
LINE
  8
0
 62
7
 10
-2.09010712E+02
 20
-2.29203817E+02
 11
-1.47010712E+02
 21
-2.29203817E+02
  0
LINE
  8
0
 62
7
 10
-2.12950712E+02
 20
-1.88283817E+02
 11
-2.11570712E+02
 21
-2.27543817E+02
  0
LINE
  8
0
 62
7
 10
-1.43070712E+02
 20
-1.88283817E+02
 11
-1.44430712E+02
 21
-2.27543817E+02
  0
LINE
  8
0
 62
7
 10
-2.10070712E+02
 20
-2.30023817E+02
 11
-1.94890712E+02
 21
-2.38803817E+02
  0
LINE
  8
0
 62
7
 10
-1.45930712E+02
 20
-2.30023817E+02
 11
-1.61110712E+02
 21
-2.38803817E+02
  0
LINE
  8
0
 62
4
 10
-1.85570712E+02
 20
-2.45703817E+02
 11
-1.70430712E+02
 21
-2.45703817E+02
  0
LINE
  8
0
 62
4
 10
-1.69930712E+02
 20
-2.39203817E+02
 11
-1.69930712E+02
 21
-2.45203817E+02
  0
LINE
  8
0
 62
4
 10
-1.86070712E+02
 20
-2.39203817E+02
 11
-1.86070712E+02
 21
-2.45203817E+02
  0
LINE
  8
0
 62
4
 10
-1.84750712E+02
 20
-2.60403817E+02
 11
-1.71250712E+02
 21
-2.60403817E+02
  0
LINE
  8
0
 62
4
 10
-1.85750712E+02
 20
-2.47403817E+02
 11
-1.85750712E+02
 21
-2.59403817E+02
  0
LINE
  8
0
 62
4
 10
-1.70250712E+02
 20
-2.47403817E+02
 11
-1.70250712E+02
 21
-2.59403817E+02
  0
LINE
  8
0
 62
4
 10
-1.85750712E+02
 20
-2.59403817E+02
 11
-1.84750712E+02
 21
-2.60403817E+02
  0
LINE
  8
0
 62
4
 10
-1.71250712E+02
 20
-2.60403817E+02
 11
-1.70250712E+02
 21
-2.59403817E+02
  0
LINE
  8
0
 62
4
 10
-1.85610712E+02
 20
-2.49903817E+02
 11
-1.84450712E+02
 21
-2.49903817E+02
  0
LINE
  8
0
 62
4
 10
-1.85250712E+02
 20
-2.46903817E+02
 11
-1.70750712E+02
 21
-2.46903817E+02
  0
LINE
  8
0
 62
4
 10
-1.85750712E+02
 20
-2.47403817E+02
 11
-1.85250712E+02
 21
-2.46903817E+02
  0
LINE
  8
0
 62
4
 10
-1.70750712E+02
 20
-2.46903817E+02
 11
-1.70250712E+02
 21
-2.47403817E+02
  0
LINE
  8
0
 62
4
 10
-1.84010712E+02
 20
-2.45703817E+02
 11
-1.84010712E+02
 21
-2.46903817E+02
  0
LINE
  8
0
 62
4
 10
-1.72010712E+02
 20
-2.45703817E+02
 11
-1.72010712E+02
 21
-2.46903817E+02
  0
LINE
  8
0
 62
4
 10
-1.86070712E+02
 20
-2.45203817E+02
 11
-1.85570712E+02
 21
-2.45703817E+02
  0
LINE
  8
0
 62
4
 10
-1.69930712E+02
 20
-2.45203817E+02
 11
-1.70430712E+02
 21
-2.45703817E+02
  0
LINE
  8
0
 62
4
 10
-1.86070712E+02
 20
-2.45203817E+02
 11
-1.69930712E+02
 21
-2.45203817E+02
  0
LINE
  8
0
 62
4
 10
-1.85750712E+02
 20
-2.47403817E+02
 11
-1.70250712E+02
 21
-2.47403817E+02
  0
LINE
  8
0
 62
4
 10
-1.85610712E+02
 20
-2.50183817E+02
 11
-1.85010712E+02
 21
-2.50183817E+02
  0
LINE
  8
0
 62
4
 10
-1.85750712E+02
 20
-2.59403817E+02
 11
-1.85610712E+02
 21
-2.59403817E+02
  0
LINE
  8
0
 62
4
 10
-1.79510712E+02
 20
-2.49903817E+02
 11
-1.79510712E+02
 21
-2.59403817E+02
  0
LINE
  8
0
 62
4
 10
-1.76510712E+02
 20
-2.49903817E+02
 11
-1.76510712E+02
 21
-2.59403817E+02
  0
LINE
  8
0
 62
4
 10
-1.76510712E+02
 20
-2.49903817E+02
 11
-1.73690712E+02
 21
-2.49903817E+02
  0
LINE
  8
0
 62
4
 10
-1.76170712E+02
 20
-2.50183817E+02
 11
-1.74350712E+02
 21
-2.50183817E+02
  0
LINE
  8
0
 62
4
 10
-1.79510712E+02
 20
-2.59403817E+02
 11
-1.76510712E+02
 21
-2.59403817E+02
  0
LINE
  8
0
 62
4
 10
-1.73690712E+02
 20
-2.59403817E+02
 11
-1.71570712E+02
 21
-2.59403817E+02
  0
LINE
  8
0
 62
4
 10
-1.85250712E+02
 20
-2.59903817E+02
 11
-1.85010712E+02
 21
-2.59903817E+02
  0
LINE
  8
0
 62
4
 10
-1.76170712E+02
 20
-2.50183817E+02
 11
-1.76170712E+02
 21
-2.59903817E+02
  0
LINE
  8
0
 62
4
 10
-1.79850712E+02
 20
-2.50183817E+02
 11
-1.79850712E+02
 21
-2.59903817E+02
  0
LINE
  8
0
 62
4
 10
-1.79850712E+02
 20
-2.59903817E+02
 11
-1.76170712E+02
 21
-2.59903817E+02
  0
LINE
  8
0
 62
4
 10
-1.74350712E+02
 20
-2.59903817E+02
 11
-1.71570712E+02
 21
-2.59903817E+02
  0
LINE
  8
0
 62
4
 10
-1.74350712E+02
 20
-2.50183817E+02
 11
-1.74350712E+02
 21
-2.59903817E+02
  0
LINE
  8
0
 62
4
 10
-1.81650712E+02
 20
-2.50183817E+02
 11
-1.81650712E+02
 21
-2.59903817E+02
  0
LINE
  8
0
 62
4
 10
-1.82310712E+02
 20
-2.49903817E+02
 11
-1.82310712E+02
 21
-2.59403817E+02
  0
LINE
  8
0
 62
4
 10
-1.73690712E+02
 20
-2.49903817E+02
 11
-1.73690712E+02
 21
-2.59403817E+02
  0
LINE
  8
0
 62
4
 10
-1.71570712E+02
 20
-2.49903817E+02
 11
-1.70390712E+02
 21
-2.49903817E+02
  0
LINE
  8
0
 62
4
 10
-1.70990712E+02
 20
-2.50183817E+02
 11
-1.70390712E+02
 21
-2.50183817E+02
  0
LINE
  8
0
 62
4
 10
-1.82310712E+02
 20
-2.49903817E+02
 11
-1.79510712E+02
 21
-2.49903817E+02
  0
LINE
  8
0
 62
4
 10
-1.81650712E+02
 20
-2.50183817E+02
 11
-1.79850712E+02
 21
-2.50183817E+02
  0
LINE
  8
0
 62
4
 10
-1.84450712E+02
 20
-2.59403817E+02
 11
-1.82310712E+02
 21
-2.59403817E+02
  0
LINE
  8
0
 62
4
 10
-1.84450712E+02
 20
-2.59903817E+02
 11
-1.81650712E+02
 21
-2.59903817E+02
  0
LINE
  8
0
 62
4
 10
-1.70390712E+02
 20
-2.59403817E+02
 11
-1.70250712E+02
 21
-2.59403817E+02
  0
LINE
  8
0
 62
4
 10
-1.70990712E+02
 20
-2.59903817E+02
 11
-1.70750712E+02
 21
-2.59903817E+02
  0
LINE
  8
0
 62
4
 10
-1.84450712E+02
 20
-2.49903817E+02
 11
-1.84450712E+02
 21
-2.59903817E+02
  0
LINE
  8
0
 62
4
 10
-1.71570712E+02
 20
-2.49903817E+02
 11
-1.71570712E+02
 21
-2.59903817E+02
  0
LINE
  8
0
 62
4
 10
-1.85010712E+02
 20
-2.50183817E+02
 11
-1.85010712E+02
 21
-2.59903817E+02
  0
LINE
  8
0
 62
4
 10
-1.70990712E+02
 20
-2.50183817E+02
 11
-1.70990712E+02
 21
-2.59903817E+02
  0
LINE
  8
0
 62
4
 10
-1.85610712E+02
 20
-2.49903817E+02
 11
-1.85610712E+02
 21
-2.59403817E+02
  0
LINE
  8
0
 62
4
 10
-1.70390712E+02
 20
-2.49903817E+02
 11
-1.70390712E+02
 21
-2.59403817E+02
  0
LINE
  8
0
 62
4
 10
-1.79850712E+02
 20
-2.50183817E+02
 11
-1.79510712E+02
 21
-2.49903817E+02
  0
LINE
  8
0
 62
4
 10
-1.76510712E+02
 20
-2.49903817E+02
 11
-1.76170712E+02
 21
-2.50183817E+02
  0
LINE
  8
0
 62
4
 10
-1.76510712E+02
 20
-2.59403817E+02
 11
-1.76170712E+02
 21
-2.59903817E+02
  0
LINE
  8
0
 62
4
 10
-1.79510712E+02
 20
-2.59403817E+02
 11
-1.79850712E+02
 21
-2.59903817E+02
  0
LINE
  8
0
 62
4
 10
-1.82310712E+02
 20
-2.49903817E+02
 11
-1.81650712E+02
 21
-2.50183817E+02
  0
LINE
  8
0
 62
4
 10
-1.74350712E+02
 20
-2.50183817E+02
 11
-1.73690712E+02
 21
-2.49903817E+02
  0
LINE
  8
0
 62
4
 10
-1.73690712E+02
 20
-2.59403817E+02
 11
-1.74350712E+02
 21
-2.59903817E+02
  0
LINE
  8
0
 62
4
 10
-1.82310712E+02
 20
-2.59403817E+02
 11
-1.81650712E+02
 21
-2.59903817E+02
  0
LINE
  8
0
 62
4
 10
-1.85010712E+02
 20
-2.50183817E+02
 11
-1.84450712E+02
 21
-2.49963817E+02
  0
LINE
  8
0
 62
4
 10
-1.71570712E+02
 20
-2.49963817E+02
 11
-1.70990712E+02
 21
-2.50183817E+02
  0
LINE
  8
0
 62
4
 10
-1.85610712E+02
 20
-2.59403817E+02
 11
-1.85010712E+02
 21
-2.59903817E+02
  0
LINE
  8
0
 62
4
 10
-1.70390712E+02
 20
-2.59403817E+02
 11
-1.70990712E+02
 21
-2.59903817E+02
  0
LINE
  8
0
 62
4
 10
-1.48370712E+02
 20
7.27561825E+01
 11
-1.37630712E+02
 21
7.27561825E+01
  0
LINE
  8
0
 62
4
 10
-1.49590712E+02
 20
7.20561825E+01
 11
-1.48370712E+02
 21
7.27561825E+01
  0
LINE
  8
0
 62
6
 10
-1.48730712E+02
 20
7.25561825E+01
 11
-1.48730712E+02
 21
7.10761825E+01
  0
LINE
  8
0
 62
4
 10
-1.49590712E+02
 20
7.20561825E+01
 11
-1.36430712E+02
 21
7.20561825E+01
  0
LINE
  8
0
 62
4
 10
-1.49590712E+02
 20
7.20561825E+01
 11
-1.49550712E+02
 21
7.10761825E+01
  0
LINE
  8
0
 62
4
 10
-1.37630712E+02
 20
7.27561825E+01
 11
-1.36430712E+02
 21
7.20561825E+01
  0
LINE
  8
0
 62
6
 10
-1.37290712E+02
 20
7.25561825E+01
 11
-1.37290712E+02
 21
7.10761825E+01
  0
LINE
  8
0
 62
4
 10
-1.36430712E+02
 20
7.20561825E+01
 11
-1.36450712E+02
 21
7.10761825E+01
  0
ARC
  8
0
 62
7
 10
-2.34504067E+02
 20
1.95828281E+01
 40
1.49336926E+00
 50
3.59745032E+02
 51
9.02549681E+01
  0
ARC
  8
0
 62
7
 10
-1.21519568E+02
 20
1.95850379E+01
 40
1.49117089E+00
 50
8.96597440E+01
 51
1.80340257E+02
  0
ARC
  8
0
 62
7
 10
-2.16009591E+02
 20
1.29950608E+01
 40
4.98879546E-01
 50
2.69871172E+02
 51
1.28827849E-01
  0
ARC
  8
0
 62
7
 10
-1.40014042E+02
 20
1.29928525E+01
 40
4.96681148E-01
 50
1.79615856E+02
 51
2.70384144E+02
  0
ARC
  8
0
 62
7
 10
-2.13519610E+02
 20
1.90850696E+01
 40
1.99113286E+00
 50
8.97439505E+01
 51
1.79680217E+02
  0
ARC
  8
0
 62
7
 10
-1.42503999E+02
 20
1.90828625E+01
 40
1.99333134E+00
 50
3.82870296E-01
 51
9.01929621E+01
  0
ARC
  8
0
 62
7
 10
-2.31009577E+02
 20
1.04950469E+01
 40
2.00113591E+00
 50
9.00325138E+01
 51
1.79967486E+02
  0
ARC
  8
0
 62
7
 10
-1.25014044E+02
 20
1.04928509E+01
 40
2.00333439E+00
 50
9.52850574E-02
 51
8.99047150E+01
  0
ARC
  8
0
 62
7
 10
-2.30938605E+02
 20
-5.91370605E+00
 40
2.00990408E+00
 50
2.56328385E+00
 51
8.97749951E+01
  0
ARC
  8
0
 62
7
 10
-1.25074501E+02
 20
-5.90153735E+00
 40
1.99772348E+00
 50
8.98913319E+01
 51
1.77770390E+02
  0
ARC
  8
0
 62
7
 10
-2.22927745E+02
 20
-1.77445273E+02
 40
2.98459451E+00
 50
1.81892128E+02
 51
2.39763196E+02
  0
ARC
  8
0
 62
7
 10
-1.33086273E+02
 20
-1.77425615E+02
 40
2.99789186E+00
 50
2.99925320E+02
 51
3.57740334E+02
  0
ARC
  8
0
 62
7
 10
-2.15958661E+02
 20
-1.88388587E+02
 40
3.00977309E+00
 50
1.99485424E+00
 51
5.99326591E+01
  0
ARC
  8
0
 62
7
 10
-1.40065967E+02
 20
-1.88386665E+02
 40
3.00650478E+00
 50
1.20032854E+02
 51
1.78039633E+02
  0
ARC
  8
0
  6
PHANTOM
 62
6
 10
-2.20510712E+02
 20
9.10861825E+01
 40
4.25000057E+00
 50
9.00000002E+01
 51
2.70000000E+02
  0
ARC
  8
0
  6
PHANTOM
 62
6
 10
-2.15510712E+02
 20
9.10861825E+01
 40
4.25000057E+00
 50
2.70000000E+02
 51
9.00000002E+01
  0
ARC
  8
0
  6
PHANTOM
 62
6
 10
-1.40510712E+02
 20
9.10861825E+01
 40
4.25000057E+00
 50
9.00000002E+01
 51
2.70000000E+02
  0
ARC
  8
0
  6
PHANTOM
 62
6
 10
-1.35510712E+02
 20
9.10861825E+01
 40
4.25000057E+00
 50
2.70000000E+02
 51
9.00000002E+01
  0
CIRCLE
  8
0
 62
7
 10
-1.78012911E+02
 20
-2.09208263E+02
 40
1.55000000E+01
  0
CIRCLE
  8
0
 62
7
 10
-1.78012911E+02
 20
-2.09208263E+02
 40
1.99999981E+01
  0
CIRCLE
  8
0
 62
7
 10
-1.78012911E+02
 20
-2.09208263E+02
 40
1.90000000E+01
  0
CIRCLE
  8
0
 62
7
 10
-1.78012911E+02
 20
-2.09208263E+02
 40
1.50000000E+01
  0
ARC
  8
0
 62
7
 10
-2.08590170E+02
 20
-2.27434699E+02
 40
2.98253922E+00
 50
1.82096677E+02
 51
2.40237668E+02
  0
ARC
  8
0
 62
7
 10
-1.93395661E+02
 20
-2.36209876E+02
 40
2.99394517E+00
 50
2.40042455E+02
 51
2.70094711E+02
  0
ARC
  8
0
 62
7
 10
-1.62607394E+02
 20
-2.36203762E+02
 40
3.00005719E+00
 50
2.69936621E+02
 51
2.99926213E+02
  0
ARC
  8
0
 62
7
 10
-1.47429163E+02
 20
-2.27423868E+02
 40
3.00084862E+00
 50
2.99956490E+02
 51
3.57709165E+02
  0
CIRCLE
  8
0
 62
7
 10
-1.82848909E+02
 20
-2.21427593E+02
 40
1.00000000E+00
  0
CIRCLE
  8
0
 62
7
 10
-1.73176912E+02
 20
-2.21427593E+02
 40
1.00000000E+00
  0
LINE
  8
0
 62
7
 10
-1.26512911E+02
 20
1.99917184E+01
 11
-1.27382911E+02
 21
2.04917184E+01
  0
LINE
  8
0
 62
7
 10
-1.26512911E+02
 20
1.99917184E+01
 11
-1.26512911E+02
 21
1.24917184E+01
  0
LINE
  8
0
 62
7
 10
-1.39512911E+02
 20
1.99917184E+01
 11
-1.26512911E+02
 21
1.99917184E+01
  0
LINE
  8
0
 62
7
 10
-1.38642911E+02
 20
2.04917184E+01
 11
-1.27382911E+02
 21
2.04917184E+01
  0
LINE
  8
0
 62
7
 10
-1.39512911E+02
 20
1.99917184E+01
 11
-1.38642911E+02
 21
2.04917184E+01
  0
LINE
  8
0
 62
7
 10
-1.39512911E+02
 20
1.99917184E+01
 11
-1.39512911E+02
 21
1.24917184E+01
  0
LINE
  8
0
 62
7
 10
-2.16512911E+02
 20
1.99917184E+01
 11
-2.17382911E+02
 21
2.04917184E+01
  0
LINE
  8
0
 62
7
 10
-2.16512911E+02
 20
1.99917184E+01
 11
-2.16512911E+02
 21
1.24917184E+01
  0
LINE
  8
0
 62
7
 10
-2.29512911E+02
 20
1.99917184E+01
 11
-2.16512911E+02
 21
1.99917184E+01
  0
LINE
  8
0
 62
7
 10
-2.28642911E+02
 20
2.04917184E+01
 11
-2.17382911E+02
 21
2.04917184E+01
  0
LINE
  8
0
 62
7
 10
-2.29512911E+02
 20
1.99917184E+01
 11
-2.28642911E+02
 21
2.04917184E+01
  0
LINE
  8
0
 62
7
 10
-2.29512911E+02
 20
1.99917184E+01
 11
-2.29512911E+02
 21
1.24917184E+01
  0
ARC
  8
0
 62
7
 10
-1.73183251E+02
 20
-2.21431433E+02
 40
1.51004724E+00
 50
4.74913752E+01
 51
1.94842970E+02
  0
ARC
  8
0
 62
7
 10
-1.78012911E+02
 20
-2.09958263E+02
 40
1.34437532E+01
 50
3.09052512E+02
 51
2.30947488E+02
  0
ARC
  8
0
 62
7
 10
-1.85219008E+02
 20
-2.18848594E+02
 40
1.99973131E+00
 50
2.30799466E+02
 51
3.12698427E+02
  0
ARC
  8
0
 62
7
 10
-1.82842570E+02
 20
-2.21431433E+02
 40
1.51004724E+00
 50
3.45157030E+02
 51
1.32508625E+02
  0
ARC
  8
0
 62
7
 10
-1.70806814E+02
 20
-2.18848594E+02
 40
1.99973131E+00
 50
2.27301573E+02
 51
3.09200534E+02
  0
ARC
  8
0
 62
7
 10
-1.78012911E+02
 20
-2.09208263E+02
 40
1.49908239E+01
 50
2.54999647E+02
 51
2.85000353E+02
  0
LINE
  8
0
 62
7
 10
-1.81382911E+02
 20
-2.21818263E+02
 11
-1.81892911E+02
 21
-2.23688263E+02
  0
LINE
  8
0
 62
7
 10
-1.74642911E+02
 20
-2.21818263E+02
 11
-1.74132911E+02
 21
-2.23688263E+02
  0
LINE
  8
0
  6
CENTER
 62
2
 10
2.43037396E+01
 20
8.65241777E+01
 11
2.43037396E+01
 21
-2.66388275E+02
  0
LINE
  8
0
 62
7
 10
7.89287717E-01
 20
7.10761825E+01
 11
4.77892877E+01
 21
7.10761825E+01
  0
LINE
  8
0
 62
7
 10
-3.07107123E+01
 20
6.09618253E+00
 11
7.92892877E+01
 21
6.09618253E+00
  0
LINE
  8
0
 62
7
 10
-3.07107123E+01
 20
1.90961825E+01
 11
-3.07107123E+01
 21
-3.90381747E+00
  0
LINE
  8
0
 62
7
 10
7.92892877E+01
 20
1.90961825E+01
 11
7.92892877E+01
 21
-3.90381747E+00
  0
LINE
  8
0
 62
7
 10
-7.10712283E-01
 20
6.95761825E+01
 11
-7.10712283E-01
 21
2.25761825E+01
  0
LINE
  8
0
 62
7
 10
4.92892877E+01
 20
6.95761825E+01
 11
4.92892877E+01
 21
2.25761825E+01
  0
LINE
  8
0
 62
7
 10
7.89287717E-01
 20
7.10761825E+01
 11
-7.10712283E-01
 21
6.95761825E+01
  0
LINE
  8
0
 62
7
 10
4.77892877E+01
 20
7.10761825E+01
 11
4.92892877E+01
 21
6.95761825E+01
  0
LINE
  8
0
 62
7
 10
-7.10712283E-01
 20
6.95761825E+01
 11
4.92892877E+01
 21
6.95761825E+01
  0
LINE
  8
0
 62
7
 10
-1.75107123E+01
 20
6.80761825E+01
 11
-7.10712283E-01
 21
6.80761825E+01
  0
LINE
  8
0
 62
7
 10
4.92892877E+01
 20
6.80761825E+01
 11
6.61492877E+01
 21
6.80761825E+01
  0
LINE
  8
0
 62
7
 10
-2.06307123E+01
 20
2.30161825E+01
 11
-1.91107123E+01
 21
6.65761825E+01
  0
LINE
  8
0
 62
7
 10
6.92292877E+01
 20
2.30161825E+01
 11
6.77092877E+01
 21
6.65361825E+01
  0
LINE
  8
0
 62
7
 10
-1.91107123E+01
 20
6.65761825E+01
 11
-1.75107123E+01
 21
6.80761825E+01
  0
LINE
  8
0
 62
7
 10
6.61492877E+01
 20
6.80761825E+01
 11
6.77092877E+01
 21
6.65361825E+01
  0
LINE
  8
0
 62
7
 10
-1.91107123E+01
 20
6.65761825E+01
 11
-7.10712283E-01
 21
6.65761825E+01
  0
LINE
  8
0
 62
7
 10
6.77092877E+01
 20
6.65361825E+01
 11
4.92892877E+01
 21
6.65361825E+01
  0
LINE
  8
0
 62
7
 10
-1.32107123E+01
 20
1.90961825E+01
 11
-1.32107123E+01
 21
1.29961825E+01
  0
LINE
  8
0
 62
7
 10
6.17892877E+01
 20
1.90961825E+01
 11
6.17892877E+01
 21
1.29961825E+01
  0
LINE
  8
0
 62
7
 10
-2.87107123E+01
 20
1.24961825E+01
 11
-1.37107123E+01
 21
1.24961825E+01
  0
LINE
  8
0
 62
7
 10
6.22892877E+01
 20
1.24961825E+01
 11
7.72892877E+01
 21
1.24961825E+01
  0
LINE
  8
0
  6
CENTER
 62
2
 10
2.89287717E-01
 20
4.60761825E+01
 11
4.82892877E+01
 21
4.60761825E+01
  0
LINE
  8
0
  6
CENTER
 62
2
 10
-2.07107123E+01
 20
2.50761825E+01
 11
-2.07107123E+01
 21
8.49618253E+00
  0
LINE
  8
0
  6
CENTER
 62
2
 10
6.92892877E+01
 20
2.50761825E+01
 11
6.92892877E+01
 21
8.49618253E+00
  0
LINE
  8
0
 62
7
 10
7.89287717E-01
 20
7.10761825E+01
 11
7.89287717E-01
 21
2.10761825E+01
  0
LINE
  8
0
 62
7
 10
4.77892877E+01
 20
7.10761825E+01
 11
4.77892877E+01
 21
2.10761825E+01
  0
LINE
  8
0
 62
7
 10
-2.87107123E+01
 20
2.10761825E+01
 11
7.72892877E+01
 21
2.10761825E+01
  0
LINE
  8
0
 62
7
 10
7.92892877E+01
 20
-3.90381747E+00
 11
-3.07107123E+01
 21
-3.90381747E+00
  0
LINE
  8
0
 62
7
 10
3.96892877E+01
 20
-2.39203817E+02
 11
8.90928772E+00
 21
-2.39203817E+02
  0
LINE
  8
0
 62
7
 10
6.92892877E+01
 20
-1.79203817E+02
 11
-2.07107123E+01
 21
-1.79203817E+02
  0
LINE
  8
0
 62
7
 10
7.52292877E+01
 20
-5.82381747E+00
 11
7.22092877E+01
 21
-1.77543817E+02
  0
LINE
  8
0
 62
7
 10
-2.66307123E+01
 20
-5.82381747E+00
 11
-2.36107123E+01
 21
-1.77543817E+02
  0
LINE
  8
0
 62
7
 10
7.07092877E+01
 20
-1.80023817E+02
 11
6.07292877E+01
 21
-1.85783817E+02
  0
LINE
  8
0
 62
7
 10
-2.21307123E+01
 20
-1.80023817E+02
 11
-1.21507123E+01
 21
-1.85783817E+02
  0
LINE
  8
0
 62
7
 10
5.67892877E+01
 20
-1.86623817E+02
 11
-8.21071228E+00
 21
-1.86623817E+02
  0
LINE
  8
0
 62
7
 10
5.52892877E+01
 20
-2.29203817E+02
 11
-6.71071228E+00
 21
-2.29203817E+02
  0
LINE
  8
0
 62
7
 10
5.92292877E+01
 20
-1.88283817E+02
 11
5.78692877E+01
 21
-2.27543817E+02
  0
LINE
  8
0
 62
7
 10
5.63692877E+01
 20
-2.30023817E+02
 11
4.11892877E+01
 21
-2.38803817E+02
  0
LINE
  8
0
 62
7
 10
-7.77071228E+00
 20
-2.30023817E+02
 11
7.40928772E+00
 21
-2.38803817E+02
  0
LINE
  8
0
 62
7
 10
-2.37107123E+01
 20
-1.90203817E+02
 11
-2.37107123E+01
 21
-2.28203817E+02
  0
LINE
  8
0
 62
7
 10
-2.27107123E+01
 20
-2.29203817E+02
 11
-8.95071228E+00
 21
-2.29203817E+02
  0
LINE
  8
0
 62
7
 10
-2.27107123E+01
 20
-1.89203817E+02
 11
-1.74307123E+01
 21
-1.89203817E+02
  0
LINE
  8
0
  6
CENTER
 62
2
 10
-2.77107123E+01
 20
-2.09203817E+02
 11
-5.91071228E+00
 21
-2.09203817E+02
  0
LINE
  8
0
 62
7
 10
-2.37107123E+01
 20
-1.90203817E+02
 11
-2.27107123E+01
 21
-1.89203817E+02
  0
LINE
  8
0
 62
7
 10
-2.27107123E+01
 20
-2.29203817E+02
 11
-2.37107123E+01
 21
-2.28203817E+02
  0
LINE
  8
0
 62
7
 10
-2.27107123E+01
 20
-2.29203817E+02
 11
-2.27107123E+01
 21
-1.89203817E+02
  0
LINE
  8
0
 62
7
 10
-1.06507123E+01
 20
-1.88283817E+02
 11
-9.27071228E+00
 21
-2.27543817E+02
  0
LINE
  8
0
 62
4
 10
3.07292877E+01
 20
-2.49963817E+02
 11
3.13092877E+01
 21
-2.50183817E+02
  0
LINE
  8
0
 62
4
 10
3.18892877E+01
 20
-2.59403817E+02
 11
3.13092877E+01
 21
-2.59903817E+02
  0
LINE
  8
0
 62
4
 10
1.66892877E+01
 20
-2.59403817E+02
 11
1.72892877E+01
 21
-2.59903817E+02
  0
LINE
  8
0
 62
4
 10
1.67292877E+01
 20
-2.45703817E+02
 11
3.18692877E+01
 21
-2.45703817E+02
  0
LINE
  8
0
 62
4
 10
3.23692877E+01
 20
-2.39203817E+02
 11
3.23692877E+01
 21
-2.45203817E+02
  0
LINE
  8
0
 62
4
 10
1.62292877E+01
 20
-2.39203817E+02
 11
1.62292877E+01
 21
-2.45203817E+02
  0
LINE
  8
0
 62
4
 10
1.75492877E+01
 20
-2.60403817E+02
 11
3.10492877E+01
 21
-2.60403817E+02
  0
LINE
  8
0
 62
4
 10
1.65492877E+01
 20
-2.47403817E+02
 11
1.65492877E+01
 21
-2.59403817E+02
  0
LINE
  8
0
 62
4
 10
3.20492877E+01
 20
-2.47403817E+02
 11
3.20492877E+01
 21
-2.59403817E+02
  0
LINE
  8
0
 62
4
 10
1.65492877E+01
 20
-2.59403817E+02
 11
1.75492877E+01
 21
-2.60403817E+02
  0
LINE
  8
0
 62
4
 10
3.10492877E+01
 20
-2.60403817E+02
 11
3.20492877E+01
 21
-2.59403817E+02
  0
LINE
  8
0
 62
4
 10
1.66892877E+01
 20
-2.49903817E+02
 11
1.78492877E+01
 21
-2.49903817E+02
  0
LINE
  8
0
 62
4
 10
1.70492877E+01
 20
-2.46903817E+02
 11
3.15492877E+01
 21
-2.46903817E+02
  0
LINE
  8
0
 62
4
 10
1.65492877E+01
 20
-2.47403817E+02
 11
1.70492877E+01
 21
-2.46903817E+02
  0
LINE
  8
0
 62
4
 10
3.15492877E+01
 20
-2.46903817E+02
 11
3.20492877E+01
 21
-2.47403817E+02
  0
LINE
  8
0
 62
4
 10
1.82892877E+01
 20
-2.45703817E+02
 11
1.82892877E+01
 21
-2.46903817E+02
  0
LINE
  8
0
 62
4
 10
3.02892877E+01
 20
-2.45703817E+02
 11
3.02892877E+01
 21
-2.46903817E+02
  0
LINE
  8
0
 62
4
 10
1.62292877E+01
 20
-2.45203817E+02
 11
1.67292877E+01
 21
-2.45703817E+02
  0
LINE
  8
0
 62
4
 10
3.23692877E+01
 20
-2.45203817E+02
 11
3.18692877E+01
 21
-2.45703817E+02
  0
LINE
  8
0
 62
4
 10
1.62292877E+01
 20
-2.45203817E+02
 11
3.23692877E+01
 21
-2.45203817E+02
  0
LINE
  8
0
 62
4
 10
1.65492877E+01
 20
-2.47403817E+02
 11
3.20492877E+01
 21
-2.47403817E+02
  0
LINE
  8
0
 62
4
 10
1.66892877E+01
 20
-2.50183817E+02
 11
1.72892877E+01
 21
-2.50183817E+02
  0
LINE
  8
0
 62
4
 10
1.65492877E+01
 20
-2.59403817E+02
 11
1.66892877E+01
 21
-2.59403817E+02
  0
LINE
  8
0
 62
4
 10
2.27892877E+01
 20
-2.49903817E+02
 11
2.27892877E+01
 21
-2.59403817E+02
  0
LINE
  8
0
 62
4
 10
2.57892877E+01
 20
-2.49903817E+02
 11
2.57892877E+01
 21
-2.59403817E+02
  0
LINE
  8
0
 62
4
 10
2.57892877E+01
 20
-2.49903817E+02
 11
2.86092877E+01
 21
-2.49903817E+02
  0
LINE
  8
0
 62
4
 10
2.61292877E+01
 20
-2.50183817E+02
 11
2.79492877E+01
 21
-2.50183817E+02
  0
LINE
  8
0
 62
4
 10
2.27892877E+01
 20
-2.59403817E+02
 11
2.57892877E+01
 21
-2.59403817E+02
  0
LINE
  8
0
 62
4
 10
2.86092877E+01
 20
-2.59403817E+02
 11
3.07292877E+01
 21
-2.59403817E+02
  0
LINE
  8
0
 62
4
 10
1.70492877E+01
 20
-2.59903817E+02
 11
1.72892877E+01
 21
-2.59903817E+02
  0
LINE
  8
0
 62
4
 10
2.61292877E+01
 20
-2.50183817E+02
 11
2.61292877E+01
 21
-2.59903817E+02
  0
LINE
  8
0
 62
4
 10
2.24492877E+01
 20
-2.50183817E+02
 11
2.24492877E+01
 21
-2.59903817E+02
  0
LINE
  8
0
 62
4
 10
2.24492877E+01
 20
-2.59903817E+02
 11
2.61292877E+01
 21
-2.59903817E+02
  0
LINE
  8
0
 62
4
 10
2.79492877E+01
 20
-2.59903817E+02
 11
3.07292877E+01
 21
-2.59903817E+02
  0
LINE
  8
0
 62
4
 10
2.79492877E+01
 20
-2.50183817E+02
 11
2.79492877E+01
 21
-2.59903817E+02
  0
LINE
  8
0
 62
4
 10
2.06292877E+01
 20
-2.50183817E+02
 11
2.06292877E+01
 21
-2.59903817E+02
  0
LINE
  8
0
 62
4
 10
1.99692877E+01
 20
-2.49903817E+02
 11
1.99692877E+01
 21
-2.59403817E+02
  0
LINE
  8
0
 62
4
 10
2.86092877E+01
 20
-2.49903817E+02
 11
2.86092877E+01
 21
-2.59403817E+02
  0
LINE
  8
0
 62
4
 10
3.07292877E+01
 20
-2.49903817E+02
 11
3.18892877E+01
 21
-2.49903817E+02
  0
LINE
  8
0
 62
4
 10
3.13092877E+01
 20
-2.50183817E+02
 11
3.18892877E+01
 21
-2.50183817E+02
  0
LINE
  8
0
 62
4
 10
1.99692877E+01
 20
-2.49903817E+02
 11
2.27892877E+01
 21
-2.49903817E+02
  0
LINE
  8
0
 62
4
 10
2.06292877E+01
 20
-2.50183817E+02
 11
2.24492877E+01
 21
-2.50183817E+02
  0
LINE
  8
0
 62
4
 10
1.78492877E+01
 20
-2.59403817E+02
 11
1.99692877E+01
 21
-2.59403817E+02
  0
LINE
  8
0
 62
4
 10
1.78492877E+01
 20
-2.59903817E+02
 11
2.06292877E+01
 21
-2.59903817E+02
  0
LINE
  8
0
 62
4
 10
3.18892877E+01
 20
-2.59403817E+02
 11
3.20492877E+01
 21
-2.59403817E+02
  0
LINE
  8
0
 62
4
 10
3.13092877E+01
 20
-2.59903817E+02
 11
3.15492877E+01
 21
-2.59903817E+02
  0
LINE
  8
0
 62
4
 10
1.78492877E+01
 20
-2.49903817E+02
 11
1.78492877E+01
 21
-2.59903817E+02
  0
LINE
  8
0
 62
4
 10
3.07292877E+01
 20
-2.49903817E+02
 11
3.07292877E+01
 21
-2.59903817E+02
  0
LINE
  8
0
 62
4
 10
1.72892877E+01
 20
-2.50183817E+02
 11
1.72892877E+01
 21
-2.59903817E+02
  0
LINE
  8
0
 62
4
 10
3.13092877E+01
 20
-2.50183817E+02
 11
3.13092877E+01
 21
-2.59903817E+02
  0
LINE
  8
0
 62
4
 10
1.66892877E+01
 20
-2.49903817E+02
 11
1.66892877E+01
 21
-2.59403817E+02
  0
LINE
  8
0
 62
4
 10
3.18892877E+01
 20
-2.49903817E+02
 11
3.18892877E+01
 21
-2.59403817E+02
  0
LINE
  8
0
 62
4
 10
2.24492877E+01
 20
-2.50183817E+02
 11
2.27892877E+01
 21
-2.49903817E+02
  0
LINE
  8
0
 62
4
 10
2.57892877E+01
 20
-2.49903817E+02
 11
2.61292877E+01
 21
-2.50183817E+02
  0
LINE
  8
0
 62
4
 10
2.57892877E+01
 20
-2.59403817E+02
 11
2.61292877E+01
 21
-2.59903817E+02
  0
LINE
  8
0
 62
4
 10
2.27892877E+01
 20
-2.59403817E+02
 11
2.24492877E+01
 21
-2.59903817E+02
  0
LINE
  8
0
 62
4
 10
1.99692877E+01
 20
-2.49903817E+02
 11
2.06292877E+01
 21
-2.50183817E+02
  0
LINE
  8
0
 62
4
 10
2.79492877E+01
 20
-2.50183817E+02
 11
2.86092877E+01
 21
-2.49903817E+02
  0
LINE
  8
0
 62
4
 10
2.86092877E+01
 20
-2.59403817E+02
 11
2.79492877E+01
 21
-2.59903817E+02
  0
LINE
  8
0
 62
4
 10
1.99692877E+01
 20
-2.59403817E+02
 11
2.06292877E+01
 21
-2.59903817E+02
  0
LINE
  8
0
 62
4
 10
1.72892877E+01
 20
-2.50183817E+02
 11
1.78492877E+01
 21
-2.49963817E+02
  0
LINE
  8
0
  6
PHANTOM
 62
6
 10
5.12892877E+01
 20
2.42761825E+01
 11
9.62892877E+01
 21
2.42761825E+01
  0
LINE
  8
0
  6
PHANTOM
 62
6
 10
1.01289288E+02
 20
1.01076183E+02
 11
1.01289288E+02
 21
2.60761825E+01
  0
LINE
  8
0
  6
PHANTOM
 62
6
 10
9.80892877E+01
 20
1.01076183E+02
 11
9.80892877E+01
 21
2.60761825E+01
  0
LINE
  8
0
  6
PHANTOM
 62
6
 10
9.80892877E+01
 20
1.01076183E+02
 11
1.01289288E+02
 21
1.01076183E+02
  0
LINE
  8
0
  6
PHANTOM
 62
6
 10
9.80892877E+01
 20
9.60761825E+01
 11
1.01289288E+02
 21
9.60761825E+01
  0
LINE
  8
0
  6
PHANTOM
 62
6
 10
7.57892877E+01
 20
3.17761825E+01
 11
7.57892877E+01
 21
2.42761825E+01
  0
LINE
  8
0
  6
PHANTOM
 62
6
 10
7.57892877E+01
 20
3.17761825E+01
 11
7.49292877E+01
 21
3.22761825E+01
  0
LINE
  8
0
  6
PHANTOM
 62
6
 10
7.49292877E+01
 20
3.22761825E+01
 11
6.36692877E+01
 21
3.22761825E+01
  0
LINE
  8
0
  6
PHANTOM
 62
6
 10
7.57892877E+01
 20
3.17761825E+01
 11
6.27892877E+01
 21
3.17761825E+01
  0
LINE
  8
0
  6
PHANTOM
 62
6
 10
6.27892877E+01
 20
3.17761825E+01
 11
6.36692877E+01
 21
3.22761825E+01
  0
LINE
  8
0
  6
PHANTOM
 62
6
 10
6.27892877E+01
 20
3.17761825E+01
 11
6.27892877E+01
 21
2.42761825E+01
  0
LINE
  8
0
  6
PHANTOM
 62
6
 10
5.12892877E+01
 20
2.42761825E+01
 11
5.12892877E+01
 21
2.10761825E+01
  0
LINE
  8
0
  6
PHANTOM
 62
6
 10
5.42892877E+01
 20
2.42761825E+01
 11
5.42892877E+01
 21
2.10761825E+01
  0
LINE
  8
0
  6
PHANTOM
 62
6
 10
7.72892877E+01
 20
2.10761825E+01
 11
9.62892877E+01
 21
2.10761825E+01
  0
LINE
  8
0
 62
4
 10
1.89292877E+01
 20
7.27561825E+01
 11
2.96692877E+01
 21
7.27561825E+01
  0
LINE
  8
0
 62
4
 10
1.77092877E+01
 20
7.20561825E+01
 11
1.89292877E+01
 21
7.27561825E+01
  0
LINE
  8
0
 62
6
 10
1.85692877E+01
 20
7.25561825E+01
 11
1.85692877E+01
 21
7.10761825E+01
  0
LINE
  8
0
 62
4
 10
1.77092877E+01
 20
7.20561825E+01
 11
3.08692877E+01
 21
7.20561825E+01
  0
LINE
  8
0
 62
4
 10
1.77092877E+01
 20
7.20561825E+01
 11
1.77492877E+01
 21
7.10761825E+01
  0
LINE
  8
0
 62
4
 10
2.96692877E+01
 20
7.27561825E+01
 11
3.08692877E+01
 21
7.20561825E+01
  0
LINE
  8
0
 62
6
 10
3.00092877E+01
 20
7.25561825E+01
 11
3.00092877E+01
 21
7.10761825E+01
  0
LINE
  8
0
 62
4
 10
3.08692877E+01
 20
7.20561825E+01
 11
3.08492877E+01
 21
7.10761825E+01
  0
ARC
  8
0
 62
7
 10
-2.26365392E+01
 20
2.30831175E+01
 40
2.00694338E+00
 50
2.70166350E+02
 51
3.58088736E+02
  0
ARC
  8
0
 62
7
 10
-1.37012641E+01
 20
1.29867343E+01
 40
4.90642787E-01
 50
2.68896601E+02
 51
1.10339950E+00
  0
ARC
  8
0
 62
7
 10
6.22943711E+01
 20
1.30012659E+01
 40
5.05108928E-01
 50
1.80576627E+02
 51
2.69423374E+02
  0
ARC
  8
0
 62
7
 10
-2.87113387E+01
 20
1.90767143E+01
 40
1.99946836E+00
 50
9.00000002E+01
 51
1.79442118E+02
  0
ARC
  8
0
 62
7
 10
7.73042621E+01
 20
1.90912071E+01
 40
1.98503187E+00
 50
1.43609180E-01
 51
9.04322229E+01
  0
ARC
  8
0
 62
7
 10
-2.87012633E+01
 20
1.04867336E+01
 40
2.00947116E+00
 50
9.02694175E+01
 51
1.79730582E+02
  0
ARC
  8
0
 62
7
 10
-1.12113083E+01
 20
1.90766835E+01
 40
1.99949910E+00
 50
9.00000002E+01
 51
1.79441246E+02
  0
ARC
  8
0
 62
7
 10
5.98042621E+01
 20
1.90912071E+01
 40
1.98503187E+00
 50
1.43609180E-01
 51
9.04322229E+01
  0
ARC
  8
0
 62
7
 10
7.72942593E+01
 20
1.05011541E+01
 40
1.99503466E+00
 50
3.59857221E+02
 51
9.01427784E+01
  0
CIRCLE
  8
0
 62
7
 10
2.43037396E+01
 20
4.60917245E+01
 40
2.10000000E+01
  0
ARC
  8
0
 62
7
 10
5.08042848E+01
 20
2.25911796E+01
 40
1.51507127E+00
 50
1.80567156E+02
 51
2.69432844E+02
  0
ARC
  8
0
 62
7
 10
-2.21133230E+00
 20
2.25768025E+01
 40
1.50062015E+00
 50
2.70000000E+02
 51
3.59976327E+02
  0
ARC
  8
0
 62
7
 10
8.90544644E+00
 20
-2.36205722E+02
 40
2.99809767E+00
 50
2.40063756E+02
 51
2.70073410E+02
  0
ARC
  8
0
 62
7
 10
-6.27795236E+00
 20
-2.27427309E+02
 40
2.99502689E+00
 50
1.82229396E+02
 51
2.40104949E+02
  0
ARC
  8
0
 62
7
 10
3.96937240E+01
 20
-2.36207954E+02
 40
2.99586705E+00
 50
2.69915155E+02
 51
2.99947679E+02
  0
ARC
  8
0
 62
7
 10
7.72334731E+01
 20
-5.90984393E+00
 40
2.00603083E+00
 50
9.01195427E+01
 51
1.77542179E+02
  0
ARC
  8
0
 62
7
 10
-2.86306435E+01
 20
-5.90541253E+00
 40
2.00159507E+00
 50
2.33631109E+00
 51
9.00000002E+01
  0
ARC
  8
0
 62
7
 10
6.92259711E+01
 20
-1.77433021E+02
 40
2.98537335E+00
 50
2.99792565E+02
 51
3.57873090E+02
  0
ARC
  8
0
 62
7
 10
-2.06154897E+01
 20
-1.77437959E+02
 40
2.99709265E+00
 50
1.82024133E+02
 51
2.39631191E+02
  0
ARC
  8
0
 62
7
 10
6.22462344E+01
 20
-1.88393985E+02
 40
3.01895751E+00
 50
1.20163793E+02
 51
1.77908694E+02
  0
ARC
  8
0
 62
7
 10
5.48830410E+01
 20
-2.27431249E+02
 40
2.98836765E+00
 50
2.99824436E+02
 51
3.57841219E+02
  0
ARC
  8
0
 62
7
 10
-1.74278626E+01
 20
-1.86203688E+02
 40
3.00013090E+00
 50
2.69945578E+02
 51
6.00642640E+01
  0
ARC
  8
0
 62
7
 10
-1.36464510E+01
 20
-1.88381261E+02
 40
2.99732303E+00
 50
1.86301847E+00
 51
6.00644944E+01
  0
ARC
  8
0
 62
7
 10
-8.95335349E+00
 20
-2.29700504E+02
 40
4.96694024E-01
 50
3.96123246E+01
 51
8.96953236E+01
  0
ARC
  8
0
  6
PHANTOM
 62
6
 10
9.62887202E+01
 20
2.60767501E+01
 40
5.00056757E+00
 50
2.70000000E+02
 51
3.59993497E+02
  0
ARC
  8
0
  6
PHANTOM
 62
6
 10
9.62886802E+01
 20
2.60767901E+01
 40
1.80060762E+00
 50
2.70000000E+02
 51
3.59980669E+02
  0
CIRCLE
  8
0
 62
2
 10
2.43037396E+01
 20
4.60761825E+01
 40
1.04774990E+01
  0
CIRCLE
  8
0
 62
7
 10
2.43037396E+01
 20
4.60761825E+01
 40
9.31550026E+00
  0
ARC
  8
0
 62
7
 10
7.12394163E+01
 20
2.30875522E+01
 40
2.01139513E+00
 50
1.82033433E+02
 51
2.69711481E+02
  0
LINE
  8
0
 62
7
 10
7.58037701E+01
 20
1.99917184E+01
 11
7.49337701E+01
 21
2.04917184E+01
  0
LINE
  8
0
 62
7
 10
7.58037701E+01
 20
1.99917184E+01
 11
7.58037701E+01
 21
1.24917184E+01
  0
LINE
  8
0
 62
7
 10
6.28037701E+01
 20
1.99917184E+01
 11
7.58037701E+01
 21
1.99917184E+01
  0
LINE
  8
0
 62
7
 10
6.36737701E+01
 20
2.04917184E+01
 11
7.49337701E+01
 21
2.04917184E+01
  0
LINE
  8
0
 62
7
 10
6.28037701E+01
 20
1.99917184E+01
 11
6.36737701E+01
 21
2.04917184E+01
  0
LINE
  8
0
 62
7
 10
6.28037701E+01
 20
1.99917184E+01
 11
6.28037701E+01
 21
1.24917184E+01
  0
LINE
  8
0
 62
7
 10
-1.41962909E+01
 20
1.99917184E+01
 11
-1.50662909E+01
 21
2.04917184E+01
  0
LINE
  8
0
 62
7
 10
-1.41962909E+01
 20
1.99917184E+01
 11
-1.41962909E+01
 21
1.24917184E+01
  0
LINE
  8
0
 62
7
 10
-2.71962909E+01
 20
1.99917184E+01
 11
-1.41962909E+01
 21
1.99917184E+01
  0
LINE
  8
0
 62
7
 10
-2.63262909E+01
 20
2.04917184E+01
 11
-1.50662909E+01
 21
2.04917184E+01
  0
LINE
  8
0
 62
7
 10
-2.71962909E+01
 20
1.99917184E+01
 11
-2.63262909E+01
 21
2.04917184E+01
  0
LINE
  8
0
 62
7
 10
-2.71962909E+01
 20
1.99917184E+01
 11
-2.71962909E+01
 21
1.24917184E+01
  0
LINE
  8
0
  6
CENTER
 62
2
 10
-2.43010712E+02
 20
1.81636183E+02
 11
-1.13010712E+02
 21
1.81636183E+02
  0
LINE
  8
0
  6
CENTER
 62
2
 10
-1.78010712E+02
 20
1.21636183E+02
 11
-1.78010712E+02
 21
2.64636183E+02
  0
LINE
  8
0
 62
7
 10
-1.18010712E+02
 20
2.05136183E+02
 11
-1.18010712E+02
 21
1.58136183E+02
  0
LINE
  8
0
 62
7
 10
-2.38010712E+02
 20
2.05136183E+02
 11
-2.38010712E+02
 21
1.58136183E+02
  0
LINE
  8
0
 62
7
 10
-2.36510712E+02
 20
2.06636183E+02
 11
-1.19510712E+02
 21
2.06636183E+02
  0
LINE
  8
0
 62
7
 10
-2.36510712E+02
 20
1.56636183E+02
 11
-1.19510712E+02
 21
1.56636183E+02
  0
LINE
  8
0
 62
7
 10
-2.38010712E+02
 20
2.05136183E+02
 11
-2.36510712E+02
 21
2.06636183E+02
  0
LINE
  8
0
 62
7
 10
-1.18010712E+02
 20
2.05136183E+02
 11
-1.19510712E+02
 21
2.06636183E+02
  0
LINE
  8
0
 62
7
 10
-1.19510712E+02
 20
1.56636183E+02
 11
-1.18010712E+02
 21
1.58136183E+02
  0
LINE
  8
0
 62
7
 10
-2.38010712E+02
 20
1.58136183E+02
 11
-2.36510712E+02
 21
1.56636183E+02
  0
LINE
  8
0
 62
7
 10
-2.38010712E+02
 20
2.05136183E+02
 11
-1.18010712E+02
 21
2.05136183E+02
  0
LINE
  8
0
 62
7
 10
-2.38010712E+02
 20
1.58136183E+02
 11
-1.18010712E+02
 21
1.58136183E+02
  0
LINE
  8
0
 62
7
 10
-1.19510712E+02
 20
1.56636183E+02
 11
-1.19510712E+02
 21
2.06636183E+02
  0
LINE
  8
0
 62
7
 10
-2.36510712E+02
 20
1.56636183E+02
 11
-2.36510712E+02
 21
2.06636183E+02
  0
LINE
  8
0
 62
7
 10
-2.23010712E+02
 20
1.26636183E+02
 11
-1.33010712E+02
 21
1.26636183E+02
  0
LINE
  8
0
 62
7
 10
-2.23010712E+02
 20
2.36636183E+02
 11
-1.33010712E+02
 21
2.36636183E+02
  0
LINE
  8
0
 62
7
 10
-1.23010712E+02
 20
2.26636183E+02
 11
-1.23010712E+02
 21
2.06636183E+02
  0
LINE
  8
0
 62
7
 10
-2.33010712E+02
 20
2.26636183E+02
 11
-2.33010712E+02
 21
2.06636183E+02
  0
LINE
  8
0
 62
7
 10
-2.33010712E+02
 20
1.56636183E+02
 11
-2.33010712E+02
 21
1.36636183E+02
  0
LINE
  8
0
 62
7
 10
-1.23010712E+02
 20
1.56636183E+02
 11
-1.23010712E+02
 21
1.36636183E+02
  0
LINE
  8
0
  6
CENTER
 62
2
 10
-1.44010712E+02
 20
1.36636183E+02
 11
-1.22010712E+02
 21
1.36636183E+02
  0
LINE
  8
0
  6
CENTER
 62
2
 10
-1.44010712E+02
 20
2.26636183E+02
 11
-1.22010712E+02
 21
2.26636183E+02
  0
LINE
  8
0
  6
CENTER
 62
2
 10
-2.34010712E+02
 20
2.26636183E+02
 11
-2.12010712E+02
 21
2.26636183E+02
  0
LINE
  8
0
  6
CENTER
 62
2
 10
-2.34010712E+02
 20
1.36636183E+02
 11
-2.12010712E+02
 21
1.36636183E+02
  0
LINE
  8
0
  6
CENTER
 62
2
 10
-2.23010712E+02
 20
1.47636183E+02
 11
-2.23010712E+02
 21
1.25636183E+02
  0
LINE
  8
0
  6
CENTER
 62
2
 10
-2.23010712E+02
 20
2.37636183E+02
 11
-2.23010712E+02
 21
2.15636183E+02
  0
LINE
  8
0
  6
CENTER
 62
2
 10
-1.33010712E+02
 20
2.37636183E+02
 11
-1.33010712E+02
 21
2.15636183E+02
  0
LINE
  8
0
  6
CENTER
 62
2
 10
-1.33010712E+02
 20
1.47636183E+02
 11
-1.33010712E+02
 21
1.25636183E+02
  0
LINE
  8
0
 62
7
 10
-1.33010712E+02
 20
1.44136183E+02
 11
-1.25010712E+02
 21
1.44136183E+02
  0
LINE
  8
0
 62
7
 10
-2.23010712E+02
 20
1.44136183E+02
 11
-2.31010712E+02
 21
1.44136183E+02
  0
LINE
  8
0
 62
7
 10
-2.23010712E+02
 20
2.19136183E+02
 11
-2.31010712E+02
 21
2.19136183E+02
  0
LINE
  8
0
 62
7
 10
-1.33010712E+02
 20
2.19136183E+02
 11
-1.25010712E+02
 21
2.19136183E+02
  0
LINE
  8
0
 62
7
 10
-2.15510712E+02
 20
2.26636183E+02
 11
-2.15510712E+02
 21
2.34636183E+02
  0
LINE
  8
0
 62
7
 10
-1.40510712E+02
 20
2.26636183E+02
 11
-1.40510712E+02
 21
2.34636183E+02
  0
LINE
  8
0
 62
7
 10
-1.40510712E+02
 20
1.36636183E+02
 11
-1.40510712E+02
 21
1.28636183E+02
  0
LINE
  8
0
 62
7
 10
-2.15510712E+02
 20
1.36636183E+02
 11
-2.15510712E+02
 21
1.28636183E+02
  0
LINE
  8
0
 62
7
 10
-2.29010712E+02
 20
1.84636183E+02
 11
-2.29010712E+02
 21
1.78636183E+02
  0
LINE
  8
0
 62
7
 10
-2.29010712E+02
 20
1.84636183E+02
 11
-2.20770712E+02
 21
1.81636183E+02
  0
LINE
  8
0
 62
7
 10
-2.29010712E+02
 20
1.78636183E+02
 11
-2.20770712E+02
 21
1.81636183E+02
  0
LINE
  8
0
  6
CENTER
 62
2
 10
-2.13010712E+02
 20
1.91636183E+02
 11
-2.13010712E+02
 21
1.71636183E+02
  0
LINE
  8
0
  6
CENTER
 62
2
 10
-1.43010712E+02
 20
1.91636183E+02
 11
-1.43010712E+02
 21
1.71636183E+02
  0
LINE
  8
0
  6
PHANTOM
 62
6
 10
-2.32010712E+02
 20
2.58636183E+02
 11
-1.24010712E+02
 21
2.58636183E+02
  0
LINE
  8
0
  6
PHANTOM
 62
6
 10
-1.24010712E+02
 20
2.11636183E+02
 11
-1.24010712E+02
 21
2.58636183E+02
  0
LINE
  8
0
  6
PHANTOM
 62
6
 10
-2.32010712E+02
 20
2.11636183E+02
 11
-2.32010712E+02
 21
2.58636183E+02
  0
LINE
  8
0
  6
PHANTOM
 62
6
 10
-2.29010712E+02
 20
2.08636183E+02
 11
-2.16470712E+02
 21
2.08636183E+02
  0
LINE
  8
0
  6
PHANTOM
 62
6
 10
-2.32010712E+02
 20
2.11636183E+02
 11
-2.29010712E+02
 21
2.08636183E+02
  0
LINE
  8
0
  6
PHANTOM
 62
6
 10
-1.27010712E+02
 20
2.08636183E+02
 11
-1.24010712E+02
 21
2.11636183E+02
  0
LINE
  8
0
  6
PHANTOM
 62
6
 10
-2.32010712E+02
 20
2.55436183E+02
 11
-1.24010712E+02
 21
2.55436183E+02
  0
LINE
  8
0
  6
PHANTOM
 62
6
 10
-2.27010712E+02
 20
2.55436183E+02
 11
-2.27010712E+02
 21
2.58636183E+02
  0
LINE
  8
0
  6
PHANTOM
 62
6
 10
-1.29010712E+02
 20
2.55436183E+02
 11
-1.29010712E+02
 21
2.58636183E+02
  0
LINE
  8
0
  6
PHANTOM
 62
6
 10
-1.39530712E+02
 20
2.08636183E+02
 11
-1.27010712E+02
 21
2.08636183E+02
  0
ARC
  8
0
 62
7
 10
-2.23017368E+02
 20
2.26642838E+02
 40
9.99334672E+00
 50
8.99618412E+01
 51
1.80038159E+02
  0
ARC
  8
0
 62
7
 10
-1.33006256E+02
 20
2.26640638E+02
 40
9.99554520E+00
 50
3.59974459E+02
 51
9.00255409E+01
  0
ARC
  8
0
 62
7
 10
-1.33017370E+02
 20
1.36642840E+02
 40
1.00066597E+01
 50
2.70038119E+02
 51
3.59961881E+02
  0
ARC
  8
0
 62
7
 10
-2.23006252E+02
 20
1.36640643E+02
 40
1.00044612E+01
 50
1.80025544E+02
 51
2.69974456E+02
  0
ARC
  8
0
 62
7
 10
-1.78000712E+02
 20
1.81647296E+02
 40
4.49883601E+01
 50
3.37418712E+01
 51
1.46258129E+02
  0
ARC
  8
0
 62
7
 10
-1.78000712E+02
 20
1.81647298E+02
 40
4.50007110E+01
 50
2.13765406E+02
 51
3.26234594E+02
  0
ARC
  8
0
 62
7
 10
-1.78010712E+02
 20
1.81647297E+02
 40
4.23727837E+01
 50
3.61384931E+01
 51
1.43861507E+02
  0
ARC
  8
0
 62
7
 10
-1.78000712E+02
 20
1.81647296E+02
 40
4.36833303E+01
 50
3.48930425E+01
 51
1.45106958E+02
  0
ARC
  8
0
 62
7
 10
-1.78010712E+02
 20
1.81647297E+02
 40
4.23858968E+01
 50
2.16162760E+02
 51
3.23837240E+02
  0
ARC
  8
0
 62
7
 10
-1.78000712E+02
 20
1.81647298E+02
 40
4.36960501E+01
 50
2.14916950E+02
 51
3.25083050E+02
  0
ARC
  8
0
 62
7
 10
-2.23017370E+02
 20
2.26642840E+02
 40
7.50666077E+00
 50
2.70050817E+02
 51
3.59949183E+02
  0
ARC
  8
0
 62
7
 10
-1.33006251E+02
 20
2.26640643E+02
 40
7.50446229E+00
 50
1.80034059E+02
 51
2.69965941E+02
  0
ARC
  8
0
 62
7
 10
-1.33017367E+02
 20
1.36642838E+02
 40
7.49334779E+00
 50
8.99491129E+01
 51
1.80050887E+02
  0
ARC
  8
0
 62
7
 10
-2.23006257E+02
 20
1.36640638E+02
 40
7.49554627E+00
 50
3.59965946E+02
 51
9.00340545E+01
  0
ARC
  8
0
 62
7
 10
-2.13506243E+02
 20
1.28640652E+02
 40
2.00447407E+00
 50
1.80127744E+02
 51
2.69872256E+02
  0
ARC
  8
0
 62
7
 10
-1.42517374E+02
 20
1.28642844E+02
 40
2.00667252E+00
 50
2.70190202E+02
 51
3.59809798E+02
  0
ARC
  8
0
 62
7
 10
-1.25017374E+02
 20
1.46142844E+02
 40
2.00667252E+00
 50
2.70190202E+02
 51
3.59809798E+02
  0
ARC
  8
0
 62
7
 10
-1.25006296E+02
 20
2.17140599E+02
 40
1.99558837E+00
 50
3.59873197E+02
 51
9.01268038E+01
  0
ARC
  8
0
 62
7
 10
-1.42506265E+02
 20
2.34640629E+02
 40
1.99555802E+00
 50
3.59872321E+02
 51
9.01276787E+01
  0
ARC
  8
0
 62
7
 10
-2.13517364E+02
 20
2.34642834E+02
 40
1.99335957E+00
 50
8.98088128E+01
 51
1.80191187E+02
  0
ARC
  8
0
 62
7
 10
-2.31017333E+02
 20
2.17142804E+02
 40
1.99338992E+00
 50
8.98096905E+01
 51
1.80190309E+02
  0
ARC
  8
0
 62
7
 10
-2.31006243E+02
 20
1.46140652E+02
 40
2.00447407E+00
 50
1.80127744E+02
 51
2.69872256E+02
  0
CIRCLE
  8
0
 62
6
 10
-2.13012911E+02
 20
1.81647297E+02
 40
5.72250366E+00
  0
CIRCLE
  8
0
 62
4
 10
-2.13012911E+02
 20
1.81647297E+02
 40
6.57850647E+00
  0
CIRCLE
  8
0
 62
4
 10
-1.43012911E+02
 20
1.81647297E+02
 40
6.57850647E+00
  0
CIRCLE
  8
0
 62
6
 10
-1.43012911E+02
 20
1.81647297E+02
 40
5.72250366E+00
  0
ARC
  8
0
  6
PHANTOM
 62
6
 10
-2.13000712E+02
 20
2.55447286E+02
 40
7.99978532E+00
 50
1.86395501E+02
 51
3.53604499E+02
  0
ARC
  8
0
  6
PHANTOM
 62
6
 10
-2.04068098E+02
 20
2.54447758E+02
 40
9.88577831E-01
 50
8.89922906E+01
 51
1.73703264E+02
  0
ARC
  8
0
  6
PHANTOM
 62
6
 10
-2.21944050E+02
 20
2.54435572E+02
 40
1.00063318E+00
 50
6.92296149E+00
 51
9.03814841E+01
  0
ARC
  8
0
  6
PHANTOM
 62
6
 10
-1.34068098E+02
 20
2.54447758E+02
 40
9.88577831E-01
 50
8.89922906E+01
 51
1.73703264E+02
  0
ARC
  8
0
  6
PHANTOM
 62
6
 10
-1.43000712E+02
 20
2.55447286E+02
 40
7.99978532E+00
 50
1.86395501E+02
 51
3.53604499E+02
  0
ARC
  8
0
  6
PHANTOM
 62
6
 10
-1.51944050E+02
 20
2.54435572E+02
 40
1.00063318E+00
 50
6.92296149E+00
 51
9.03814841E+01
  0
ARC
  8
0
  6
PHANTOM
 62
6
 10
-1.78000712E+02
 20
1.81647296E+02
 40
4.69929877E+01
 50
3.50518372E+01
 51
1.44948163E+02
  0
CIRCLE
  8
0
 62
7
 10
-2.23012911E+02
 20
1.36647297E+02
 40
3.46410084E+00
  0
CIRCLE
  8
0
 62
7
 10
-2.23012911E+02
 20
1.36647297E+02
 40
5.63397503E+00
  0
CIRCLE
  8
0
 62
7
 10
-2.23012911E+02
 20
1.36647297E+02
 40
6.50000000E+00
  0
LINE
  8
0
 62
7
 10
-2.20012911E+02
 20
1.38377297E+02
 11
-2.20012911E+02
 21
1.34917297E+02
  0
LINE
  8
0
 62
7
 10
-2.23012911E+02
 20
1.33187297E+02
 11
-2.20012911E+02
 21
1.34917297E+02
  0
LINE
  8
0
 62
7
 10
-2.26012911E+02
 20
1.34917297E+02
 11
-2.23012911E+02
 21
1.33187297E+02
  0
LINE
  8
0
 62
7
 10
-2.26012911E+02
 20
1.38377297E+02
 11
-2.26012911E+02
 21
1.34917297E+02
  0
LINE
  8
0
 62
7
 10
-2.26012911E+02
 20
1.38377297E+02
 11
-2.23012911E+02
 21
1.40107297E+02
  0
LINE
  8
0
 62
7
 10
-2.23012911E+02
 20
1.40107297E+02
 11
-2.20012911E+02
 21
1.38377297E+02
  0
CIRCLE
  8
0
 62
7
 10
-1.33012911E+02
 20
1.36647297E+02
 40
3.46410084E+00
  0
CIRCLE
  8
0
 62
7
 10
-1.33012911E+02
 20
1.36647297E+02
 40
5.63397503E+00
  0
CIRCLE
  8
0
 62
7
 10
-1.33012911E+02
 20
1.36647297E+02
 40
6.50000000E+00
  0
LINE
  8
0
 62
7
 10
-1.30012911E+02
 20
1.38377297E+02
 11
-1.30012911E+02
 21
1.34917297E+02
  0
LINE
  8
0
 62
7
 10
-1.33012911E+02
 20
1.33187297E+02
 11
-1.30012911E+02
 21
1.34917297E+02
  0
LINE
  8
0
 62
7
 10
-1.36012911E+02
 20
1.34917297E+02
 11
-1.33012911E+02
 21
1.33187297E+02
  0
LINE
  8
0
 62
7
 10
-1.36012911E+02
 20
1.38377297E+02
 11
-1.36012911E+02
 21
1.34917297E+02
  0
LINE
  8
0
 62
7
 10
-1.36012911E+02
 20
1.38377297E+02
 11
-1.33012911E+02
 21
1.40107297E+02
  0
LINE
  8
0
 62
7
 10
-1.33012911E+02
 20
1.40107297E+02
 11
-1.30012911E+02
 21
1.38377297E+02
  0
CIRCLE
  8
0
 62
7
 10
-1.33012911E+02
 20
2.26647297E+02
 40
3.46410084E+00
  0
CIRCLE
  8
0
 62
7
 10
-1.33012911E+02
 20
2.26647297E+02
 40
5.63397503E+00
  0
CIRCLE
  8
0
 62
7
 10
-1.33012911E+02
 20
2.26647297E+02
 40
6.50000000E+00
  0
LINE
  8
0
 62
7
 10
-1.30012911E+02
 20
2.28377297E+02
 11
-1.30012911E+02
 21
2.24917297E+02
  0
LINE
  8
0
 62
7
 10
-1.33012911E+02
 20
2.23187297E+02
 11
-1.30012911E+02
 21
2.24917297E+02
  0
LINE
  8
0
 62
7
 10
-1.36012911E+02
 20
2.24917297E+02
 11
-1.33012911E+02
 21
2.23187297E+02
  0
LINE
  8
0
 62
7
 10
-1.36012911E+02
 20
2.28377297E+02
 11
-1.36012911E+02
 21
2.24917297E+02
  0
LINE
  8
0
 62
7
 10
-1.36012911E+02
 20
2.28377297E+02
 11
-1.33012911E+02
 21
2.30107297E+02
  0
LINE
  8
0
 62
7
 10
-1.33012911E+02
 20
2.30107297E+02
 11
-1.30012911E+02
 21
2.28377297E+02
  0
CIRCLE
  8
0
 62
7
 10
-2.23012911E+02
 20
2.26647297E+02
 40
3.46410084E+00
  0
CIRCLE
  8
0
 62
7
 10
-2.23012911E+02
 20
2.26647297E+02
 40
5.63397503E+00
  0
CIRCLE
  8
0
 62
7
 10
-2.23012911E+02
 20
2.26647297E+02
 40
6.50000000E+00
  0
LINE
  8
0
 62
7
 10
-2.20012911E+02
 20
2.28377297E+02
 11
-2.20012911E+02
 21
2.24917297E+02
  0
LINE
  8
0
 62
7
 10
-2.23012911E+02
 20
2.23187297E+02
 11
-2.20012911E+02
 21
2.24917297E+02
  0
LINE
  8
0
 62
7
 10
-2.26012911E+02
 20
2.24917297E+02
 11
-2.23012911E+02
 21
2.23187297E+02
  0
LINE
  8
0
 62
7
 10
-2.26012911E+02
 20
2.28377297E+02
 11
-2.26012911E+02
 21
2.24917297E+02
  0
LINE
  8
0
 62
7
 10
-2.26012911E+02
 20
2.28377297E+02
 11
-2.23012911E+02
 21
2.30107297E+02
  0
LINE
  8
0
 62
7
 10
-2.23012911E+02
 20
2.30107297E+02
 11
-2.20012911E+02
 21
2.28377297E+02
  0
LINE
  8
0
 62
7
 10
-2.29012911E+02
 20
1.78647297E+02
 11
-2.20772911E+02
 21
1.81647297E+02
  0
LINE
  8
0
 62
7
 10
-2.29012911E+02
 20
1.84647297E+02
 11
-2.20772911E+02
 21
1.81647297E+02
  0
LINE
  8
0
 62
7
 10
-2.29012911E+02
 20
1.84647297E+02
 11
-2.29012911E+02
 21
1.78647297E+02
  0
LINE
  8
0
  6
CENTER
 62
6
 10
2.94969288E+02
 20
9.30761825E+01
 11
2.94969288E+02
 21
6.70761825E+01
  0
LINE
  8
0
 62
4
 10
2.18309288E+02
 20
7.40761825E+01
 11
2.18389288E+02
 21
7.10761825E+01
  0
LINE
  8
0
 62
6
 10
2.19249288E+02
 20
7.40761825E+01
 11
2.19249288E+02
 21
7.10761825E+01
  0
LINE
  8
0
 62
6
 10
2.30689288E+02
 20
7.40761825E+01
 11
2.30689288E+02
 21
7.10761825E+01
  0
LINE
  8
0
 62
4
 10
2.31649288E+02
 20
7.40761825E+01
 11
2.31549288E+02
 21
7.10761825E+01
  0
LINE
  8
0
  6
CENTER
 62
6
 10
2.24969288E+02
 20
1.26076183E+02
 11
2.24969288E+02
 21
6.70761825E+01
  0
LINE
  8
0
  6
CENTER
 62
6
 10
1.97469288E+02
 20
9.90761825E+01
 11
2.52469288E+02
 21
9.90761825E+01
  0
LINE
  8
0
 62
4
 10
2.12469288E+02
 20
9.40961825E+01
 11
2.23509288E+02
 21
9.81161825E+01
  0
LINE
  8
0
 62
4
 10
2.12449288E+02
 20
9.41161825E+01
 11
2.23249288E+02
 21
9.87361825E+01
  0
LINE
  8
0
 62
4
 10
2.31969288E+02
 20
1.02476183E+02
 11
2.32449288E+02
 21
1.01376183E+02
  0
LINE
  8
0
 62
4
 10
2.26389288E+02
 20
1.00096183E+02
 11
2.31969288E+02
 21
1.02476183E+02
  0
LINE
  8
0
 62
4
 10
2.26709288E+02
 20
9.92761825E+01
 11
2.32449288E+02
 21
1.01376183E+02
  0
LINE
  8
0
 62
4
 10
2.88389288E+02
 20
7.20761825E+01
 11
2.88389288E+02
 21
7.10761825E+01
  0
LINE
  8
0
 62
4
 10
3.01549288E+02
 20
7.20761825E+01
 11
3.01549288E+02
 21
7.10761825E+01
  0
LINE
  8
0
 62
4
 10
3.01969288E+02
 20
7.70761825E+01
 11
2.87969288E+02
 21
7.70761825E+01
  0
LINE
  8
0
 62
4
 10
2.87969288E+02
 20
7.70761825E+01
 11
2.86889288E+02
 21
7.64361825E+01
  0
LINE
  8
0
 62
4
 10
2.86889288E+02
 20
7.64361825E+01
 11
2.86889288E+02
 21
7.20761825E+01
  0
LINE
  8
0
 62
4
 10
3.03049288E+02
 20
7.20761825E+01
 11
2.86889288E+02
 21
7.20761825E+01
  0
LINE
  8
0
 62
4
 10
2.90929288E+02
 20
7.64361825E+01
 11
2.90929288E+02
 21
7.20761825E+01
  0
LINE
  8
0
 62
4
 10
2.99009288E+02
 20
7.64361825E+01
 11
2.99009288E+02
 21
7.20761825E+01
  0
LINE
  8
0
 62
4
 10
3.01969288E+02
 20
7.70761825E+01
 11
3.03049288E+02
 21
7.64361825E+01
  0
LINE
  8
0
 62
4
 10
3.03049288E+02
 20
7.64361825E+01
 11
3.03049288E+02
 21
7.20761825E+01
  0
LINE
  8
0
 62
4
 10
2.98469288E+02
 20
8.10761825E+01
 11
2.98469288E+02
 21
7.70761825E+01
  0
LINE
  8
0
 62
4
 10
2.91469288E+02
 20
8.10761825E+01
 11
2.91469288E+02
 21
7.70761825E+01
  0
LINE
  8
0
 62
4
 10
2.99849288E+02
 20
9.00761825E+01
 11
2.90089288E+02
 21
9.00761825E+01
  0
LINE
  8
0
 62
4
 10
2.89229288E+02
 20
8.95761825E+01
 11
2.89229288E+02
 21
8.15761825E+01
  0
LINE
  8
0
 62
4
 10
3.00729288E+02
 20
8.95761825E+01
 11
3.00729288E+02
 21
8.15761825E+01
  0
LINE
  8
0
 62
4
 10
2.97729288E+02
 20
8.95761825E+01
 11
2.97729288E+02
 21
8.15761825E+01
  0
LINE
  8
0
 62
4
 10
2.92229288E+02
 20
8.95761825E+01
 11
2.92229288E+02
 21
8.15761825E+01
  0
LINE
  8
0
 62
4
 10
2.89229288E+02
 20
8.95761825E+01
 11
2.90089288E+02
 21
9.00761825E+01
  0
LINE
  8
0
 62
4
 10
3.00729288E+02
 20
8.95761825E+01
 11
2.99849288E+02
 21
9.00761825E+01
  0
LINE
  8
0
 62
4
 10
2.89229288E+02
 20
8.15761825E+01
 11
2.90089288E+02
 21
8.10761825E+01
  0
LINE
  8
0
 62
4
 10
2.99849288E+02
 20
8.10761825E+01
 11
2.90089288E+02
 21
8.10761825E+01
  0
LINE
  8
0
 62
4
 10
3.00729288E+02
 20
8.15761825E+01
 11
2.99849288E+02
 21
8.10761825E+01
  0
LINE
  8
0
 62
4
 10
2.92229288E+02
 20
1.01316183E+02
 11
2.92229288E+02
 21
9.00761825E+01
  0
LINE
  8
0
 62
4
 10
2.97729288E+02
 20
1.01316183E+02
 11
2.97729288E+02
 21
9.00761825E+01
  0
LINE
  8
0
 62
4
 10
2.42909288E+02
 20
1.11816183E+02
 11
2.87229288E+02
 21
1.11816183E+02
  0
LINE
  8
0
 62
4
 10
2.45749288E+02
 20
1.06316183E+02
 11
2.87229288E+02
 21
1.06316183E+02
  0
LINE
  8
0
 62
4
 10
2.33469288E+02
 20
7.87761825E+01
 11
2.33469288E+02
 21
7.60761825E+01
  0
LINE
  8
0
 62
4
 10
2.16469288E+02
 20
7.87761825E+01
 11
2.16469288E+02
 21
7.60761825E+01
  0
LINE
  8
0
 62
4
 10
2.16469288E+02
 20
7.60761825E+01
 11
2.33469288E+02
 21
7.60761825E+01
  0
LINE
  8
0
 62
4
 10
2.31729288E+02
 20
7.60761825E+01
 11
2.31729288E+02
 21
7.40761825E+01
  0
LINE
  8
0
 62
4
 10
2.18229288E+02
 20
7.60761825E+01
 11
2.18229288E+02
 21
7.40761825E+01
  0
LINE
  8
0
 62
4
 10
2.18229288E+02
 20
7.40761825E+01
 11
2.31729288E+02
 21
7.40761825E+01
  0
CIRCLE
  8
0
 62
4
 10
2.24980681E+02
 20
9.90761825E+01
 40
2.20000000E+01
  0
CIRCLE
  8
0
 62
4
 10
2.24980681E+02
 20
9.90761825E+01
 40
2.05000000E+01
  0
CIRCLE
  8
0
 62
4
 10
2.24980681E+02
 20
9.90761825E+01
 40
1.45000000E+01
  0
CIRCLE
  8
0
 62
4
 10
2.24980681E+02
 20
9.90761825E+01
 40
1.50000000E+00
  0
CIRCLE
  8
0
 62
4
 10
2.24980681E+02
 20
9.90761825E+01
 40
1.75000012E+00
  0
ARC
  8
0
 62
4
 10
2.12471024E+02
 20
9.41179189E+01
 40
2.18055625E-02
 50
1.84567156E+02
 51
2.65432843E+02
  0
ARC
  8
0
 62
4
 10
2.88907254E+02
 20
7.34988950E+01
 40
3.56598922E+00
 50
5.54564085E+01
 51
1.15549288E+02
  0
ARC
  8
0
 62
4
 10
2.94969288E+02
 20
6.37013916E+01
 40
1.33602583E+01
 50
7.23988295E+01
 51
1.07601170E+02
  0
ARC
  8
0
 62
4
 10
3.01040054E+02
 20
7.34978102E+01
 40
3.57184051E+00
 50
6.42951511E+01
 51
1.24649109E+02
  0
ARC
  8
0
 62
4
 10
2.94979288E+02
 20
8.22637129E+01
 40
7.81247154E+00
 50
6.93902287E+01
 51
1.10609772E+02
  0
ARC
  8
0
 62
4
 10
2.90747459E+02
 20
8.75742689E+01
 40
2.49067771E+00
 50
5.34909248E+01
 51
1.13625875E+02
  0
ARC
  8
0
 62
4
 10
2.99211153E+02
 20
8.75739481E+01
 40
2.49095711E+00
 50
6.63778453E+01
 51
1.26505355E+02
  0
ARC
  8
0
 62
4
 10
2.90729236E+02
 20
8.35759471E+01
 40
2.49984293E+00
 50
2.46920763E+02
 51
3.06874092E+02
  0
ARC
  8
0
 62
4
 10
2.94979288E+02
 20
8.88886216E+01
 40
7.81244297E+00
 50
2.49390150E+02
 51
2.90609851E+02
  0
ARC
  8
0
 62
4
 10
2.99229379E+02
 20
8.35762718E+01
 40
2.50012629E+00
 50
2.33129654E+02
 51
2.93075491E+02
  0
ARC
  8
0
 62
4
 10
2.87234952E+02
 20
1.01321847E+02
 40
4.99433920E+00
 50
3.59935022E+02
 51
9.00649782E+01
  0
ARC
  8
0
 62
4
 10
2.87234953E+02
 20
1.01321848E+02
 40
1.04943365E+01
 50
3.59969071E+02
 51
9.00309290E+01
  0
LINE
  8
0
 62
4
 10
2.52389288E+02
 20
-1.66583817E+02
 11
2.67549288E+02
 21
-1.66583817E+02
  0
LINE
  8
0
 62
4
 10
2.68049288E+02
 20
-1.61183817E+02
 11
2.68049288E+02
 21
-1.66083817E+02
  0
LINE
  8
0
 62
4
 10
2.51889288E+02
 20
-1.61183817E+02
 11
2.51889288E+02
 21
-1.66083817E+02
  0
LINE
  8
0
 62
4
 10
2.53229288E+02
 20
-1.81283817E+02
 11
2.66729288E+02
 21
-1.81283817E+02
  0
LINE
  8
0
 62
4
 10
2.52229288E+02
 20
-1.68283817E+02
 11
2.52229288E+02
 21
-1.80283817E+02
  0
LINE
  8
0
 62
4
 10
2.67729288E+02
 20
-1.68283817E+02
 11
2.67729288E+02
 21
-1.80283817E+02
  0
LINE
  8
0
 62
4
 10
2.52229288E+02
 20
-1.80283817E+02
 11
2.53229288E+02
 21
-1.81283817E+02
  0
LINE
  8
0
 62
4
 10
2.66729288E+02
 20
-1.81283817E+02
 11
2.67729288E+02
 21
-1.80283817E+02
  0
LINE
  8
0
 62
4
 10
2.52369288E+02
 20
-1.70783817E+02
 11
2.53529288E+02
 21
-1.70783817E+02
  0
LINE
  8
0
 62
4
 10
2.52729288E+02
 20
-1.67783817E+02
 11
2.67229288E+02
 21
-1.67783817E+02
  0
LINE
  8
0
 62
4
 10
2.52229288E+02
 20
-1.68283817E+02
 11
2.52729288E+02
 21
-1.67783817E+02
  0
LINE
  8
0
 62
4
 10
2.67229288E+02
 20
-1.67783817E+02
 11
2.67729288E+02
 21
-1.68283817E+02
  0
LINE
  8
0
 62
4
 10
2.53969288E+02
 20
-1.66583817E+02
 11
2.53969288E+02
 21
-1.67783817E+02
  0
LINE
  8
0
 62
4
 10
2.65969288E+02
 20
-1.66583817E+02
 11
2.65969288E+02
 21
-1.67783817E+02
  0
LINE
  8
0
 62
4
 10
2.51889288E+02
 20
-1.66083817E+02
 11
2.52389288E+02
 21
-1.66583817E+02
  0
LINE
  8
0
 62
4
 10
2.68049288E+02
 20
-1.66083817E+02
 11
2.67549288E+02
 21
-1.66583817E+02
  0
LINE
  8
0
 62
4
 10
2.51889288E+02
 20
-1.66083817E+02
 11
2.68049288E+02
 21
-1.66083817E+02
  0
LINE
  8
0
 62
4
 10
2.52229288E+02
 20
-1.68283817E+02
 11
2.67729288E+02
 21
-1.68283817E+02
  0
LINE
  8
0
 62
4
 10
2.53969288E+02
 20
-1.82683817E+02
 11
2.65969288E+02
 21
-1.82683817E+02
  0
LINE
  8
0
 62
4
 10
2.53469288E+02
 20
-1.81283817E+02
 11
2.53469288E+02
 21
-1.82183817E+02
  0
LINE
  8
0
 62
4
 10
2.66469288E+02
 20
-1.81283817E+02
 11
2.66469288E+02
 21
-1.82183817E+02
  0
LINE
  8
0
 62
4
 10
2.53469288E+02
 20
-1.82183817E+02
 11
2.53969288E+02
 21
-1.82683817E+02
  0
LINE
  8
0
 62
4
 10
2.66469288E+02
 20
-1.82183817E+02
 11
2.65969288E+02
 21
-1.82683817E+02
  0
LINE
  8
0
 62
4
 10
2.53469288E+02
 20
-1.82183817E+02
 11
2.66469288E+02
 21
-1.82183817E+02
  0
LINE
  8
0
 62
4
 10
2.52369288E+02
 20
-1.71083817E+02
 11
2.52969288E+02
 21
-1.71083817E+02
  0
LINE
  8
0
 62
4
 10
2.52229288E+02
 20
-1.80283817E+02
 11
2.52369288E+02
 21
-1.80283817E+02
  0
LINE
  8
0
 62
4
 10
2.58469288E+02
 20
-1.70783817E+02
 11
2.58469288E+02
 21
-1.80283817E+02
  0
LINE
  8
0
 62
4
 10
2.61469288E+02
 20
-1.70783817E+02
 11
2.61469288E+02
 21
-1.80283817E+02
  0
LINE
  8
0
 62
4
 10
2.61469288E+02
 20
-1.70783817E+02
 11
2.64289288E+02
 21
-1.70783817E+02
  0
LINE
  8
0
 62
4
 10
2.61809288E+02
 20
-1.71083817E+02
 11
2.63629288E+02
 21
-1.71083817E+02
  0
LINE
  8
0
 62
4
 10
2.58469288E+02
 20
-1.80283817E+02
 11
2.61469288E+02
 21
-1.80283817E+02
  0
LINE
  8
0
 62
4
 10
2.64289288E+02
 20
-1.80283817E+02
 11
2.66409288E+02
 21
-1.80283817E+02
  0
LINE
  8
0
 62
4
 10
2.52729288E+02
 20
-1.80783817E+02
 11
2.52969288E+02
 21
-1.80783817E+02
  0
LINE
  8
0
 62
4
 10
2.61809288E+02
 20
-1.71083817E+02
 11
2.61809288E+02
 21
-1.80783817E+02
  0
LINE
  8
0
 62
4
 10
2.58129288E+02
 20
-1.71083817E+02
 11
2.58129288E+02
 21
-1.80783817E+02
  0
LINE
  8
0
 62
4
 10
2.58129288E+02
 20
-1.80783817E+02
 11
2.61809288E+02
 21
-1.80783817E+02
  0
LINE
  8
0
 62
4
 10
2.63629288E+02
 20
-1.80783817E+02
 11
2.66409288E+02
 21
-1.80783817E+02
  0
LINE
  8
0
 62
4
 10
2.63629288E+02
 20
-1.71083817E+02
 11
2.63629288E+02
 21
-1.80783817E+02
  0
LINE
  8
0
 62
4
 10
2.56309288E+02
 20
-1.71083817E+02
 11
2.56309288E+02
 21
-1.80783817E+02
  0
LINE
  8
0
 62
4
 10
2.55649288E+02
 20
-1.70783817E+02
 11
2.55649288E+02
 21
-1.80283817E+02
  0
LINE
  8
0
 62
4
 10
2.64289288E+02
 20
-1.70783817E+02
 11
2.64289288E+02
 21
-1.80283817E+02
  0
LINE
  8
0
 62
4
 10
2.66409288E+02
 20
-1.70783817E+02
 11
2.67569288E+02
 21
-1.70783817E+02
  0
LINE
  8
0
 62
4
 10
2.66989288E+02
 20
-1.71083817E+02
 11
2.67569288E+02
 21
-1.71083817E+02
  0
LINE
  8
0
 62
4
 10
2.55649288E+02
 20
-1.70783817E+02
 11
2.58469288E+02
 21
-1.70783817E+02
  0
LINE
  8
0
 62
4
 10
2.56309288E+02
 20
-1.71083817E+02
 11
2.58129288E+02
 21
-1.71083817E+02
  0
LINE
  8
0
 62
4
 10
2.53529288E+02
 20
-1.80283817E+02
 11
2.55649288E+02
 21
-1.80283817E+02
  0
LINE
  8
0
 62
4
 10
2.53529288E+02
 20
-1.80783817E+02
 11
2.56309288E+02
 21
-1.80783817E+02
  0
LINE
  8
0
 62
4
 10
2.67569288E+02
 20
-1.80283817E+02
 11
2.67729288E+02
 21
-1.80283817E+02
  0
LINE
  8
0
 62
4
 10
2.66989288E+02
 20
-1.80783817E+02
 11
2.67229288E+02
 21
-1.80783817E+02
  0
LINE
  8
0
 62
4
 10
2.53529288E+02
 20
-1.70783817E+02
 11
2.53529288E+02
 21
-1.80783817E+02
  0
LINE
  8
0
 62
4
 10
2.66409288E+02
 20
-1.70783817E+02
 11
2.66409288E+02
 21
-1.80783817E+02
  0
LINE
  8
0
 62
4
 10
2.52969288E+02
 20
-1.71083817E+02
 11
2.52969288E+02
 21
-1.80783817E+02
  0
LINE
  8
0
 62
4
 10
2.66989288E+02
 20
-1.71083817E+02
 11
2.66989288E+02
 21
-1.80783817E+02
  0
LINE
  8
0
 62
4
 10
2.52369288E+02
 20
-1.70783817E+02
 11
2.52369288E+02
 21
-1.80283817E+02
  0
LINE
  8
0
 62
4
 10
2.67569288E+02
 20
-1.70783817E+02
 11
2.67569288E+02
 21
-1.80283817E+02
  0
LINE
  8
0
 62
4
 10
2.58129288E+02
 20
-1.71083817E+02
 11
2.58469288E+02
 21
-1.70783817E+02
  0
LINE
  8
0
 62
4
 10
2.61469288E+02
 20
-1.70783817E+02
 11
2.61809288E+02
 21
-1.71083817E+02
  0
LINE
  8
0
 62
4
 10
2.61469288E+02
 20
-1.80283817E+02
 11
2.61809288E+02
 21
-1.80783817E+02
  0
LINE
  8
0
 62
4
 10
2.58469288E+02
 20
-1.80283817E+02
 11
2.58129288E+02
 21
-1.80783817E+02
  0
LINE
  8
0
 62
4
 10
2.55649288E+02
 20
-1.70783817E+02
 11
2.56309288E+02
 21
-1.71083817E+02
  0
LINE
  8
0
 62
4
 10
2.63629288E+02
 20
-1.71083817E+02
 11
2.64289288E+02
 21
-1.70783817E+02
  0
LINE
  8
0
 62
4
 10
2.64289288E+02
 20
-1.80283817E+02
 11
2.63629288E+02
 21
-1.80783817E+02
  0
LINE
  8
0
 62
4
 10
2.55649288E+02
 20
-1.80283817E+02
 11
2.56309288E+02
 21
-1.80783817E+02
  0
LINE
  8
0
 62
4
 10
2.52969288E+02
 20
-1.71083817E+02
 11
2.53529288E+02
 21
-1.70863817E+02
  0
LINE
  8
0
 62
4
 10
2.66409288E+02
 20
-1.70863817E+02
 11
2.66989288E+02
 21
-1.71083817E+02
  0
LINE
  8
0
 62
4
 10
2.52369288E+02
 20
-1.80283817E+02
 11
2.52969288E+02
 21
-1.80783817E+02
  0
LINE
  8
0
 62
4
 10
2.67569288E+02
 20
-1.80283817E+02
 11
2.66989288E+02
 21
-1.80783817E+02
  0
LINE
  8
0
 62
4
 10
2.57129288E+02
 20
-1.82683817E+02
 11
2.57129288E+02
 21
-1.84583817E+02
  0
LINE
  8
0
 62
4
 10
2.56729288E+02
 20
-1.84583817E+02
 11
2.63229288E+02
 21
-1.84583817E+02
  0
LINE
  8
0
 62
4
 10
2.56729288E+02
 20
-1.84583817E+02
 11
2.57189288E+02
 21
-1.87183817E+02
  0
LINE
  8
0
 62
4
 10
2.56729288E+02
 20
-1.87183817E+02
 11
2.63229288E+02
 21
-1.87183817E+02
  0
LINE
  8
0
 62
4
 10
2.56729288E+02
 20
-1.87183817E+02
 11
2.57189288E+02
 21
-1.89783817E+02
  0
LINE
  8
0
 62
4
 10
2.57189288E+02
 20
-1.89783817E+02
 11
2.62769288E+02
 21
-1.89783817E+02
  0
LINE
  8
0
 62
4
 10
2.63229288E+02
 20
-1.87183817E+02
 11
2.62769288E+02
 21
-1.89783817E+02
  0
LINE
  8
0
 62
4
 10
2.63229288E+02
 20
-1.84583817E+02
 11
2.62769288E+02
 21
-1.87183817E+02
  0
LINE
  8
0
 62
4
 10
2.62829288E+02
 20
-1.82683817E+02
 11
2.62829288E+02
 21
-1.84583817E+02
  0
TEXT
  8
0
 62
7
 10
2.73843611E+02
 20
-1.92508721E+02
 40
6.30000019E+00
  1
-F1,-A
 41
1.00000000E+00
  7
MONOTXT
  0
TEXT
  8
0
 62
7
 10
2.55941228E+02
 20
1.26288026E+02
 40
6.30000019E+00
  1
-DU
 41
1.00000000E+00
  7
MONOTXT
  0
LINE
  8
0
 62
7
 10
-2.49250000E+02
 20
2.76250000E+02
 11
-2.49250000E+02
 21
2.56250000E+02
  0
TEXT
  8
0
 62
7
 10
-3.58000282E+02
 20
2.58100000E+02
 40
6.30000019E+00
  1
MIST FILTER
 41
1.05769231E+00
  7
MONOTXT
  0
LINE
  8
0
 62
7
 10
2.01469288E+02
 20
7.10761825E+01
 11
3.18469288E+02
 21
7.10761825E+01
  0
LINE
  8
0
 62
7
 10
3.19969288E+02
 20
6.95761825E+01
 11
3.19969288E+02
 21
3.10761825E+01
  0
LINE
  8
0
 62
7
 10
1.99969288E+02
 20
6.95761825E+01
 11
1.99969288E+02
 21
3.10761825E+01
  0
LINE
  8
0
 62
7
 10
1.99969288E+02
 20
6.95761825E+01
 11
2.01469288E+02
 21
7.10761825E+01
  0
LINE
  8
0
 62
7
 10
3.18469288E+02
 20
7.10761825E+01
 11
3.19969288E+02
 21
6.95761825E+01
  0
LINE
  8
0
 62
7
 10
1.99969288E+02
 20
6.95761825E+01
 11
3.19969288E+02
 21
6.95761825E+01
  0
LINE
  8
0
 62
7
 10
2.25749288E+02
 20
6.80761825E+01
 11
2.94189288E+02
 21
6.80761825E+01
  0
LINE
  8
0
 62
7
 10
3.12969288E+02
 20
6.10761825E+01
 11
3.12969288E+02
 21
3.10761825E+01
  0
LINE
  8
0
 62
7
 10
2.98969288E+02
 20
6.10761825E+01
 11
2.98969288E+02
 21
3.10761825E+01
  0
LINE
  8
0
 62
7
 10
2.22909288E+02
 20
3.10761825E+01
 11
2.24149288E+02
 21
6.65761825E+01
  0
LINE
  8
0
 62
7
 10
2.97049288E+02
 20
3.10761825E+01
 11
2.95809288E+02
 21
6.65761825E+01
  0
LINE
  8
0
 62
7
 10
2.24149288E+02
 20
6.65761825E+01
 11
2.25749288E+02
 21
6.80761825E+01
  0
LINE
  8
0
 62
7
 10
2.95809288E+02
 20
6.65761825E+01
 11
2.94189288E+02
 21
6.80761825E+01
  0
LINE
  8
0
 62
7
 10
2.24149288E+02
 20
6.65761825E+01
 11
2.95809288E+02
 21
6.65761825E+01
  0
LINE
  8
0
 62
7
 10
2.98969288E+02
 20
6.10761825E+01
 11
3.12969288E+02
 21
6.10761825E+01
  0
LINE
  8
0
 62
7
 10
2.98969288E+02
 20
3.10761825E+01
 11
3.12969288E+02
 21
3.10761825E+01
  0
LINE
  8
0
 62
7
 10
2.99849288E+02
 20
6.02361825E+01
 11
2.99849288E+02
 21
3.19161825E+01
  0
LINE
  8
0
 62
7
 10
3.12089288E+02
 20
6.02361825E+01
 11
3.12089288E+02
 21
3.19161825E+01
  0
LINE
  8
0
 62
7
 10
2.99849288E+02
 20
6.02361825E+01
 11
3.12089288E+02
 21
6.02361825E+01
  0
LINE
  8
0
 62
7
 10
2.99849288E+02
 20
3.19161825E+01
 11
3.12089288E+02
 21
3.19161825E+01
  0
LINE
  8
0
 62
7
 10
2.98969288E+02
 20
3.10761825E+01
 11
2.99849288E+02
 21
3.19161825E+01
  0
LINE
  8
0
 62
7
 10
3.12089288E+02
 20
3.19161825E+01
 11
3.12969288E+02
 21
3.10761825E+01
  0
LINE
  8
0
 62
7
 10
3.12969288E+02
 20
6.10761825E+01
 11
3.12089288E+02
 21
6.02361825E+01
  0
LINE
  8
0
 62
7
 10
2.98969288E+02
 20
6.10761825E+01
 11
2.99849288E+02
 21
6.02361825E+01
  0
LINE
  8
0
 62
7
 10
2.06969288E+02
 20
6.10761825E+01
 11
2.06969288E+02
 21
3.10761825E+01
  0
LINE
  8
0
 62
7
 10
2.20969288E+02
 20
6.10761825E+01
 11
2.20969288E+02
 21
3.10761825E+01
  0
LINE
  8
0
 62
7
 10
2.20969288E+02
 20
6.10761825E+01
 11
2.06969288E+02
 21
6.10761825E+01
  0
LINE
  8
0
 62
7
 10
2.20969288E+02
 20
3.10761825E+01
 11
2.06969288E+02
 21
3.10761825E+01
  0
LINE
  8
0
 62
7
 10
2.20089288E+02
 20
6.02361825E+01
 11
2.20089288E+02
 21
3.19161825E+01
  0
LINE
  8
0
 62
7
 10
2.07849288E+02
 20
6.02361825E+01
 11
2.07849288E+02
 21
3.19161825E+01
  0
LINE
  8
0
 62
7
 10
2.20089288E+02
 20
6.02361825E+01
 11
2.07849288E+02
 21
6.02361825E+01
  0
LINE
  8
0
 62
7
 10
2.20089288E+02
 20
3.19161825E+01
 11
2.07849288E+02
 21
3.19161825E+01
  0
LINE
  8
0
 62
7
 10
2.20969288E+02
 20
3.10761825E+01
 11
2.20089288E+02
 21
3.19161825E+01
  0
LINE
  8
0
 62
7
 10
2.07849288E+02
 20
3.19161825E+01
 11
2.06969288E+02
 21
3.10761825E+01
  0
LINE
  8
0
 62
7
 10
2.06969288E+02
 20
6.10761825E+01
 11
2.07849288E+02
 21
6.02361825E+01
  0
LINE
  8
0
 62
7
 10
2.20969288E+02
 20
6.10761825E+01
 11
2.20089288E+02
 21
6.02361825E+01
  0
LINE
  8
0
 62
7
 10
2.44589288E+02
 20
-1.61183817E+02
 11
2.75369288E+02
 21
-1.61183817E+02
  0
LINE
  8
0
 62
7
 10
2.28969288E+02
 20
-1.51183817E+02
 11
2.90969288E+02
 21
-1.51183817E+02
  0
LINE
  8
0
 62
7
 10
2.25589288E+02
 20
-1.26003817E+02
 11
2.26409288E+02
 21
-1.49523817E+02
  0
LINE
  8
0
 62
7
 10
2.94369288E+02
 20
-1.26003817E+02
 11
2.93549288E+02
 21
-1.49523817E+02
  0
LINE
  8
0
 62
7
 10
2.27909288E+02
 20
-1.52023817E+02
 11
2.43089288E+02
 21
-1.60783817E+02
  0
LINE
  8
0
 62
7
 10
2.92049288E+02
 20
-1.52023817E+02
 11
2.76869288E+02
 21
-1.60783817E+02
  0
LINE
  8
0
 62
7
 10
2.01469288E+02
 20
7.10761825E+01
 11
2.01469288E+02
 21
3.10761825E+01
  0
LINE
  8
0
 62
7
 10
3.18469288E+02
 20
7.10761825E+01
 11
3.18469288E+02
 21
3.10761825E+01
  0
LINE
  8
0
  6
CENTER
 62
2
 10
2.59969288E+02
 20
7.60761825E+01
 11
2.59969288E+02
 21
3.10761825E+01
  0
LINE
  8
0
  6
CENTER
 62
2
 10
1.95969288E+02
 20
4.60761825E+01
 11
3.23969288E+02
 21
4.60761825E+01
  0
LINE
  8
0
  6
CENTER
 62
2
 10
2.59969288E+02
 20
-1.25903817E+02
 11
2.59969288E+02
 21
-1.93903817E+02
  0
ARC
  8
0
 62
7
 10
2.29404718E+02
 20
-1.49426559E+02
 40
2.99700864E+00
 50
1.81859673E+02
 51
2.40067840E+02
  0
ARC
  8
0
 62
7
 10
2.44582822E+02
 20
-1.58195563E+02
 40
2.98826106E+00
 50
2.40013197E+02
 51
2.70123969E+02
  0
ARC
  8
0
 62
7
 10
2.75375940E+02
 20
-1.58196264E+02
 40
2.98756125E+00
 50
2.69872421E+02
 51
2.99990413E+02
  0
ARC
  8
0
 62
7
 10
2.90555908E+02
 20
-1.49427789E+02
 40
2.99491999E+00
 50
2.99909914E+02
 51
3.58162573E+02
  0
TEXT
  8
0
 62
7
 10
-2.76746505E+02
 20
5.40528389E+01
 40
6.30000019E+00
  1
IN
 41
1.00000000E+00
  7
MONOTXT
  0
TEXT
  8
0
 62
7
 10
-9.32298793E+01
 20
5.40528389E+01
 40
6.30000019E+00
  1
OUT
 41
1.00000000E+00
  7
MONOTXT
  0
LINE
  8
0
 62
7
 10
2.79799927E+02
 20
-2.56750000E+02
 11
3.99799805E+02
 21
-2.56750000E+02
  0
LINE
  8
0
 62
7
 10
2.79799927E+02
 20
-2.56750000E+02
 11
2.79799927E+02
 21
-2.76750000E+02
  0
TEXT
  8
0
 62
7
 10
2.87585240E+02
 20
-2.71250000E+02
 40
9.00000000E+00
  1
KOGANEI CORP.
 41
1.04838710E+00
  7
MONOTXT
  0
TEXT
  8
0
 62
7
 10
3.15499645E+02
 20
2.63100000E+02
 40
6.30000019E+00
  1
Ver. 1.0
 41
1.08108108E+00
  7
MONOTXT
  0
LINE
  8
0
 62
7
 10
2.79799927E+02
 20
2.56250000E+02
 11
3.99799805E+02
 21
2.56250000E+02
  0
LINE
  8
0
 62
7
 10
2.79799927E+02
 20
2.76250000E+02
 11
2.79799927E+02
 21
2.56250000E+02
  0
TEXT
  8
0
 62
7
 10
-3.85600562E+02
 20
2.38100000E+02
 40
6.30000019E+00
  1
MODEL:MF1000-04
 41
1.00000000E+00
  7
MONOTXT
  0
LINE
  8
0
 62
7
 10
-3.99250000E+02
 20
2.56250000E+02
 11
-2.49250000E+02
 21
2.56250000E+02
  0
TEXT
  8
0
 62
7
 10
-3.95800283E+02
 20
2.68100000E+02
 40
6.30000019E+00
  1
F.R.L.LARGE FLOW SERIES
 41
1.05504587E+00
  7
MONOTXT
  0
LINE
  8
0
 62
7
 10
-3.99250000E+02
 20
-2.76750000E+02
 11
3.99799805E+02
 21
-2.76750000E+02
  0
LINE
  8
0
 62
7
 10
-3.99250000E+02
 20
2.76250000E+02
 11
3.99799805E+02
 21
2.76250000E+02
  0
LINE
  8
0
 62
7
 10
-3.99250000E+02
 20
2.76250000E+02
 11
-3.99250000E+02
 21
-2.76750000E+02
  0
LINE
  8
0
 62
7
 10
3.99799805E+02
 20
2.76250000E+02
 11
3.99799805E+02
 21
-2.76750000E+02
  0
ENDSEC
  0
EOF
