  0
SECTION
  2
HEADER
  0
ENDSEC
  0
SECTION
  2
TABLES
  0
TABLE
  2
LTYPE
 70
     4
  0
LTYPE
  2
CONTINUOUS
 70
    64
  3
Solid line
 72
    65
 73
     0
 40
0.000000
  0
LTYPE
  2
DASHED
 70
    64
  3
__ __ __ __ __ __ __ __ __ __ __ __ __ __ __
 72
    65
 73
     2
 40
3.500000
 49
2.000000
 49
-1.500000
  0
LTYPE
  2
CENTER
 70
    64
  3
____ _ ____ _ ____ _ ____ _ ____ _ ____ _ ____
 72
    65
 73
     4
 40
17.500000
 49
13.000000
 49
-1.500000
 49
1.500000
 49
-1.500000
  0
LTYPE
  2
PHANTOM
 70
    64
  3
_____ _ _ _____ _ _ _____ _ _ _____ _ _ ____  
 72
    65
 73
     6
 40
15.500000
 49
8.000000
 49
-1.500000
 49
1.500000
 49
-1.500000
 49
1.500000
 49
-1.500000
  0
LTYPE
  2
DASHED1
 70
    64
  3
__ __ __ __ __ __ __ __ __ __ __ __ __ __ __
 72
    65
 73
     2
 40
1.500000
 49
1.000000
 49
-0.500000
  0
LTYPE
  2
DASHED2
 70
    64
  3
__ __ __ __ __ __ __ __ __ __ __ __ __ __ __
 72
    65
 73
     2
 40
3.500000
 49
2.500000
 49
-1.000000
  0
LTYPE
  2
DASHED3
 70
    64
  3
__ __ __ __ __ __ __ __ __ __ __ __ __ __ __
 72
    65
 73
     2
 40
6.000000
 49
4.000000
 49
-2.000000
  0
LTYPE
  2
DASHED4
 70
    64
  3
__ __ __ __ __ __ __ __ __ __ __ __ __ __ __
 72
    65
 73
     2
 40
12.000000
 49
10.000000
 49
-2.000000
  0
LTYPE
  2
DASHED5
 70
    64
  3
__ __ __ __ __ __ __ __ __ __ __ __ __ __ __
 72
    65
 73
     2
 40
17.000000
 49
15.000000
 49
-2.000000
  0
LTYPE
  2
DASHED6
 70
    64
  3
__ __ __ __ __ __ __ __ __ __ __ __ __ __ __
 72
    65
 73
     2
 40
29.000000
 49
27.000000
 49
-2.000000
  0
LTYPE
  2
PHANTOM1
 70
    64
  3
_____ _ _ _____ _ _ _____ _ _ _____ _ _ ____  
 72
    65
 73
     6
 40
31.000000
 49
25.000000
 49
-1.500000
 49
1.000000
 49
-1.000000
 49
1.000000
 49
-1.500000
  0
LTYPE
  2
PHANTOM2
 70
    64
  3
_____ _ _ _____ _ _ _____ _ _ _____ _ _ ____  
 72
    65
 73
     6
 40
36.000000
 49
27.000000
 49
-1.500000
 49
2.500000
 49
-1.000000
 49
2.500000
 49
-1.500000
  0
LTYPE
  2
PHANTOM3
 70
    64
  3
_____ _ _ _____ _ _ _____ _ _ _____ _ _ ____  
 72
    65
 73
     6
 40
78.000000
 49
64.000000
 49
-2.000000
 49
4.000000
 49
-2.000000
 49
4.000000
 49
-2.000000
  0
LTYPE
  2
CENTER1
 70
    64
  3
____ _ ____ _ ____ _ ____ _ ____ _ ____ _ ____
 72
    65
 73
     4
 40
19.000000
 49
14.000000
 49
-1.000000
 49
3.000000
 49
-1.000000
  0
LTYPE
  2
CENTER2
 70
    64
  3
____ _ ____ _ ____ _ ____ _ ____ _ ____ _ ____
 72
    65
 73
     4
 40
28.500000
 49
25.000000
 49
-1.000000
 49
1.500000
 49
-1.000000
  0
LTYPE
  2
CENTER3
 70
    64
  3
____ _ ____ _ ____ _ ____ _ ____ _ ____ _ ____
 72
    65
 73
     4
 40
31.500000
 49
27.000000
 49
-1.000000
 49
2.500000
 49
-1.000000
  0
LTYPE
  2
CENTER4
 70
    64
  3
____ _ ____ _ ____ _ ____ _ ____ _ ____ _ ____
 72
    65
 73
     4
 40
50.000000
 49
45.000000
 49
-1.000000
 49
3.000000
 49
-1.000000
  0
LTYPE
  2
CENTER5
 70
    64
  3
____ _ ____ _ ____ _ ____ _ ____ _ ____ _ ____
 72
    65
 73
     4
 40
100.000000
 49
92.000000
 49
-2.000000
 49
4.000000
 49
-2.000000
  0
LTYPE
  2
SBK1
 70
    64
  3
______ _ _ _ ______ _ _ _ ______ _ _ _ _____  
 72
    65
 73
     8
 40
60.500000
 49
45.000000
 49
-2.000000
 49
2.500000
 49
-2.000000
 49
2.500000
 49
-2.000000
 49
2.500000
 49
-2.000000
  0
LTYPE
  2
SBK2
 70
    64
  3
______ _ _ _ ______ _ _ _ ______ _ _ _ _____  
 72
    65
 73
     8
 40
84.000000
 49
64.000000
 49
-2.000000
 49
4.000000
 49
-2.000000
 49
4.000000
 49
-2.000000
 49
4.000000
 49
-2.000000
  0
LTYPE
  2
STCH
 70
    64
  3
__ __ __ __ __ __ __ __ __ __ __ __ __ __ __
 72
    65
 73
     2
 40
3.000000
 49
1.000000
 49
-2.000000
  0
LTYPE
  2
MTCH
 70
    64
  3
_____ _ _ _____ _ _ _____ _ _ _____ _ _ ____  
 72
    65
 73
     6
 40
80.000000
 49
66.000000
 49
-2.000000
 49
4.000000
 49
-2.000000
 49
4.000000
 49
-2.000000
  0
ENDTAB
  0
TABLE
  2
LAYER
 70
     1
  0
LAYER
  2
0
 70
     0
 62
     7
  6
CONTINUOUS
  0
ENDTAB
  0
TABLE
  2
STYLE
 70
     1
  0
STYLE
  2
STANDARD
 70
     0
 40
0.000000
 41
1.000000
 50
0.000000
 71
     0
 42
0.200000
  3
txt
  4
BIGFONT
  0
ENDTAB
  0
TABLE
  2
VIEW
 70
     0
  0
ENDTAB
  0
ENDSEC
  0
SECTION
  2
BLOCKS
  0
ENDSEC
  0
SECTION
  2
ENTITIES
  0
LINE
  8
0
 62
     4
 10
-127.104637
 20
-106.779961
 11
-114.104637
 21
-106.779976
  0
LINE
  8
0
 62
     4
 10
-123.454636
 20
-109.179977
 11
-123.454636
 21
-107.279968
  0
LINE
  8
0
 62
     4
 10
-117.754639
 20
-109.179977
 11
-117.754639
 21
-107.279984
  0
LINE
  8
0
 62
     4
 10
-117.354637
 20
-109.379982
 11
-117.784637
 21
-111.779984
  0
LINE
  8
0
 62
     4
 10
-117.354645
 20
-111.979988
 11
-117.784645
 21
-114.379982
  0
LINE
  8
0
 62
     4
 10
-123.854652
 20
-111.979980
 11
-123.424652
 21
-114.379974
  0
LINE
  8
0
 62
     4
 10
-123.854630
 20
-109.379974
 11
-123.424637
 21
-111.779976
  0
LINE
  8
0
 62
     4
 10
-117.354637
 20
-109.379974
 11
-117.354637
 21
-109.179977
  0
LINE
  8
0
 62
     4
 10
-123.854637
 20
-109.379974
 11
-123.854637
 21
-109.179977
  0
LINE
  8
0
 62
     4
 10
-117.354645
 20
-111.979980
 11
-123.854645
 21
-111.979980
  0
LINE
  8
0
 62
     4
 10
-117.354637
 20
-109.379974
 11
-123.854637
 21
-109.379974
  0
LINE
  8
0
 62
     4
 10
-117.354637
 20
-109.179977
 11
-123.854637
 21
-109.179977
  0
LINE
  8
0
 62
     4
 10
-117.354645
 20
-111.779984
 11
-123.854645
 21
-111.779984
  0
LINE
  8
0
 62
     4
 10
-117.354645
 20
-111.979980
 11
-117.354645
 21
-111.779984
  0
LINE
  8
0
 62
     4
 10
-123.854645
 20
-111.979965
 11
-123.854645
 21
-111.779968
  0
LINE
  8
0
 62
     4
 10
-117.784645
 20
-114.379974
 11
-123.424644
 21
-114.379974
  0
LINE
  8
0
 62
     4
 10
-114.604637
 20
-107.279976
 11
-114.104645
 21
-106.779984
  0
LINE
  8
0
 62
     4
 10
-127.104622
 20
-106.779961
 11
-126.604622
 21
-107.279961
  0
LINE
  8
0
 62
     4
 10
-127.104637
 20
-106.779968
 11
-127.104637
 21
-105.779968
  0
LINE
  8
0
 62
     4
 10
-114.104637
 20
-106.779984
 11
-114.104637
 21
-105.779984
  0
LINE
  8
0
 62
     4
 10
-114.604637
 20
-107.279976
 11
-126.604637
 21
-107.279961
  0
LINE
  8
0
 62
     4
 10
-112.854622
 20
-92.779991
 11
-128.354630
 21
-92.779976
  0
LINE
  8
0
 62
     4
 10
-126.864639
 20
-105.279968
 11
-127.614639
 21
-105.279968
  0
LINE
  8
0
 62
     4
 10
-113.594635
 20
-105.279984
 11
-114.344635
 21
-105.279984
  0
LINE
  8
0
 62
     4
 10
-122.444633
 20
-105.279968
 11
-124.254639
 21
-105.279968
  0
LINE
  8
0
 62
     4
 10
-127.034645
 20
-104.779984
 11
-126.864647
 21
-105.279976
  0
LINE
  8
0
 62
     4
 10
-114.174637
 20
-104.779991
 11
-114.344627
 21
-105.279991
  0
LINE
  8
0
 62
     4
 10
-113.594627
 20
-95.569992
 11
-113.004623
 21
-95.279991
  0
LINE
  8
0
 62
     4
 10
-116.954628
 20
-95.569977
 11
-116.294624
 21
-95.279984
  0
LINE
  8
0
 62
     4
 10
-118.764626
 20
-95.569977
 11
-119.104630
 21
-95.279976
  0
LINE
  8
0
 62
     4
 10
-122.444618
 20
-95.569984
 11
-122.104614
 21
-95.279984
  0
LINE
  8
0
 62
     4
 10
-124.254616
 20
-95.569977
 11
-124.914627
 21
-95.279976
  0
LINE
  8
0
 62
     4
 10
-127.614624
 20
-95.569977
 11
-128.204620
 21
-95.279976
  0
LINE
  8
0
 62
     4
 10
-127.614632
 20
-105.279968
 11
-128.204620
 21
-104.779968
  0
LINE
  8
0
 62
     4
 10
-124.254639
 20
-105.279968
 11
-124.914635
 21
-104.779968
  0
LINE
  8
0
 62
     4
 10
-122.104637
 20
-104.779991
 11
-122.444633
 21
-105.279991
  0
LINE
  8
0
 62
     4
 10
-118.764633
 20
-105.279991
 11
-119.104637
 21
-104.779984
  0
LINE
  8
0
 62
     4
 10
-116.954636
 20
-105.279984
 11
-116.294624
 21
-104.779976
  0
LINE
  8
0
 62
     4
 10
-113.594643
 20
-105.279984
 11
-113.004631
 21
-104.779984
  0
LINE
  8
0
 62
     4
 10
-116.954636
 20
-105.279984
 11
-118.764633
 21
-105.279984
  0
LINE
  8
0
 62
     4
 10
-114.174637
 20
-104.779991
 11
-116.294632
 21
-104.779991
  0
LINE
  8
0
 62
     4
 10
-128.204636
 20
-104.779976
 11
-128.354630
 21
-104.779976
  0
LINE
  8
0
 62
     4
 10
-124.914635
 20
-104.779976
 11
-127.034637
 21
-104.779976
  0
LINE
  8
0
 62
     4
 10
-119.104637
 20
-104.779984
 11
-122.104637
 21
-104.779984
  0
LINE
  8
0
 62
     4
 10
-127.034622
 20
-95.569977
 11
-127.614624
 21
-95.569977
  0
LINE
  8
0
 62
     4
 10
-127.034622
 20
-95.279976
 11
-128.204620
 21
-95.279976
  0
LINE
  8
0
 62
     4
 10
-116.954628
 20
-95.569984
 11
-118.764626
 21
-95.569984
  0
LINE
  8
0
 62
     4
 10
-116.294624
 20
-95.279984
 11
-119.104630
 21
-95.279984
  0
LINE
  8
0
 62
     4
 10
-122.444626
 20
-95.569977
 11
-124.254623
 21
-95.569977
  0
LINE
  8
0
 62
     4
 10
-122.104630
 20
-95.279984
 11
-124.914627
 21
-95.279984
  0
LINE
  8
0
 62
     4
 10
-112.854637
 20
-104.779991
 11
-113.004639
 21
-104.779991
  0
LINE
  8
0
 62
     4
 10
-113.594627
 20
-95.569992
 11
-114.174629
 21
-95.569992
  0
LINE
  8
0
 62
     4
 10
-113.004623
 20
-95.279991
 11
-114.174629
 21
-95.279991
  0
LINE
  8
0
 62
     4
 10
-113.004623
 20
-95.279991
 11
-113.004623
 21
-104.779991
  0
LINE
  8
0
 62
     4
 10
-113.594627
 20
-95.569992
 11
-113.594627
 21
-105.279984
  0
LINE
  8
0
 62
     4
 10
-114.174629
 20
-95.279991
 11
-114.174629
 21
-104.779991
  0
LINE
  8
0
 62
     4
 10
-116.294624
 20
-95.279984
 11
-116.294624
 21
-104.779984
  0
LINE
  8
0
 62
     4
 10
-116.954628
 20
-95.569984
 11
-116.954628
 21
-105.279984
  0
LINE
  8
0
 62
     4
 10
-128.204620
 20
-95.279976
 11
-128.204620
 21
-104.779976
  0
LINE
  8
0
 62
     4
 10
-127.614624
 20
-95.569977
 11
-127.614624
 21
-105.279968
  0
LINE
  8
0
 62
     4
 10
-127.034622
 20
-95.279976
 11
-127.034622
 21
-104.779976
  0
LINE
  8
0
 62
     4
 10
-124.914627
 20
-95.279976
 11
-124.914627
 21
-104.779976
  0
LINE
  8
0
 62
     4
 10
-124.254623
 20
-95.569977
 11
-124.254623
 21
-105.279968
  0
LINE
  8
0
 62
     4
 10
-122.444626
 20
-95.569977
 11
-122.444626
 21
-105.279968
  0
LINE
  8
0
 62
     4
 10
-118.764626
 20
-95.569984
 11
-118.764626
 21
-105.279984
  0
LINE
  8
0
 62
     4
 10
-119.104630
 20
-95.279984
 11
-119.104630
 21
-104.779984
  0
LINE
  8
0
 62
     4
 10
-122.104630
 20
-95.279984
 11
-122.104630
 21
-104.779984
  0
LINE
  8
0
 62
     1
 10
-115.354622
 20
-90.989990
 11
-115.354622
 21
-92.279984
  0
LINE
  8
0
 62
     1
 10
-125.854622
 20
-90.989975
 11
-125.854622
 21
-92.279976
  0
LINE
  8
0
 62
     4
 10
-126.604622
 20
-90.989975
 11
-126.604622
 21
-92.279976
  0
LINE
  8
0
 62
     4
 10
-114.604622
 20
-90.989990
 11
-114.604622
 21
-92.279984
  0
LINE
  8
0
 62
     4
 10
-127.854630
 20
-92.279976
 11
-128.354630
 21
-92.779976
  0
LINE
  8
0
 62
     4
 10
-113.354614
 20
-92.279984
 11
-112.854614
 21
-92.779984
  0
LINE
  8
0
 62
     4
 10
-113.354622
 20
-92.279991
 11
-127.854622
 21
-92.279976
  0
LINE
  8
0
 62
     4
 10
-127.354630
 20
-105.779976
 11
-128.354630
 21
-104.779976
  0
LINE
  8
0
 62
     4
 10
-112.854630
 20
-104.779984
 11
-113.854630
 21
-105.779984
  0
LINE
  8
0
 62
     4
 10
-128.354630
 20
-92.779976
 11
-128.354630
 21
-104.779976
  0
LINE
  8
0
 62
     4
 10
-112.854622
 20
-92.779991
 11
-112.854637
 21
-104.779991
  0
LINE
  8
0
 62
     4
 10
-113.854637
 20
-105.779976
 11
-127.354637
 21
-105.779961
  0
LINE
  8
0
 62
     4
 10
-128.174622
 20
-90.989975
 11
-128.674622
 21
-90.489975
  0
LINE
  8
0
 62
     4
 10
-113.034615
 20
-90.989983
 11
-112.534615
 21
-90.489983
  0
LINE
  8
0
 62
     4
 10
-128.174622
 20
-90.989975
 11
-113.034622
 21
-90.989990
  0
LINE
  8
0
 62
     4
 10
-112.534622
 20
-90.489990
 11
-112.534622
 21
-88.989990
  0
LINE
  8
0
 62
     4
 10
-128.674622
 20
-90.489975
 11
-128.674622
 21
-88.989975
  0
LINE
  8
0
  6
CENTER
 62
     2
 10
25.055359
 20
85.057587
 11
-45.944630
 21
85.057587
  0
LINE
  8
0
 10
19.895363
 20
70.057579
 11
20.895365
 21
71.057579
  0
LINE
  8
0
 10
20.895363
 20
99.057594
 11
19.895361
 21
100.057594
  0
LINE
  8
0
 10
-42.104626
 20
99.057587
 11
-41.104626
 21
100.057579
  0
LINE
  8
0
 10
-42.104630
 20
71.057587
 11
-41.104626
 21
70.057579
  0
LINE
  8
0
 10
-41.104630
 20
100.057587
 11
19.895370
 21
100.057587
  0
LINE
  8
0
 10
-42.104630
 20
99.057587
 11
20.895370
 21
99.057587
  0
LINE
  8
0
 10
-42.104630
 20
71.057587
 11
20.895370
 21
71.057587
  0
LINE
  8
0
 10
-41.104630
 20
70.057587
 11
19.895370
 21
70.057587
  0
LINE
  8
0
 10
20.895370
 20
99.057587
 11
20.895370
 21
71.057587
  0
LINE
  8
0
 10
19.895370
 20
100.057587
 11
19.895370
 21
70.057587
  0
LINE
  8
0
 10
-42.104630
 20
99.057587
 11
-42.104630
 21
71.057587
  0
LINE
  8
0
 10
-41.104630
 20
100.057587
 11
-41.104630
 21
70.057587
  0
LINE
  8
0
  6
CENTER
 62
     2
 10
-10.604630
 20
122.557587
 11
-10.604630
 21
47.557587
  0
LINE
  8
0
 10
142.895370
 20
31.400589
 11
143.225372
 21
12.390590
  0
LINE
  8
0
 10
98.895370
 20
31.400589
 11
98.565376
 21
12.390590
  0
LINE
  8
0
  6
CENTER
 62
     2
 10
94.658813
 20
22.400589
 11
146.857193
 21
22.400589
  0
LINE
  8
0
 10
141.895370
 20
32.400581
 11
142.895370
 21
31.400579
  0
LINE
  8
0
 10
98.895370
 20
31.400583
 11
99.895370
 21
32.400585
  0
LINE
  8
0
 10
135.895370
 20
31.400589
 11
142.895370
 21
31.400589
  0
LINE
  8
0
 10
98.895370
 20
31.400589
 11
105.895370
 21
31.400589
  0
LINE
  8
0
 10
99.895370
 20
32.400589
 11
105.395370
 21
32.400589
  0
LINE
  8
0
 10
136.395370
 20
32.400589
 11
141.895370
 21
32.400589
  0
LINE
  8
0
 10
89.895370
 20
-6.599411
 11
151.895370
 21
-6.599411
  0
LINE
  8
0
 10
150.895370
 20
-7.599413
 11
151.895370
 21
-6.599412
  0
LINE
  8
0
 10
151.895370
 20
10.400589
 11
151.895370
 21
-6.599411
  0
LINE
  8
0
 10
90.895363
 20
-7.599408
 11
89.895370
 21
-6.599413
  0
LINE
  8
0
 10
89.895370
 20
10.400589
 11
89.895370
 21
-6.599411
  0
LINE
  8
0
 10
134.895370
 20
34.400589
 11
134.895370
 21
11.400589
  0
LINE
  8
0
 10
106.895370
 20
34.400589
 11
106.895370
 21
11.400589
  0
LINE
  8
0
 10
105.895370
 20
33.400589
 11
135.895370
 21
33.400589
  0
LINE
  8
0
 10
134.895355
 20
34.400578
 11
135.895355
 21
33.400581
  0
LINE
  8
0
 10
105.895378
 20
33.400581
 11
106.895378
 21
34.400581
  0
LINE
  8
0
 10
106.895370
 20
34.400589
 11
134.895370
 21
34.400589
  0
LINE
  8
0
 10
105.895370
 20
33.400589
 11
105.895370
 21
12.400589
  0
LINE
  8
0
 10
135.895370
 20
33.400589
 11
135.895370
 21
12.400589
  0
LINE
  8
0
 10
89.895370
 20
10.400589
 11
151.895370
 21
10.400589
  0
LINE
  8
0
 10
150.895355
 20
11.400603
 11
151.895355
 21
10.400601
  0
LINE
  8
0
 10
89.895378
 20
10.400598
 11
90.895378
 21
11.400599
  0
LINE
  8
0
 10
90.895370
 20
11.400589
 11
150.895370
 21
11.400589
  0
LINE
  8
0
 10
90.895370
 20
-7.599411
 11
150.895370
 21
-7.599411
  0
LINE
  8
0
 10
105.365372
 20
-89.389404
 11
136.425369
 21
-89.389404
  0
LINE
  8
0
 10
95.365379
 20
-79.469398
 11
94.735382
 21
-7.599400
  0
LINE
  8
0
 10
113.325371
 20
-90.889404
 11
128.475372
 21
-90.889404
  0
LINE
  8
0
 10
127.645370
 20
-105.679398
 11
114.145370
 21
-105.679398
  0
LINE
  8
0
 10
128.145370
 20
-92.179398
 11
113.645370
 21
-92.179398
  0
LINE
  8
0
 10
122.395370
 20
-104.679398
 11
119.395370
 21
-104.679398
  0
LINE
  8
0
 10
128.645370
 20
-92.679398
 11
113.145370
 21
-92.679398
  0
LINE
  8
0
 10
126.895370
 20
-107.179398
 11
114.895370
 21
-107.179398
  0
LINE
  8
0
 10
123.725372
 20
-114.279404
 11
118.065369
 21
-114.279404
  0
LINE
  8
0
 10
124.145370
 20
-111.679398
 11
117.645370
 21
-111.679398
  0
LINE
  8
0
 10
124.145370
 20
-109.079407
 11
117.645370
 21
-109.079407
  0
LINE
  8
0
 10
124.145370
 20
-109.279404
 11
117.645370
 21
-109.279404
  0
LINE
  8
0
 10
124.145370
 20
-111.879410
 11
117.645370
 21
-111.879410
  0
LINE
  8
0
 10
114.395370
 20
-106.679398
 11
127.395370
 21
-106.679398
  0
LINE
  8
0
 10
112.825371
 20
-90.389404
 11
128.975372
 21
-90.389404
  0
LINE
  8
0
 10
118.045372
 20
-109.079407
 11
118.045372
 21
-107.179398
  0
LINE
  8
0
 10
117.645378
 20
-111.879395
 11
118.065376
 21
-114.279411
  0
LINE
  8
0
 10
117.645370
 20
-109.279404
 11
118.065369
 21
-111.679390
  0
LINE
  8
0
 10
117.645370
 20
-109.279404
 11
117.645370
 21
-109.079407
  0
LINE
  8
0
 10
117.645370
 20
-111.879410
 11
117.645370
 21
-111.679398
  0
LINE
  8
0
 10
114.395363
 20
-106.679405
 11
114.895363
 21
-107.179405
  0
LINE
  8
0
 10
114.395370
 20
-106.679398
 11
114.395370
 21
-105.679398
  0
LINE
  8
0
 10
114.635368
 20
-105.179398
 11
113.885368
 21
-105.179398
  0
LINE
  8
0
 10
119.055374
 20
-105.179398
 11
117.235367
 21
-105.179398
  0
LINE
  8
0
 10
114.455368
 20
-104.679398
 11
114.635376
 21
-105.179398
  0
LINE
  8
0
 10
119.055374
 20
-95.469398
 11
119.395378
 21
-95.179398
  0
LINE
  8
0
 10
117.235359
 20
-95.469406
 11
116.575363
 21
-95.179405
  0
LINE
  8
0
 10
113.885361
 20
-95.469398
 11
113.295364
 21
-95.179405
  0
LINE
  8
0
 10
113.885361
 20
-105.179405
 11
113.295372
 21
-104.679405
  0
LINE
  8
0
 10
117.235367
 20
-105.179405
 11
116.585358
 21
-104.679405
  0
LINE
  8
0
 10
119.395370
 20
-104.679390
 11
119.055374
 21
-105.179390
  0
LINE
  8
0
 10
113.295372
 20
-104.679398
 11
113.145370
 21
-104.679398
  0
LINE
  8
0
 10
116.585373
 20
-104.679398
 11
114.455368
 21
-104.679398
  0
LINE
  8
0
 10
114.455368
 20
-95.469406
 11
113.885368
 21
-95.469406
  0
LINE
  8
0
 10
114.455368
 20
-95.179398
 11
113.295372
 21
-95.179398
  0
LINE
  8
0
 10
119.055374
 20
-95.469406
 11
117.235367
 21
-95.469406
  0
LINE
  8
0
 10
119.395370
 20
-95.179398
 11
116.585373
 21
-95.179398
  0
LINE
  8
0
 10
113.295372
 20
-95.179398
 11
113.295372
 21
-104.679398
  0
LINE
  8
0
 10
113.885368
 20
-95.469406
 11
113.885368
 21
-105.179398
  0
LINE
  8
0
 10
114.455368
 20
-95.179398
 11
114.455368
 21
-104.679398
  0
LINE
  8
0
 10
116.585373
 20
-95.179398
 11
116.585373
 21
-104.679398
  0
LINE
  8
0
 10
117.235367
 20
-95.469406
 11
117.235367
 21
-105.179398
  0
LINE
  8
0
 10
119.055374
 20
-95.469406
 11
119.055374
 21
-105.179398
  0
LINE
  8
0
 10
119.395370
 20
-95.179398
 11
119.395370
 21
-104.679398
  0
LINE
  8
0
 62
     2
 10
115.645370
 20
-90.889404
 11
115.645370
 21
-92.179398
  0
LINE
  8
0
 10
114.895370
 20
-90.889404
 11
114.895370
 21
-92.179398
  0
LINE
  8
0
 10
113.645378
 20
-92.179398
 11
113.145378
 21
-92.679398
  0
LINE
  8
0
 10
114.145370
 20
-105.679405
 11
113.145370
 21
-104.679405
  0
LINE
  8
0
 10
113.145370
 20
-92.679398
 11
113.145370
 21
-104.679398
  0
LINE
  8
0
 10
113.325371
 20
-90.889404
 11
112.825371
 21
-90.389404
  0
LINE
  8
0
 10
112.825371
 20
-90.389404
 11
112.825371
 21
-89.389404
  0
LINE
  8
0
 10
99.535385
 20
-11.899399
 11
106.245369
 21
-11.899399
  0
LINE
  8
0
 10
99.535385
 20
-72.889404
 11
106.245369
 21
-72.889404
  0
LINE
  8
0
 10
100.115372
 20
-12.399399
 11
106.245369
 21
-12.399399
  0
LINE
  8
0
 10
98.535385
 20
-12.899399
 11
98.535385
 21
-71.889404
  0
LINE
  8
0
 10
99.375381
 20
-13.899399
 11
99.375381
 21
-38.899399
  0
LINE
  8
0
 10
101.195374
 20
-14.399399
 11
101.195374
 21
-38.399399
  0
LINE
  8
0
 10
106.845367
 20
-13.899399
 11
106.845367
 21
-38.899399
  0
LINE
  8
0
 10
107.245369
 20
-12.899399
 11
107.245369
 21
-71.889404
  0
LINE
  8
0
 10
100.115372
 20
-72.389404
 11
106.245369
 21
-72.389404
  0
LINE
  8
0
 10
99.115372
 20
-13.399399
 11
99.115372
 21
-71.389404
  0
LINE
  8
0
 10
99.375381
 20
-44.899399
 11
99.375381
 21
-70.889404
  0
LINE
  8
0
 10
101.195374
 20
-45.399399
 11
101.195374
 21
-70.389404
  0
LINE
  8
0
 10
106.845367
 20
-44.899399
 11
106.845367
 21
-70.889404
  0
LINE
  8
0
 10
100.375381
 20
-71.889404
 11
105.845367
 21
-71.889404
  0
LINE
  8
0
 10
100.375381
 20
-43.899399
 11
105.845367
 21
-43.899399
  0
LINE
  8
0
 10
100.375381
 20
-39.899399
 11
105.845367
 21
-39.899399
  0
LINE
  8
0
 10
100.375381
 20
-12.899399
 11
105.845367
 21
-12.899399
  0
LINE
  8
0
 10
102.195374
 20
-71.389404
 11
105.845367
 21
-71.389404
  0
LINE
  8
0
 10
102.195374
 20
-13.399399
 11
105.845367
 21
-13.399399
  0
LINE
  8
0
 10
102.195374
 20
-39.399399
 11
105.845367
 21
-39.399399
  0
LINE
  8
0
 10
102.195374
 20
-44.399399
 11
105.845367
 21
-44.399399
  0
LINE
  8
0
 10
146.425369
 20
-79.469398
 11
147.055359
 21
-7.599400
  0
LINE
  8
0
 10
134.545364
 20
-12.899399
 11
134.545364
 21
-71.889404
  0
LINE
  8
0
 10
143.265366
 20
-12.899399
 11
143.265366
 21
-71.889404
  0
LINE
  8
0
 10
123.745369
 20
-109.079407
 11
123.745369
 21
-107.179398
  0
LINE
  8
0
 10
124.145370
 20
-109.279411
 11
123.725372
 21
-111.679398
  0
LINE
  8
0
 10
124.145363
 20
-111.879395
 11
123.725365
 21
-114.279404
  0
LINE
  8
0
 10
124.145370
 20
-109.279404
 11
124.145370
 21
-109.079407
  0
LINE
  8
0
 10
124.145370
 20
-111.879410
 11
124.145370
 21
-111.679398
  0
LINE
  8
0
 10
126.895378
 20
-107.179405
 11
127.395378
 21
-106.679405
  0
LINE
  8
0
 10
127.395370
 20
-106.679398
 11
127.395370
 21
-105.679398
  0
LINE
  8
0
 10
127.905373
 20
-105.179398
 11
127.155373
 21
-105.179398
  0
LINE
  8
0
 10
127.335365
 20
-104.679390
 11
127.155357
 21
-105.179405
  0
LINE
  8
0
 10
127.905380
 20
-95.469391
 11
128.495361
 21
-95.179398
  0
LINE
  8
0
 10
124.555382
 20
-95.469406
 11
125.215378
 21
-95.179405
  0
LINE
  8
0
 10
122.735374
 20
-95.469406
 11
122.395370
 21
-95.179398
  0
LINE
  8
0
 10
122.735367
 20
-105.179405
 11
122.395363
 21
-104.679398
  0
LINE
  8
0
 10
124.555351
 20
-105.179398
 11
125.215355
 21
-104.679390
  0
LINE
  8
0
 10
127.905380
 20
-105.179405
 11
128.495377
 21
-104.679405
  0
LINE
  8
0
 10
124.555374
 20
-105.179398
 11
122.735367
 21
-105.179398
  0
LINE
  8
0
 10
127.335373
 20
-104.679398
 11
125.215370
 21
-104.679398
  0
LINE
  8
0
 10
124.555374
 20
-95.469406
 11
122.735367
 21
-95.469406
  0
LINE
  8
0
 10
125.215370
 20
-95.179398
 11
122.395370
 21
-95.179398
  0
LINE
  8
0
 10
128.645370
 20
-104.679398
 11
128.495377
 21
-104.679398
  0
LINE
  8
0
 10
127.905373
 20
-95.469406
 11
127.335373
 21
-95.469406
  0
LINE
  8
0
 10
128.495377
 20
-95.179398
 11
127.335373
 21
-95.179398
  0
LINE
  8
0
 10
128.495377
 20
-95.179398
 11
128.495377
 21
-104.679398
  0
LINE
  8
0
 10
127.905373
 20
-95.469406
 11
127.905373
 21
-105.179398
  0
LINE
  8
0
 10
127.335373
 20
-95.179398
 11
127.335373
 21
-104.679398
  0
LINE
  8
0
 10
125.215370
 20
-95.179398
 11
125.215370
 21
-104.679398
  0
LINE
  8
0
 10
124.555374
 20
-95.469406
 11
124.555374
 21
-105.179398
  0
LINE
  8
0
 10
122.735367
 20
-95.469406
 11
122.735367
 21
-105.179398
  0
LINE
  8
0
 10
122.395370
 20
-95.179398
 11
122.395370
 21
-104.679398
  0
LINE
  8
0
 62
     2
 10
126.145370
 20
-90.889404
 11
126.145370
 21
-92.179398
  0
LINE
  8
0
 10
126.895370
 20
-90.889404
 11
126.895370
 21
-92.179398
  0
LINE
  8
0
 10
128.145355
 20
-92.179390
 11
128.645355
 21
-92.679390
  0
LINE
  8
0
 10
128.645370
 20
-104.679405
 11
127.645370
 21
-105.679405
  0
LINE
  8
0
 10
128.645370
 20
-92.679398
 11
128.645370
 21
-104.679398
  0
LINE
  8
0
 10
128.475372
 20
-90.889397
 11
128.975372
 21
-90.389397
  0
LINE
  8
0
 10
128.975372
 20
-90.389404
 11
128.975372
 21
-89.389404
  0
LINE
  8
0
 10
142.265366
 20
-72.889404
 11
135.545364
 21
-72.889404
  0
LINE
  8
0
 10
142.415359
 20
-13.899399
 11
142.415359
 21
-38.899399
  0
LINE
  8
0
 10
140.605362
 20
-14.399399
 11
140.605362
 21
-38.399399
  0
LINE
  8
0
 10
134.945374
 20
-13.899399
 11
134.945374
 21
-38.899399
  0
LINE
  8
0
 10
141.675369
 20
-72.389404
 11
135.545364
 21
-72.389404
  0
LINE
  8
0
 10
142.675369
 20
-13.399399
 11
142.675369
 21
-71.389404
  0
LINE
  8
0
 10
142.415359
 20
-44.899399
 11
142.415359
 21
-70.889404
  0
LINE
  8
0
 10
140.605362
 20
-45.399399
 11
140.605362
 21
-70.389404
  0
LINE
  8
0
 10
134.945374
 20
-44.899399
 11
134.945374
 21
-70.889404
  0
LINE
  8
0
 10
141.415359
 20
-71.889404
 11
135.945374
 21
-71.889404
  0
LINE
  8
0
 10
141.415359
 20
-43.899399
 11
135.945374
 21
-43.899399
  0
LINE
  8
0
 10
141.415359
 20
-39.899399
 11
135.945374
 21
-39.899399
  0
LINE
  8
0
 10
139.605362
 20
-71.389404
 11
135.945374
 21
-71.389404
  0
LINE
  8
0
 10
139.605362
 20
-13.399399
 11
135.945374
 21
-13.399399
  0
LINE
  8
0
 10
139.605362
 20
-39.399399
 11
135.945374
 21
-39.399399
  0
LINE
  8
0
 10
139.605362
 20
-44.399399
 11
135.945374
 21
-44.399399
  0
LINE
  8
0
 10
141.415359
 20
-12.899399
 11
135.945374
 21
-12.899399
  0
LINE
  8
0
 10
141.675369
 20
-12.399399
 11
135.545364
 21
-12.399399
  0
LINE
  8
0
 10
142.265366
 20
-11.899399
 11
135.545364
 21
-11.899399
  0
LINE
  8
0
  6
CENTER
 62
     2
 10
120.895370
 20
-116.509399
 11
120.895370
 21
38.270588
  0
LINE
  8
0
 10
5.485349
 20
31.400589
 11
5.955348
 21
11.400590
  0
LINE
  8
0
 10
-26.704645
 20
31.400587
 11
-27.174646
 21
11.400589
  0
LINE
  8
0
 10
18.895355
 20
15.400589
 11
18.895355
 21
29.400589
  0
LINE
  8
0
 10
19.895348
 20
34.400593
 11
20.895350
 21
33.400589
  0
LINE
  8
0
 10
19.895355
 20
34.400589
 11
19.895355
 21
10.400589
  0
LINE
  8
0
 10
20.895355
 20
10.400589
 11
20.895355
 21
33.400589
  0
LINE
  8
0
 10
-41.104645
 20
34.400589
 11
-41.104645
 21
10.400589
  0
LINE
  8
0
 10
19.395336
 20
-7.599412
 11
20.395336
 21
-6.599411
  0
LINE
  8
0
 10
20.395355
 20
10.400589
 11
20.395355
 21
-6.599411
  0
LINE
  8
0
 10
-25.704645
 20
32.400589
 11
-26.704647
 21
31.400587
  0
LINE
  8
0
 10
5.485349
 20
31.400585
 11
4.485347
 21
32.400589
  0
LINE
  8
0
 10
-26.704645
 20
31.400589
 11
5.485352
 21
31.400589
  0
LINE
  8
0
 10
-25.704651
 20
32.400589
 11
4.485352
 21
32.400589
  0
LINE
  8
0
 10
19.895355
 20
34.400589
 11
-41.104645
 21
34.400589
  0
LINE
  8
0
 10
-37.734646
 20
10.400589
 11
-36.734646
 21
11.400589
  0
LINE
  8
0
 10
-42.104645
 20
33.400589
 11
20.895355
 21
33.400589
  0
LINE
  8
0
 10
-42.104645
 20
10.400589
 11
20.895355
 21
10.400589
  0
LINE
  8
0
 10
-41.604645
 20
-6.599411
 11
20.395355
 21
-6.599411
  0
LINE
  8
0
 10
-40.604652
 20
-7.599400
 11
-41.604645
 21
-6.599409
  0
LINE
  8
0
 10
-41.604645
 20
10.400589
 11
-41.604645
 21
-6.599411
  0
LINE
  8
0
 10
16.515345
 20
10.400598
 11
15.515344
 21
11.400599
  0
LINE
  8
0
 10
16.515345
 20
10.400598
 11
15.515344
 21
11.400599
  0
LINE
  8
0
 10
-36.734646
 20
11.400589
 11
15.515350
 21
11.400589
  0
LINE
  8
0
 10
15.895355
 20
15.400589
 11
18.895355
 21
15.400589
  0
LINE
  8
0
 10
15.895355
 20
29.400589
 11
18.895355
 21
29.400589
  0
LINE
  8
0
 10
-40.104645
 20
15.400589
 11
-37.104645
 21
15.400589
  0
LINE
  8
0
 10
-40.104645
 20
29.400589
 11
-37.404644
 21
29.400589
  0
LINE
  8
0
 10
-37.104645
 20
15.400589
 11
-37.104645
 21
29.400589
  0
LINE
  8
0
 10
-40.104645
 20
15.400589
 11
-40.104645
 21
29.400589
  0
LINE
  8
0
 10
15.895355
 20
15.400589
 11
15.895355
 21
29.400589
  0
LINE
  8
0
 10
-41.104645
 20
34.400589
 11
-42.104645
 21
33.400589
  0
LINE
  8
0
 10
-42.104645
 20
10.400589
 11
-42.104645
 21
33.400589
  0
LINE
  8
0
 10
-40.604645
 20
-7.599411
 11
19.395355
 21
-7.599411
  0
LINE
  8
0
  6
CENTER
 62
     2
 10
-10.604645
 20
-116.509399
 11
-10.604645
 21
38.270588
  0
LINE
  8
0
 10
14.925352
 20
-79.469398
 11
15.555351
 21
-7.599405
  0
LINE
  8
0
 10
-36.654644
 20
-19.569401
 11
-36.754646
 21
-7.599405
  0
LINE
  8
0
 10
-40.004646
 20
-10.009405
 11
-39.514648
 21
-9.499407
  0
LINE
  8
0
 10
-39.514645
 20
-9.499401
 11
-39.184647
 21
-23.539408
  0
LINE
  8
0
 10
-17.104645
 20
-106.679398
 11
-4.104645
 21
-106.679398
  0
LINE
  8
0
 10
-13.454651
 20
-109.079407
 11
-13.454651
 21
-107.179398
  0
LINE
  8
0
 10
-7.754654
 20
-109.079407
 11
-7.754654
 21
-107.179398
  0
LINE
  8
0
 10
-7.354646
 20
-109.279396
 11
-7.774648
 21
-111.679405
  0
LINE
  8
0
 10
-7.354654
 20
-111.879395
 11
-7.774656
 21
-114.279411
  0
LINE
  8
0
 10
-13.854650
 20
-111.879387
 11
-13.424648
 21
-114.279396
  0
LINE
  8
0
 10
-13.854646
 20
-109.279411
 11
-13.424649
 21
-111.679390
  0
LINE
  8
0
 10
-7.354645
 20
-109.279404
 11
-7.354645
 21
-109.079407
  0
LINE
  8
0
 10
-13.854645
 20
-109.279404
 11
-13.854645
 21
-109.079407
  0
LINE
  8
0
 10
-7.354645
 20
-111.879410
 11
-13.854645
 21
-111.879410
  0
LINE
  8
0
 10
-7.354645
 20
-109.279404
 11
-13.854645
 21
-109.279404
  0
LINE
  8
0
 10
-7.354645
 20
-109.079407
 11
-13.854645
 21
-109.079407
  0
LINE
  8
0
 10
-7.354645
 20
-111.679398
 11
-13.854645
 21
-111.679398
  0
LINE
  8
0
 10
-7.354645
 20
-111.879410
 11
-7.354645
 21
-111.679398
  0
LINE
  8
0
 10
-13.854645
 20
-111.879410
 11
-13.854645
 21
-111.679398
  0
LINE
  8
0
 10
-7.774658
 20
-114.279404
 11
-13.424652
 21
-114.279404
  0
LINE
  8
0
 10
-4.604643
 20
-107.179390
 11
-4.104648
 21
-106.679398
  0
LINE
  8
0
 10
-17.104647
 20
-106.679398
 11
-16.604650
 21
-107.179398
  0
LINE
  8
0
 10
-17.104645
 20
-106.679398
 11
-17.104645
 21
-105.679398
  0
LINE
  8
0
 10
-4.104645
 20
-106.679398
 11
-4.104645
 21
-105.679398
  0
LINE
  8
0
 10
-4.604645
 20
-107.179398
 11
-16.604645
 21
-107.179398
  0
LINE
  8
0
 10
-2.854645
 20
-92.679398
 11
-18.354645
 21
-92.679398
  0
LINE
  8
0
 10
-16.864655
 20
-105.179398
 11
-17.614655
 21
-105.179398
  0
LINE
  8
0
 10
-3.584656
 20
-105.179398
 11
-4.344650
 21
-105.179398
  0
LINE
  8
0
 10
-12.444656
 20
-105.179398
 11
-14.254654
 21
-105.179398
  0
LINE
  8
0
 10
-17.034641
 20
-104.679390
 11
-16.864641
 21
-105.179398
  0
LINE
  8
0
 10
-4.164644
 20
-104.679398
 11
-4.344647
 21
-105.179413
  0
LINE
  8
0
 10
-3.584636
 20
-95.469398
 11
-2.994643
 21
-95.179398
  0
LINE
  8
0
 10
-6.944651
 20
-95.469406
 11
-6.284648
 21
-95.179405
  0
LINE
  8
0
 10
-8.754646
 20
-95.469406
 11
-9.104645
 21
-95.179405
  0
LINE
  8
0
 10
-12.444643
 20
-95.469398
 11
-12.104650
 21
-95.179405
  0
LINE
  8
0
 10
-14.254650
 20
-95.469406
 11
-14.914651
 21
-95.179405
  0
LINE
  8
0
 10
-17.614647
 20
-95.469398
 11
-18.204651
 21
-95.179390
  0
LINE
  8
0
 10
-17.614641
 20
-105.179405
 11
-18.204651
 21
-104.679405
  0
LINE
  8
0
 10
-14.254635
 20
-105.179390
 11
-14.914630
 21
-104.679390
  0
LINE
  8
0
 10
-12.104641
 20
-104.679398
 11
-12.444648
 21
-105.179413
  0
LINE
  8
0
 10
-8.754640
 20
-105.179390
 11
-9.104637
 21
-104.679398
  0
LINE
  8
0
 10
-6.944639
 20
-105.179405
 11
-6.284646
 21
-104.679405
  0
LINE
  8
0
 10
-3.584650
 20
-105.179398
 11
-2.994646
 21
-104.679390
  0
LINE
  8
0
 10
-6.944656
 20
-105.179398
 11
-8.754654
 21
-105.179398
  0
LINE
  8
0
 10
-4.164658
 20
-104.679398
 11
-6.284653
 21
-104.679398
  0
LINE
  8
0
 10
-18.204651
 20
-104.679398
 11
-18.354645
 21
-104.679398
  0
LINE
  8
0
 10
-14.914658
 20
-104.679398
 11
-17.034653
 21
-104.679398
  0
LINE
  8
0
 10
-9.104645
 20
-104.679398
 11
-12.104645
 21
-104.679398
  0
LINE
  8
0
 10
-17.034653
 20
-95.469406
 11
-17.614655
 21
-95.469406
  0
LINE
  8
0
 10
-17.034653
 20
-95.179398
 11
-18.204651
 21
-95.179398
  0
LINE
  8
0
 10
-6.944656
 20
-95.469406
 11
-8.754654
 21
-95.469406
  0
LINE
  8
0
 10
-6.284653
 20
-95.179398
 11
-9.104645
 21
-95.179398
  0
LINE
  8
0
 10
-12.444656
 20
-95.469406
 11
-14.254654
 21
-95.469406
  0
LINE
  8
0
 10
-12.104645
 20
-95.179398
 11
-14.914658
 21
-95.179398
  0
LINE
  8
0
 10
-2.854645
 20
-104.679398
 11
-2.994659
 21
-104.679398
  0
LINE
  8
0
 10
-3.584656
 20
-95.469406
 11
-4.164658
 21
-95.469406
  0
LINE
  8
0
 10
-2.994659
 20
-95.179398
 11
-4.164658
 21
-95.179398
  0
LINE
  8
0
 10
-2.994659
 20
-95.179398
 11
-2.994659
 21
-104.679398
  0
LINE
  8
0
 10
-3.584656
 20
-95.469406
 11
-3.584656
 21
-105.179398
  0
LINE
  8
0
 10
-4.164658
 20
-95.179398
 11
-4.164658
 21
-104.679398
  0
LINE
  8
0
 10
-6.284653
 20
-95.179398
 11
-6.284653
 21
-104.679398
  0
LINE
  8
0
 10
-6.944656
 20
-95.469406
 11
-6.944656
 21
-105.179398
  0
LINE
  8
0
 10
-18.204651
 20
-95.179398
 11
-18.204651
 21
-104.679398
  0
LINE
  8
0
 10
-17.614655
 20
-95.469406
 11
-17.614655
 21
-105.179398
  0
LINE
  8
0
 10
-17.034653
 20
-95.179398
 11
-17.034653
 21
-104.679398
  0
LINE
  8
0
 10
-14.914658
 20
-95.179398
 11
-14.914658
 21
-104.679398
  0
LINE
  8
0
 10
-14.254654
 20
-95.469406
 11
-14.254654
 21
-105.179398
  0
LINE
  8
0
 10
-12.444656
 20
-95.469406
 11
-12.444656
 21
-105.179398
  0
LINE
  8
0
 10
-8.754654
 20
-95.469406
 11
-8.754654
 21
-105.179398
  0
LINE
  8
0
 10
-9.104645
 20
-95.179398
 11
-9.104645
 21
-104.679398
  0
LINE
  8
0
 10
-12.104645
 20
-95.179398
 11
-12.104645
 21
-104.679398
  0
LINE
  8
0
 62
     2
 10
-5.354645
 20
-90.889404
 11
-5.354645
 21
-92.179398
  0
LINE
  8
0
 62
     2
 10
-15.854645
 20
-90.889404
 11
-15.854645
 21
-92.179398
  0
LINE
  8
0
 10
-16.604645
 20
-90.889404
 11
-16.604645
 21
-92.179398
  0
LINE
  8
0
 10
-4.604645
 20
-90.889404
 11
-4.604645
 21
-92.179398
  0
LINE
  8
0
 10
-17.854645
 20
-92.179413
 11
-18.354637
 21
-92.679398
  0
LINE
  8
0
 10
-3.354652
 20
-92.179398
 11
-2.854651
 21
-92.679398
  0
LINE
  8
0
 10
-3.354645
 20
-92.179398
 11
-17.854645
 21
-92.179398
  0
LINE
  8
0
 10
-17.354643
 20
-105.679405
 11
-18.354643
 21
-104.679405
  0
LINE
  8
0
 10
-2.854640
 20
-104.679405
 11
-3.854642
 21
-105.679405
  0
LINE
  8
0
 10
-18.354645
 20
-92.679398
 11
-18.354645
 21
-104.679398
  0
LINE
  8
0
 10
-2.854645
 20
-92.679398
 11
-2.854645
 21
-104.679398
  0
LINE
  8
0
 10
-3.854645
 20
-105.679398
 11
-17.354645
 21
-105.679398
  0
LINE
  8
0
 10
-18.174644
 20
-90.889404
 11
-18.674646
 21
-90.389404
  0
LINE
  8
0
 10
-3.024643
 20
-90.889404
 11
-2.524642
 21
-90.389397
  0
LINE
  8
0
 10
-2.524658
 20
-90.389404
 11
-2.524658
 21
-89.389404
  0
LINE
  8
0
 10
-18.674652
 20
-90.389404
 11
-18.674652
 21
-89.389404
  0
LINE
  8
0
 10
-18.174652
 20
-90.889404
 11
-3.024658
 21
-90.889404
  0
LINE
  8
0
 10
-18.674652
 20
-90.389404
 11
-2.524658
 21
-90.389404
  0
LINE
  8
0
 10
-39.494644
 20
-32.009411
 11
-39.344654
 21
-32.149399
  0
LINE
  8
0
 10
-40.004646
 20
-10.009399
 11
-39.494644
 21
-32.009407
  0
LINE
  8
0
 10
-39.414650
 20
-23.899405
 11
-36.654648
 21
-19.569397
  0
LINE
  8
0
 10
-36.494640
 20
-37.399399
 11
-39.274639
 21
-33.419403
  0
LINE
  8
0
 10
-39.334644
 20
-33.279396
 11
-39.414646
 21
-23.899397
  0
LINE
  8
0
 10
10.765350
 20
-11.899399
 11
4.045349
 21
-11.899399
  0
LINE
  8
0
 10
10.765350
 20
-72.889404
 11
4.045349
 21
-72.889404
  0
LINE
  8
0
 10
10.175354
 20
-12.399399
 11
4.045349
 21
-12.399399
  0
LINE
  8
0
 10
11.765350
 20
-12.899399
 11
11.765350
 21
-71.889404
  0
LINE
  8
0
 10
10.915344
 20
-13.899399
 11
10.915344
 21
-38.899399
  0
LINE
  8
0
 10
9.105347
 20
-14.399399
 11
9.105347
 21
-38.399399
  0
LINE
  8
0
 10
3.445343
 20
-13.899399
 11
3.445343
 21
-38.899399
  0
LINE
  8
0
 10
3.045349
 20
-12.899399
 11
3.045349
 21
-71.889404
  0
LINE
  8
0
 10
10.175354
 20
-72.389404
 11
4.045349
 21
-72.389404
  0
LINE
  8
0
 10
11.175354
 20
-13.399399
 11
11.175354
 21
-71.389404
  0
LINE
  8
0
 10
10.915344
 20
-44.899399
 11
10.915344
 21
-70.889404
  0
LINE
  8
0
 10
9.105347
 20
-45.399399
 11
9.105347
 21
-70.389404
  0
LINE
  8
0
 10
3.445343
 20
-44.899399
 11
3.445343
 21
-70.889404
  0
LINE
  8
0
 10
9.915344
 20
-71.889404
 11
4.445343
 21
-71.889404
  0
LINE
  8
0
 10
9.915344
 20
-43.899399
 11
4.445343
 21
-43.899399
  0
LINE
  8
0
 10
9.915344
 20
-39.899399
 11
4.445343
 21
-39.899399
  0
LINE
  8
0
 10
9.915344
 20
-12.899399
 11
4.445343
 21
-12.899399
  0
LINE
  8
0
 10
8.105347
 20
-71.389404
 11
4.445343
 21
-71.389404
  0
LINE
  8
0
 10
8.105347
 20
-13.399399
 11
4.445343
 21
-13.399399
  0
LINE
  8
0
 10
8.105347
 20
-39.399399
 11
4.445343
 21
-39.399399
  0
LINE
  8
0
 10
8.105347
 20
-44.399399
 11
4.445343
 21
-44.399399
  0
LINE
  8
0
 10
-31.964645
 20
-11.899399
 11
-25.244659
 21
-11.899399
  0
LINE
  8
0
 10
-31.964645
 20
-72.889404
 11
-25.244659
 21
-72.889404
  0
LINE
  8
0
 10
-31.374645
 20
-12.399399
 11
-25.244659
 21
-12.399399
  0
LINE
  8
0
 10
-32.964645
 20
-12.899399
 11
-32.964645
 21
-71.889404
  0
LINE
  8
0
 10
-32.124645
 20
-13.899399
 11
-32.124645
 21
-38.899399
  0
LINE
  8
0
 10
-30.304646
 20
-14.399399
 11
-30.304646
 21
-38.399399
  0
LINE
  8
0
 10
-24.644653
 20
-13.899399
 11
-24.644653
 21
-38.899399
  0
LINE
  8
0
 10
-24.244659
 20
-12.899399
 11
-24.244659
 21
-71.889404
  0
LINE
  8
0
 10
-31.374645
 20
-72.389404
 11
-25.244659
 21
-72.389404
  0
LINE
  8
0
 10
-32.374645
 20
-13.399399
 11
-32.374645
 21
-71.389404
  0
LINE
  8
0
 10
-32.124645
 20
-44.899399
 11
-32.124645
 21
-70.889404
  0
LINE
  8
0
 10
-30.304646
 20
-45.399399
 11
-30.304646
 21
-70.389404
  0
LINE
  8
0
 10
-24.644653
 20
-44.899399
 11
-24.644653
 21
-70.889404
  0
LINE
  8
0
 10
-31.124645
 20
-71.889404
 11
-25.644653
 21
-71.889404
  0
LINE
  8
0
 10
-31.124645
 20
-43.899399
 11
-25.644653
 21
-43.899399
  0
LINE
  8
0
 10
-31.124645
 20
-39.899399
 11
-25.644653
 21
-39.899399
  0
LINE
  8
0
 10
-31.124645
 20
-12.899399
 11
-25.644653
 21
-12.899399
  0
LINE
  8
0
 10
-36.124645
 20
-79.469398
 11
-36.494644
 21
-37.399403
  0
LINE
  8
0
 10
-29.304646
 20
-71.389404
 11
-25.644653
 21
-71.389404
  0
LINE
  8
0
 10
-29.304646
 20
-13.399399
 11
-25.644653
 21
-13.399399
  0
LINE
  8
0
 10
-29.304646
 20
-39.399399
 11
-25.644653
 21
-39.399399
  0
LINE
  8
0
 10
-29.304646
 20
-44.399399
 11
-25.644653
 21
-44.399399
  0
LINE
  8
0
 10
4.925354
 20
-89.389404
 11
-26.134645
 21
-89.389404
  0
LINE
  8
0
 10
-39.064640
 20
-7.599409
 11
-39.014641
 21
-9.489403
  0
LINE
  8
0
 10
-38.484646
 20
-7.599397
 11
-38.444645
 21
-9.469408
  0
LINE
  8
0
 10
-39.514645
 20
-9.499406
 11
-38.444645
 21
-9.469406
  0
LINE
  8
0
  6
CENTER
 62
     2
 10
31.059891
 20
22.400589
 11
-54.759956
 21
22.400589
  0
LINE
  8
0
 10
-146.399994
 20
-78.989990
 11
-146.399994
 21
-52.079987
  0
LINE
  8
0
 10
-136.399994
 20
-88.989990
 11
-104.799988
 21
-88.989990
  0
LINE
  8
0
 10
-94.799988
 20
-78.989990
 11
-94.799988
 21
-65.909988
  0
LINE
  8
0
 62
     2
 10
-146.399994
 20
-52.079990
 11
-94.799980
 21
-65.909988
  0
LINE
  8
0
 10
-142.959991
 20
-53.001999
 11
-142.959991
 21
-71.489990
  0
LINE
  8
0
 10
-134.239990
 20
-55.339157
 11
-134.239990
 21
-71.489990
  0
LINE
  8
0
 10
-142.369995
 20
-53.160126
 11
-142.369995
 21
-70.989990
  0
LINE
  8
0
 10
-142.119995
 20
-53.227127
 11
-142.119995
 21
-70.489990
  0
LINE
  8
0
 10
-140.299988
 20
-53.714935
 11
-140.299988
 21
-69.989990
  0
LINE
  8
0
 10
-134.639999
 20
-55.231949
 11
-134.639999
 21
-70.489990
  0
LINE
  8
0
 10
-139.299988
 20
-70.989990
 11
-135.639999
 21
-70.989990
  0
LINE
  8
0
 10
-141.119995
 20
-71.489990
 11
-135.639999
 21
-71.489990
  0
LINE
  8
0
 10
-141.369995
 20
-71.989990
 11
-135.239990
 21
-71.989990
  0
LINE
  8
0
 10
-141.959991
 20
-72.489990
 11
-135.239990
 21
-72.489990
  0
LINE
  8
0
 10
-98.229996
 20
-64.990677
 11
-98.229996
 21
-71.489990
  0
LINE
  8
0
 10
-106.949997
 20
-62.653503
 11
-106.949997
 21
-71.489990
  0
LINE
  8
0
 10
-98.819992
 20
-64.832535
 11
-98.819992
 21
-70.989990
  0
LINE
  8
0
 10
-99.079987
 20
-64.762848
 11
-99.079987
 21
-70.489990
  0
LINE
  8
0
 10
-100.889999
 20
-64.277725
 11
-100.889999
 21
-69.989990
  0
LINE
  8
0
 10
-106.549988
 20
-62.760712
 11
-106.549988
 21
-70.489990
  0
LINE
  8
0
 10
-101.889999
 20
-70.989990
 11
-105.549988
 21
-70.989990
  0
LINE
  8
0
 10
-100.079987
 20
-71.489990
 11
-105.549988
 21
-71.489990
  0
LINE
  8
0
 10
-99.819992
 20
-71.989990
 11
-105.949997
 21
-71.989990
  0
LINE
  8
0
 10
-99.229996
 20
-72.489990
 11
-105.949997
 21
-72.489990
  0
LINE
  8
0
  6
CENTER
 62
     2
 10
-120.599991
 20
-48.989990
 11
-120.599991
 21
-117.000000
  0
LINE
  8
0
 10
-194.250000
 20
132.600006
 11
194.800003
 21
132.600006
  0
LINE
  8
0
 10
194.800003
 20
132.600006
 11
194.800003
 21
-133.500000
  0
LINE
  8
0
 10
-194.250000
 20
132.600006
 11
-194.250000
 21
-133.500000
  0
LINE
  8
0
 10
-194.250000
 20
-133.500000
 11
194.800003
 21
-133.500000
  0
LINE
  8
0
 10
109.800003
 20
-118.500000
 11
109.800003
 21
-133.500000
  0
LINE
  8
0
 10
109.800003
 20
-118.500000
 11
194.800003
 21
-118.500000
  0
LINE
  8
0
 10
109.800003
 20
132.600006
 11
109.800003
 21
117.600006
  0
LINE
  8
0
 10
109.800003
 20
117.600006
 11
194.800003
 21
117.600006
  0
LINE
  8
0
 10
-194.250000
 20
117.600006
 11
-109.250000
 21
117.600006
  0
LINE
  8
0
 10
-109.250000
 20
132.600006
 11
-109.250000
 21
117.600006
  0
ARC
  8
0
 10
-10.609634
 20
85.057587
 40
22.001114
 50
222.983231
 51
317.016815
  0
ARC
  8
0
 10
-10.609634
 20
85.057587
 40
21.280474
 50
224.819199
 51
315.180847
  0
ARC
  8
0
 10
-10.609634
 20
85.057587
 40
22.001114
 50
42.983181
 51
137.016769
  0
ARC
  8
0
 10
-10.609634
 20
85.057587
 40
21.280474
 50
44.819138
 51
135.180801
  0
ARC
  8
0
 10
-10.609634
 20
85.057587
 40
30.996218
 50
208.942444
 51
331.057617
  0
ARC
  8
0
 10
-10.609634
 20
85.057587
 40
30.003662
 50
209.995987
 51
330.004028
  0
ARC
  8
0
 10
-10.609634
 20
85.057587
 40
30.996218
 50
28.942392
 51
151.057556
  0
ARC
  8
0
 10
-10.609634
 20
85.057587
 40
30.003664
 50
29.995960
 51
150.004013
  0
CIRCLE
  8
0
 62
     2
 10
120.895340
 20
22.400650
 40
8.331000
  0
CIRCLE
  8
0
 10
120.895340
 20
22.400650
 40
7.474999
  0
ARC
  8
0
 10
136.395355
 20
32.900574
 40
0.499985
 50
179.998245
 51
270.001740
  0
ARC
  8
0
 10
144.226227
 20
12.401518
 40
1.000929
 50
180.625626
 51
269.950226
  0
ARC
  8
0
 10
97.564514
 20
12.401514
 40
1.000924
 50
270.049774
 51
359.374634
  0
CIRCLE
  8
0
 10
120.895340
 20
22.400650
 40
10.250000
  0
ARC
  8
0
 10
136.895386
 20
12.400607
 40
1.000015
 50
180.001038
 51
269.999115
  0
ARC
  8
0
 10
104.895340
 20
12.400634
 40
1.000044
 50
270.002625
 51
359.997498
  0
ARC
  8
0
 10
105.395386
 20
32.900574
 40
0.499985
 50
269.998260
 51
0.001749
  0
ARC
  8
0
 10
100.377716
 20
-38.897064
 40
1.002337
 50
180.133240
 51
269.866547
  0
ARC
  8
0
 10
102.195541
 20
-38.399231
 40
1.000168
 50
180.009827
 51
269.990387
  0
ARC
  8
0
 10
99.526230
 20
-12.890259
 40
0.990896
 50
89.471054
 51
180.528839
  0
ARC
  8
0
 10
100.110168
 20
-13.394196
 40
0.994804
 50
89.699875
 51
180.300064
  0
ARC
  8
0
 10
100.368744
 20
-13.892776
 40
0.993394
 50
89.617599
 51
180.382294
  0
ARC
  8
0
 10
102.186569
 20
-14.390594
 40
0.991230
 50
89.490639
 51
180.509140
  0
ARC
  8
0
 10
105.839966
 20
-38.893997
 40
1.005424
 50
270.308258
 51
359.691742
  0
ARC
  8
0
 10
105.839966
 20
-38.393997
 40
1.005424
 50
270.308258
 51
359.691742
  0
ARC
  8
0
 10
106.249939
 20
-12.894836
 40
0.995448
 50
359.737274
 51
90.262604
  0
ARC
  8
0
 10
106.249939
 20
-13.394836
 40
0.995448
 50
359.737274
 51
90.262604
  0
ARC
  8
0
 10
105.848892
 20
-13.895874
 40
0.996481
 50
359.797394
 51
90.202667
  0
ARC
  8
0
 10
105.848892
 20
-14.395874
 40
0.996481
 50
359.797394
 51
90.202667
  0
ARC
  8
0
 10
99.530167
 20
-71.894608
 40
0.994810
 50
179.700317
 51
270.299683
  0
ARC
  8
0
 10
100.114090
 20
-71.390686
 40
0.998719
 50
179.926468
 51
270.073547
  0
ARC
  8
0
 10
100.372681
 20
-70.892105
 40
0.997310
 50
179.844833
 51
270.154724
  0
ARC
  8
0
 10
100.368744
 20
-44.892761
 40
0.993385
 50
89.617157
 51
180.382614
  0
ARC
  8
0
 10
102.190506
 20
-70.394272
 40
0.995144
 50
179.719742
 51
270.280243
  0
ARC
  8
0
 10
102.186554
 20
-45.390579
 40
0.991223
 50
89.490196
 51
180.509583
  0
ARC
  8
0
 10
106.246010
 20
-71.890045
 40
0.999359
 50
269.963257
 51
0.036743
  0
ARC
  8
0
 10
106.246010
 20
-71.390045
 40
0.999359
 50
269.963257
 51
0.036743
  0
ARC
  8
0
 10
105.844978
 20
-70.889008
 40
1.000397
 50
270.022736
 51
359.977264
  0
ARC
  8
0
 10
105.844978
 20
-70.389008
 40
1.000397
 50
270.022736
 51
359.977264
  0
ARC
  8
0
 10
105.848900
 20
-44.895874
 40
0.996474
 50
359.796906
 51
90.203110
  0
ARC
  8
0
 10
105.848900
 20
-45.395874
 40
0.996474
 50
359.796906
 51
90.203110
  0
ARC
  8
0
 10
105.363167
 20
-79.391296
 40
9.998100
 50
180.447632
 51
270.012634
  0
ARC
  8
0
 10
135.938156
 20
-13.892197
 40
0.992813
 50
89.583473
 51
180.416306
  0
ARC
  8
0
 10
135.537109
 20
-13.391144
 40
0.991777
 50
89.523094
 51
180.476959
  0
ARC
  8
0
 10
141.418304
 20
-13.896469
 40
0.997075
 50
359.831207
 51
90.168350
  0
ARC
  8
0
 10
141.676880
 20
-13.397888
 40
0.998475
 50
359.912720
 51
90.087563
  0
ARC
  8
0
 10
141.409378
 20
-38.893417
 40
1.006007
 50
270.341522
 51
359.658905
  0
ARC
  8
0
 10
139.596558
 20
-38.390610
 40
1.008839
 50
270.500031
 51
359.500183
  0
ARC
  8
0
 10
139.605469
 20
-14.399307
 40
0.999893
 50
359.994141
 51
90.006119
  0
ARC
  8
0
 10
135.947128
 20
-38.897644
 40
1.001756
 50
180.100143
 51
269.899628
  0
ARC
  8
0
 10
135.947128
 20
-38.397644
 40
1.001756
 50
180.100143
 51
269.899628
  0
ARC
  8
0
 10
135.938156
 20
-14.392197
 40
0.992813
 50
89.583473
 51
180.416306
  0
ARC
  8
0
 10
142.261887
 20
-71.885925
 40
1.003477
 50
270.198639
 51
359.801788
  0
ARC
  8
0
 10
141.672974
 20
-71.387009
 40
1.002391
 50
270.136932
 51
359.863495
  0
ARC
  8
0
 10
141.414383
 20
-70.888428
 40
1.000977
 50
270.055908
 51
359.944092
  0
ARC
  8
0
 10
141.418304
 20
-44.896454
 40
0.997059
 50
359.830780
 51
90.169228
  0
ARC
  8
0
 10
139.601562
 20
-70.385605
 40
1.003814
 50
270.216858
 51
359.782684
  0
ARC
  8
0
 10
139.605469
 20
-45.399292
 40
0.999893
 50
359.993652
 51
90.006119
  0
ARC
  8
0
 10
135.541046
 20
-71.893723
 40
0.995691
 50
179.751511
 51
270.248474
  0
ARC
  8
0
 10
135.541046
 20
-71.393723
 40
0.995691
 50
179.751511
 51
270.248474
  0
ARC
  8
0
 10
135.942093
 20
-70.892685
 40
0.996725
 50
179.811417
 51
270.188599
  0
ARC
  8
0
 10
135.942093
 20
-70.392685
 40
0.996725
 50
179.811417
 51
270.188599
  0
ARC
  8
0
 10
135.938156
 20
-44.892181
 40
0.992805
 50
89.583473
 51
180.416748
  0
ARC
  8
0
 10
135.938156
 20
-45.392181
 40
0.992805
 50
89.583473
 51
180.416748
  0
ARC
  8
0
 10
136.423920
 20
-79.387619
 40
10.001778
 50
270.008301
 51
359.531525
  0
ARC
  8
0
 10
135.537109
 20
-12.891144
 40
0.991777
 50
89.523094
 51
180.476959
  0
ARC
  8
0
 10
142.265793
 20
-12.898972
 40
0.999558
 50
359.975067
 51
90.024490
  0
ARC
  8
0
 10
-39.037376
 20
-33.240067
 40
0.297418
 50
181.797806
 51
217.082565
  0
ARC
  8
0
 10
9.911194
 20
-38.895248
 40
1.004155
 50
270.236694
 51
359.763397
  0
ARC
  8
0
 10
8.098389
 20
-38.392441
 40
1.006982
 50
270.396057
 51
359.603882
  0
ARC
  8
0
 10
10.767639
 20
-12.897110
 40
0.997704
 50
359.868011
 51
90.131935
  0
ARC
  8
0
 10
10.178726
 20
-13.396027
 40
0.996631
 50
359.805969
 51
90.194031
  0
ARC
  8
0
 10
9.920151
 20
-13.894608
 40
0.995216
 50
359.723877
 51
90.276062
  0
ARC
  8
0
 10
8.107300
 20
-14.397446
 40
0.998043
 50
359.887543
 51
90.112457
  0
ARC
  8
0
 10
4.448929
 20
-38.895828
 40
1.003589
 50
180.204498
 51
269.795502
  0
ARC
  8
0
 10
4.448929
 20
-38.395828
 40
1.003589
 50
180.204498
 51
269.795502
  0
ARC
  8
0
 10
4.038940
 20
-12.893005
 40
0.993617
 50
89.630669
 51
180.369278
  0
ARC
  8
0
 10
4.038940
 20
-13.393005
 40
0.993617
 50
89.630669
 51
180.369278
  0
ARC
  8
0
 10
4.439987
 20
-13.894043
 40
0.994648
 50
89.690819
 51
180.309128
  0
ARC
  8
0
 10
4.439987
 20
-14.394043
 40
0.994648
 50
89.690819
 51
180.309128
  0
ARC
  8
0
 10
10.763733
 20
-71.887787
 40
1.001619
 50
270.092590
 51
359.907471
  0
ARC
  8
0
 10
10.174805
 20
-71.388855
 40
1.000542
 50
270.031281
 51
359.968536
  0
ARC
  8
0
 10
9.916214
 20
-70.890274
 40
0.999131
 50
269.950165
 51
0.049876
  0
ARC
  8
0
 10
9.920151
 20
-44.894608
 40
0.995208
 50
359.723511
 51
90.276497
  0
ARC
  8
0
 10
8.103394
 20
-70.387451
 40
1.001955
 50
270.111908
 51
359.888306
  0
ARC
  8
0
 10
8.107315
 20
-45.397430
 40
0.998035
 50
359.887207
 51
90.112892
  0
ARC
  8
0
 10
4.042877
 20
-71.891876
 40
0.997532
 50
179.858017
 51
270.141907
  0
ARC
  8
0
 10
4.042877
 20
-71.391876
 40
0.997532
 50
179.858017
 51
270.141907
  0
ARC
  8
0
 10
4.443909
 20
-70.890839
 40
0.998563
 50
179.917267
 51
270.082458
  0
ARC
  8
0
 10
4.443909
 20
-70.390839
 40
0.998563
 50
179.917267
 51
270.082458
  0
ARC
  8
0
 10
4.439972
 20
-44.894028
 40
0.994640
 50
89.690376
 51
180.309616
  0
ARC
  8
0
 10
4.439972
 20
-45.394028
 40
0.994640
 50
89.690376
 51
180.309616
  0
ARC
  8
0
 10
-31.120476
 20
-38.895233
 40
1.004178
 50
180.237900
 51
269.762115
  0
ARC
  8
0
 10
-29.302647
 20
-38.397400
 40
1.001999
 50
180.114304
 51
269.885803
  0
ARC
  8
0
 10
-31.971941
 20
-12.892105
 40
0.992731
 50
89.578819
 51
180.421066
  0
ARC
  8
0
 10
-31.383020
 20
-13.391022
 40
0.991660
 50
89.516098
 51
180.483841
  0
ARC
  8
0
 10
-31.129417
 20
-13.894638
 40
0.995238
 50
89.725151
 51
180.274734
  0
ARC
  8
0
 10
-29.311611
 20
-14.392441
 40
0.993059
 50
89.598106
 51
180.401840
  0
ARC
  8
0
 10
-25.653198
 20
-38.890854
 40
1.008589
 50
270.485870
 51
359.514130
  0
ARC
  8
0
 10
-25.653198
 20
-38.390854
 40
1.008589
 50
270.485870
 51
359.514130
  0
ARC
  8
0
 10
-25.243256
 20
-12.898010
 40
0.998607
 50
359.920013
 51
90.079994
  0
ARC
  8
0
 10
-25.243256
 20
-13.398010
 40
0.998607
 50
359.920013
 51
90.079994
  0
ARC
  8
0
 10
-25.644302
 20
-13.899048
 40
0.999649
 50
359.979828
 51
90.020119
  0
ARC
  8
0
 10
-25.644302
 20
-14.399048
 40
0.999649
 50
359.979828
 51
90.020119
  0
ARC
  8
0
 10
-31.968006
 20
-71.892761
 40
0.996645
 50
179.807007
 51
270.193085
  0
ARC
  8
0
 10
-31.379080
 20
-71.393845
 40
0.995575
 50
179.744904
 51
270.255219
  0
ARC
  8
0
 10
-31.125492
 20
-70.890244
 40
0.999153
 50
179.951431
 51
270.048553
  0
ARC
  8
0
 10
-31.129425
 20
-44.894623
 40
0.995232
 50
89.724716
 51
180.275177
  0
ARC
  8
0
 10
-29.307674
 20
-70.392441
 40
0.996974
 50
179.825928
 51
270.174164
  0
ARC
  8
0
 10
-29.311619
 20
-45.392426
 40
0.993051
 50
89.597664
 51
180.402344
  0
ARC
  8
0
 10
-25.247177
 20
-71.886887
 40
1.002521
 50
270.144012
 51
359.856110
  0
ARC
  8
0
 10
-25.247177
 20
-71.386887
 40
1.002521
 50
270.144012
 51
359.856110
  0
ARC
  8
0
 10
-25.648209
 20
-70.885849
 40
1.003562
 50
270.203094
 51
359.797028
  0
ARC
  8
0
 10
-25.648209
 20
-70.385849
 40
1.003562
 50
270.203094
 51
359.797028
  0
ARC
  8
0
 10
-25.644287
 20
-44.899048
 40
0.999641
 50
359.979462
 51
90.020554
  0
ARC
  8
0
 10
-25.644287
 20
-45.399048
 40
0.999641
 50
359.979462
 51
90.020554
  0
ARC
  8
0
 10
4.925735
 20
-79.389481
 40
9.999924
 50
269.997772
 51
359.542053
  0
ARC
  8
0
 10
-26.129974
 20
-79.394455
 40
9.994952
 50
180.429703
 51
269.973236
  0
ARC
  8
0
 10
-136.407028
 20
-78.997025
 40
9.992969
 50
179.959625
 51
270.040344
  0
ARC
  8
0
 10
-104.797562
 20
-78.992416
 40
9.997574
 50
269.986145
 51
0.013904
  0
ARC
  8
0
 10
-135.643555
 20
-69.986435
 40
1.003562
 50
270.202972
 51
359.797028
  0
ARC
  8
0
 10
-135.643555
 20
-70.486435
 40
1.003562
 50
270.202972
 51
359.797028
  0
ARC
  8
0
 10
-135.242508
 20
-70.987473
 40
1.002521
 50
270.143890
 51
359.856110
  0
ARC
  8
0
 10
-135.242508
 20
-71.487473
 40
1.002521
 50
270.143890
 51
359.856110
  0
ARC
  8
0
 10
-139.303024
 20
-69.993027
 40
0.996968
 50
179.825928
 51
270.174500
  0
ARC
  8
0
 10
-141.120834
 20
-70.490845
 40
0.999161
 50
179.951431
 51
270.048126
  0
ARC
  8
0
 10
-141.374420
 20
-70.994431
 40
0.995570
 50
179.744888
 51
270.255554
  0
ARC
  8
0
 10
-141.963348
 20
-71.493347
 40
0.996649
 50
179.807022
 51
270.192993
  0
ARC
  8
0
 10
-105.551437
 20
-69.991425
 40
0.998567
 50
179.917267
 51
270.082306
  0
ARC
  8
0
 10
-105.551437
 20
-70.491425
 40
0.998567
 50
179.917267
 51
270.082306
  0
ARC
  8
0
 10
-105.952469
 20
-70.992462
 40
0.997531
 50
179.858017
 51
270.141968
  0
ARC
  8
0
 10
-105.952469
 20
-71.492462
 40
0.997531
 50
179.858017
 51
270.141968
  0
ARC
  8
0
 10
-101.891953
 20
-69.988037
 40
1.001955
 50
270.112122
 51
359.888306
  0
ARC
  8
0
 10
-100.079117
 20
-70.490860
 40
0.999131
 50
269.950134
 51
0.049876
  0
ARC
  8
0
 10
-99.820541
 20
-70.989441
 40
1.000542
 50
270.031464
 51
359.968536
  0
ARC
  8
0
 10
-99.231613
 20
-71.488373
 40
1.001619
 50
270.092529
 51
359.907471
  0
POLYLINE
  8
0
 66
     1
  0
VERTEX
  8
0
 10
-36.654644
 20
-19.569397
  0
VERTEX
  8
0
 10
-36.326004
 20
-20.389107
  0
VERTEX
  8
0
 10
-36.026451
 20
-21.204132
  0
VERTEX
  8
0
 10
-35.756832
 20
-22.021872
  0
VERTEX
  8
0
 10
-35.517982
 20
-22.849716
  0
VERTEX
  8
0
 10
-35.310741
 20
-23.695065
  0
VERTEX
  8
0
 10
-35.135948
 20
-24.565311
  0
VERTEX
  8
0
 10
-34.994442
 20
-25.467854
  0
VERTEX
  8
0
 10
-34.887058
 20
-26.410084
  0
VERTEX
  8
0
 10
-34.814644
 20
-27.399399
  0
VERTEX
  8
0
 10
-34.784992
 20
-28.326998
  0
VERTEX
  8
0
 10
-34.795059
 20
-29.255699
  0
VERTEX
  8
0
 10
-34.843765
 20
-30.183901
  0
VERTEX
  8
0
 10
-34.930027
 20
-31.110003
  0
VERTEX
  8
0
 10
-35.052765
 20
-32.032402
  0
VERTEX
  8
0
 10
-35.210899
 20
-32.949497
  0
VERTEX
  8
0
 10
-35.403347
 20
-33.859692
  0
VERTEX
  8
0
 10
-35.629025
 20
-34.761379
  0
VERTEX
  8
0
 10
-35.886856
 20
-35.652962
  0
VERTEX
  8
0
 10
-36.175755
 20
-36.532833
  0
VERTEX
  8
0
 10
-36.494644
 20
-37.399399
  0
SEQEND
  0
TEXT
  8
0
 10
136.157150
 20
122.050003
 40
4.500000
  1
Ｖｅｒ．２．０
 50
0.000000
 41
0.833333
 51
0.000000
  7
STANDARD
  0
TEXT
  8
0
 10
-165.642654
 20
122.050003
 40
4.500000
  1
FILTER
 50
0.000000
 41
1.052632
 51
0.000000
  7
STANDARD
  0
TEXT
  8
0
 10
-143.276184
 20
-40.352673
 40
4.500000
  1
OPTION:-F1
 50
0.000000
 41
1.052632
 51
0.000000
  7
STANDARD
  0
TEXT
  8
0
 10
-152.000000
 20
97.900009
 40
4.500000
  1
MMF150-03
 50
0.000000
 41
1.052632
 51
0.000000
  7
STANDARD
  0
TEXT
  8
0
 10
37.083374
 20
23.400574
 40
4.500000
  1
OUT
 50
0.000000
 41
1.052632
 51
0.000000
  7
STANDARD
  0
TEXT
  8
0
 10
-70.916656
 20
23.400604
 40
4.500000
  1
IN
 50
0.000000
 41
1.052632
 51
0.000000
  7
STANDARD
  0
TEXT
  8
0
 10
-179.000000
 20
105.900009
 40
4.500000
  1
MODEL:MF300-03
 50
0.000000
 41
1.052632
 51
0.000000
  7
STANDARD
  0
TEXT
  8
0
 10
113.700287
 20
-130.669998
 40
6.300000
  1
KOGANEI CORP.
 50
0.000000
 41
1.052632
 51
0.000000
  7
STANDARD
  0
LINE
  8
0
 10
55.895401
 20
22.400574
 11
30.895401
 21
22.400574
  0
LINE
  8
0
 10
55.895401
 20
22.400574
 11
52.997623
 21
23.177031
  0
LINE
  8
0
 10
55.895401
 20
22.400574
 11
52.997623
 21
21.624117
  0
LINE
  8
0
 10
-52.104645
 20
22.400589
 11
-77.104645
 21
22.400589
  0
LINE
  8
0
 10
-52.104645
 20
22.400589
 11
-55.002422
 21
23.177046
  0
LINE
  8
0
 10
-52.104645
 20
22.400589
 11
-55.002422
 21
21.624132
  0
ENDSEC
  0
EOF
