  0
SECTION
  2
HEADER
  0
ENDSEC
  0
SECTION
  2
TABLES
  0
TABLE
  2
LTYPE
 70
     4
  0
LTYPE
  2
CONTINUOUS
 70
    64
  3
Solid line
 72
    65
 73
     0
 40
0.000000
  0
LTYPE
  2
DASHED
 70
    64
  3
__ __ __ __ __ __ __ __ __ __ __ __ __ __ __
 72
    65
 73
     2
 40
3.500000
 49
2.000000
 49
-1.500000
  0
LTYPE
  2
CENTER
 70
    64
  3
____ _ ____ _ ____ _ ____ _ ____ _ ____ _ ____
 72
    65
 73
     4
 40
17.500000
 49
13.000000
 49
-1.500000
 49
1.500000
 49
-1.500000
  0
LTYPE
  2
PHANTOM
 70
    64
  3
_____ _ _ _____ _ _ _____ _ _ _____ _ _ ____  
 72
    65
 73
     6
 40
15.500000
 49
8.000000
 49
-1.500000
 49
1.500000
 49
-1.500000
 49
1.500000
 49
-1.500000
  0
LTYPE
  2
DASHED1
 70
    64
  3
__ __ __ __ __ __ __ __ __ __ __ __ __ __ __
 72
    65
 73
     2
 40
1.500000
 49
1.000000
 49
-0.500000
  0
LTYPE
  2
DASHED2
 70
    64
  3
__ __ __ __ __ __ __ __ __ __ __ __ __ __ __
 72
    65
 73
     2
 40
3.500000
 49
2.500000
 49
-1.000000
  0
LTYPE
  2
DASHED3
 70
    64
  3
__ __ __ __ __ __ __ __ __ __ __ __ __ __ __
 72
    65
 73
     2
 40
6.000000
 49
4.000000
 49
-2.000000
  0
LTYPE
  2
DASHED4
 70
    64
  3
__ __ __ __ __ __ __ __ __ __ __ __ __ __ __
 72
    65
 73
     2
 40
12.000000
 49
10.000000
 49
-2.000000
  0
LTYPE
  2
DASHED5
 70
    64
  3
__ __ __ __ __ __ __ __ __ __ __ __ __ __ __
 72
    65
 73
     2
 40
17.000000
 49
15.000000
 49
-2.000000
  0
LTYPE
  2
DASHED6
 70
    64
  3
__ __ __ __ __ __ __ __ __ __ __ __ __ __ __
 72
    65
 73
     2
 40
29.000000
 49
27.000000
 49
-2.000000
  0
LTYPE
  2
PHANTOM1
 70
    64
  3
_____ _ _ _____ _ _ _____ _ _ _____ _ _ ____  
 72
    65
 73
     6
 40
31.000000
 49
25.000000
 49
-1.500000
 49
1.000000
 49
-1.000000
 49
1.000000
 49
-1.500000
  0
LTYPE
  2
PHANTOM2
 70
    64
  3
_____ _ _ _____ _ _ _____ _ _ _____ _ _ ____  
 72
    65
 73
     6
 40
36.000000
 49
27.000000
 49
-1.500000
 49
2.500000
 49
-1.000000
 49
2.500000
 49
-1.500000
  0
LTYPE
  2
PHANTOM3
 70
    64
  3
_____ _ _ _____ _ _ _____ _ _ _____ _ _ ____  
 72
    65
 73
     6
 40
78.000000
 49
64.000000
 49
-2.000000
 49
4.000000
 49
-2.000000
 49
4.000000
 49
-2.000000
  0
LTYPE
  2
CENTER1
 70
    64
  3
____ _ ____ _ ____ _ ____ _ ____ _ ____ _ ____
 72
    65
 73
     4
 40
19.000000
 49
14.000000
 49
-1.000000
 49
3.000000
 49
-1.000000
  0
LTYPE
  2
CENTER2
 70
    64
  3
____ _ ____ _ ____ _ ____ _ ____ _ ____ _ ____
 72
    65
 73
     4
 40
28.500000
 49
25.000000
 49
-1.000000
 49
1.500000
 49
-1.000000
  0
LTYPE
  2
CENTER3
 70
    64
  3
____ _ ____ _ ____ _ ____ _ ____ _ ____ _ ____
 72
    65
 73
     4
 40
31.500000
 49
27.000000
 49
-1.000000
 49
2.500000
 49
-1.000000
  0
LTYPE
  2
CENTER4
 70
    64
  3
____ _ ____ _ ____ _ ____ _ ____ _ ____ _ ____
 72
    65
 73
     4
 40
50.000000
 49
45.000000
 49
-1.000000
 49
3.000000
 49
-1.000000
  0
LTYPE
  2
CENTER5
 70
    64
  3
____ _ ____ _ ____ _ ____ _ ____ _ ____ _ ____
 72
    65
 73
     4
 40
100.000000
 49
92.000000
 49
-2.000000
 49
4.000000
 49
-2.000000
  0
LTYPE
  2
SBK1
 70
    64
  3
______ _ _ _ ______ _ _ _ ______ _ _ _ _____  
 72
    65
 73
     8
 40
60.500000
 49
45.000000
 49
-2.000000
 49
2.500000
 49
-2.000000
 49
2.500000
 49
-2.000000
 49
2.500000
 49
-2.000000
  0
LTYPE
  2
SBK2
 70
    64
  3
______ _ _ _ ______ _ _ _ ______ _ _ _ _____  
 72
    65
 73
     8
 40
84.000000
 49
64.000000
 49
-2.000000
 49
4.000000
 49
-2.000000
 49
4.000000
 49
-2.000000
 49
4.000000
 49
-2.000000
  0
LTYPE
  2
STCH
 70
    64
  3
__ __ __ __ __ __ __ __ __ __ __ __ __ __ __
 72
    65
 73
     2
 40
3.000000
 49
1.000000
 49
-2.000000
  0
LTYPE
  2
MTCH
 70
    64
  3
_____ _ _ _____ _ _ _____ _ _ _____ _ _ ____  
 72
    65
 73
     6
 40
80.000000
 49
66.000000
 49
-2.000000
 49
4.000000
 49
-2.000000
 49
4.000000
 49
-2.000000
  0
ENDTAB
  0
TABLE
  2
LAYER
 70
     1
  0
LAYER
  2
0
 70
     0
 62
     7
  6
CONTINUOUS
  0
ENDTAB
  0
TABLE
  2
STYLE
 70
     1
  0
STYLE
  2
STANDARD
 70
     0
 40
0.000000
 41
1.000000
 50
0.000000
 71
     0
 42
0.200000
  3
txt
  4
BIGFONT
  0
ENDTAB
  0
TABLE
  2
VIEW
 70
     0
  0
ENDTAB
  0
ENDSEC
  0
SECTION
  2
BLOCKS
  0
ENDSEC
  0
SECTION
  2
ENTITIES
  0
LINE
  8
0
  6
CENTER
 62
     2
 10
-42.888474
 20
179.591873
 11
-42.888474
 21
94.591873
  0
LINE
  8
0
 10
-82.888474
 20
156.091873
 11
-82.888474
 21
118.091873
  0
LINE
  8
0
 10
-2.888474
 20
156.091873
 11
-2.888474
 21
118.091873
  0
LINE
  8
0
 10
-82.888474
 20
118.091866
 11
-81.888466
 21
117.091866
  0
LINE
  8
0
 10
-2.888489
 20
118.091873
 11
-3.888478
 21
117.091881
  0
LINE
  8
0
 10
-3.888475
 20
157.091873
 11
-2.888482
 21
156.091888
  0
LINE
  8
0
 10
-81.888466
 20
157.091873
 11
-82.888474
 21
156.091873
  0
LINE
  8
0
 10
-81.888474
 20
157.091873
 11
-81.888474
 21
117.091873
  0
LINE
  8
0
 10
-3.888474
 20
157.091873
 11
-3.888474
 21
117.091873
  0
LINE
  8
0
 10
-81.888474
 20
157.091873
 11
-3.888474
 21
157.091873
  0
LINE
  8
0
 10
-81.888474
 20
117.091873
 11
-2.888474
 21
117.091873
  0
LINE
  8
0
 10
-82.888474
 20
156.091873
 11
-2.888474
 21
156.091873
  0
LINE
  8
0
 10
-82.888474
 20
118.091873
 11
-2.888474
 21
118.091873
  0
LINE
  8
0
  6
CENTER
 62
     2
 10
-87.688477
 20
137.091873
 11
0.731522
 21
137.091873
  0
LINE
  8
0
 10
127.041466
 20
-157.662949
 11
143.191467
 21
-157.662949
  0
LINE
  8
0
 10
153.531464
 20
-156.662949
 11
116.701477
 21
-156.662949
  0
LINE
  8
0
 10
128.611465
 20
-173.952957
 11
141.611465
 21
-173.952957
  0
LINE
  8
0
 10
132.261459
 20
-176.352951
 11
132.261459
 21
-174.452957
  0
LINE
  8
0
 10
137.961472
 20
-176.352951
 11
137.961472
 21
-174.452957
  0
LINE
  8
0
 10
138.361450
 20
-176.552948
 11
137.941452
 21
-178.952957
  0
LINE
  8
0
 10
138.361465
 20
-179.152954
 11
137.941467
 21
-181.552963
  0
LINE
  8
0
 10
131.861465
 20
-179.152954
 11
132.291473
 21
-181.552963
  0
LINE
  8
0
 10
131.861481
 20
-176.552963
 11
132.291473
 21
-178.952957
  0
LINE
  8
0
 10
138.361465
 20
-176.552948
 11
138.361465
 21
-176.352951
  0
LINE
  8
0
 10
131.861465
 20
-176.552948
 11
131.861465
 21
-176.352951
  0
LINE
  8
0
 10
138.361465
 20
-179.152954
 11
131.861465
 21
-179.152954
  0
LINE
  8
0
 10
138.361465
 20
-176.552948
 11
131.861465
 21
-176.552948
  0
LINE
  8
0
 10
138.361465
 20
-176.352951
 11
131.861465
 21
-176.352951
  0
LINE
  8
0
 10
138.361465
 20
-178.952957
 11
131.861465
 21
-178.952957
  0
LINE
  8
0
 10
138.361465
 20
-179.152954
 11
138.361465
 21
-178.952957
  0
LINE
  8
0
 10
131.861465
 20
-179.152954
 11
131.861465
 21
-178.952957
  0
LINE
  8
0
 10
137.941467
 20
-181.552948
 11
132.291473
 21
-181.552948
  0
LINE
  8
0
 10
141.111465
 20
-174.452957
 11
141.611465
 21
-173.952957
  0
LINE
  8
0
 10
128.611465
 20
-173.952957
 11
129.111465
 21
-174.452957
  0
LINE
  8
0
 10
128.611465
 20
-173.952957
 11
128.611465
 21
-172.952957
  0
LINE
  8
0
 10
141.611465
 20
-173.952957
 11
141.611465
 21
-172.952957
  0
LINE
  8
0
 10
141.111465
 20
-174.452957
 11
129.111465
 21
-174.452957
  0
LINE
  8
0
 10
142.861465
 20
-159.952957
 11
127.361465
 21
-159.952957
  0
LINE
  8
0
 10
128.851471
 20
-172.452957
 11
128.101471
 21
-172.452957
  0
LINE
  8
0
 10
142.131470
 20
-172.452957
 11
141.371460
 21
-172.452957
  0
LINE
  8
0
 10
133.271469
 20
-172.452957
 11
131.461472
 21
-172.452957
  0
LINE
  8
0
 10
128.681458
 20
-171.952942
 11
128.851471
 21
-172.452957
  0
LINE
  8
0
 10
141.551468
 20
-171.952957
 11
141.371475
 21
-172.452942
  0
LINE
  8
0
 10
142.131470
 20
-162.742935
 11
142.721466
 21
-162.452942
  0
LINE
  8
0
 10
138.771469
 20
-162.742966
 11
139.431458
 21
-162.452972
  0
LINE
  8
0
 10
136.961472
 20
-162.742966
 11
136.611465
 21
-162.452957
  0
LINE
  8
0
 10
133.271454
 20
-162.742935
 11
133.611465
 21
-162.452942
  0
LINE
  8
0
 10
131.461472
 20
-162.742950
 11
130.801468
 21
-162.452957
  0
LINE
  8
0
 10
128.101471
 20
-162.742950
 11
127.511467
 21
-162.452957
  0
LINE
  8
0
 10
128.101471
 20
-172.452957
 11
127.511452
 21
-171.952942
  0
LINE
  8
0
 10
131.461456
 20
-172.452957
 11
130.801468
 21
-171.952957
  0
LINE
  8
0
 10
133.611481
 20
-171.952942
 11
133.271469
 21
-172.452957
  0
LINE
  8
0
 10
136.961472
 20
-172.452957
 11
136.611465
 21
-171.952957
  0
LINE
  8
0
 10
138.771454
 20
-172.452957
 11
139.431458
 21
-171.952957
  0
LINE
  8
0
 10
142.131470
 20
-172.452957
 11
142.721481
 21
-171.952957
  0
LINE
  8
0
 10
138.771469
 20
-172.452957
 11
136.961472
 21
-172.452957
  0
LINE
  8
0
 10
141.551468
 20
-171.952957
 11
139.431458
 21
-171.952957
  0
LINE
  8
0
 10
127.511467
 20
-171.952957
 11
127.361465
 21
-171.952957
  0
LINE
  8
0
 10
130.801468
 20
-171.952957
 11
128.681473
 21
-171.952957
  0
LINE
  8
0
 10
136.611465
 20
-171.952957
 11
133.611465
 21
-171.952957
  0
LINE
  8
0
 10
128.681473
 20
-162.742950
 11
128.101471
 21
-162.742950
  0
LINE
  8
0
 10
128.681473
 20
-162.452957
 11
127.511467
 21
-162.452957
  0
LINE
  8
0
 10
138.771469
 20
-162.742950
 11
136.961472
 21
-162.742950
  0
LINE
  8
0
 10
139.431458
 20
-162.452957
 11
136.611465
 21
-162.452957
  0
LINE
  8
0
 10
133.271469
 20
-162.742950
 11
131.461472
 21
-162.742950
  0
LINE
  8
0
 10
133.611465
 20
-162.452957
 11
130.801468
 21
-162.452957
  0
LINE
  8
0
 10
142.861465
 20
-171.952957
 11
142.721466
 21
-171.952957
  0
LINE
  8
0
 10
142.131470
 20
-162.742950
 11
141.551468
 21
-162.742950
  0
LINE
  8
0
 10
142.721466
 20
-162.452957
 11
141.551468
 21
-162.452957
  0
LINE
  8
0
 10
142.721466
 20
-162.452957
 11
142.721466
 21
-171.952957
  0
LINE
  8
0
 10
142.131470
 20
-162.742950
 11
142.131470
 21
-172.452957
  0
LINE
  8
0
 10
141.551468
 20
-162.452957
 11
141.551468
 21
-171.952957
  0
LINE
  8
0
 10
139.431458
 20
-162.452957
 11
139.431458
 21
-171.952957
  0
LINE
  8
0
 10
138.771469
 20
-162.742950
 11
138.771469
 21
-172.452957
  0
LINE
  8
0
 10
127.511467
 20
-162.452957
 11
127.511467
 21
-171.952957
  0
LINE
  8
0
 10
128.101471
 20
-162.742950
 11
128.101471
 21
-172.452957
  0
LINE
  8
0
 10
128.681473
 20
-162.452957
 11
128.681473
 21
-171.952957
  0
LINE
  8
0
 10
130.801468
 20
-162.452957
 11
130.801468
 21
-171.952957
  0
LINE
  8
0
 10
131.461472
 20
-162.742950
 11
131.461472
 21
-172.452957
  0
LINE
  8
0
 10
133.271469
 20
-162.742950
 11
133.271469
 21
-172.452957
  0
LINE
  8
0
 10
136.961472
 20
-162.742950
 11
136.961472
 21
-172.452957
  0
LINE
  8
0
 10
136.611465
 20
-162.452957
 11
136.611465
 21
-171.952957
  0
LINE
  8
0
 10
133.611465
 20
-162.452957
 11
133.611465
 21
-171.952957
  0
LINE
  8
0
 62
     2
 10
140.361465
 20
-158.162949
 11
140.361465
 21
-159.452957
  0
LINE
  8
0
 62
     2
 10
129.861465
 20
-158.162949
 11
129.861465
 21
-159.452957
  0
LINE
  8
0
 10
129.111465
 20
-158.162949
 11
129.111465
 21
-159.452957
  0
LINE
  8
0
 10
141.111465
 20
-158.162949
 11
141.111465
 21
-159.452957
  0
LINE
  8
0
 10
127.861465
 20
-159.452942
 11
127.361465
 21
-159.952942
  0
LINE
  8
0
 10
142.361465
 20
-159.452942
 11
142.861465
 21
-159.952942
  0
LINE
  8
0
 10
142.361465
 20
-159.452957
 11
127.861465
 21
-159.452957
  0
LINE
  8
0
 10
128.361465
 20
-172.952957
 11
127.361465
 21
-171.952957
  0
LINE
  8
0
 10
142.861450
 20
-171.952957
 11
141.861450
 21
-172.952957
  0
LINE
  8
0
 10
127.361465
 20
-159.952957
 11
127.361465
 21
-171.952957
  0
LINE
  8
0
 10
142.861465
 20
-159.952957
 11
142.861465
 21
-171.952957
  0
LINE
  8
0
 10
141.861465
 20
-172.952957
 11
128.361465
 21
-172.952957
  0
LINE
  8
0
 10
127.541466
 20
-158.162949
 11
127.041466
 21
-157.662949
  0
LINE
  8
0
 10
142.691467
 20
-158.162933
 11
143.191467
 21
-157.662949
  0
LINE
  8
0
 10
143.191467
 20
-157.662949
 11
143.191467
 21
-156.662949
  0
LINE
  8
0
 10
127.041466
 20
-157.662949
 11
127.041466
 21
-156.662949
  0
LINE
  8
0
 10
127.541466
 20
-158.162949
 11
142.691467
 21
-158.162949
  0
LINE
  8
0
 10
96.611458
 20
-57.472954
 11
95.611473
 21
-56.472965
  0
LINE
  8
0
 10
174.611465
 20
-56.472961
 11
173.611481
 21
-57.472950
  0
LINE
  8
0
 10
173.611450
 20
6.027048
 11
174.611465
 21
5.027048
  0
LINE
  8
0
 10
95.611481
 20
5.027042
 11
96.611481
 21
6.027044
  0
LINE
  8
0
 10
95.611465
 20
-56.472961
 11
174.611465
 21
-56.472961
  0
LINE
  8
0
 10
95.611465
 20
5.027039
 11
174.611465
 21
5.027039
  0
LINE
  8
0
 10
174.611465
 20
5.027039
 11
174.611465
 21
-56.472961
  0
LINE
  8
0
 10
95.611465
 20
5.027039
 11
95.611465
 21
-56.472961
  0
LINE
  8
0
 10
96.611465
 20
-57.472961
 11
173.611465
 21
-57.472961
  0
LINE
  8
0
 10
155.111465
 20
57.027039
 11
155.111465
 21
26.027039
  0
LINE
  8
0
 10
115.111465
 20
57.027039
 11
115.111465
 21
26.027039
  0
LINE
  8
0
 10
162.611465
 20
55.027039
 11
163.611465
 21
54.027039
  0
LINE
  8
0
 10
106.611473
 20
54.027035
 11
107.611473
 21
55.027035
  0
LINE
  8
0
 10
156.111465
 20
54.027039
 11
163.611465
 21
54.027039
  0
LINE
  8
0
 10
106.611465
 20
54.027039
 11
114.111465
 21
54.027039
  0
LINE
  8
0
 10
157.111465
 20
55.027039
 11
162.611465
 21
55.027039
  0
LINE
  8
0
  6
CENTER
 62
     2
 10
103.201477
 20
42.027039
 11
167.741455
 21
42.027039
  0
LINE
  8
0
 10
154.111465
 20
58.027035
 11
155.111465
 21
57.027039
  0
LINE
  8
0
 10
116.111465
 20
58.027035
 11
115.111465
 21
57.027031
  0
LINE
  8
0
 10
115.111465
 20
57.027039
 11
155.111465
 21
57.027039
  0
LINE
  8
0
 10
116.111465
 20
58.027039
 11
116.111465
 21
26.027039
  0
LINE
  8
0
 10
154.111465
 20
58.027039
 11
154.111465
 21
26.027039
  0
LINE
  8
0
 10
116.111465
 20
58.027039
 11
154.111465
 21
58.027039
  0
LINE
  8
0
 10
107.611465
 20
55.027039
 11
113.111465
 21
55.027039
  0
LINE
  8
0
 10
163.611465
 20
54.027039
 11
163.611465
 21
28.527039
  0
LINE
  8
0
 10
106.611465
 20
54.027039
 11
106.611465
 21
28.527039
  0
LINE
  8
0
 10
96.611465
 20
6.027039
 11
173.611465
 21
6.027039
  0
LINE
  8
0
 10
157.111465
 20
27.027039
 11
173.611465
 21
27.027039
  0
LINE
  8
0
 10
95.611465
 20
26.027039
 11
174.611465
 21
26.027039
  0
LINE
  8
0
 10
174.611450
 20
26.027044
 11
173.611465
 21
27.027040
  0
LINE
  8
0
 10
95.611473
 20
26.027040
 11
96.611481
 21
27.027044
  0
LINE
  8
0
 10
95.611465
 20
7.027039
 11
174.611465
 21
7.027039
  0
LINE
  8
0
 10
174.611450
 20
7.027040
 11
173.611450
 21
6.027044
  0
LINE
  8
0
 10
95.611473
 20
7.027049
 11
96.611473
 21
6.027048
  0
LINE
  8
0
 10
96.611465
 20
27.027039
 11
113.111465
 21
27.027039
  0
LINE
  8
0
 10
174.611465
 20
26.027039
 11
174.611465
 21
7.027039
  0
LINE
  8
0
 10
95.611465
 20
26.027039
 11
95.611465
 21
7.027039
  0
LINE
  8
0
 10
101.701469
 20
-141.792953
 11
100.961472
 21
-57.472958
  0
LINE
  8
0
 10
168.531448
 20
-141.792953
 11
169.271454
 21
-57.472954
  0
LINE
  8
0
 10
106.401474
 20
-63.172958
 11
106.401474
 21
-139.162949
  0
LINE
  8
0
 10
106.991470
 20
-63.672958
 11
106.991470
 21
-138.662949
  0
LINE
  8
0
 10
107.251480
 20
-64.172958
 11
107.251480
 21
-96.172958
  0
LINE
  8
0
 10
109.091476
 20
-64.672958
 11
109.091476
 21
-95.672958
  0
LINE
  8
0
 10
116.161469
 20
-64.172958
 11
116.161469
 21
-96.172958
  0
LINE
  8
0
 10
116.541473
 20
-63.172958
 11
116.541473
 21
-139.162949
  0
LINE
  8
0
 10
107.401474
 20
-62.172958
 11
115.541473
 21
-62.172958
  0
LINE
  8
0
 10
107.991470
 20
-62.672958
 11
115.541473
 21
-62.672958
  0
LINE
  8
0
 10
115.541473
 20
-140.162949
 11
107.401474
 21
-140.162949
  0
LINE
  8
0
 10
115.541473
 20
-139.662949
 11
107.991470
 21
-139.662949
  0
LINE
  8
0
 10
116.161469
 20
-104.172958
 11
116.161469
 21
-138.162949
  0
LINE
  8
0
 10
109.091476
 20
-104.672958
 11
109.091476
 21
-137.662949
  0
LINE
  8
0
 10
107.251480
 20
-104.172958
 11
107.251480
 21
-138.162949
  0
LINE
  8
0
 10
115.161469
 20
-138.662949
 11
110.091476
 21
-138.662949
  0
LINE
  8
0
 10
115.161469
 20
-96.672958
 11
110.091476
 21
-96.672958
  0
LINE
  8
0
 10
115.161469
 20
-103.672958
 11
110.091476
 21
-103.672958
  0
LINE
  8
0
 10
110.091476
 20
-63.672958
 11
115.161469
 21
-63.672958
  0
LINE
  8
0
 10
108.251480
 20
-63.172958
 11
115.161469
 21
-63.172958
  0
LINE
  8
0
 10
115.161469
 20
-97.172958
 11
108.251480
 21
-97.172958
  0
LINE
  8
0
 10
115.161469
 20
-103.172958
 11
108.251480
 21
-103.172958
  0
LINE
  8
0
 10
115.161469
 20
-139.162949
 11
108.251480
 21
-139.162949
  0
LINE
  8
0
 10
163.831451
 20
-63.172958
 11
163.831451
 21
-139.162949
  0
LINE
  8
0
 10
163.231461
 20
-63.672958
 11
163.231461
 21
-138.662949
  0
LINE
  8
0
 10
162.981461
 20
-64.172958
 11
162.981461
 21
-96.172958
  0
LINE
  8
0
 10
161.141464
 20
-64.672958
 11
161.141464
 21
-95.672958
  0
LINE
  8
0
 10
154.071457
 20
-64.172958
 11
154.071457
 21
-96.172958
  0
LINE
  8
0
 10
153.691452
 20
-63.172958
 11
153.691452
 21
-139.162949
  0
LINE
  8
0
 10
162.831451
 20
-62.172958
 11
154.691452
 21
-62.172958
  0
LINE
  8
0
 10
162.231461
 20
-62.672958
 11
154.691452
 21
-62.672958
  0
LINE
  8
0
 10
154.691452
 20
-140.162949
 11
162.831451
 21
-140.162949
  0
LINE
  8
0
 10
154.691452
 20
-139.662949
 11
162.231461
 21
-139.662949
  0
LINE
  8
0
 10
154.071457
 20
-104.172958
 11
154.071457
 21
-138.162949
  0
LINE
  8
0
 10
161.141464
 20
-104.672958
 11
161.141464
 21
-137.662949
  0
LINE
  8
0
 10
162.981461
 20
-104.172958
 11
162.981461
 21
-138.162949
  0
LINE
  8
0
 10
155.071457
 20
-138.662949
 11
160.141464
 21
-138.662949
  0
LINE
  8
0
 10
155.071457
 20
-96.672958
 11
160.141464
 21
-96.672958
  0
LINE
  8
0
 10
155.071457
 20
-103.672958
 11
160.141464
 21
-103.672958
  0
LINE
  8
0
 10
160.141464
 20
-63.672958
 11
155.071457
 21
-63.672958
  0
LINE
  8
0
 10
161.981461
 20
-63.172958
 11
155.071457
 21
-63.172958
  0
LINE
  8
0
 10
155.071457
 20
-97.172958
 11
161.981461
 21
-97.172958
  0
LINE
  8
0
 10
155.071457
 20
-103.172958
 11
161.981461
 21
-103.172958
  0
LINE
  8
0
 10
155.071457
 20
-139.162949
 11
161.981461
 21
-139.162949
  0
LINE
  8
0
  6
CENTER
 62
     2
 10
135.111465
 20
60.427032
 11
135.111465
 21
-182.982956
  0
LINE
  8
0
 10
-40.058487
 20
-181.552933
 11
-45.718475
 21
-181.552933
  0
LINE
  8
0
 10
-81.388489
 20
-57.472939
 11
-82.388481
 21
-56.472950
  0
LINE
  8
0
 10
-3.388475
 20
-56.472946
 11
-4.388476
 21
-57.472946
  0
LINE
  8
0
 10
-4.388486
 20
6.027058
 11
-3.388485
 21
5.027057
  0
LINE
  8
0
 10
-82.388474
 20
5.027066
 11
-81.388474
 21
6.027068
  0
LINE
  8
0
 10
-3.388474
 20
5.027054
 11
-3.388474
 21
-56.472946
  0
LINE
  8
0
 10
-82.388474
 20
5.027054
 11
-82.388474
 21
-56.472946
  0
LINE
  8
0
 10
-82.388474
 20
-56.472946
 11
-3.388474
 21
-56.472946
  0
LINE
  8
0
 10
-82.388474
 20
5.027054
 11
-3.388474
 21
5.027054
  0
LINE
  8
0
 10
-81.388474
 20
-57.472946
 11
-4.388474
 21
-57.472946
  0
LINE
  8
0
 10
-67.888481
 20
32.027058
 11
-68.598480
 21
32.737057
  0
LINE
  8
0
 10
-77.888474
 20
32.027054
 11
-77.188477
 21
32.737053
  0
LINE
  8
0
 10
-77.888481
 20
52.027058
 11
-77.188477
 21
51.317055
  0
LINE
  8
0
 10
-67.888481
 20
52.027046
 11
-68.598480
 21
51.317047
  0
LINE
  8
0
 10
-68.598473
 20
32.737053
 11
-77.188477
 21
32.737053
  0
LINE
  8
0
 10
-68.598473
 20
51.317055
 11
-68.598473
 21
32.737053
  0
LINE
  8
0
 10
-68.598473
 20
51.317055
 11
-77.188477
 21
51.317055
  0
LINE
  8
0
 10
-77.188477
 20
51.317055
 11
-77.188477
 21
32.737053
  0
LINE
  8
0
 10
-67.888474
 20
32.027054
 11
-77.888474
 21
32.027054
  0
LINE
  8
0
 10
-67.888474
 20
52.027054
 11
-77.888474
 21
52.027054
  0
LINE
  8
0
 10
-67.888474
 20
52.027054
 11
-67.888474
 21
32.027054
  0
LINE
  8
0
 10
-77.888474
 20
52.027054
 11
-77.888474
 21
32.027054
  0
LINE
  8
0
 10
-17.888483
 20
32.027058
 11
-17.188486
 21
32.737053
  0
LINE
  8
0
 10
-7.888490
 20
32.027054
 11
-8.598488
 21
32.737053
  0
LINE
  8
0
 10
-7.888489
 20
52.027054
 11
-8.598487
 21
51.317055
  0
LINE
  8
0
 10
-17.888487
 20
52.027050
 11
-17.188490
 21
51.317055
  0
LINE
  8
0
 10
-17.188477
 20
32.737053
 11
-8.598480
 21
32.737053
  0
LINE
  8
0
 10
-17.188477
 20
51.317055
 11
-17.188477
 21
32.737053
  0
LINE
  8
0
 10
-17.188477
 20
51.317055
 11
-8.598480
 21
51.317055
  0
LINE
  8
0
 10
-8.598480
 20
51.317055
 11
-8.598480
 21
32.737053
  0
LINE
  8
0
 10
-17.888474
 20
32.027054
 11
-7.888474
 21
32.027054
  0
LINE
  8
0
 10
-17.888474
 20
52.027054
 11
-7.888474
 21
52.027054
  0
LINE
  8
0
 10
-17.888474
 20
52.027054
 11
-17.888474
 21
32.027054
  0
LINE
  8
0
 10
-7.888474
 20
52.027054
 11
-7.888474
 21
32.027054
  0
LINE
  8
0
 10
-63.198483
 20
54.027046
 11
-62.198479
 21
55.027046
  0
LINE
  8
0
 10
-23.588491
 20
55.027058
 11
-22.588490
 21
54.027058
  0
LINE
  8
0
 10
-63.198486
 20
54.027054
 11
-22.588486
 21
54.027054
  0
LINE
  8
0
 10
-3.888486
 20
58.027061
 11
-2.888486
 21
57.027058
  0
LINE
  8
0
 10
-81.888474
 20
58.027054
 11
-82.888474
 21
57.027054
  0
LINE
  8
0
 10
-82.888474
 20
57.027054
 11
-2.888474
 21
57.027054
  0
LINE
  8
0
 10
-3.888474
 20
58.027054
 11
-3.888474
 21
26.027054
  0
LINE
  8
0
 10
-81.888474
 20
58.027054
 11
-81.888474
 21
26.027054
  0
LINE
  8
0
 10
-62.198486
 20
55.027054
 11
-23.588486
 21
55.027054
  0
LINE
  8
0
 10
-22.588486
 20
54.027054
 11
-22.588486
 21
27.027054
  0
LINE
  8
0
 10
-63.198486
 20
54.027054
 11
-63.198486
 21
27.027054
  0
LINE
  8
0
 10
-2.888474
 20
57.027054
 11
-2.888474
 21
26.027054
  0
LINE
  8
0
 10
-82.888474
 20
57.027054
 11
-82.888474
 21
26.027054
  0
LINE
  8
0
 10
-81.888474
 20
58.027054
 11
-3.888474
 21
58.027054
  0
LINE
  8
0
 10
-82.888474
 20
26.027054
 11
-2.888474
 21
26.027054
  0
LINE
  8
0
 10
-8.828491
 20
26.027060
 11
-9.828480
 21
27.027048
  0
LINE
  8
0
 10
-76.958466
 20
26.027052
 11
-75.958473
 21
27.027052
  0
LINE
  8
0
 10
-75.958473
 20
27.027054
 11
-9.828476
 21
27.027054
  0
LINE
  8
0
 10
-82.388474
 20
7.027054
 11
-3.388474
 21
7.027054
  0
LINE
  8
0
 10
-3.388485
 20
7.027059
 11
-4.388486
 21
6.027058
  0
LINE
  8
0
 10
-82.388474
 20
7.027069
 11
-81.388474
 21
6.027067
  0
LINE
  8
0
 10
-3.388474
 20
26.027054
 11
-3.388474
 21
7.027054
  0
LINE
  8
0
 10
-82.388474
 20
26.027054
 11
-82.388474
 21
7.027054
  0
LINE
  8
0
 10
-81.388474
 20
6.027054
 11
-4.388474
 21
6.027054
  0
LINE
  8
0
 10
-9.468477
 20
-141.792938
 11
-8.738477
 21
-57.472942
  0
LINE
  8
0
 10
-76.928474
 20
-69.542938
 11
-77.038475
 21
-57.472946
  0
LINE
  8
0
 10
-79.348473
 20
-57.472939
 11
-79.308472
 21
-59.462944
  0
LINE
  8
0
 10
-78.778473
 20
-57.472939
 11
-78.728477
 21
-59.452942
  0
LINE
  8
0
 10
-50.958481
 20
-157.662933
 11
-34.808487
 21
-157.662933
  0
LINE
  8
0
 10
-49.388474
 20
-173.952942
 11
-36.388474
 21
-173.952942
  0
LINE
  8
0
 10
-45.738480
 20
-176.352936
 11
-45.738480
 21
-174.452942
  0
LINE
  8
0
 10
-40.038483
 20
-176.352936
 11
-40.038483
 21
-174.452942
  0
LINE
  8
0
 10
-39.638489
 20
-176.552948
 11
-40.058487
 21
-178.952927
  0
LINE
  8
0
 10
-46.138474
 20
-176.552917
 11
-45.718468
 21
-178.952942
  0
LINE
  8
0
 10
-39.638474
 20
-176.552933
 11
-39.638474
 21
-176.352936
  0
LINE
  8
0
 10
-46.138474
 20
-176.552933
 11
-46.138474
 21
-176.352936
  0
LINE
  8
0
 10
-39.638474
 20
-179.152939
 11
-46.138474
 21
-179.152939
  0
LINE
  8
0
 10
-39.638474
 20
-176.552933
 11
-46.138474
 21
-176.552933
  0
LINE
  8
0
 10
-39.638474
 20
-176.352936
 11
-46.138474
 21
-176.352936
  0
LINE
  8
0
 10
-39.638474
 20
-178.952942
 11
-46.138474
 21
-178.952942
  0
LINE
  8
0
 10
-39.638474
 20
-179.152939
 11
-39.638474
 21
-178.952942
  0
LINE
  8
0
 10
-46.138474
 20
-179.152939
 11
-46.138474
 21
-178.952942
  0
LINE
  8
0
 10
-36.888474
 20
-174.452942
 11
-36.388474
 21
-173.952942
  0
LINE
  8
0
 10
-49.388466
 20
-173.952942
 11
-48.888466
 21
-174.452942
  0
LINE
  8
0
 10
-49.388474
 20
-173.952942
 11
-49.388474
 21
-172.952942
  0
LINE
  8
0
 10
-36.388474
 20
-173.952942
 11
-36.388474
 21
-172.952942
  0
LINE
  8
0
 10
-36.888474
 20
-174.452942
 11
-48.888474
 21
-174.452942
  0
LINE
  8
0
 10
-35.138474
 20
-159.952942
 11
-50.638474
 21
-159.952942
  0
LINE
  8
0
 10
-49.148483
 20
-172.452942
 11
-49.898483
 21
-172.452942
  0
LINE
  8
0
 10
-35.878479
 20
-172.452942
 11
-36.628479
 21
-172.452942
  0
LINE
  8
0
 10
-44.728485
 20
-172.452942
 11
-46.548477
 21
-172.452942
  0
LINE
  8
0
 10
-49.328480
 20
-171.952927
 11
-49.148476
 21
-172.452942
  0
LINE
  8
0
 10
-36.448467
 20
-171.952942
 11
-36.628464
 21
-172.452927
  0
LINE
  8
0
 10
-35.878475
 20
-162.742935
 11
-35.288467
 21
-162.452927
  0
LINE
  8
0
 10
-39.228474
 20
-162.742935
 11
-38.568470
 21
-162.452927
  0
LINE
  8
0
 10
-41.048470
 20
-162.742920
 11
-41.388462
 21
-162.452927
  0
LINE
  8
0
 10
-44.728477
 20
-162.742950
 11
-44.388470
 21
-162.452942
  0
LINE
  8
0
 10
-46.548481
 20
-162.742935
 11
-47.198483
 21
-162.452927
  0
LINE
  8
0
 10
-49.898472
 20
-162.742935
 11
-50.488480
 21
-162.452927
  0
LINE
  8
0
 10
-49.898476
 20
-172.452942
 11
-50.488483
 21
-171.952927
  0
LINE
  8
0
 10
-46.548466
 20
-172.452927
 11
-47.198460
 21
-171.952927
  0
LINE
  8
0
 10
-44.388458
 20
-171.952927
 11
-44.728466
 21
-172.452942
  0
LINE
  8
0
 10
-41.048489
 20
-172.452942
 11
-41.388496
 21
-171.952942
  0
LINE
  8
0
 10
-39.228489
 20
-172.452927
 11
-38.568489
 21
-171.952942
  0
LINE
  8
0
 10
-35.878468
 20
-172.452942
 11
-35.288460
 21
-171.952942
  0
LINE
  8
0
 10
-39.228485
 20
-172.452942
 11
-41.048477
 21
-172.452942
  0
LINE
  8
0
 10
-36.448486
 20
-171.952942
 11
-38.568481
 21
-171.952942
  0
LINE
  8
0
 10
-50.488480
 20
-171.952942
 11
-50.638474
 21
-171.952942
  0
LINE
  8
0
 10
-47.198486
 20
-171.952942
 11
-49.328476
 21
-171.952942
  0
LINE
  8
0
 10
-41.388474
 20
-171.952942
 11
-44.388474
 21
-171.952942
  0
LINE
  8
0
 10
-49.328476
 20
-162.742935
 11
-49.898483
 21
-162.742935
  0
LINE
  8
0
 10
-49.328476
 20
-162.452942
 11
-50.488480
 21
-162.452942
  0
LINE
  8
0
 10
-39.228485
 20
-162.742935
 11
-41.048477
 21
-162.742935
  0
LINE
  8
0
 10
-38.568481
 20
-162.452942
 11
-41.388474
 21
-162.452942
  0
LINE
  8
0
 10
-44.728485
 20
-162.742935
 11
-46.548477
 21
-162.742935
  0
LINE
  8
0
 10
-44.388474
 20
-162.452942
 11
-47.198486
 21
-162.452942
  0
LINE
  8
0
 10
-35.138474
 20
-171.952942
 11
-35.288483
 21
-171.952942
  0
LINE
  8
0
 10
-35.878479
 20
-162.742935
 11
-36.448486
 21
-162.742935
  0
LINE
  8
0
 10
-35.288483
 20
-162.452942
 11
-36.448486
 21
-162.452942
  0
LINE
  8
0
 10
-35.288483
 20
-162.452942
 11
-35.288483
 21
-171.952942
  0
LINE
  8
0
 10
-35.878479
 20
-162.742935
 11
-35.878479
 21
-172.452942
  0
LINE
  8
0
 10
-36.448486
 20
-162.452942
 11
-36.448486
 21
-171.952942
  0
LINE
  8
0
 10
-38.568481
 20
-162.452942
 11
-38.568481
 21
-171.952942
  0
LINE
  8
0
 10
-39.228485
 20
-162.742935
 11
-39.228485
 21
-172.452942
  0
LINE
  8
0
 10
-50.488480
 20
-162.452942
 11
-50.488480
 21
-171.952942
  0
LINE
  8
0
 10
-49.898483
 20
-162.742935
 11
-49.898483
 21
-172.452942
  0
LINE
  8
0
 10
-49.328476
 20
-162.452942
 11
-49.328476
 21
-171.952942
  0
LINE
  8
0
 10
-47.198486
 20
-162.452942
 11
-47.198486
 21
-171.952942
  0
LINE
  8
0
 10
-46.548477
 20
-162.742935
 11
-46.548477
 21
-172.452942
  0
LINE
  8
0
 10
-44.728485
 20
-162.742935
 11
-44.728485
 21
-172.452942
  0
LINE
  8
0
 10
-41.048477
 20
-162.742935
 11
-41.048477
 21
-172.452942
  0
LINE
  8
0
 10
-41.388474
 20
-162.452942
 11
-41.388474
 21
-171.952942
  0
LINE
  8
0
 10
-44.388474
 20
-162.452942
 11
-44.388474
 21
-171.952942
  0
LINE
  8
0
 62
     2
 10
-37.638474
 20
-158.162933
 11
-37.638474
 21
-159.452942
  0
LINE
  8
0
 62
     2
 10
-48.138474
 20
-158.162933
 11
-48.138474
 21
-159.452942
  0
LINE
  8
0
 10
-48.888474
 20
-158.162933
 11
-48.888474
 21
-159.452942
  0
LINE
  8
0
 10
-36.888474
 20
-158.162933
 11
-36.888474
 21
-159.452942
  0
LINE
  8
0
 10
-50.138477
 20
-159.452927
 11
-50.638477
 21
-159.952927
  0
LINE
  8
0
 10
-35.638474
 20
-159.452927
 11
-35.138474
 21
-159.952927
  0
LINE
  8
0
 10
-35.638474
 20
-159.452942
 11
-50.138474
 21
-159.452942
  0
LINE
  8
0
 10
-49.638462
 20
-172.952942
 11
-50.638462
 21
-171.952942
  0
LINE
  8
0
 10
-35.138477
 20
-171.952942
 11
-36.138481
 21
-172.952942
  0
LINE
  8
0
 10
-50.638474
 20
-159.952942
 11
-50.638474
 21
-171.952942
  0
LINE
  8
0
 10
-35.138474
 20
-159.952942
 11
-35.138474
 21
-171.952942
  0
LINE
  8
0
 10
-36.138474
 20
-172.952942
 11
-49.638474
 21
-172.952942
  0
LINE
  8
0
 10
-50.458469
 20
-158.162933
 11
-50.958469
 21
-157.662933
  0
LINE
  8
0
 10
-35.308475
 20
-158.162933
 11
-34.808472
 21
-157.662933
  0
LINE
  8
0
 10
-34.808487
 20
-157.662933
 11
-34.808487
 21
-156.662933
  0
LINE
  8
0
 10
-50.958481
 20
-157.662933
 11
-50.958481
 21
-156.662933
  0
LINE
  8
0
 10
-50.458481
 20
-158.162933
 11
-35.308487
 21
-158.162933
  0
LINE
  8
0
 10
-79.808472
 20
-59.472946
 11
-79.458473
 21
-73.502945
  0
LINE
  8
0
 10
-80.288475
 20
-59.992931
 11
-79.808464
 21
-59.472927
  0
LINE
  8
0
 10
-79.748474
 20
-81.982933
 11
-79.628471
 21
-82.102936
  0
LINE
  8
0
 10
-79.808472
 20
-59.472946
 11
-78.728477
 21
-59.452946
  0
LINE
  8
0
 10
-80.288475
 20
-59.992939
 11
-79.748474
 21
-81.982933
  0
LINE
  8
0
 10
-76.928474
 20
-69.542931
 11
-79.698471
 21
-73.872932
  0
LINE
  8
0
 10
-79.618477
 20
-83.222946
 11
-79.698471
 21
-73.872948
  0
LINE
  8
0
 10
-76.778465
 20
-87.372940
 11
-79.558472
 21
-83.392937
  0
LINE
  8
0
 10
-14.168488
 20
-63.172943
 11
-14.168488
 21
-139.162933
  0
LINE
  8
0
 10
-14.768478
 20
-63.672943
 11
-14.768478
 21
-138.662933
  0
LINE
  8
0
 10
-15.028488
 20
-64.172943
 11
-15.028488
 21
-96.172943
  0
LINE
  8
0
 10
-16.858475
 20
-64.672943
 11
-16.858475
 21
-95.672943
  0
LINE
  8
0
 10
-23.928482
 20
-64.172943
 11
-23.928482
 21
-96.172943
  0
LINE
  8
0
 10
-24.318481
 20
-63.172943
 11
-24.318481
 21
-139.162933
  0
LINE
  8
0
 10
-15.168488
 20
-62.172943
 11
-23.318481
 21
-62.172943
  0
LINE
  8
0
 10
-15.768478
 20
-62.672943
 11
-23.318481
 21
-62.672943
  0
LINE
  8
0
 10
-23.318481
 20
-140.162933
 11
-15.168488
 21
-140.162933
  0
LINE
  8
0
 10
-23.318481
 20
-139.662933
 11
-15.768478
 21
-139.662933
  0
LINE
  8
0
 10
-23.928482
 20
-104.172943
 11
-23.928482
 21
-138.162933
  0
LINE
  8
0
 10
-16.858475
 20
-104.672943
 11
-16.858475
 21
-137.662933
  0
LINE
  8
0
 10
-15.028488
 20
-104.172943
 11
-15.028488
 21
-138.162933
  0
LINE
  8
0
 10
-22.928482
 20
-138.662933
 11
-17.858475
 21
-138.662933
  0
LINE
  8
0
 10
-22.928482
 20
-96.672943
 11
-17.858475
 21
-96.672943
  0
LINE
  8
0
 10
-22.928482
 20
-103.672943
 11
-17.858475
 21
-103.672943
  0
LINE
  8
0
 10
-17.858475
 20
-63.672943
 11
-22.928482
 21
-63.672943
  0
LINE
  8
0
 10
-16.028488
 20
-63.172943
 11
-22.928482
 21
-63.172943
  0
LINE
  8
0
 10
-22.928482
 20
-97.172943
 11
-16.028488
 21
-97.172943
  0
LINE
  8
0
 10
-22.928482
 20
-103.172943
 11
-16.028488
 21
-103.172943
  0
LINE
  8
0
 10
-22.928482
 20
-139.162933
 11
-16.028488
 21
-139.162933
  0
LINE
  8
0
 10
-71.608475
 20
-63.172943
 11
-71.608475
 21
-139.162933
  0
LINE
  8
0
 10
-71.008476
 20
-63.672943
 11
-71.008476
 21
-138.662933
  0
LINE
  8
0
 10
-70.748474
 20
-64.172943
 11
-70.748474
 21
-96.172943
  0
LINE
  8
0
 10
-68.918472
 20
-64.672943
 11
-68.918472
 21
-95.672943
  0
LINE
  8
0
 10
-61.848480
 20
-64.172943
 11
-61.848480
 21
-96.172943
  0
LINE
  8
0
 10
-61.458481
 20
-63.172943
 11
-61.458481
 21
-139.162933
  0
LINE
  8
0
 10
-70.608475
 20
-62.172943
 11
-62.458481
 21
-62.172943
  0
LINE
  8
0
 10
-70.008476
 20
-62.672943
 11
-62.458481
 21
-62.672943
  0
LINE
  8
0
 10
-62.458481
 20
-140.162933
 11
-70.608475
 21
-140.162933
  0
LINE
  8
0
 10
-62.458481
 20
-139.662933
 11
-70.008476
 21
-139.662933
  0
LINE
  8
0
 10
-61.848480
 20
-104.172943
 11
-61.848480
 21
-138.162933
  0
LINE
  8
0
 10
-68.918472
 20
-104.672943
 11
-68.918472
 21
-137.662933
  0
LINE
  8
0
 10
-70.748474
 20
-104.172943
 11
-70.748474
 21
-138.162933
  0
LINE
  8
0
 10
-62.848480
 20
-138.662933
 11
-67.918472
 21
-138.662933
  0
LINE
  8
0
 10
-62.848480
 20
-96.672943
 11
-67.918472
 21
-96.672943
  0
LINE
  8
0
 10
-62.848480
 20
-103.672943
 11
-67.918472
 21
-103.672943
  0
LINE
  8
0
 10
-67.918472
 20
-63.672943
 11
-62.848480
 21
-63.672943
  0
LINE
  8
0
 10
-76.298477
 20
-141.792938
 11
-76.778473
 21
-87.372940
  0
LINE
  8
0
 10
-69.748474
 20
-63.172943
 11
-62.848480
 21
-63.172943
  0
LINE
  8
0
 10
-62.848480
 20
-97.172943
 11
-69.748474
 21
-97.172943
  0
LINE
  8
0
 10
-62.848480
 20
-103.172943
 11
-69.748474
 21
-103.172943
  0
LINE
  8
0
 10
-62.848480
 20
-139.162933
 11
-69.748474
 21
-139.162933
  0
LINE
  8
0
 10
-61.298477
 20
-156.662933
 11
-24.468475
 21
-156.662933
  0
LINE
  8
0
  6
CENTER
 62
     2
 10
-93.555023
 20
42.027054
 11
8.171677
 21
42.027054
  0
LINE
  8
0
 10
-46.138470
 20
-179.152939
 11
-45.718468
 21
-181.552948
  0
LINE
  8
0
 10
-39.638477
 20
-179.152924
 11
-40.058479
 21
-181.552933
  0
LINE
  8
0
  6
CENTER
 62
     2
 10
-42.888474
 20
63.027054
 11
-42.888474
 21
-182.572937
  0
LINE
  8
0
 10
-281.250000
 20
195.500000
 11
282.099854
 21
195.500000
  0
LINE
  8
0
 10
-281.250000
 20
195.500000
 11
-281.250000
 21
-195.000000
  0
LINE
  8
0
 10
282.099854
 20
195.500000
 11
282.099854
 21
-195.000000
  0
LINE
  8
0
 10
-281.250000
 20
-195.000000
 11
282.099854
 21
-195.000000
  0
LINE
  8
0
 10
162.099976
 20
-175.000000
 11
162.099976
 21
-195.000000
  0
LINE
  8
0
 10
162.099976
 20
-175.000000
 11
282.099854
 21
-175.000000
  0
LINE
  8
0
 10
162.099976
 20
175.500000
 11
282.099854
 21
175.500000
  0
LINE
  8
0
 10
-281.250000
 20
175.500000
 11
-161.250000
 21
175.500000
  0
LINE
  8
0
 10
162.099976
 20
195.500000
 11
162.099976
 21
175.500000
  0
LINE
  8
0
 10
-161.250000
 20
195.500000
 11
-161.250000
 21
175.500000
  0
ARC
  8
0
 10
-42.893478
 20
137.091873
 40
28.500748
 50
224.566467
 51
315.433563
  0
ARC
  8
0
 10
-42.893478
 20
137.091873
 40
27.797167
 50
226.013062
 51
313.987000
  0
ARC
  8
0
 10
-42.893478
 20
137.091873
 40
28.500751
 50
44.566441
 51
135.433517
  0
ARC
  8
0
 10
-42.893478
 20
137.091873
 40
27.797161
 50
46.013000
 51
133.986954
  0
ARC
  8
0
 10
-42.893478
 20
137.091873
 40
39.502197
 50
210.417755
 51
329.582275
  0
ARC
  8
0
 10
-42.893478
 20
137.091873
 40
38.497807
 50
211.299408
 51
328.700592
  0
ARC
  8
0
 10
-42.893478
 20
137.091873
 40
38.497803
 50
31.299400
 51
148.700592
  0
ARC
  8
0
 10
-42.893478
 20
137.091873
 40
39.502201
 50
30.417747
 51
149.582230
  0
ARC
  8
0
 10
113.111359
 20
57.027145
 40
2.000107
 50
270.003052
 51
359.996948
  0
CIRCLE
  8
0
 10
135.111465
 20
42.027252
 40
13.500000
  0
ARC
  8
0
 10
105.111374
 20
28.527142
 40
1.500103
 50
270.004089
 51
359.996063
  0
CIRCLE
  8
0
 10
135.111465
 20
42.027252
 40
7.474999
  0
CIRCLE
  8
0
 62
     2
 10
135.111465
 20
42.027252
 40
8.331000
  0
ARC
  8
0
 10
156.098587
 20
56.030628
 40
2.003634
 50
240.483566
 51
270.367828
  0
ARC
  8
0
 10
113.111374
 20
29.027130
 40
2.000092
 50
270.002625
 51
359.997375
  0
ARC
  8
0
 10
157.111557
 20
29.027134
 40
2.000092
 50
180.002792
 51
269.997375
  0
ARC
  8
0
 10
165.111572
 20
28.527149
 40
1.500107
 50
180.004227
 51
269.995911
  0
ARC
  8
0
 10
157.111572
 20
57.027145
 40
2.000107
 50
180.003067
 51
269.996948
  0
ARC
  8
0
 10
114.124344
 20
56.030640
 40
2.003642
 50
269.632172
 51
299.516266
  0
ARC
  8
0
 10
108.258789
 20
-96.165634
 40
1.007343
 50
180.416153
 51
269.584290
  0
ARC
  8
0
 10
110.095932
 20
-95.668503
 40
1.004458
 50
180.254150
 51
269.746277
  0
ARC
  8
0
 10
115.157516
 20
-96.168991
 40
1.003968
 50
270.225983
 51
359.774017
  0
ARC
  8
0
 10
115.157516
 20
-95.668991
 40
1.003968
 50
270.225983
 51
359.774017
  0
ARC
  8
0
 10
107.397659
 20
-63.169144
 40
0.996189
 50
89.780159
 51
180.219620
  0
ARC
  8
0
 10
107.991348
 20
-63.672821
 40
0.999866
 50
89.992569
 51
180.007645
  0
ARC
  8
0
 10
108.249878
 20
-64.171371
 40
0.998414
 50
89.908936
 51
180.091064
  0
ARC
  8
0
 10
110.086990
 20
-64.668472
 40
0.995535
 50
89.742249
 51
180.257751
  0
ARC
  8
0
 10
115.548203
 20
-63.166229
 40
0.993301
 50
359.612274
 51
90.387711
  0
ARC
  8
0
 10
115.548203
 20
-63.666229
 40
0.993301
 50
359.612274
 51
90.387711
  0
ARC
  8
0
 10
115.166443
 20
-64.167984
 40
0.995046
 50
359.714020
 51
90.285988
  0
ARC
  8
0
 10
115.166443
 20
-64.667984
 40
0.995046
 50
359.714020
 51
90.285988
  0
ARC
  8
0
 10
107.401581
 20
-139.162857
 40
1.000099
 50
180.006119
 51
269.994324
  0
ARC
  8
0
 10
107.995239
 20
-138.659180
 40
1.003776
 50
180.215134
 51
269.784882
  0
ARC
  8
0
 10
108.253799
 20
-138.160629
 40
1.002322
 50
180.132584
 51
269.867432
  0
ARC
  8
0
 10
108.249878
 20
-104.171356
 40
0.998407
 50
89.908493
 51
180.091064
  0
ARC
  8
0
 10
110.090912
 20
-137.663513
 40
0.999443
 50
179.968506
 51
270.031494
  0
ARC
  8
0
 10
115.544266
 20
-139.165741
 40
0.997212
 50
269.839569
 51
0.160438
  0
ARC
  8
0
 10
115.544266
 20
-138.665741
 40
0.997212
 50
269.839569
 51
0.160438
  0
ARC
  8
0
 10
115.162521
 20
-138.164001
 40
0.998963
 50
269.940063
 51
0.059512
  0
ARC
  8
0
 10
115.162521
 20
-137.664001
 40
0.998963
 50
269.940063
 51
0.059512
  0
ARC
  8
0
 10
115.166443
 20
-104.167984
 40
0.995038
 50
359.713562
 51
90.286430
  0
ARC
  8
0
 10
115.166443
 20
-104.667984
 40
0.995038
 50
359.713562
 51
90.286430
  0
ARC
  8
0
 10
110.086990
 20
-104.668472
 40
0.995532
 50
89.742249
 51
180.257751
  0
ARC
  8
0
 10
161.977310
 20
-96.168808
 40
1.004159
 50
270.236816
 51
359.763184
  0
ARC
  8
0
 10
160.140060
 20
-95.671555
 40
1.001405
 50
270.080322
 51
359.919678
  0
ARC
  8
0
 10
155.078491
 20
-96.165924
 40
1.007059
 50
180.400208
 51
269.599792
  0
ARC
  8
0
 10
155.078491
 20
-95.665924
 40
1.007059
 50
180.400208
 51
269.599792
  0
ARC
  8
0
 10
162.838364
 20
-63.166046
 40
0.993112
 50
359.601196
 51
90.398788
  0
ARC
  8
0
 10
162.239792
 20
-63.664627
 40
0.991704
 50
359.518860
 51
90.481346
  0
ARC
  8
0
 10
161.986237
 20
-64.168167
 40
0.995236
 50
359.724609
 51
90.274956
  0
ARC
  8
0
 10
160.149002
 20
-64.665405
 40
0.992476
 50
359.563965
 51
90.436043
  0
ARC
  8
0
 10
154.687805
 20
-63.169296
 40
0.996356
 50
89.790283
 51
180.209930
  0
ARC
  8
0
 10
154.687805
 20
-63.669296
 40
0.996356
 50
89.790283
 51
180.209930
  0
ARC
  8
0
 10
155.069595
 20
-64.171082
 40
0.998133
 50
89.892265
 51
180.107300
  0
ARC
  8
0
 10
155.069595
 20
-64.671082
 40
0.998133
 50
89.892265
 51
180.107300
  0
ARC
  8
0
 10
162.834442
 20
-139.165939
 40
0.997029
 50
269.829010
 51
0.170990
  0
ARC
  8
0
 10
162.235855
 20
-138.667343
 40
0.995615
 50
269.747101
 51
0.252898
  0
ARC
  8
0
 10
161.982315
 20
-138.163818
 40
0.999146
 50
269.950989
 51
0.049001
  0
ARC
  8
0
 10
161.986237
 20
-104.168167
 40
0.995236
 50
359.724609
 51
90.274956
  0
ARC
  8
0
 10
160.145081
 20
-137.666565
 40
0.996390
 50
269.792053
 51
0.207952
  0
ARC
  8
0
 10
154.691727
 20
-139.162689
 40
1.000259
 50
180.014862
 51
269.985138
  0
ARC
  8
0
 10
154.691727
 20
-138.662689
 40
1.000259
 50
180.014862
 51
269.985138
  0
ARC
  8
0
 10
155.073502
 20
-138.160904
 40
1.002047
 50
180.116913
 51
269.883087
  0
ARC
  8
0
 10
155.073502
 20
-137.660904
 40
1.002047
 50
180.116913
 51
269.883087
  0
ARC
  8
0
 10
155.069580
 20
-104.171082
 40
0.998133
 50
89.892265
 51
180.107300
  0
ARC
  8
0
 10
155.069580
 20
-104.671082
 40
0.998133
 50
89.892265
 51
180.107300
  0
ARC
  8
0
 10
160.149017
 20
-104.665405
 40
0.992476
 50
359.563965
 51
90.436043
  0
ARC
  8
0
 10
153.534210
 20
-141.665161
 40
14.997787
 50
269.989502
 51
359.511780
  0
ARC
  8
0
 10
116.701874
 20
-141.661987
 40
15.000969
 50
180.500290
 51
269.998535
  0
ARC
  8
0
 10
-79.311325
 20
-83.210114
 40
0.307419
 50
182.389557
 51
216.489670
  0
ARC
  8
0
 10
-16.029251
 20
-96.172165
 40
1.000771
 50
270.044006
 51
359.955872
  0
ARC
  8
0
 10
-17.861359
 20
-95.670059
 40
1.002888
 50
270.164764
 51
359.835236
  0
ARC
  8
0
 10
-22.922943
 20
-96.167404
 40
1.005548
 50
180.315170
 51
269.684723
  0
ARC
  8
0
 10
-22.922943
 20
-95.667404
 40
1.005548
 50
180.315170
 51
269.684723
  0
ARC
  8
0
 10
-15.163086
 20
-63.167542
 40
0.994613
 50
359.688843
 51
90.311111
  0
ARC
  8
0
 10
-15.761734
 20
-63.666199
 40
0.993278
 50
359.610962
 51
90.389046
  0
ARC
  8
0
 10
-16.020294
 20
-64.164749
 40
0.991842
 50
359.526642
 51
90.473129
  0
ARC
  8
0
 10
-17.852417
 20
-64.666885
 40
0.993961
 50
359.650818
 51
90.349197
  0
ARC
  8
0
 10
-23.318588
 20
-63.172821
 40
0.999889
 50
89.993660
 51
180.006332
  0
ARC
  8
0
 10
-23.318588
 20
-63.672821
 40
0.999889
 50
89.993660
 51
180.006332
  0
ARC
  8
0
 10
-22.931870
 20
-64.169556
 40
0.996622
 50
89.805473
 51
180.194305
  0
ARC
  8
0
 10
-22.931870
 20
-64.669556
 40
0.996622
 50
89.805473
 51
180.194305
  0
ARC
  8
0
 10
-15.167007
 20
-139.164413
 40
0.998521
 50
269.915344
 51
0.084929
  0
ARC
  8
0
 10
-15.765671
 20
-138.665756
 40
0.997196
 50
269.838348
 51
0.161318
  0
ARC
  8
0
 10
-16.024231
 20
-138.167191
 40
0.995752
 50
269.755157
 51
0.244961
  0
ARC
  8
0
 10
-16.020279
 20
-104.164749
 40
0.991839
 50
359.526642
 51
90.473351
  0
ARC
  8
0
 10
-17.856354
 20
-137.665070
 40
0.997866
 50
269.877655
 51
0.122658
  0
ARC
  8
0
 10
-23.314682
 20
-139.159149
 40
1.003801
 50
180.216873
 51
269.783447
  0
ARC
  8
0
 10
-23.314682
 20
-138.659149
 40
1.003801
 50
180.216873
 51
269.783447
  0
ARC
  8
0
 10
-22.927948
 20
-138.162399
 40
1.000532
 50
180.030579
 51
269.969513
  0
ARC
  8
0
 10
-22.927948
 20
-137.662399
 40
1.000532
 50
180.030579
 51
269.969513
  0
ARC
  8
0
 10
-22.931870
 20
-104.169556
 40
0.996618
 50
89.805252
 51
180.194748
  0
ARC
  8
0
 10
-22.931870
 20
-104.669556
 40
0.996618
 50
89.805252
 51
180.194748
  0
ARC
  8
0
 10
-17.852417
 20
-104.666870
 40
0.993957
 50
359.650360
 51
90.349419
  0
ARC
  8
0
 10
-69.742744
 20
-96.167206
 40
1.005746
 50
180.326416
 51
269.673584
  0
ARC
  8
0
 10
-67.910622
 20
-95.665085
 40
1.007881
 50
180.446289
 51
269.553711
  0
ARC
  8
0
 10
-62.849060
 20
-96.172363
 40
1.000572
 50
270.032990
 51
359.967224
  0
ARC
  8
0
 10
-62.849060
 20
-95.672363
 40
1.000572
 50
270.032990
 51
359.967224
  0
ARC
  8
0
 10
-70.608856
 20
-63.172562
 40
0.999615
 50
89.978134
 51
180.022079
  0
ARC
  8
0
 10
-70.010208
 20
-63.671204
 40
0.998266
 50
89.900597
 51
180.099625
  0
ARC
  8
0
 10
-69.751663
 20
-64.169754
 40
0.996816
 50
89.816696
 51
180.183304
  0
ARC
  8
0
 10
-67.919518
 20
-64.671890
 40
0.998955
 50
89.940048
 51
180.059952
  0
ARC
  8
0
 10
-62.453354
 20
-63.167816
 40
0.994882
 50
359.704529
 51
90.295265
  0
ARC
  8
0
 10
-62.453354
 20
-63.667816
 40
0.994882
 50
359.704529
 51
90.295265
  0
ARC
  8
0
 10
-62.840088
 20
-64.164551
 40
0.991647
 50
359.515533
 51
90.484459
  0
ARC
  8
0
 10
-62.840088
 20
-64.664551
 40
0.991647
 50
359.515533
 51
90.484459
  0
ARC
  8
0
 10
-70.604950
 20
-139.159424
 40
1.003531
 50
180.201248
 51
269.798767
  0
ARC
  8
0
 10
-70.006294
 20
-138.660767
 40
1.002177
 50
180.124756
 51
269.875702
  0
ARC
  8
0
 10
-69.747742
 20
-138.162216
 40
1.000725
 50
180.041931
 51
269.958069
  0
ARC
  8
0
 10
-69.751663
 20
-104.169754
 40
0.996816
 50
89.816696
 51
180.183304
  0
ARC
  8
0
 10
-67.915611
 20
-137.660080
 40
1.002865
 50
180.163895
 51
269.836548
  0
ARC
  8
0
 10
-62.457275
 20
-139.164139
 40
0.998795
 50
269.930847
 51
0.069150
  0
ARC
  8
0
 10
-62.457275
 20
-138.664139
 40
0.998795
 50
269.930847
 51
0.069150
  0
ARC
  8
0
 10
-62.844025
 20
-138.167389
 40
0.995554
 50
269.744019
 51
0.256424
  0
ARC
  8
0
 10
-62.844025
 20
-137.667389
 40
0.995554
 50
269.744019
 51
0.256424
  0
ARC
  8
0
 10
-62.840088
 20
-104.164551
 40
0.991647
 50
359.515106
 51
90.484680
  0
ARC
  8
0
 10
-62.840088
 20
-104.664551
 40
0.991647
 50
359.515106
 51
90.484680
  0
ARC
  8
0
 10
-67.919525
 20
-104.671890
 40
0.998955
 50
89.940048
 51
180.059952
  0
ARC
  8
0
 10
-24.467316
 20
-141.663544
 40
14.999390
 50
269.995605
 51
359.505737
  0
ARC
  8
0
 10
-61.299667
 20
-141.663574
 40
14.999368
 50
180.494217
 51
270.004547
  0
POLYLINE
  8
0
 66
     1
  0
VERTEX
  8
0
 10
-76.928474
 20
-69.542938
  0
VERTEX
  8
0
 10
-76.657532
 20
-70.483444
  0
VERTEX
  8
0
 10
-76.415840
 20
-71.411934
  0
VERTEX
  8
0
 10
-76.203560
 20
-72.339882
  0
VERTEX
  8
0
 10
-76.020844
 20
-73.278755
  0
VERTEX
  8
0
 10
-75.867821
 20
-74.240028
  0
VERTEX
  8
0
 10
-75.744652
 20
-75.235168
  0
VERTEX
  8
0
 10
-75.651489
 20
-76.275650
  0
VERTEX
  8
0
 10
-75.588470
 20
-77.372940
  0
VERTEX
  8
0
 10
-75.563690
 20
-78.292015
  0
VERTEX
  8
0
 10
-75.566933
 20
-79.211754
  0
VERTEX
  8
0
 10
-75.597710
 20
-80.131271
  0
VERTEX
  8
0
 10
-75.655556
 20
-81.049675
  0
VERTEX
  8
0
 10
-75.739998
 20
-81.966080
  0
VERTEX
  8
0
 10
-75.850555
 20
-82.879608
  0
VERTEX
  8
0
 10
-75.986755
 20
-83.789360
  0
VERTEX
  8
0
 10
-76.148117
 20
-84.694458
  0
VERTEX
  8
0
 10
-76.334175
 20
-85.594017
  0
VERTEX
  8
0
 10
-76.544456
 20
-86.487137
  0
VERTEX
  8
0
 10
-76.778473
 20
-87.372940
  0
SEQEND
  0
TEXT
  8
0
 10
199.400253
 20
180.830002
 40
6.300000
  1
Ｖｅｒ．２．０
 50
0.000000
 41
0.833333
 51
0.000000
  7
STANDARD
  0
TEXT
  8
0
 10
-240.799713
 20
180.830002
 40
6.300000
  1
FILTER
 50
0.000000
 41
1.052632
 51
0.000000
  7
STANDARD
  0
TEXT
  8
0
 10
-256.000000
 20
157.720001
 40
6.300000
  1
MODEL:MF400-03-A
 50
0.000000
 41
1.052632
 51
0.000000
  7
STANDARD
  0
TEXT
  8
0
 10
-218.199997
 20
149.720001
 40
6.300000
  1
MF600-03-A
 50
0.000000
 41
1.052632
 51
0.000000
  7
STANDARD
  0
TEXT
  8
0
 10
-218.199997
 20
141.720001
 40
6.300000
  1
MMF300-03-A
 50
0.000000
 41
1.052632
 51
0.000000
  7
STANDARD
  0
TEXT
  8
0
 10
-218.199997
 20
133.720001
 40
6.300000
  1
MMF400-03-A
 50
0.000000
 41
1.052632
 51
0.000000
  7
STANDARD
  0
TEXT
  8
0
 10
8.416667
 20
43.027023
 40
6.300000
  1
OUT
 50
0.000000
 41
1.052632
 51
0.000000
  7
STANDARD
  0
TEXT
  8
0
 10
-111.583328
 20
43.027069
 40
6.300000
  1
IN
 50
0.000000
 41
1.052632
 51
0.000000
  7
STANDARD
  0
TEXT
  8
0
 10
167.564667
 20
-192.100006
 40
9.000000
  1
KOGANEI CORP.
 50
0.000000
 41
1.052632
 51
0.000000
  7
STANDARD
  0
LINE
  8
0
 10
32.111465
 20
42.027023
 11
7.111465
 21
42.027023
  0
LINE
  8
0
 10
32.111465
 20
42.027023
 11
29.213688
 21
42.803478
  0
LINE
  8
0
 10
32.111465
 20
42.027023
 11
29.213688
 21
41.250565
  0
LINE
  8
0
 10
-92.888519
 20
42.027069
 11
-117.888519
 21
42.027081
  0
LINE
  8
0
 10
-92.888519
 20
42.027069
 11
-95.786293
 21
42.803528
  0
LINE
  8
0
 10
-92.888519
 20
42.027069
 11
-95.786301
 21
41.250614
  0
ENDSEC
  0
EOF
