  0
SECTION
  2
HEADER
  0
ENDSEC
  0
SECTION
  2
TABLES
  0
TABLE
  2
LTYPE
 70
     4
  0
LTYPE
  2
CONTINUOUS
 70
    64
  3
Solid line
 72
    65
 73
     0
 40
0.000000
  0
LTYPE
  2
DASHED
 70
    64
  3
__ __ __ __ __ __ __ __ __ __ __ __ __ __ __
 72
    65
 73
     2
 40
3.500000
 49
2.000000
 49
-1.500000
  0
LTYPE
  2
CENTER
 70
    64
  3
____ _ ____ _ ____ _ ____ _ ____ _ ____ _ ____
 72
    65
 73
     4
 40
17.500000
 49
13.000000
 49
-1.500000
 49
1.500000
 49
-1.500000
  0
LTYPE
  2
PHANTOM
 70
    64
  3
_____ _ _ _____ _ _ _____ _ _ _____ _ _ ____  
 72
    65
 73
     6
 40
15.500000
 49
8.000000
 49
-1.500000
 49
1.500000
 49
-1.500000
 49
1.500000
 49
-1.500000
  0
LTYPE
  2
DASHED1
 70
    64
  3
__ __ __ __ __ __ __ __ __ __ __ __ __ __ __
 72
    65
 73
     2
 40
1.500000
 49
1.000000
 49
-0.500000
  0
LTYPE
  2
DASHED2
 70
    64
  3
__ __ __ __ __ __ __ __ __ __ __ __ __ __ __
 72
    65
 73
     2
 40
3.500000
 49
2.500000
 49
-1.000000
  0
LTYPE
  2
DASHED3
 70
    64
  3
__ __ __ __ __ __ __ __ __ __ __ __ __ __ __
 72
    65
 73
     2
 40
6.000000
 49
4.000000
 49
-2.000000
  0
LTYPE
  2
DASHED4
 70
    64
  3
__ __ __ __ __ __ __ __ __ __ __ __ __ __ __
 72
    65
 73
     2
 40
12.000000
 49
10.000000
 49
-2.000000
  0
LTYPE
  2
DASHED5
 70
    64
  3
__ __ __ __ __ __ __ __ __ __ __ __ __ __ __
 72
    65
 73
     2
 40
17.000000
 49
15.000000
 49
-2.000000
  0
LTYPE
  2
DASHED6
 70
    64
  3
__ __ __ __ __ __ __ __ __ __ __ __ __ __ __
 72
    65
 73
     2
 40
29.000000
 49
27.000000
 49
-2.000000
  0
LTYPE
  2
PHANTOM1
 70
    64
  3
_____ _ _ _____ _ _ _____ _ _ _____ _ _ ____  
 72
    65
 73
     6
 40
31.000000
 49
25.000000
 49
-1.500000
 49
1.000000
 49
-1.000000
 49
1.000000
 49
-1.500000
  0
LTYPE
  2
PHANTOM2
 70
    64
  3
_____ _ _ _____ _ _ _____ _ _ _____ _ _ ____  
 72
    65
 73
     6
 40
36.000000
 49
27.000000
 49
-1.500000
 49
2.500000
 49
-1.000000
 49
2.500000
 49
-1.500000
  0
LTYPE
  2
PHANTOM3
 70
    64
  3
_____ _ _ _____ _ _ _____ _ _ _____ _ _ ____  
 72
    65
 73
     6
 40
78.000000
 49
64.000000
 49
-2.000000
 49
4.000000
 49
-2.000000
 49
4.000000
 49
-2.000000
  0
LTYPE
  2
CENTER1
 70
    64
  3
____ _ ____ _ ____ _ ____ _ ____ _ ____ _ ____
 72
    65
 73
     4
 40
19.000000
 49
14.000000
 49
-1.000000
 49
3.000000
 49
-1.000000
  0
LTYPE
  2
CENTER2
 70
    64
  3
____ _ ____ _ ____ _ ____ _ ____ _ ____ _ ____
 72
    65
 73
     4
 40
28.500000
 49
25.000000
 49
-1.000000
 49
1.500000
 49
-1.000000
  0
LTYPE
  2
CENTER3
 70
    64
  3
____ _ ____ _ ____ _ ____ _ ____ _ ____ _ ____
 72
    65
 73
     4
 40
31.500000
 49
27.000000
 49
-1.000000
 49
2.500000
 49
-1.000000
  0
LTYPE
  2
CENTER4
 70
    64
  3
____ _ ____ _ ____ _ ____ _ ____ _ ____ _ ____
 72
    65
 73
     4
 40
50.000000
 49
45.000000
 49
-1.000000
 49
3.000000
 49
-1.000000
  0
LTYPE
  2
CENTER5
 70
    64
  3
____ _ ____ _ ____ _ ____ _ ____ _ ____ _ ____
 72
    65
 73
     4
 40
100.000000
 49
92.000000
 49
-2.000000
 49
4.000000
 49
-2.000000
  0
LTYPE
  2
SBK1
 70
    64
  3
______ _ _ _ ______ _ _ _ ______ _ _ _ _____  
 72
    65
 73
     8
 40
60.500000
 49
45.000000
 49
-2.000000
 49
2.500000
 49
-2.000000
 49
2.500000
 49
-2.000000
 49
2.500000
 49
-2.000000
  0
LTYPE
  2
SBK2
 70
    64
  3
______ _ _ _ ______ _ _ _ ______ _ _ _ _____  
 72
    65
 73
     8
 40
84.000000
 49
64.000000
 49
-2.000000
 49
4.000000
 49
-2.000000
 49
4.000000
 49
-2.000000
 49
4.000000
 49
-2.000000
  0
LTYPE
  2
STCH
 70
    64
  3
__ __ __ __ __ __ __ __ __ __ __ __ __ __ __
 72
    65
 73
     2
 40
3.000000
 49
1.000000
 49
-2.000000
  0
LTYPE
  2
MTCH
 70
    64
  3
_____ _ _ _____ _ _ _____ _ _ _____ _ _ ____  
 72
    65
 73
     6
 40
80.000000
 49
66.000000
 49
-2.000000
 49
4.000000
 49
-2.000000
 49
4.000000
 49
-2.000000
  0
ENDTAB
  0
TABLE
  2
LAYER
 70
     1
  0
LAYER
  2
0
 70
     0
 62
     7
  6
CONTINUOUS
  0
ENDTAB
  0
TABLE
  2
STYLE
 70
     1
  0
STYLE
  2
STANDARD
 70
     0
 40
0.000000
 41
1.000000
 50
0.000000
 71
     0
 42
0.200000
  3
txt
  4
BIGFONT
  0
ENDTAB
  0
TABLE
  2
VIEW
 70
     0
  0
ENDTAB
  0
ENDSEC
  0
SECTION
  2
BLOCKS
  0
ENDSEC
  0
SECTION
  2
ENTITIES
  0
LINE
  8
0
 62
     4
 10
-176.873779
 20
-160.879990
 11
-176.443771
 21
-163.279984
  0
LINE
  8
0
 62
     4
 10
-176.873779
 20
-158.279984
 11
-176.443771
 21
-160.679977
  0
LINE
  8
0
 62
     4
 10
-170.373795
 20
-160.879990
 11
-170.803787
 21
-163.279984
  0
LINE
  8
0
 62
     4
 10
-170.373779
 20
-158.279999
 11
-170.803772
 21
-160.679993
  0
LINE
  8
0
 62
     4
 10
-170.373779
 20
-160.679993
 11
-170.373779
 21
-160.879990
  0
LINE
  8
0
 62
     4
 10
-176.873779
 20
-160.679993
 11
-176.873779
 21
-160.879990
  0
LINE
  8
0
 62
     4
 10
-170.373779
 20
-158.079987
 11
-170.373779
 21
-158.279984
  0
LINE
  8
0
 62
     4
 10
-176.873779
 20
-158.079987
 11
-176.873779
 21
-158.279984
  0
LINE
  8
0
 62
     4
 10
-176.873779
 20
-160.879990
 11
-170.373779
 21
-160.879990
  0
LINE
  8
0
 62
     4
 10
-176.873779
 20
-158.279984
 11
-170.373779
 21
-158.279984
  0
LINE
  8
0
 62
     4
 10
-166.023773
 20
-153.679977
 11
-166.613770
 21
-154.179993
  0
LINE
  8
0
 62
     4
 10
-181.223770
 20
-153.679993
 11
-180.633774
 21
-154.179993
  0
LINE
  8
0
 62
     4
 10
-167.193771
 20
-144.239990
 11
-166.613770
 21
-144.459991
  0
LINE
  8
0
 62
     4
 10
-180.633774
 20
-144.459991
 11
-180.053787
 21
-144.239990
  0
LINE
  8
0
 62
     4
 10
-177.933777
 20
-153.679993
 11
-177.273773
 21
-154.179993
  0
LINE
  8
0
 62
     4
 10
-169.313782
 20
-153.679993
 11
-169.973770
 21
-154.179993
  0
LINE
  8
0
 62
     4
 10
-169.973770
 20
-144.459991
 11
-169.313782
 21
-144.179993
  0
LINE
  8
0
 62
     4
 10
-177.933777
 20
-144.179993
 11
-177.273773
 21
-144.459991
  0
LINE
  8
0
 62
     4
 10
-175.123779
 20
-153.679993
 11
-175.463776
 21
-154.179993
  0
LINE
  8
0
 62
     4
 10
-172.123779
 20
-153.679993
 11
-171.783783
 21
-154.179993
  0
LINE
  8
0
 62
     4
 10
-172.123764
 20
-144.179993
 11
-171.783752
 21
-144.459991
  0
LINE
  8
0
 62
     4
 10
-175.463776
 20
-144.459991
 11
-175.123779
 21
-144.179993
  0
LINE
  8
0
 62
     4
 10
-166.023773
 20
-144.179993
 11
-166.023773
 21
-153.679993
  0
LINE
  8
0
 62
     4
 10
-181.223770
 20
-144.179993
 11
-181.223770
 21
-153.679993
  0
LINE
  8
0
 62
     4
 10
-166.613770
 20
-144.459991
 11
-166.613770
 21
-154.179993
  0
LINE
  8
0
 62
     4
 10
-180.633774
 20
-144.459991
 11
-180.633774
 21
-154.179993
  0
LINE
  8
0
 62
     4
 10
-167.193771
 20
-144.179993
 11
-167.193771
 21
-154.179993
  0
LINE
  8
0
 62
     4
 10
-180.053772
 20
-144.179993
 11
-180.053772
 21
-154.179993
  0
LINE
  8
0
 62
     4
 10
-166.613770
 20
-154.179993
 11
-166.373779
 21
-154.179993
  0
LINE
  8
0
 62
     4
 10
-166.023773
 20
-153.679993
 11
-165.873779
 21
-153.679993
  0
LINE
  8
0
 62
     4
 10
-180.053772
 20
-154.179993
 11
-177.273773
 21
-154.179993
  0
LINE
  8
0
 62
     4
 10
-180.053772
 20
-153.679993
 11
-177.933777
 21
-153.679993
  0
LINE
  8
0
 62
     4
 10
-177.273773
 20
-144.459991
 11
-175.463776
 21
-144.459991
  0
LINE
  8
0
 62
     4
 10
-177.933777
 20
-144.179993
 11
-175.123779
 21
-144.179993
  0
LINE
  8
0
 62
     4
 10
-166.613770
 20
-144.459991
 11
-166.023773
 21
-144.459991
  0
LINE
  8
0
 62
     4
 10
-167.193771
 20
-144.179993
 11
-166.023773
 21
-144.179993
  0
LINE
  8
0
 62
     4
 10
-169.313782
 20
-144.179993
 11
-169.313782
 21
-153.679993
  0
LINE
  8
0
 62
     4
 10
-177.933777
 20
-144.179993
 11
-177.933777
 21
-153.679993
  0
LINE
  8
0
 62
     4
 10
-177.273773
 20
-144.459991
 11
-177.273773
 21
-154.179993
  0
LINE
  8
0
 62
     4
 10
-169.973770
 20
-144.459991
 11
-169.973770
 21
-154.179993
  0
LINE
  8
0
 62
     4
 10
-169.973770
 20
-154.179993
 11
-167.193771
 21
-154.179993
  0
LINE
  8
0
 62
     4
 10
-175.463776
 20
-154.179993
 11
-171.783783
 21
-154.179993
  0
LINE
  8
0
 62
     4
 10
-175.463776
 20
-144.459991
 11
-175.463776
 21
-154.179993
  0
LINE
  8
0
 62
     4
 10
-171.783783
 20
-144.459991
 11
-171.783783
 21
-154.179993
  0
LINE
  8
0
 62
     4
 10
-180.873779
 20
-154.179993
 11
-180.633774
 21
-154.179993
  0
LINE
  8
0
 62
     4
 10
-169.313782
 20
-153.679993
 11
-167.193771
 21
-153.679993
  0
LINE
  8
0
 62
     4
 10
-175.123779
 20
-153.679993
 11
-172.123779
 21
-153.679993
  0
LINE
  8
0
 62
     4
 10
-171.783783
 20
-144.459991
 11
-169.973770
 21
-144.459991
  0
LINE
  8
0
 62
     4
 10
-172.123779
 20
-144.179993
 11
-169.313782
 21
-144.179993
  0
LINE
  8
0
 62
     4
 10
-172.123779
 20
-144.179993
 11
-172.123779
 21
-153.679993
  0
LINE
  8
0
 62
     4
 10
-175.123779
 20
-144.179993
 11
-175.123779
 21
-153.679993
  0
LINE
  8
0
 62
     4
 10
-181.373779
 20
-153.679993
 11
-181.223770
 21
-153.679993
  0
LINE
  8
0
 62
     4
 10
-181.223770
 20
-144.459991
 11
-180.633774
 21
-144.459991
  0
LINE
  8
0
 62
     4
 10
-176.473770
 20
-156.179993
 11
-176.473770
 21
-158.079987
  0
LINE
  8
0
 62
     4
 10
-170.773773
 20
-156.179993
 11
-170.773773
 21
-158.079987
  0
LINE
  8
0
 62
     4
 10
-176.873779
 20
-158.079987
 11
-170.373779
 21
-158.079987
  0
LINE
  8
0
 62
     4
 10
-176.873779
 20
-160.679993
 11
-170.373779
 21
-160.679993
  0
LINE
  8
0
 62
     4
 10
-176.443771
 20
-163.279984
 11
-170.803772
 21
-163.279984
  0
LINE
  8
0
 62
     4
 10
-180.123779
 20
-155.679993
 11
-167.123779
 21
-155.679993
  0
LINE
  8
0
 62
     4
 10
-167.123764
 20
-155.679993
 11
-167.623779
 21
-156.179993
  0
LINE
  8
0
 62
     4
 10
-180.123779
 20
-155.679993
 11
-179.623779
 21
-156.179993
  0
LINE
  8
0
 62
     4
 10
-167.123779
 20
-154.679993
 11
-167.123779
 21
-155.679993
  0
LINE
  8
0
 62
     4
 10
-180.123779
 20
-154.679993
 11
-180.123779
 21
-155.679993
  0
LINE
  8
0
 62
     4
 10
-179.623779
 20
-156.179993
 11
-167.623779
 21
-156.179993
  0
LINE
  8
0
 62
     4
 10
-181.373779
 20
-141.679993
 11
-165.873779
 21
-141.679993
  0
LINE
  8
0
 62
     4
 10
-181.693771
 20
-139.479996
 11
-165.553772
 21
-139.479996
  0
LINE
  8
0
 62
     4
 10
-165.553772
 20
-139.479996
 11
-166.053772
 21
-139.979996
  0
LINE
  8
0
 62
     4
 10
-181.693756
 20
-139.479980
 11
-181.193756
 21
-139.979996
  0
LINE
  8
0
 62
     4
 10
-167.623779
 20
-139.979996
 11
-167.623779
 21
-141.179993
  0
LINE
  8
0
 62
     4
 10
-179.623779
 20
-139.979996
 11
-179.623779
 21
-141.179993
  0
LINE
  8
0
 62
     4
 10
-166.373779
 20
-141.179993
 11
-165.873779
 21
-141.679993
  0
LINE
  8
0
 62
     4
 10
-181.373779
 20
-141.679993
 11
-180.873779
 21
-141.179993
  0
LINE
  8
0
 62
     4
 10
-180.873779
 20
-141.179993
 11
-166.373779
 21
-141.179993
  0
LINE
  8
0
 62
     4
 10
-181.223770
 20
-144.179993
 11
-180.053772
 21
-144.179993
  0
LINE
  8
0
 62
     4
 10
-166.873779
 20
-154.679993
 11
-165.873779
 21
-153.679993
  0
LINE
  8
0
 62
     4
 10
-181.373749
 20
-153.679993
 11
-180.373764
 21
-154.679993
  0
LINE
  8
0
 62
     4
 10
-165.873779
 20
-141.679993
 11
-165.873779
 21
-153.679993
  0
LINE
  8
0
 62
     4
 10
-181.373779
 20
-141.679993
 11
-181.373779
 21
-153.679993
  0
LINE
  8
0
 62
     4
 10
-180.373779
 20
-154.679993
 11
-166.873779
 21
-154.679993
  0
LINE
  8
0
 62
     4
 10
-181.193771
 20
-139.979996
 11
-166.053772
 21
-139.979996
  0
LINE
  8
0
 62
     4
 10
-165.553772
 20
-137.979996
 11
-165.553772
 21
-139.479996
  0
LINE
  8
0
 62
     4
 10
-181.693771
 20
-137.979996
 11
-181.693771
 21
-139.479996
  0
LINE
  8
0
 10
-48.623871
 20
129.999985
 11
-48.623871
 21
91.999985
  0
LINE
  8
0
 10
-47.623871
 20
130.999985
 11
-47.623871
 21
90.999985
  0
LINE
  8
0
  6
CENTER
 62
     2
 10
-8.623871
 20
157.309982
 11
-8.623871
 21
66.539993
  0
LINE
  8
0
 10
-47.623871
 20
130.999985
 11
30.376129
 21
130.999985
  0
LINE
  8
0
 10
-47.623871
 20
90.999985
 11
30.376129
 21
90.999985
  0
LINE
  8
0
 10
-48.623871
 20
129.999985
 11
31.376129
 21
129.999985
  0
LINE
  8
0
 10
-48.623871
 20
91.999985
 11
31.376129
 21
91.999985
  0
LINE
  8
0
 10
31.376116
 20
91.999977
 11
30.376127
 21
90.999985
  0
LINE
  8
0
 10
30.376122
 20
130.999985
 11
31.376114
 21
130.000000
  0
LINE
  8
0
 10
-47.623871
 20
130.999985
 11
-48.623867
 21
129.999985
  0
LINE
  8
0
 10
-48.623867
 20
91.999985
 11
-47.623867
 21
90.999985
  0
LINE
  8
0
 10
30.376129
 20
130.999985
 11
30.376129
 21
90.999985
  0
LINE
  8
0
 10
31.376129
 20
129.999985
 11
31.376129
 21
91.999985
  0
LINE
  8
0
  6
CENTER
 62
     2
 10
-57.943871
 20
110.999985
 11
41.196121
 21
110.999985
  0
LINE
  8
0
 10
173.376099
 20
11.716611
 11
173.376099
 21
-19.283390
  0
LINE
  8
0
 10
133.376099
 20
11.716611
 11
133.376099
 21
-19.283390
  0
LINE
  8
0
 10
180.876099
 20
9.716606
 11
181.876099
 21
8.716604
  0
LINE
  8
0
 10
124.876099
 20
8.716604
 11
125.876099
 21
9.716606
  0
LINE
  8
0
 10
174.376099
 20
8.716611
 11
181.876099
 21
8.716611
  0
LINE
  8
0
 10
124.876099
 20
8.716611
 11
132.376099
 21
8.716611
  0
LINE
  8
0
 10
175.376099
 20
9.716611
 11
180.876099
 21
9.716611
  0
LINE
  8
0
  6
CENTER
 62
     2
 10
121.466110
 20
-3.283389
 11
186.006088
 21
-3.283389
  0
LINE
  8
0
 10
172.376099
 20
12.716605
 11
173.376099
 21
11.716603
  0
LINE
  8
0
 10
134.376099
 20
12.716607
 11
133.376099
 21
11.716605
  0
LINE
  8
0
 10
133.376099
 20
11.716611
 11
173.376099
 21
11.716611
  0
LINE
  8
0
 10
134.376099
 20
12.716611
 11
134.376099
 21
-19.283390
  0
LINE
  8
0
 10
172.376099
 20
12.716611
 11
172.376099
 21
-19.283390
  0
LINE
  8
0
 10
134.376099
 20
12.716611
 11
172.376099
 21
12.716611
  0
LINE
  8
0
 10
125.876099
 20
9.716611
 11
131.376099
 21
9.716611
  0
LINE
  8
0
 10
181.876099
 20
8.716611
 11
181.876099
 21
-16.783390
  0
LINE
  8
0
 10
124.876099
 20
8.716611
 11
124.876099
 21
-16.783390
  0
LINE
  8
0
 10
114.876099
 20
-39.283390
 11
191.876099
 21
-39.283390
  0
LINE
  8
0
 10
175.376099
 20
-18.283390
 11
191.876099
 21
-18.283390
  0
LINE
  8
0
 10
113.876099
 20
-19.283390
 11
192.876099
 21
-19.283390
  0
LINE
  8
0
 10
192.876083
 20
-19.283382
 11
191.876068
 21
-18.283381
  0
LINE
  8
0
 10
113.876099
 20
-19.283382
 11
114.876114
 21
-18.283381
  0
LINE
  8
0
 10
113.876099
 20
-38.283390
 11
192.876099
 21
-38.283390
  0
LINE
  8
0
 10
192.876083
 20
-38.283379
 11
191.876068
 21
-39.283382
  0
LINE
  8
0
 10
113.876106
 20
-38.283382
 11
114.876106
 21
-39.283379
  0
LINE
  8
0
 10
114.876099
 20
-18.283390
 11
131.376099
 21
-18.283390
  0
LINE
  8
0
 10
192.876099
 20
-19.283390
 11
192.876099
 21
-38.283390
  0
LINE
  8
0
 10
113.876099
 20
-19.283390
 11
113.876099
 21
-38.283390
  0
LINE
  8
0
 10
119.966110
 20
-123.603378
 11
119.226112
 21
-39.283382
  0
LINE
  8
0
 10
186.796097
 20
-123.603386
 11
187.536102
 21
-39.283379
  0
LINE
  8
0
 10
145.306091
 20
-139.473373
 11
161.456100
 21
-139.473373
  0
LINE
  8
0
 10
124.666107
 20
-44.983387
 11
124.666107
 21
-120.973373
  0
LINE
  8
0
 10
125.256104
 20
-45.483387
 11
125.256104
 21
-120.473373
  0
LINE
  8
0
 10
125.516113
 20
-45.983387
 11
125.516113
 21
-77.983383
  0
LINE
  8
0
 10
127.356110
 20
-46.483387
 11
127.356110
 21
-77.483383
  0
LINE
  8
0
 10
134.426102
 20
-45.983387
 11
134.426102
 21
-77.983383
  0
LINE
  8
0
 10
134.806107
 20
-44.983387
 11
134.806107
 21
-120.973373
  0
LINE
  8
0
 10
125.666107
 20
-43.983387
 11
133.806107
 21
-43.983387
  0
LINE
  8
0
 10
126.256104
 20
-44.483387
 11
133.806107
 21
-44.483387
  0
LINE
  8
0
 10
133.806107
 20
-121.973373
 11
125.666107
 21
-121.973373
  0
LINE
  8
0
 10
133.806107
 20
-121.473373
 11
126.256104
 21
-121.473373
  0
LINE
  8
0
 10
134.426102
 20
-85.983383
 11
134.426102
 21
-119.973373
  0
LINE
  8
0
 10
127.356110
 20
-86.483383
 11
127.356110
 21
-119.473373
  0
LINE
  8
0
 10
125.516113
 20
-85.983383
 11
125.516113
 21
-119.973373
  0
LINE
  8
0
 10
133.426102
 20
-120.473373
 11
128.356110
 21
-120.473373
  0
LINE
  8
0
 10
133.426102
 20
-78.483383
 11
128.356110
 21
-78.483383
  0
LINE
  8
0
 10
133.426102
 20
-85.483383
 11
128.356110
 21
-85.483383
  0
LINE
  8
0
 10
128.356110
 20
-45.483387
 11
133.426102
 21
-45.483387
  0
LINE
  8
0
 10
126.516113
 20
-44.983387
 11
133.426102
 21
-44.983387
  0
LINE
  8
0
 10
133.426102
 20
-78.983383
 11
126.516113
 21
-78.983383
  0
LINE
  8
0
 10
133.426102
 20
-84.983383
 11
126.516113
 21
-84.983383
  0
LINE
  8
0
 10
133.426102
 20
-120.973373
 11
126.516113
 21
-120.973373
  0
LINE
  8
0
 10
182.096085
 20
-44.983387
 11
182.096085
 21
-120.973373
  0
LINE
  8
0
 10
181.496094
 20
-45.483387
 11
181.496094
 21
-120.473373
  0
LINE
  8
0
 10
181.246094
 20
-45.983387
 11
181.246094
 21
-77.983383
  0
LINE
  8
0
 10
179.406097
 20
-46.483387
 11
179.406097
 21
-77.483383
  0
LINE
  8
0
 10
172.336090
 20
-45.983387
 11
172.336090
 21
-77.983383
  0
LINE
  8
0
 10
171.956085
 20
-44.983387
 11
171.956085
 21
-120.973373
  0
LINE
  8
0
 10
181.096085
 20
-43.983387
 11
172.956085
 21
-43.983387
  0
LINE
  8
0
 10
180.496094
 20
-44.483387
 11
172.956085
 21
-44.483387
  0
LINE
  8
0
 10
172.956085
 20
-121.973373
 11
181.096085
 21
-121.973373
  0
LINE
  8
0
 10
172.956085
 20
-121.473373
 11
180.496094
 21
-121.473373
  0
LINE
  8
0
 10
172.336090
 20
-85.983383
 11
172.336090
 21
-119.973373
  0
LINE
  8
0
 10
179.406097
 20
-86.483383
 11
179.406097
 21
-119.473373
  0
LINE
  8
0
 10
181.246094
 20
-85.983383
 11
181.246094
 21
-119.973373
  0
LINE
  8
0
 10
173.336090
 20
-120.473373
 11
178.406097
 21
-120.473373
  0
LINE
  8
0
 10
173.336090
 20
-78.483383
 11
178.406097
 21
-78.483383
  0
LINE
  8
0
 10
173.336090
 20
-85.483383
 11
178.406097
 21
-85.483383
  0
LINE
  8
0
 10
178.406097
 20
-45.483387
 11
173.336090
 21
-45.483387
  0
LINE
  8
0
 10
180.246094
 20
-44.983387
 11
173.336090
 21
-44.983387
  0
LINE
  8
0
 10
173.336090
 20
-78.983383
 11
180.246094
 21
-78.983383
  0
LINE
  8
0
 10
173.336090
 20
-84.983383
 11
180.246094
 21
-84.983383
  0
LINE
  8
0
 10
173.336090
 20
-120.973373
 11
180.246094
 21
-120.973373
  0
LINE
  8
0
 10
171.796097
 20
-138.473373
 11
134.966110
 21
-138.473373
  0
LINE
  8
0
 10
146.876099
 20
-155.763382
 11
159.876099
 21
-155.763382
  0
LINE
  8
0
 10
159.376099
 20
-156.263382
 11
159.876099
 21
-155.763382
  0
LINE
  8
0
 10
146.876099
 20
-155.763382
 11
147.376099
 21
-156.263382
  0
LINE
  8
0
 10
146.876099
 20
-155.763382
 11
146.876099
 21
-154.763382
  0
LINE
  8
0
 10
159.876099
 20
-155.763382
 11
159.876099
 21
-154.763382
  0
LINE
  8
0
 10
159.376099
 20
-156.263382
 11
147.376099
 21
-156.263382
  0
LINE
  8
0
 10
161.126099
 20
-141.763382
 11
145.626099
 21
-141.763382
  0
LINE
  8
0
 10
147.116104
 20
-154.263382
 11
146.366104
 21
-154.263382
  0
LINE
  8
0
 10
160.396103
 20
-154.263382
 11
159.636093
 21
-154.263382
  0
LINE
  8
0
 10
151.536102
 20
-154.263382
 11
149.726105
 21
-154.263382
  0
LINE
  8
0
 10
146.946106
 20
-153.763397
 11
147.116104
 21
-154.263382
  0
LINE
  8
0
 10
159.816101
 20
-153.763382
 11
159.636108
 21
-154.263367
  0
LINE
  8
0
 10
160.396103
 20
-144.553391
 11
160.986099
 21
-144.263382
  0
LINE
  8
0
 10
157.036102
 20
-144.553391
 11
157.696106
 21
-144.263382
  0
LINE
  8
0
 10
155.226105
 20
-144.553375
 11
154.876114
 21
-144.263382
  0
LINE
  8
0
 10
151.536087
 20
-144.553391
 11
151.876099
 21
-144.263382
  0
LINE
  8
0
 10
149.726089
 20
-144.553375
 11
149.066116
 21
-144.263382
  0
LINE
  8
0
 10
146.366104
 20
-144.553391
 11
145.776093
 21
-144.263382
  0
LINE
  8
0
 10
146.366104
 20
-154.263382
 11
145.776108
 21
-153.763367
  0
LINE
  8
0
 10
149.726105
 20
-154.263382
 11
149.066116
 21
-153.763382
  0
LINE
  8
0
 10
151.876099
 20
-153.763382
 11
151.536102
 21
-154.263367
  0
LINE
  8
0
 10
155.226105
 20
-154.263382
 11
154.876099
 21
-153.763382
  0
LINE
  8
0
 10
157.036087
 20
-154.263382
 11
157.696091
 21
-153.763382
  0
LINE
  8
0
 10
160.396088
 20
-154.263382
 11
160.986099
 21
-153.763382
  0
LINE
  8
0
 10
157.036102
 20
-154.263382
 11
155.226105
 21
-154.263382
  0
LINE
  8
0
 10
159.816101
 20
-153.763382
 11
157.696106
 21
-153.763382
  0
LINE
  8
0
 10
145.776093
 20
-153.763382
 11
145.626099
 21
-153.763382
  0
LINE
  8
0
 10
149.066101
 20
-153.763382
 11
146.946106
 21
-153.763382
  0
LINE
  8
0
 10
154.876099
 20
-153.763382
 11
151.876099
 21
-153.763382
  0
LINE
  8
0
 10
146.946106
 20
-144.553375
 11
146.366104
 21
-144.553375
  0
LINE
  8
0
 10
146.946106
 20
-144.263382
 11
145.776093
 21
-144.263382
  0
LINE
  8
0
 10
157.036102
 20
-144.553375
 11
155.226105
 21
-144.553375
  0
LINE
  8
0
 10
157.696106
 20
-144.263382
 11
154.876099
 21
-144.263382
  0
LINE
  8
0
 10
151.536102
 20
-144.553375
 11
149.726105
 21
-144.553375
  0
LINE
  8
0
 10
151.876099
 20
-144.263382
 11
149.066101
 21
-144.263382
  0
LINE
  8
0
 10
161.126099
 20
-153.763382
 11
160.986099
 21
-153.763382
  0
LINE
  8
0
 10
160.396103
 20
-144.553375
 11
159.816101
 21
-144.553375
  0
LINE
  8
0
 10
160.986099
 20
-144.263382
 11
159.816101
 21
-144.263382
  0
LINE
  8
0
 10
160.986099
 20
-144.263382
 11
160.986099
 21
-153.763382
  0
LINE
  8
0
 10
160.396103
 20
-144.553375
 11
160.396103
 21
-154.263382
  0
LINE
  8
0
 10
159.816101
 20
-144.263382
 11
159.816101
 21
-153.763382
  0
LINE
  8
0
 10
157.696106
 20
-144.263382
 11
157.696106
 21
-153.763382
  0
LINE
  8
0
 10
157.036102
 20
-144.553375
 11
157.036102
 21
-154.263382
  0
LINE
  8
0
 10
145.776093
 20
-144.263382
 11
145.776093
 21
-153.763382
  0
LINE
  8
0
 10
146.366104
 20
-144.553375
 11
146.366104
 21
-154.263382
  0
LINE
  8
0
 10
146.946106
 20
-144.263382
 11
146.946106
 21
-153.763382
  0
LINE
  8
0
 10
149.066101
 20
-144.263382
 11
149.066101
 21
-153.763382
  0
LINE
  8
0
 10
149.726105
 20
-144.553375
 11
149.726105
 21
-154.263382
  0
LINE
  8
0
 10
151.536102
 20
-144.553375
 11
151.536102
 21
-154.263382
  0
LINE
  8
0
 10
155.226105
 20
-144.553375
 11
155.226105
 21
-154.263382
  0
LINE
  8
0
 10
154.876099
 20
-144.263382
 11
154.876099
 21
-153.763382
  0
LINE
  8
0
 10
151.876099
 20
-144.263382
 11
151.876099
 21
-153.763382
  0
LINE
  8
0
 62
     2
 10
158.626099
 20
-139.973373
 11
158.626099
 21
-141.263382
  0
LINE
  8
0
 62
     2
 10
148.126099
 20
-139.973373
 11
148.126099
 21
-141.263382
  0
LINE
  8
0
 10
147.376099
 20
-139.973373
 11
147.376099
 21
-141.263382
  0
LINE
  8
0
 10
159.376099
 20
-139.973373
 11
159.376099
 21
-141.263382
  0
LINE
  8
0
 10
146.126099
 20
-141.263382
 11
145.626099
 21
-141.763382
  0
LINE
  8
0
 10
160.626099
 20
-141.263382
 11
161.126099
 21
-141.763382
  0
LINE
  8
0
 10
160.626099
 20
-141.263382
 11
146.126099
 21
-141.263382
  0
LINE
  8
0
 10
146.626099
 20
-154.763382
 11
145.626099
 21
-153.763382
  0
LINE
  8
0
 10
161.126099
 20
-153.763382
 11
160.126099
 21
-154.763382
  0
LINE
  8
0
 10
145.626099
 20
-141.763382
 11
145.626099
 21
-153.763382
  0
LINE
  8
0
 10
161.126099
 20
-141.763382
 11
161.126099
 21
-153.763382
  0
LINE
  8
0
 10
160.126099
 20
-154.763382
 11
146.626099
 21
-154.763382
  0
LINE
  8
0
 10
145.806091
 20
-139.973373
 11
145.306091
 21
-139.473373
  0
LINE
  8
0
 10
160.956085
 20
-139.973373
 11
161.456085
 21
-139.473373
  0
LINE
  8
0
 10
161.456100
 20
-139.473373
 11
161.456100
 21
-138.473373
  0
LINE
  8
0
 10
145.306091
 20
-139.473373
 11
145.306091
 21
-138.473373
  0
LINE
  8
0
 10
145.806091
 20
-139.973373
 11
160.956100
 21
-139.973373
  0
LINE
  8
0
  6
CENTER
 62
     2
 10
153.376099
 20
15.546597
 11
153.376099
 21
-158.893372
  0
LINE
  8
0
  6
CENTER
 62
     2
 10
-8.623871
 20
16.016603
 11
-8.623871
 21
-158.023376
  0
LINE
  8
0
 10
-33.623878
 20
-13.283376
 11
-34.333878
 21
-12.573377
  0
LINE
  8
0
 10
-43.623871
 20
-13.283383
 11
-42.923866
 21
-12.573383
  0
LINE
  8
0
 10
-43.623871
 20
6.716616
 11
-42.923870
 21
6.006615
  0
LINE
  8
0
 10
-33.623878
 20
6.716607
 11
-34.333878
 21
6.006609
  0
LINE
  8
0
 10
-34.333870
 20
-12.573384
 11
-42.923870
 21
-12.573384
  0
LINE
  8
0
 10
-34.333870
 20
6.006616
 11
-34.333870
 21
-12.573384
  0
LINE
  8
0
 10
-34.333870
 20
6.006616
 11
-42.923870
 21
6.006616
  0
LINE
  8
0
 10
-42.923870
 20
6.006616
 11
-42.923870
 21
-12.573384
  0
LINE
  8
0
 10
-33.623871
 20
-13.283384
 11
-43.623871
 21
-13.283384
  0
LINE
  8
0
 10
-33.623871
 20
6.716615
 11
-43.623871
 21
6.716615
  0
LINE
  8
0
 10
-33.623871
 20
6.716615
 11
-33.623871
 21
-13.283384
  0
LINE
  8
0
 10
-43.623871
 20
6.716615
 11
-43.623871
 21
-13.283384
  0
LINE
  8
0
 10
16.376118
 20
-13.283382
 11
17.076115
 21
-12.573386
  0
LINE
  8
0
 10
26.376114
 20
-13.283384
 11
25.666115
 21
-12.573386
  0
LINE
  8
0
 10
26.376114
 20
6.716616
 11
25.666115
 21
6.006617
  0
LINE
  8
0
 10
16.376118
 20
6.716614
 11
17.076115
 21
6.006618
  0
LINE
  8
0
 10
17.076126
 20
-12.573384
 11
25.666122
 21
-12.573384
  0
LINE
  8
0
 10
17.076126
 20
6.006616
 11
17.076126
 21
-12.573384
  0
LINE
  8
0
 10
17.076126
 20
6.006616
 11
25.666122
 21
6.006616
  0
LINE
  8
0
 10
25.666122
 20
6.006616
 11
25.666122
 21
-12.573384
  0
LINE
  8
0
 10
16.376129
 20
-13.283384
 11
26.376129
 21
-13.283384
  0
LINE
  8
0
 10
16.376129
 20
6.716615
 11
26.376129
 21
6.716615
  0
LINE
  8
0
 10
16.376129
 20
6.716615
 11
16.376129
 21
-13.283384
  0
LINE
  8
0
 10
26.376129
 20
6.716615
 11
26.376129
 21
-13.283384
  0
LINE
  8
0
 10
-28.933880
 20
8.716608
 11
-27.933878
 21
9.716610
  0
LINE
  8
0
 10
10.676111
 20
9.716619
 11
11.676112
 21
8.716618
  0
LINE
  8
0
 10
-28.933884
 20
8.716615
 11
11.676117
 21
8.716615
  0
LINE
  8
0
 10
30.376118
 20
12.716623
 11
31.376118
 21
11.716621
  0
LINE
  8
0
 10
-47.623871
 20
12.716616
 11
-48.623871
 21
11.716616
  0
LINE
  8
0
 10
-48.623871
 20
11.716615
 11
31.376129
 21
11.716615
  0
LINE
  8
0
 10
30.376129
 20
12.716615
 11
30.376129
 21
-19.283384
  0
LINE
  8
0
 10
-47.623871
 20
12.716615
 11
-47.623871
 21
-19.283384
  0
LINE
  8
0
 10
-27.933884
 20
9.716615
 11
10.676117
 21
9.716615
  0
LINE
  8
0
 10
11.676117
 20
8.716615
 11
11.676117
 21
-18.283384
  0
LINE
  8
0
 10
-28.933884
 20
8.716615
 11
-28.933884
 21
-18.283384
  0
LINE
  8
0
 10
31.376129
 20
11.716615
 11
31.376129
 21
-19.283384
  0
LINE
  8
0
 10
-48.623871
 20
11.716615
 11
-48.623871
 21
-19.283384
  0
LINE
  8
0
 10
-47.623871
 20
12.716615
 11
30.376129
 21
12.716615
  0
LINE
  8
0
 10
-48.623871
 20
-19.283384
 11
31.376129
 21
-19.283384
  0
LINE
  8
0
 10
25.436113
 20
-19.283381
 11
24.436123
 21
-18.283390
  0
LINE
  8
0
 10
-42.693867
 20
-19.283382
 11
-41.693871
 21
-18.283384
  0
LINE
  8
0
 10
-41.693871
 20
-18.283384
 11
24.436127
 21
-18.283384
  0
LINE
  8
0
 10
-48.123871
 20
-38.283386
 11
30.876114
 21
-38.283386
  0
LINE
  8
0
 10
30.876118
 20
-38.283379
 11
29.876116
 21
-39.283379
  0
LINE
  8
0
 10
-48.123871
 20
-38.283367
 11
-47.123871
 21
-39.283371
  0
LINE
  8
0
 10
30.876114
 20
-19.283384
 11
30.876114
 21
-38.283386
  0
LINE
  8
0
 10
-48.123871
 20
-19.283384
 11
-48.123871
 21
-38.283386
  0
LINE
  8
0
 10
-47.123871
 20
-39.283386
 11
29.876114
 21
-39.283386
  0
LINE
  8
0
 10
24.796104
 20
-123.603386
 11
25.526121
 21
-39.283382
  0
LINE
  8
0
 10
-42.663872
 20
-51.353363
 11
-42.773872
 21
-39.283371
  0
LINE
  8
0
 10
-45.083870
 20
-39.283371
 11
-45.043873
 21
-41.273373
  0
LINE
  8
0
 10
-44.513870
 20
-39.283375
 11
-44.463871
 21
-41.263359
  0
LINE
  8
0
 10
-16.693893
 20
-139.473373
 11
-0.543900
 21
-139.473373
  0
LINE
  8
0
 10
-15.123901
 20
-155.763382
 11
-2.123901
 21
-155.763382
  0
LINE
  8
0
 10
-2.623898
 20
-156.263382
 11
-2.123897
 21
-155.763382
  0
LINE
  8
0
 10
-15.123898
 20
-155.763367
 11
-14.623897
 21
-156.263367
  0
LINE
  8
0
 10
-15.123901
 20
-155.763382
 11
-15.123901
 21
-154.763382
  0
LINE
  8
0
 10
-2.123901
 20
-155.763382
 11
-2.123901
 21
-154.763382
  0
LINE
  8
0
 10
-2.623901
 20
-156.263382
 11
-14.623901
 21
-156.263382
  0
LINE
  8
0
 10
-0.873901
 20
-141.763382
 11
-16.373901
 21
-141.763382
  0
LINE
  8
0
 10
-14.883896
 20
-154.263382
 11
-15.633896
 21
-154.263382
  0
LINE
  8
0
 10
-1.613907
 20
-154.263382
 11
-2.363907
 21
-154.263382
  0
LINE
  8
0
 10
-10.463898
 20
-154.263382
 11
-12.283905
 21
-154.263382
  0
LINE
  8
0
 10
-15.063891
 20
-153.763367
 11
-14.883894
 21
-154.263382
  0
LINE
  8
0
 10
-2.183889
 20
-153.763367
 11
-2.363892
 21
-154.263367
  0
LINE
  8
0
 10
-1.613888
 20
-144.553375
 11
-1.023895
 21
-144.263382
  0
LINE
  8
0
 10
-4.963890
 20
-144.553375
 11
-4.303888
 21
-144.263382
  0
LINE
  8
0
 10
-6.783878
 20
-144.553375
 11
-7.123888
 21
-144.263382
  0
LINE
  8
0
 10
-10.463890
 20
-144.553375
 11
-10.123886
 21
-144.263382
  0
LINE
  8
0
 10
-12.283902
 20
-144.553375
 11
-12.933888
 21
-144.263382
  0
LINE
  8
0
 10
-15.633891
 20
-144.553375
 11
-16.223898
 21
-144.263367
  0
LINE
  8
0
 10
-15.633883
 20
-154.263382
 11
-16.223888
 21
-153.763367
  0
LINE
  8
0
 10
-12.283888
 20
-154.263367
 11
-12.933880
 21
-153.763367
  0
LINE
  8
0
 10
-10.123882
 20
-153.763367
 11
-10.463886
 21
-154.263382
  0
LINE
  8
0
 10
-6.783895
 20
-154.263382
 11
-7.123891
 21
-153.763382
  0
LINE
  8
0
 10
-4.963882
 20
-154.263382
 11
-4.303890
 21
-153.763382
  0
LINE
  8
0
 10
-1.613908
 20
-154.263382
 11
-1.023902
 21
-153.763367
  0
LINE
  8
0
 10
-4.963898
 20
-154.263382
 11
-6.783905
 21
-154.263382
  0
LINE
  8
0
 10
-2.183899
 20
-153.763382
 11
-4.303894
 21
-153.763382
  0
LINE
  8
0
 10
-16.223907
 20
-153.763382
 11
-16.373901
 21
-153.763382
  0
LINE
  8
0
 10
-12.933899
 20
-153.763382
 11
-15.063904
 21
-153.763382
  0
LINE
  8
0
 10
-7.123901
 20
-153.763382
 11
-10.123901
 21
-153.763382
  0
LINE
  8
0
 10
-15.063904
 20
-144.553375
 11
-15.633896
 21
-144.553375
  0
LINE
  8
0
 10
-15.063904
 20
-144.263382
 11
-16.223892
 21
-144.263382
  0
LINE
  8
0
 10
-4.963898
 20
-144.553375
 11
-6.783905
 21
-144.553375
  0
LINE
  8
0
 10
-4.303894
 20
-144.263382
 11
-7.123901
 21
-144.263382
  0
LINE
  8
0
 10
-10.463898
 20
-144.553375
 11
-12.283905
 21
-144.553375
  0
LINE
  8
0
 10
-10.123901
 20
-144.263382
 11
-12.933899
 21
-144.263382
  0
LINE
  8
0
 10
-0.873901
 20
-153.763382
 11
-1.023895
 21
-153.763382
  0
LINE
  8
0
 10
-1.613892
 20
-144.553375
 11
-2.183899
 21
-144.553375
  0
LINE
  8
0
 10
-1.023895
 20
-144.263382
 11
-2.183899
 21
-144.263382
  0
LINE
  8
0
 10
-1.023895
 20
-144.263382
 11
-1.023895
 21
-153.763382
  0
LINE
  8
0
 10
-1.613892
 20
-144.553375
 11
-1.613892
 21
-154.263382
  0
LINE
  8
0
 10
-2.183899
 20
-144.263382
 11
-2.183899
 21
-153.763382
  0
LINE
  8
0
 10
-4.303894
 20
-144.263382
 11
-4.303894
 21
-153.763382
  0
LINE
  8
0
 10
-4.963898
 20
-144.553375
 11
-4.963898
 21
-154.263382
  0
LINE
  8
0
 10
-16.223892
 20
-144.263382
 11
-16.223892
 21
-153.763382
  0
LINE
  8
0
 10
-15.633896
 20
-144.553375
 11
-15.633896
 21
-154.263382
  0
LINE
  8
0
 10
-15.063904
 20
-144.263382
 11
-15.063904
 21
-153.763382
  0
LINE
  8
0
 10
-12.933899
 20
-144.263382
 11
-12.933899
 21
-153.763382
  0
LINE
  8
0
 10
-12.283905
 20
-144.553375
 11
-12.283905
 21
-154.263382
  0
LINE
  8
0
 10
-10.463898
 20
-144.553375
 11
-10.463898
 21
-154.263382
  0
LINE
  8
0
 10
-6.783905
 20
-144.553375
 11
-6.783905
 21
-154.263382
  0
LINE
  8
0
 10
-7.123901
 20
-144.263382
 11
-7.123901
 21
-153.763382
  0
LINE
  8
0
 10
-10.123901
 20
-144.263382
 11
-10.123901
 21
-153.763382
  0
LINE
  8
0
 62
     2
 10
-3.373901
 20
-139.973373
 11
-3.373901
 21
-141.263382
  0
LINE
  8
0
 62
     2
 10
-13.873901
 20
-139.973373
 11
-13.873901
 21
-141.263382
  0
LINE
  8
0
 10
-14.623901
 20
-139.973373
 11
-14.623901
 21
-141.263382
  0
LINE
  8
0
 10
-2.623901
 20
-139.973373
 11
-2.623901
 21
-141.263382
  0
LINE
  8
0
 10
-15.873892
 20
-141.263382
 11
-16.373892
 21
-141.763382
  0
LINE
  8
0
 10
-1.373882
 20
-141.263382
 11
-0.873881
 21
-141.763382
  0
LINE
  8
0
 10
-1.373901
 20
-141.263382
 11
-15.873901
 21
-141.263382
  0
LINE
  8
0
 10
-15.373893
 20
-154.763367
 11
-16.373896
 21
-153.763367
  0
LINE
  8
0
 10
-0.873904
 20
-153.763382
 11
-1.873906
 21
-154.763382
  0
LINE
  8
0
 10
-16.373901
 20
-141.763382
 11
-16.373901
 21
-153.763382
  0
LINE
  8
0
 10
-0.873901
 20
-141.763382
 11
-0.873901
 21
-153.763382
  0
LINE
  8
0
 10
-1.873901
 20
-154.763382
 11
-15.373901
 21
-154.763382
  0
LINE
  8
0
 10
-16.193890
 20
-139.973373
 11
-16.693890
 21
-139.473373
  0
LINE
  8
0
 10
-1.043895
 20
-139.973373
 11
-0.543894
 21
-139.473373
  0
LINE
  8
0
 10
-0.543900
 20
-139.473373
 11
-0.543900
 21
-138.473373
  0
LINE
  8
0
 10
-16.693893
 20
-139.473373
 11
-16.693893
 21
-138.473373
  0
LINE
  8
0
 10
-16.193893
 20
-139.973373
 11
-1.043900
 21
-139.973373
  0
LINE
  8
0
 10
-45.543873
 20
-41.283363
 11
-45.193874
 21
-55.313374
  0
LINE
  8
0
 10
-46.023876
 20
-41.803360
 11
-45.543877
 21
-41.283360
  0
LINE
  8
0
 10
-45.483871
 20
-63.793362
 11
-45.363869
 21
-63.913364
  0
LINE
  8
0
 10
-45.543873
 20
-41.283363
 11
-44.463871
 21
-41.263363
  0
LINE
  8
0
 10
-46.023872
 20
-41.803375
 11
-45.483875
 21
-63.793369
  0
LINE
  8
0
 10
-42.663883
 20
-51.353374
 11
-45.433884
 21
-55.683372
  0
LINE
  8
0
 10
-45.353878
 20
-65.033363
 11
-45.433876
 21
-55.683365
  0
LINE
  8
0
 10
-42.513870
 20
-69.183372
 11
-45.293873
 21
-65.203362
  0
LINE
  8
0
 10
19.236115
 20
-45.983383
 11
19.236115
 21
-77.983383
  0
LINE
  8
0
 10
17.406113
 20
-46.483383
 11
17.406113
 21
-77.483383
  0
LINE
  8
0
 10
10.336121
 20
-45.983383
 11
10.336121
 21
-77.983383
  0
LINE
  8
0
 10
19.096115
 20
-43.983383
 11
10.946121
 21
-43.983383
  0
LINE
  8
0
 10
18.496124
 20
-44.483383
 11
10.946121
 21
-44.483383
  0
LINE
  8
0
 10
11.336121
 20
-78.483383
 11
16.406113
 21
-78.483383
  0
LINE
  8
0
 10
11.336105
 20
-85.483383
 11
16.406113
 21
-85.483383
  0
LINE
  8
0
 10
16.406128
 20
-45.483383
 11
11.336121
 21
-45.483383
  0
LINE
  8
0
 10
18.236115
 20
-44.983383
 11
11.336121
 21
-44.983383
  0
LINE
  8
0
 10
11.336121
 20
-78.983383
 11
18.236115
 21
-78.983383
  0
LINE
  8
0
 10
11.336105
 20
-84.983383
 11
18.236115
 21
-84.983383
  0
LINE
  8
0
 10
-36.483871
 20
-45.983368
 11
-36.483871
 21
-77.983368
  0
LINE
  8
0
 10
-34.653873
 20
-46.483368
 11
-34.653873
 21
-77.483368
  0
LINE
  8
0
 10
-27.583878
 20
-45.983368
 11
-27.583878
 21
-77.983368
  0
LINE
  8
0
 10
-36.343872
 20
-43.983368
 11
-28.193878
 21
-43.983368
  0
LINE
  8
0
 10
-35.743874
 20
-44.483368
 11
-28.193878
 21
-44.483368
  0
LINE
  8
0
 10
-28.583893
 20
-78.483368
 11
-33.653877
 21
-78.483368
  0
LINE
  8
0
 10
-28.583893
 20
-85.483368
 11
-33.653881
 21
-85.483368
  0
LINE
  8
0
 10
-33.653873
 20
-45.483368
 11
-28.583878
 21
-45.483368
  0
LINE
  8
0
 10
-42.033882
 20
-123.603371
 11
-42.513874
 21
-69.183365
  0
LINE
  8
0
 10
-35.483871
 20
-44.983368
 11
-28.583878
 21
-44.983368
  0
LINE
  8
0
 10
-28.583893
 20
-78.983368
 11
-35.483879
 21
-78.983368
  0
LINE
  8
0
 10
-28.583893
 20
-84.983368
 11
-35.483879
 21
-84.983368
  0
LINE
  8
0
 10
-27.033890
 20
-138.473373
 11
9.796097
 21
-138.473373
  0
LINE
  8
0
 10
-37.343872
 20
-44.983368
 11
-37.343887
 21
-120.973373
  0
LINE
  8
0
 10
-36.743874
 20
-45.483368
 11
-36.743885
 21
-120.473373
  0
LINE
  8
0
 10
-27.193886
 20
-44.983372
 11
-27.193901
 21
-120.973373
  0
LINE
  8
0
 10
-27.583893
 20
-85.983368
 11
-27.583893
 21
-119.973373
  0
LINE
  8
0
 10
-34.653881
 20
-86.483368
 11
-34.653881
 21
-119.473373
  0
LINE
  8
0
 10
-36.483879
 20
-85.983368
 11
-36.483879
 21
-119.973373
  0
LINE
  8
0
 10
-28.583893
 20
-120.973373
 11
-35.483887
 21
-120.973373
  0
LINE
  8
0
 10
-28.583893
 20
-120.473373
 11
-33.653885
 21
-120.473373
  0
LINE
  8
0
 10
-28.193893
 20
-121.473373
 11
-35.743889
 21
-121.473373
  0
LINE
  8
0
 10
-28.193893
 20
-121.973373
 11
-36.343887
 21
-121.973373
  0
LINE
  8
0
 10
20.096123
 20
-44.983379
 11
20.096107
 21
-120.973381
  0
LINE
  8
0
 10
19.496117
 20
-45.483379
 11
19.496101
 21
-120.473381
  0
LINE
  8
0
 10
9.946114
 20
-44.983376
 11
9.946098
 21
-120.973381
  0
LINE
  8
0
 10
10.336105
 20
-85.983383
 11
10.336105
 21
-119.973389
  0
LINE
  8
0
 10
17.406113
 20
-86.483383
 11
17.406113
 21
-119.473389
  0
LINE
  8
0
 10
19.236115
 20
-85.983383
 11
19.236115
 21
-119.973389
  0
LINE
  8
0
 10
11.336105
 20
-120.973389
 11
18.236099
 21
-120.973389
  0
LINE
  8
0
 10
11.336105
 20
-120.473389
 11
16.406113
 21
-120.473389
  0
LINE
  8
0
 10
10.946106
 20
-121.473389
 11
18.496109
 21
-121.473389
  0
LINE
  8
0
 10
10.946106
 20
-121.973389
 11
19.096100
 21
-121.973389
  0
LINE
  8
0
  6
CENTER
 62
     2
 10
-58.996017
 20
-3.283384
 11
41.587051
 21
-3.283384
  0
LINE
  8
0
  6
CENTER
 62
     2
 10
-173.619995
 20
-97.979996
 11
-173.619995
 21
-165.949997
  0
LINE
  8
0
 10
-192.419998
 20
-137.979996
 11
-154.819992
 21
-137.979996
  0
LINE
  8
0
 10
-207.419998
 20
-98.919998
 11
-207.419998
 21
-122.979996
  0
LINE
  8
0
 10
-139.819992
 20
-117.039993
 11
-139.819992
 21
-122.979996
  0
LINE
  8
0
 62
     2
 10
-207.419983
 20
-98.920006
 11
-139.819977
 21
-117.040001
  0
LINE
  8
0
 10
-144.900009
 20
-115.678314
 11
-144.900009
 21
-120.479996
  0
LINE
  8
0
 10
-145.500015
 20
-115.517471
 11
-145.500015
 21
-119.979996
  0
LINE
  8
0
 10
-155.050018
 20
-112.957626
 11
-155.050018
 21
-120.479996
  0
LINE
  8
0
 10
-154.050018
 20
-121.479996
 11
-145.900009
 21
-121.479996
  0
LINE
  8
0
 10
-154.050018
 20
-120.979996
 11
-146.500015
 21
-120.979996
  0
LINE
  8
0
 10
-154.660004
 20
-113.062164
 11
-154.660004
 21
-119.479996
  0
LINE
  8
0
 10
-147.590012
 20
-114.957260
 11
-147.590012
 21
-118.979996
  0
LINE
  8
0
 10
-145.760010
 20
-115.447784
 11
-145.760010
 21
-119.479996
  0
LINE
  8
0
 10
-153.660004
 20
-119.979996
 11
-148.590012
 21
-119.979996
  0
LINE
  8
0
 10
-153.660004
 20
-120.479996
 11
-146.760010
 21
-120.479996
  0
LINE
  8
0
 10
-202.340012
 20
-100.281662
 11
-202.340012
 21
-120.479996
  0
LINE
  8
0
 10
-201.740005
 20
-100.442490
 11
-201.740005
 21
-119.979996
  0
LINE
  8
0
 10
-192.190018
 20
-103.002350
 11
-192.190018
 21
-120.479996
  0
LINE
  8
0
 10
-193.190018
 20
-121.479996
 11
-201.340012
 21
-121.479996
  0
LINE
  8
0
 10
-193.190018
 20
-120.979996
 11
-200.740005
 21
-120.979996
  0
LINE
  8
0
 10
-192.580017
 20
-102.897812
 11
-192.580017
 21
-119.479996
  0
LINE
  8
0
 10
-199.650009
 20
-101.002716
 11
-199.650009
 21
-118.979996
  0
LINE
  8
0
 10
-201.480011
 20
-100.512192
 11
-201.480011
 21
-119.479996
  0
LINE
  8
0
 10
-193.580017
 20
-119.979996
 11
-198.650009
 21
-119.979996
  0
LINE
  8
0
 10
-193.580017
 20
-120.479996
 11
-200.480011
 21
-120.479996
  0
LINE
  8
0
 10
-281.250000
 20
195.500000
 11
282.099854
 21
195.500000
  0
LINE
  8
0
 10
-281.250000
 20
195.500000
 11
-281.250000
 21
-195.000000
  0
LINE
  8
0
 10
282.099854
 20
195.500000
 11
282.099854
 21
-195.000000
  0
LINE
  8
0
 10
-281.250000
 20
-195.000000
 11
282.099854
 21
-195.000000
  0
LINE
  8
0
 10
162.099976
 20
-175.000000
 11
162.099976
 21
-195.000000
  0
LINE
  8
0
 10
162.099976
 20
-175.000000
 11
282.099854
 21
-175.000000
  0
LINE
  8
0
 10
162.099976
 20
175.500000
 11
282.099854
 21
175.500000
  0
LINE
  8
0
 10
-281.250000
 20
175.500000
 11
-161.250000
 21
175.500000
  0
LINE
  8
0
 10
162.099976
 20
195.500000
 11
162.099976
 21
175.500000
  0
LINE
  8
0
 10
-161.250000
 20
195.500000
 11
-161.250000
 21
175.500000
  0
ARC
  8
0
 10
-8.628876
 20
110.999985
 40
28.500748
 50
224.566467
 51
315.433563
  0
ARC
  8
0
 10
-8.628876
 20
110.999985
 40
27.797167
 50
226.013062
 51
313.987000
  0
ARC
  8
0
 10
-8.628876
 20
110.999985
 40
28.500751
 50
44.566441
 51
135.433517
  0
ARC
  8
0
 10
-8.628876
 20
110.999985
 40
27.797161
 50
46.013000
 51
133.986954
  0
ARC
  8
0
 10
-8.628876
 20
110.999985
 40
39.502197
 50
210.417755
 51
329.582275
  0
ARC
  8
0
 10
-8.628876
 20
110.999985
 40
38.497807
 50
211.299408
 51
328.700592
  0
ARC
  8
0
 10
-8.628876
 20
110.999985
 40
39.502201
 50
30.417747
 51
149.582230
  0
ARC
  8
0
 10
-8.628876
 20
110.999985
 40
38.497803
 50
31.299398
 51
148.700592
  0
ARC
  8
0
 10
131.375992
 20
11.716718
 40
2.000107
 50
270.003052
 51
359.996948
  0
CIRCLE
  8
0
 10
153.376099
 20
-3.283175
 40
13.500000
  0
ARC
  8
0
 10
123.376007
 20
-16.783285
 40
1.500103
 50
270.004089
 51
359.996063
  0
CIRCLE
  8
0
 10
153.376099
 20
-3.283175
 40
7.474999
  0
CIRCLE
  8
0
 62
     2
 10
153.376099
 20
-3.283175
 40
8.331000
  0
ARC
  8
0
 10
174.363220
 20
10.720205
 40
2.003638
 50
240.483612
 51
270.367828
  0
ARC
  8
0
 10
131.376007
 20
-16.283297
 40
2.000092
 50
270.002625
 51
359.997375
  0
ARC
  8
0
 10
175.376190
 20
-16.283297
 40
2.000092
 50
180.002670
 51
269.997375
  0
ARC
  8
0
 10
183.376205
 20
-16.783278
 40
1.500107
 50
180.004227
 51
269.995911
  0
ARC
  8
0
 10
175.376205
 20
11.716718
 40
2.000107
 50
180.003082
 51
269.996948
  0
ARC
  8
0
 10
132.388977
 20
10.720213
 40
2.003643
 50
269.632172
 51
299.516296
  0
ARC
  8
0
 10
126.523422
 20
-77.976059
 40
1.007343
 50
180.416153
 51
269.584290
  0
ARC
  8
0
 10
128.360565
 20
-77.478928
 40
1.004458
 50
180.254150
 51
269.745850
  0
ARC
  8
0
 10
133.422150
 20
-77.979416
 40
1.003968
 50
270.226410
 51
359.774017
  0
ARC
  8
0
 10
133.422150
 20
-77.479416
 40
1.003968
 50
270.226410
 51
359.774017
  0
ARC
  8
0
 10
125.662292
 20
-44.979572
 40
0.996189
 50
89.780159
 51
180.219620
  0
ARC
  8
0
 10
126.255981
 20
-45.483250
 40
0.999866
 50
89.992569
 51
180.007645
  0
ARC
  8
0
 10
126.514511
 20
-45.981800
 40
0.998414
 50
89.908936
 51
180.091064
  0
ARC
  8
0
 10
128.351624
 20
-46.478901
 40
0.995535
 50
89.742691
 51
180.257523
  0
ARC
  8
0
 10
133.812836
 20
-44.976658
 40
0.993294
 50
359.612274
 51
90.388153
  0
ARC
  8
0
 10
133.812836
 20
-45.476658
 40
0.993294
 50
359.612274
 51
90.388153
  0
ARC
  8
0
 10
133.431076
 20
-45.978413
 40
0.995038
 50
359.714020
 51
90.286430
  0
ARC
  8
0
 10
133.431076
 20
-46.478413
 40
0.995038
 50
359.714020
 51
90.286430
  0
ARC
  8
0
 10
125.666214
 20
-120.973282
 40
1.000099
 50
180.005676
 51
269.994324
  0
ARC
  8
0
 10
126.259872
 20
-120.469604
 40
1.003776
 50
180.215561
 51
269.784882
  0
ARC
  8
0
 10
126.518433
 20
-119.971054
 40
1.002322
 50
180.132584
 51
269.867432
  0
ARC
  8
0
 10
126.514511
 20
-85.981781
 40
0.998407
 50
89.908493
 51
180.091064
  0
ARC
  8
0
 10
128.355545
 20
-119.473938
 40
0.999443
 50
179.968079
 51
270.031494
  0
ARC
  8
0
 10
133.808899
 20
-120.976166
 40
0.997212
 50
269.839569
 51
0.160438
  0
ARC
  8
0
 10
133.808899
 20
-120.476166
 40
0.997212
 50
269.839569
 51
0.160438
  0
ARC
  8
0
 10
133.427155
 20
-119.974426
 40
0.998955
 50
269.940491
 51
0.059949
  0
ARC
  8
0
 10
133.427155
 20
-119.474426
 40
0.998955
 50
269.940491
 51
0.059949
  0
ARC
  8
0
 10
133.431076
 20
-85.978409
 40
0.995038
 50
359.713562
 51
90.286430
  0
ARC
  8
0
 10
133.431076
 20
-86.478409
 40
0.995038
 50
359.713562
 51
90.286430
  0
ARC
  8
0
 10
128.351624
 20
-86.478897
 40
0.995532
 50
89.741814
 51
180.257751
  0
ARC
  8
0
 10
180.241943
 20
-77.979233
 40
1.004159
 50
270.236816
 51
359.763184
  0
ARC
  8
0
 10
178.404694
 20
-77.481979
 40
1.001405
 50
270.080322
 51
359.919678
  0
ARC
  8
0
 10
173.343124
 20
-77.976349
 40
1.007059
 50
180.400208
 51
269.599792
  0
ARC
  8
0
 10
173.343124
 20
-77.476349
 40
1.007059
 50
180.400208
 51
269.599792
  0
ARC
  8
0
 10
181.102997
 20
-44.976475
 40
0.993112
 50
359.601196
 51
90.398788
  0
ARC
  8
0
 10
180.504425
 20
-45.475056
 40
0.991704
 50
359.518860
 51
90.481346
  0
ARC
  8
0
 10
180.250870
 20
-45.978596
 40
0.995236
 50
359.724823
 51
90.274956
  0
ARC
  8
0
 10
178.413635
 20
-46.475834
 40
0.992476
 50
359.563965
 51
90.436043
  0
ARC
  8
0
 10
172.952438
 20
-44.979725
 40
0.996356
 50
89.790283
 51
180.209930
  0
ARC
  8
0
 10
172.952438
 20
-45.479725
 40
0.996356
 50
89.790283
 51
180.209930
  0
ARC
  8
0
 10
173.334229
 20
-45.981510
 40
0.998133
 50
89.892265
 51
180.107300
  0
ARC
  8
0
 10
173.334229
 20
-46.481510
 40
0.998133
 50
89.892265
 51
180.107300
  0
ARC
  8
0
 10
181.099075
 20
-120.976364
 40
0.997021
 50
269.829010
 51
0.171428
  0
ARC
  8
0
 10
180.500488
 20
-120.477768
 40
0.995615
 50
269.747101
 51
0.252898
  0
ARC
  8
0
 10
180.246948
 20
-119.974243
 40
0.999146
 50
269.950989
 51
0.049001
  0
ARC
  8
0
 10
180.250870
 20
-85.978592
 40
0.995236
 50
359.724609
 51
90.274956
  0
ARC
  8
0
 10
178.409714
 20
-119.476990
 40
0.996390
 50
269.792053
 51
0.207952
  0
ARC
  8
0
 10
172.956360
 20
-120.973114
 40
1.000259
 50
180.015289
 51
269.985138
  0
ARC
  8
0
 10
172.956360
 20
-120.473114
 40
1.000259
 50
180.015289
 51
269.985138
  0
ARC
  8
0
 10
173.338135
 20
-119.971329
 40
1.002047
 50
180.116913
 51
269.883087
  0
ARC
  8
0
 10
173.338135
 20
-119.471329
 40
1.002047
 50
180.116913
 51
269.883087
  0
ARC
  8
0
 10
173.334213
 20
-85.981506
 40
0.998133
 50
89.892265
 51
180.107300
  0
ARC
  8
0
 10
173.334213
 20
-86.481506
 40
0.998133
 50
89.892265
 51
180.107300
  0
ARC
  8
0
 10
178.413651
 20
-86.475830
 40
0.992476
 50
359.563965
 51
90.436043
  0
ARC
  8
0
 10
134.966507
 20
-123.472412
 40
15.000969
 50
180.500290
 51
269.998535
  0
ARC
  8
0
 10
171.798843
 20
-123.475586
 40
14.997787
 50
269.989502
 51
359.511780
  0
ARC
  8
0
 10
-45.046722
 20
-65.020554
 40
0.307419
 50
182.389557
 51
216.490097
  0
ARC
  8
0
 10
18.235352
 20
-77.982620
 40
1.000771
 50
270.044006
 51
359.955872
  0
ARC
  8
0
 10
16.403229
 20
-77.480499
 40
1.002888
 50
270.164764
 51
359.835236
  0
ARC
  8
0
 10
11.341644
 20
-77.977844
 40
1.005548
 50
180.315170
 51
269.684723
  0
ARC
  8
0
 10
11.341644
 20
-77.477844
 40
1.005548
 50
180.315170
 51
269.684723
  0
ARC
  8
0
 10
19.101517
 20
-44.977982
 40
0.994613
 50
359.688843
 51
90.311058
  0
ARC
  8
0
 10
18.502869
 20
-45.476639
 40
0.993279
 50
359.610962
 51
90.389046
  0
ARC
  8
0
 10
18.244308
 20
-45.975189
 40
0.991842
 50
359.526886
 51
90.473129
  0
ARC
  8
0
 10
16.412186
 20
-46.477325
 40
0.993961
 50
359.650818
 51
90.349197
  0
ARC
  8
0
 10
10.946014
 20
-44.983276
 40
0.999889
 50
89.993660
 51
180.006332
  0
ARC
  8
0
 10
10.946014
 20
-45.483276
 40
0.999889
 50
89.993660
 51
180.006332
  0
ARC
  8
0
 10
11.332733
 20
-45.979996
 40
0.996622
 50
89.805420
 51
180.194519
  0
ARC
  8
0
 10
11.332733
 20
-46.479996
 40
0.996622
 50
89.805420
 51
180.194519
  0
ARC
  8
0
 10
18.244308
 20
-85.975189
 40
0.991838
 50
359.526642
 51
90.473351
  0
ARC
  8
0
 10
11.332718
 20
-85.979996
 40
0.996618
 50
89.805252
 51
180.194748
  0
ARC
  8
0
 10
11.332718
 20
-86.479996
 40
0.996618
 50
89.805252
 51
180.194748
  0
ARC
  8
0
 10
16.412170
 20
-86.477325
 40
0.993957
 50
359.650360
 51
90.349419
  0
ARC
  8
0
 10
-35.478149
 20
-77.977646
 40
1.005742
 50
180.326416
 51
269.673798
  0
ARC
  8
0
 10
-33.646027
 20
-77.475525
 40
1.007881
 50
180.446289
 51
269.553711
  0
ARC
  8
0
 10
-28.584457
 20
-77.982803
 40
1.000572
 50
270.032990
 51
359.967224
  0
ARC
  8
0
 10
-28.584457
 20
-77.482803
 40
1.000572
 50
270.032990
 51
359.967224
  0
ARC
  8
0
 10
-36.344257
 20
-44.982986
 40
0.999615
 50
89.977913
 51
180.022079
  0
ARC
  8
0
 10
-35.745605
 20
-45.481644
 40
0.998266
 50
89.900383
 51
180.099396
  0
ARC
  8
0
 10
-35.487061
 20
-45.980179
 40
0.996816
 50
89.816696
 51
180.183090
  0
ARC
  8
0
 10
-33.654915
 20
-46.482330
 40
0.998955
 50
89.940048
 51
180.059952
  0
ARC
  8
0
 10
-28.188751
 20
-44.978241
 40
0.994884
 50
359.704529
 51
90.295372
  0
ARC
  8
0
 10
-28.188751
 20
-45.478241
 40
0.994884
 50
359.704529
 51
90.295372
  0
ARC
  8
0
 10
-28.575500
 20
-45.974991
 40
0.991649
 50
359.515320
 51
90.484573
  0
ARC
  8
0
 10
-28.575500
 20
-46.474991
 40
0.991649
 50
359.515320
 51
90.484573
  0
ARC
  8
0
 10
-35.487072
 20
-85.980179
 40
0.996816
 50
89.816475
 51
180.183304
  0
ARC
  8
0
 10
-28.575500
 20
-85.974991
 40
0.991645
 50
359.515106
 51
90.484680
  0
ARC
  8
0
 10
-28.575500
 20
-86.474991
 40
0.991645
 50
359.515106
 51
90.484680
  0
ARC
  8
0
 10
-33.654926
 20
-86.482330
 40
0.998955
 50
89.939835
 51
180.059952
  0
ARC
  8
0
 10
9.797272
 20
-123.473999
 40
14.999390
 50
269.995544
 51
359.505737
  0
ARC
  8
0
 10
-27.035080
 20
-123.473999
 40
14.999372
 50
180.494217
 51
270.004547
  0
ARC
  8
0
 10
-28.579437
 20
-119.477829
 40
0.995562
 50
269.744019
 51
0.255985
  0
ARC
  8
0
 10
-28.579437
 20
-119.977829
 40
0.995562
 50
269.744019
 51
0.255985
  0
ARC
  8
0
 10
-28.192688
 20
-120.474579
 40
0.998795
 50
269.930847
 51
0.069150
  0
ARC
  8
0
 10
-28.192688
 20
-120.974579
 40
0.998795
 50
269.930847
 51
0.069150
  0
ARC
  8
0
 10
-33.651024
 20
-119.470505
 40
1.002869
 50
180.163895
 51
269.836334
  0
ARC
  8
0
 10
-35.483158
 20
-119.972641
 40
1.000729
 50
180.041931
 51
269.958282
  0
ARC
  8
0
 10
-35.741711
 20
-120.471191
 40
1.002181
 50
180.124313
 51
269.875458
  0
ARC
  8
0
 10
-36.340363
 20
-120.969849
 40
1.003527
 50
180.201248
 51
269.798981
  0
ARC
  8
0
 10
11.336639
 20
-119.472855
 40
1.000533
 50
180.030579
 51
269.969482
  0
ARC
  8
0
 10
11.336639
 20
-119.972855
 40
1.000533
 50
180.030579
 51
269.969482
  0
ARC
  8
0
 10
10.949905
 20
-120.469589
 40
1.003801
 50
180.216431
 51
269.783417
  0
ARC
  8
0
 10
10.949905
 20
-120.969589
 40
1.003801
 50
180.216431
 51
269.783417
  0
ARC
  8
0
 10
16.408234
 20
-119.475510
 40
0.997874
 50
269.877686
 51
0.122220
  0
ARC
  8
0
 10
18.240356
 20
-119.977646
 40
0.995752
 50
269.755157
 51
0.244961
  0
ARC
  8
0
 10
18.498917
 20
-120.476196
 40
0.997189
 50
269.838348
 51
0.161757
  0
ARC
  8
0
 10
19.097580
 20
-120.974854
 40
0.998529
 50
269.915283
 51
0.084491
  0
ARC
  8
0
 10
-192.423630
 20
-122.983627
 40
14.996368
 50
179.986099
 51
270.013885
  0
ARC
  8
0
 10
-154.820206
 20
-122.979782
 40
15.000214
 50
270.000824
 51
359.999176
  0
ARC
  8
0
 10
-145.898529
 20
-120.481476
 40
0.998529
 50
269.915070
 51
0.084491
  0
ARC
  8
0
 10
-146.497192
 20
-119.982803
 40
0.997189
 50
269.838684
 51
0.161755
  0
ARC
  8
0
 10
-146.755753
 20
-119.484253
 40
0.995752
 50
269.755035
 51
0.244961
  0
ARC
  8
0
 10
-148.587875
 20
-118.982117
 40
0.997874
 50
269.877350
 51
0.122221
  0
ARC
  8
0
 10
-154.046219
 20
-120.476196
 40
1.003807
 50
180.216431
 51
269.783142
  0
ARC
  8
0
 10
-154.046219
 20
-119.976196
 40
1.003807
 50
180.216431
 51
269.783142
  0
ARC
  8
0
 10
-153.659485
 20
-119.479462
 40
1.000534
 50
180.030579
 51
269.969421
  0
ARC
  8
0
 10
-153.659485
 20
-118.979462
 40
1.000534
 50
180.030579
 51
269.969421
  0
ARC
  8
0
 10
-201.336487
 20
-120.476471
 40
1.003531
 50
180.201248
 51
269.798767
  0
ARC
  8
0
 10
-200.737839
 20
-119.977814
 40
1.002184
 50
180.124313
 51
269.875244
  0
ARC
  8
0
 10
-200.479279
 20
-119.479263
 40
1.000733
 50
180.041931
 51
269.958069
  0
ARC
  8
0
 10
-198.647141
 20
-118.977127
 40
1.002873
 50
180.163895
 51
269.836121
  0
ARC
  8
0
 10
-193.188812
 20
-120.481201
 40
0.998795
 50
269.930847
 51
0.069150
  0
ARC
  8
0
 10
-193.188812
 20
-119.981201
 40
0.998795
 50
269.930847
 51
0.069150
  0
ARC
  8
0
 10
-193.575562
 20
-119.484436
 40
0.995562
 50
269.743561
 51
0.255987
  0
ARC
  8
0
 10
-193.575562
 20
-118.984436
 40
0.995562
 50
269.743561
 51
0.255987
  0
POLYLINE
  8
0
 66
     1
  0
VERTEX
  8
0
 10
-42.663872
 20
-51.353378
  0
VERTEX
  8
0
 10
-42.392925
 20
-52.293880
  0
VERTEX
  8
0
 10
-42.151241
 20
-53.222370
  0
VERTEX
  8
0
 10
-41.938965
 20
-54.150318
  0
VERTEX
  8
0
 10
-41.756241
 20
-55.089191
  0
VERTEX
  8
0
 10
-41.603222
 20
-56.050461
  0
VERTEX
  8
0
 10
-41.480057
 20
-57.045601
  0
VERTEX
  8
0
 10
-41.386890
 20
-58.086079
  0
VERTEX
  8
0
 10
-41.323875
 20
-59.183365
  0
VERTEX
  8
0
 10
-41.299099
 20
-60.102440
  0
VERTEX
  8
0
 10
-41.302338
 20
-61.022179
  0
VERTEX
  8
0
 10
-41.333118
 20
-61.941692
  0
VERTEX
  8
0
 10
-41.390965
 20
-62.860100
  0
VERTEX
  8
0
 10
-41.475403
 20
-63.776508
  0
VERTEX
  8
0
 10
-41.585960
 20
-64.690033
  0
VERTEX
  8
0
 10
-41.722157
 20
-65.599785
  0
VERTEX
  8
0
 10
-41.883522
 20
-66.504883
  0
VERTEX
  8
0
 10
-42.069580
 20
-67.404442
  0
VERTEX
  8
0
 10
-42.279858
 20
-68.297562
  0
VERTEX
  8
0
 10
-42.513878
 20
-69.183365
  0
SEQEND
  0
TEXT
  8
0
 10
199.400253
 20
180.830002
 40
6.300000
  1
Ｖｅｒ．２．０
 50
0.000000
 41
0.833333
 51
0.000000
  7
STANDARD
  0
TEXT
  8
0
 10
-240.799713
 20
180.830002
 40
6.300000
  1
FILTER
 50
0.000000
 41
1.052632
 51
0.000000
  7
STANDARD
  0
TEXT
  8
0
 10
-256.000000
 20
157.720001
 40
6.300000
  1
MODEL:MF400-03
 50
0.000000
 41
1.052632
 51
0.000000
  7
STANDARD
  0
TEXT
  8
0
 10
-207.031021
 20
-80.070587
 40
6.300000
  1
OPTION:-F1
 50
0.000000
 41
1.052632
 51
0.000000
  7
STANDARD
  0
TEXT
  8
0
 10
-218.199997
 20
149.720001
 40
6.300000
  1
MMF300-03
 50
0.000000
 41
1.052632
 51
0.000000
  7
STANDARD
  0
TEXT
  8
0
 10
43.416656
 20
-2.283409
 40
6.300000
  1
OUT
 50
0.000000
 41
1.052632
 51
0.000000
  7
STANDARD
  0
TEXT
  8
0
 10
-75.916656
 20
-2.283376
 40
6.300000
  1
IN
 50
0.000000
 41
1.052632
 51
0.000000
  7
STANDARD
  0
TEXT
  8
0
 10
167.564667
 20
-192.100006
 40
9.000000
  1
KOGANEI CORP.
 50
0.000000
 41
1.052632
 51
0.000000
  7
STANDARD
  0
LINE
  8
0
 10
66.376114
 20
-3.283409
 11
41.376114
 21
-3.283409
  0
LINE
  8
0
 10
66.376114
 20
-3.283409
 11
63.478336
 21
-2.506952
  0
LINE
  8
0
 10
66.376114
 20
-3.283409
 11
63.478336
 21
-4.059866
  0
LINE
  8
0
 10
-58.623871
 20
-3.283385
 11
-83.623871
 21
-3.283385
  0
LINE
  8
0
 10
-58.623871
 20
-3.283385
 11
-61.521648
 21
-2.506928
  0
LINE
  8
0
 10
-58.623871
 20
-3.283385
 11
-61.521648
 21
-4.059843
  0
ENDSEC
  0
EOF
