  0
SECTION
  2
HEADER
  0
ENDSEC
  0
SECTION
  2
TABLES
  0
TABLE
  2
LTYPE
 70
     4
  0
LTYPE
  2
CONTINUOUS
 70
    64
  3
Solid line
 72
    65
 73
     0
 40
0.000000
  0
LTYPE
  2
DASHED
 70
    64
  3
__ __ __ __ __ __ __ __ __ __ __ __ __ __ __
 72
    65
 73
     2
 40
3.500000
 49
2.000000
 49
-1.500000
  0
LTYPE
  2
CENTER
 70
    64
  3
____ _ ____ _ ____ _ ____ _ ____ _ ____ _ ____
 72
    65
 73
     4
 40
17.500000
 49
13.000000
 49
-1.500000
 49
1.500000
 49
-1.500000
  0
LTYPE
  2
PHANTOM
 70
    64
  3
_____ _ _ _____ _ _ _____ _ _ _____ _ _ ____  
 72
    65
 73
     6
 40
15.500000
 49
8.000000
 49
-1.500000
 49
1.500000
 49
-1.500000
 49
1.500000
 49
-1.500000
  0
LTYPE
  2
DASHED1
 70
    64
  3
__ __ __ __ __ __ __ __ __ __ __ __ __ __ __
 72
    65
 73
     2
 40
1.500000
 49
1.000000
 49
-0.500000
  0
LTYPE
  2
DASHED2
 70
    64
  3
__ __ __ __ __ __ __ __ __ __ __ __ __ __ __
 72
    65
 73
     2
 40
3.500000
 49
2.500000
 49
-1.000000
  0
LTYPE
  2
DASHED3
 70
    64
  3
__ __ __ __ __ __ __ __ __ __ __ __ __ __ __
 72
    65
 73
     2
 40
6.000000
 49
4.000000
 49
-2.000000
  0
LTYPE
  2
DASHED4
 70
    64
  3
__ __ __ __ __ __ __ __ __ __ __ __ __ __ __
 72
    65
 73
     2
 40
12.000000
 49
10.000000
 49
-2.000000
  0
LTYPE
  2
DASHED5
 70
    64
  3
__ __ __ __ __ __ __ __ __ __ __ __ __ __ __
 72
    65
 73
     2
 40
17.000000
 49
15.000000
 49
-2.000000
  0
LTYPE
  2
DASHED6
 70
    64
  3
__ __ __ __ __ __ __ __ __ __ __ __ __ __ __
 72
    65
 73
     2
 40
29.000000
 49
27.000000
 49
-2.000000
  0
LTYPE
  2
PHANTOM1
 70
    64
  3
_____ _ _ _____ _ _ _____ _ _ _____ _ _ ____  
 72
    65
 73
     6
 40
31.000000
 49
25.000000
 49
-1.500000
 49
1.000000
 49
-1.000000
 49
1.000000
 49
-1.500000
  0
LTYPE
  2
PHANTOM2
 70
    64
  3
_____ _ _ _____ _ _ _____ _ _ _____ _ _ ____  
 72
    65
 73
     6
 40
36.000000
 49
27.000000
 49
-1.500000
 49
2.500000
 49
-1.000000
 49
2.500000
 49
-1.500000
  0
LTYPE
  2
PHANTOM3
 70
    64
  3
_____ _ _ _____ _ _ _____ _ _ _____ _ _ ____  
 72
    65
 73
     6
 40
78.000000
 49
64.000000
 49
-2.000000
 49
4.000000
 49
-2.000000
 49
4.000000
 49
-2.000000
  0
LTYPE
  2
CENTER1
 70
    64
  3
____ _ ____ _ ____ _ ____ _ ____ _ ____ _ ____
 72
    65
 73
     4
 40
19.000000
 49
14.000000
 49
-1.000000
 49
3.000000
 49
-1.000000
  0
LTYPE
  2
CENTER2
 70
    64
  3
____ _ ____ _ ____ _ ____ _ ____ _ ____ _ ____
 72
    65
 73
     4
 40
28.500000
 49
25.000000
 49
-1.000000
 49
1.500000
 49
-1.000000
  0
LTYPE
  2
CENTER3
 70
    64
  3
____ _ ____ _ ____ _ ____ _ ____ _ ____ _ ____
 72
    65
 73
     4
 40
31.500000
 49
27.000000
 49
-1.000000
 49
2.500000
 49
-1.000000
  0
LTYPE
  2
CENTER4
 70
    64
  3
____ _ ____ _ ____ _ ____ _ ____ _ ____ _ ____
 72
    65
 73
     4
 40
50.000000
 49
45.000000
 49
-1.000000
 49
3.000000
 49
-1.000000
  0
LTYPE
  2
CENTER5
 70
    64
  3
____ _ ____ _ ____ _ ____ _ ____ _ ____ _ ____
 72
    65
 73
     4
 40
100.000000
 49
92.000000
 49
-2.000000
 49
4.000000
 49
-2.000000
  0
LTYPE
  2
SBK1
 70
    64
  3
______ _ _ _ ______ _ _ _ ______ _ _ _ _____  
 72
    65
 73
     8
 40
60.500000
 49
45.000000
 49
-2.000000
 49
2.500000
 49
-2.000000
 49
2.500000
 49
-2.000000
 49
2.500000
 49
-2.000000
  0
LTYPE
  2
SBK2
 70
    64
  3
______ _ _ _ ______ _ _ _ ______ _ _ _ _____  
 72
    65
 73
     8
 40
84.000000
 49
64.000000
 49
-2.000000
 49
4.000000
 49
-2.000000
 49
4.000000
 49
-2.000000
 49
4.000000
 49
-2.000000
  0
LTYPE
  2
STCH
 70
    64
  3
__ __ __ __ __ __ __ __ __ __ __ __ __ __ __
 72
    65
 73
     2
 40
3.000000
 49
1.000000
 49
-2.000000
  0
LTYPE
  2
MTCH
 70
    64
  3
_____ _ _ _____ _ _ _____ _ _ _____ _ _ ____  
 72
    65
 73
     6
 40
80.000000
 49
66.000000
 49
-2.000000
 49
4.000000
 49
-2.000000
 49
4.000000
 49
-2.000000
  0
ENDTAB
  0
TABLE
  2
LAYER
 70
     1
  0
LAYER
  2
0
 70
     0
 62
     7
  6
CONTINUOUS
  0
ENDTAB
  0
TABLE
  2
STYLE
 70
     1
  0
STYLE
  2
STANDARD
 70
     0
 40
0.000000
 41
1.000000
 50
0.000000
 71
     0
 42
0.200000
  3
txt
  4
BIGFONT
  0
ENDTAB
  0
TABLE
  2
VIEW
 70
     0
  0
ENDTAB
  0
ENDSEC
  0
SECTION
  2
BLOCKS
  0
ENDSEC
  0
SECTION
  2
ENTITIES
  0
LINE
  8
0
 62
     4
 10
-173.643372
 20
-169.069992
 11
-173.213379
 21
-171.470001
  0
LINE
  8
0
 62
     4
 10
-173.643372
 20
-166.470001
 11
-173.213379
 21
-168.869980
  0
LINE
  8
0
 62
     4
 10
-167.143387
 20
-169.069992
 11
-167.573380
 21
-171.469986
  0
LINE
  8
0
 62
     4
 10
-167.143372
 20
-166.470001
 11
-167.573364
 21
-168.869995
  0
LINE
  8
0
 62
     4
 10
-167.143372
 20
-168.869995
 11
-167.143372
 21
-169.069992
  0
LINE
  8
0
 62
     4
 10
-173.643372
 20
-168.869995
 11
-173.643372
 21
-169.069992
  0
LINE
  8
0
 62
     4
 10
-167.143372
 20
-166.269989
 11
-167.143372
 21
-166.469986
  0
LINE
  8
0
 62
     4
 10
-173.643372
 20
-166.269989
 11
-173.643372
 21
-166.469986
  0
LINE
  8
0
 62
     4
 10
-173.643372
 20
-169.069992
 11
-167.143372
 21
-169.069992
  0
LINE
  8
0
 62
     4
 10
-173.643372
 20
-166.469986
 11
-167.143372
 21
-166.469986
  0
LINE
  8
0
 62
     4
 10
-162.793381
 20
-161.869995
 11
-163.383377
 21
-162.369995
  0
LINE
  8
0
 62
     4
 10
-177.993362
 20
-161.869995
 11
-177.403366
 21
-162.369995
  0
LINE
  8
0
 62
     4
 10
-163.963379
 20
-152.430008
 11
-163.383377
 21
-152.650009
  0
LINE
  8
0
 62
     4
 10
-177.403366
 20
-152.649994
 11
-176.823380
 21
-152.429993
  0
LINE
  8
0
 62
     4
 10
-174.703369
 20
-161.869995
 11
-174.043365
 21
-162.369995
  0
LINE
  8
0
 62
     4
 10
-166.083374
 20
-161.869995
 11
-166.743378
 21
-162.369995
  0
LINE
  8
0
 62
     4
 10
-166.743378
 20
-152.649994
 11
-166.083374
 21
-152.369995
  0
LINE
  8
0
 62
     4
 10
-174.703369
 20
-152.369995
 11
-174.043365
 21
-152.649994
  0
LINE
  8
0
 62
     4
 10
-171.893372
 20
-161.870010
 11
-172.233368
 21
-162.369995
  0
LINE
  8
0
 62
     4
 10
-168.893372
 20
-161.869995
 11
-168.553375
 21
-162.369995
  0
LINE
  8
0
 62
     4
 10
-168.893387
 20
-152.369995
 11
-168.553375
 21
-152.649994
  0
LINE
  8
0
 62
     4
 10
-172.233368
 20
-152.649994
 11
-171.893372
 21
-152.369995
  0
LINE
  8
0
 62
     4
 10
-162.793365
 20
-152.369995
 11
-162.793365
 21
-161.869995
  0
LINE
  8
0
 62
     4
 10
-177.993378
 20
-152.369995
 11
-177.993378
 21
-161.869995
  0
LINE
  8
0
 62
     4
 10
-163.383377
 20
-152.649994
 11
-163.383377
 21
-162.369995
  0
LINE
  8
0
 62
     4
 10
-177.403366
 20
-152.649994
 11
-177.403366
 21
-162.369995
  0
LINE
  8
0
 62
     4
 10
-163.963379
 20
-152.369995
 11
-163.963379
 21
-162.369995
  0
LINE
  8
0
 62
     4
 10
-176.823364
 20
-152.369995
 11
-176.823364
 21
-162.369995
  0
LINE
  8
0
 62
     4
 10
-163.383377
 20
-162.369995
 11
-163.143372
 21
-162.369995
  0
LINE
  8
0
 62
     4
 10
-162.793365
 20
-161.869995
 11
-162.643372
 21
-161.869995
  0
LINE
  8
0
 62
     4
 10
-176.823364
 20
-162.369995
 11
-174.043365
 21
-162.369995
  0
LINE
  8
0
 62
     4
 10
-176.823364
 20
-161.869995
 11
-174.703369
 21
-161.869995
  0
LINE
  8
0
 62
     4
 10
-174.043365
 20
-152.649994
 11
-172.233368
 21
-152.649994
  0
LINE
  8
0
 62
     4
 10
-174.703369
 20
-152.369995
 11
-171.893372
 21
-152.369995
  0
LINE
  8
0
 62
     4
 10
-163.383377
 20
-152.649994
 11
-162.793365
 21
-152.649994
  0
LINE
  8
0
 62
     4
 10
-163.963379
 20
-152.369995
 11
-162.793365
 21
-152.369995
  0
LINE
  8
0
 62
     4
 10
-166.083374
 20
-152.369995
 11
-166.083374
 21
-161.869995
  0
LINE
  8
0
 62
     4
 10
-174.703369
 20
-152.369995
 11
-174.703369
 21
-161.869995
  0
LINE
  8
0
 62
     4
 10
-174.043365
 20
-152.649994
 11
-174.043365
 21
-162.369995
  0
LINE
  8
0
 62
     4
 10
-166.743378
 20
-152.649994
 11
-166.743378
 21
-162.369995
  0
LINE
  8
0
 62
     4
 10
-166.743378
 20
-162.369995
 11
-163.963379
 21
-162.369995
  0
LINE
  8
0
 62
     4
 10
-172.233368
 20
-162.369995
 11
-168.553375
 21
-162.369995
  0
LINE
  8
0
 62
     4
 10
-172.233368
 20
-152.649994
 11
-172.233368
 21
-162.369995
  0
LINE
  8
0
 62
     4
 10
-168.553375
 20
-152.649994
 11
-168.553375
 21
-162.369995
  0
LINE
  8
0
 62
     4
 10
-177.643372
 20
-162.369995
 11
-177.403366
 21
-162.369995
  0
LINE
  8
0
 62
     4
 10
-166.083374
 20
-161.869995
 11
-163.963379
 21
-161.869995
  0
LINE
  8
0
 62
     4
 10
-171.893372
 20
-161.869995
 11
-168.893372
 21
-161.869995
  0
LINE
  8
0
 62
     4
 10
-168.553375
 20
-152.649994
 11
-166.743378
 21
-152.649994
  0
LINE
  8
0
 62
     4
 10
-168.893372
 20
-152.369995
 11
-166.083374
 21
-152.369995
  0
LINE
  8
0
 62
     4
 10
-168.893372
 20
-152.369995
 11
-168.893372
 21
-161.869995
  0
LINE
  8
0
 62
     4
 10
-171.893372
 20
-152.369995
 11
-171.893372
 21
-161.869995
  0
LINE
  8
0
 62
     4
 10
-178.143372
 20
-161.869995
 11
-177.993378
 21
-161.869995
  0
LINE
  8
0
 62
     4
 10
-177.993378
 20
-152.649994
 11
-177.403366
 21
-152.649994
  0
LINE
  8
0
 62
     4
 10
-173.243378
 20
-164.369995
 11
-173.243378
 21
-166.269989
  0
LINE
  8
0
 62
     4
 10
-167.543365
 20
-164.369995
 11
-167.543365
 21
-166.269989
  0
LINE
  8
0
 62
     4
 10
-173.643372
 20
-166.269989
 11
-167.143372
 21
-166.269989
  0
LINE
  8
0
 62
     4
 10
-173.643372
 20
-168.869995
 11
-167.143372
 21
-168.869995
  0
LINE
  8
0
 62
     4
 10
-173.213379
 20
-171.469986
 11
-167.573364
 21
-171.469986
  0
LINE
  8
0
 62
     4
 10
-176.893372
 20
-163.869995
 11
-163.893372
 21
-163.869995
  0
LINE
  8
0
 62
     4
 10
-163.893372
 20
-163.869980
 11
-164.393372
 21
-164.369980
  0
LINE
  8
0
 62
     4
 10
-176.893372
 20
-163.869995
 11
-176.393372
 21
-164.369995
  0
LINE
  8
0
 62
     4
 10
-163.893372
 20
-162.869995
 11
-163.893372
 21
-163.869995
  0
LINE
  8
0
 62
     4
 10
-176.893372
 20
-162.869995
 11
-176.893372
 21
-163.869995
  0
LINE
  8
0
 62
     4
 10
-176.393372
 20
-164.369995
 11
-164.393372
 21
-164.369995
  0
LINE
  8
0
 62
     4
 10
-178.143372
 20
-149.869995
 11
-162.643372
 21
-149.869995
  0
LINE
  8
0
 62
     4
 10
-178.463379
 20
-147.669998
 11
-162.323364
 21
-147.669998
  0
LINE
  8
0
 62
     4
 10
-162.323380
 20
-147.669998
 11
-162.823380
 21
-148.169998
  0
LINE
  8
0
 62
     4
 10
-178.463364
 20
-147.669998
 11
-177.963364
 21
-148.169998
  0
LINE
  8
0
 62
     4
 10
-164.393372
 20
-148.169998
 11
-164.393372
 21
-149.369995
  0
LINE
  8
0
 62
     4
 10
-176.393372
 20
-148.169998
 11
-176.393372
 21
-149.369995
  0
LINE
  8
0
 62
     4
 10
-163.143372
 20
-149.369995
 11
-162.643372
 21
-149.869995
  0
LINE
  8
0
 62
     4
 10
-178.143372
 20
-149.869995
 11
-177.643372
 21
-149.369995
  0
LINE
  8
0
 62
     4
 10
-177.643372
 20
-149.369995
 11
-163.143372
 21
-149.369995
  0
LINE
  8
0
 62
     4
 10
-177.993378
 20
-152.369995
 11
-176.823364
 21
-152.369995
  0
LINE
  8
0
 62
     4
 10
-163.643372
 20
-162.869995
 11
-162.643372
 21
-161.869995
  0
LINE
  8
0
 62
     4
 10
-178.143372
 20
-161.869980
 11
-177.143356
 21
-162.869995
  0
LINE
  8
0
 62
     4
 10
-162.643372
 20
-149.869995
 11
-162.643372
 21
-161.869995
  0
LINE
  8
0
 62
     4
 10
-178.143372
 20
-149.869995
 11
-178.143372
 21
-161.869995
  0
LINE
  8
0
 62
     4
 10
-177.143372
 20
-162.869995
 11
-163.643372
 21
-162.869995
  0
LINE
  8
0
 62
     4
 10
-177.963379
 20
-148.169998
 11
-162.823364
 21
-148.169998
  0
LINE
  8
0
 62
     4
 10
-162.323364
 20
-146.169998
 11
-162.323364
 21
-147.669998
  0
LINE
  8
0
 62
     4
 10
-178.463379
 20
-146.169998
 11
-178.463379
 21
-147.669998
  0
LINE
  8
0
 10
-72.888496
 20
113.106819
 11
-71.888496
 21
112.106819
  0
LINE
  8
0
 10
7.111487
 20
113.106819
 11
6.111493
 21
112.106827
  0
LINE
  8
0
 10
6.111497
 20
152.106827
 11
7.111485
 21
151.106842
  0
LINE
  8
0
 10
-71.888496
 20
152.106827
 11
-72.888496
 21
151.106827
  0
LINE
  8
0
 10
7.111496
 20
151.106827
 11
7.111496
 21
113.106827
  0
LINE
  8
0
 10
6.111496
 20
152.106827
 11
6.111496
 21
112.106827
  0
LINE
  8
0
 10
-72.888504
 20
151.106827
 11
-72.888504
 21
113.106827
  0
LINE
  8
0
 10
-71.888504
 20
152.106827
 11
-71.888504
 21
112.106827
  0
LINE
  8
0
 10
-71.888504
 20
152.106827
 11
6.111496
 21
152.106827
  0
LINE
  8
0
 10
-72.888504
 20
151.106827
 11
7.111496
 21
151.106827
  0
LINE
  8
0
 10
-71.888504
 20
112.106827
 11
6.111496
 21
112.106827
  0
LINE
  8
0
 10
-72.888504
 20
113.106827
 11
7.111496
 21
113.106827
  0
LINE
  8
0
  6
CENTER
 62
     2
 10
-80.048508
 20
132.106827
 11
16.531494
 21
132.106827
  0
LINE
  8
0
  6
CENTER
 62
     2
 10
-32.888504
 20
178.216812
 11
-32.888504
 21
85.996841
  0
LINE
  8
0
 10
101.396133
 20
-47.472923
 11
100.396133
 21
-46.472931
  0
LINE
  8
0
 10
179.396133
 20
-46.472939
 11
178.396164
 21
-47.472923
  0
LINE
  8
0
 10
178.396118
 20
16.027075
 11
179.396133
 21
15.027075
  0
LINE
  8
0
 10
100.396141
 20
15.027076
 11
101.396141
 21
16.027077
  0
LINE
  8
0
 10
100.396133
 20
-46.472931
 11
179.396133
 21
-46.472931
  0
LINE
  8
0
 10
100.396133
 20
15.027069
 11
179.396133
 21
15.027069
  0
LINE
  8
0
 10
179.396133
 20
15.027069
 11
179.396133
 21
-46.472931
  0
LINE
  8
0
 10
100.396133
 20
15.027069
 11
100.396133
 21
-46.472931
  0
LINE
  8
0
 10
101.396133
 20
-47.472931
 11
178.396133
 21
-47.472931
  0
LINE
  8
0
 10
159.896133
 20
67.027069
 11
159.896133
 21
36.027069
  0
LINE
  8
0
 10
119.896133
 20
67.027069
 11
119.896133
 21
36.027069
  0
LINE
  8
0
 10
167.396133
 20
65.027061
 11
168.396133
 21
64.027061
  0
LINE
  8
0
 10
111.396141
 20
64.027061
 11
112.396141
 21
65.027061
  0
LINE
  8
0
 10
160.896133
 20
64.027069
 11
168.396133
 21
64.027069
  0
LINE
  8
0
 10
111.396133
 20
64.027069
 11
118.896133
 21
64.027069
  0
LINE
  8
0
 10
161.896133
 20
65.027069
 11
167.396133
 21
65.027069
  0
LINE
  8
0
  6
CENTER
 62
     2
 10
107.986145
 20
52.027069
 11
172.526123
 21
52.027069
  0
LINE
  8
0
 10
158.896133
 20
68.027069
 11
159.896133
 21
67.027069
  0
LINE
  8
0
 10
120.896133
 20
68.027069
 11
119.896133
 21
67.027069
  0
LINE
  8
0
 10
119.896133
 20
67.027069
 11
159.896133
 21
67.027069
  0
LINE
  8
0
 10
120.896133
 20
68.027069
 11
120.896133
 21
36.027069
  0
LINE
  8
0
 10
158.896133
 20
68.027069
 11
158.896133
 21
36.027069
  0
LINE
  8
0
 10
120.896133
 20
68.027069
 11
158.896133
 21
68.027069
  0
LINE
  8
0
 10
112.396133
 20
65.027069
 11
117.896133
 21
65.027069
  0
LINE
  8
0
 10
168.396133
 20
64.027069
 11
168.396133
 21
38.527069
  0
LINE
  8
0
 10
111.396133
 20
64.027069
 11
111.396133
 21
38.527069
  0
LINE
  8
0
 10
101.396133
 20
16.027069
 11
178.396133
 21
16.027069
  0
LINE
  8
0
 10
161.896133
 20
37.027069
 11
178.396133
 21
37.027069
  0
LINE
  8
0
 10
100.396133
 20
36.027069
 11
179.396133
 21
36.027069
  0
LINE
  8
0
 10
179.396118
 20
36.027065
 11
178.396118
 21
37.027069
  0
LINE
  8
0
 10
100.396141
 20
36.027073
 11
101.396149
 21
37.027073
  0
LINE
  8
0
 10
100.396133
 20
17.027069
 11
179.396133
 21
17.027069
  0
LINE
  8
0
 10
179.396103
 20
17.027073
 11
178.396118
 21
16.027082
  0
LINE
  8
0
 10
100.396141
 20
17.027075
 11
101.396141
 21
16.027077
  0
LINE
  8
0
 10
101.396133
 20
37.027069
 11
117.896133
 21
37.027069
  0
LINE
  8
0
 10
179.396133
 20
36.027069
 11
179.396133
 21
17.027069
  0
LINE
  8
0
 10
100.396133
 20
36.027069
 11
100.396133
 21
17.027069
  0
LINE
  8
0
 10
132.326141
 20
-148.162918
 11
147.476135
 21
-148.162918
  0
LINE
  8
0
 10
146.646133
 20
-162.952927
 11
133.146133
 21
-162.952927
  0
LINE
  8
0
 10
147.146133
 20
-149.452927
 11
132.646133
 21
-149.452927
  0
LINE
  8
0
 10
138.396133
 20
-152.452927
 11
135.586136
 21
-152.452927
  0
LINE
  8
0
 10
136.246124
 20
-162.452927
 11
135.586151
 21
-161.952927
  0
LINE
  8
0
 10
136.246140
 20
-152.742920
 11
135.586136
 21
-152.452927
  0
LINE
  8
0
 10
147.646133
 20
-149.952927
 11
132.146133
 21
-149.952927
  0
LINE
  8
0
 10
145.896133
 20
-164.452927
 11
133.896133
 21
-164.452927
  0
LINE
  8
0
 10
133.396133
 20
-163.952927
 11
146.396133
 21
-163.952927
  0
LINE
  8
0
 10
158.316132
 20
-146.662918
 11
121.486145
 21
-146.662918
  0
LINE
  8
0
 10
106.486137
 20
-131.792923
 11
105.746140
 21
-47.472927
  0
LINE
  8
0
 10
131.826141
 20
-147.662918
 11
147.976135
 21
-147.662918
  0
LINE
  8
0
 10
111.186142
 20
-53.172928
 11
111.186142
 21
-129.162918
  0
LINE
  8
0
 10
111.776138
 20
-53.672928
 11
111.776138
 21
-128.662918
  0
LINE
  8
0
 10
112.036148
 20
-54.172928
 11
112.036148
 21
-86.172928
  0
LINE
  8
0
 10
113.876144
 20
-54.672928
 11
113.876144
 21
-85.672928
  0
LINE
  8
0
 10
120.946136
 20
-54.172928
 11
120.946136
 21
-86.172928
  0
LINE
  8
0
 10
121.326141
 20
-53.172928
 11
121.326141
 21
-129.162918
  0
LINE
  8
0
 10
112.186142
 20
-52.172928
 11
120.326141
 21
-52.172928
  0
LINE
  8
0
 10
112.776138
 20
-52.672928
 11
120.326141
 21
-52.672928
  0
LINE
  8
0
 10
120.326141
 20
-130.162918
 11
112.186142
 21
-130.162918
  0
LINE
  8
0
 10
120.326141
 20
-129.662918
 11
112.776138
 21
-129.662918
  0
LINE
  8
0
 10
120.946136
 20
-94.172928
 11
120.946136
 21
-128.162918
  0
LINE
  8
0
 10
113.876144
 20
-94.672928
 11
113.876144
 21
-127.662918
  0
LINE
  8
0
 10
112.036148
 20
-94.172928
 11
112.036148
 21
-128.162918
  0
LINE
  8
0
 10
119.946136
 20
-128.662918
 11
114.876144
 21
-128.662918
  0
LINE
  8
0
 10
119.946136
 20
-86.672928
 11
114.876144
 21
-86.672928
  0
LINE
  8
0
 10
119.946136
 20
-93.672928
 11
114.876144
 21
-93.672928
  0
LINE
  8
0
 10
114.876144
 20
-53.672928
 11
119.946136
 21
-53.672928
  0
LINE
  8
0
 10
113.036148
 20
-53.172928
 11
119.946136
 21
-53.172928
  0
LINE
  8
0
 10
119.946136
 20
-87.172928
 11
113.036148
 21
-87.172928
  0
LINE
  8
0
 10
119.946136
 20
-93.172928
 11
113.036148
 21
-93.172928
  0
LINE
  8
0
 10
119.946136
 20
-129.162918
 11
113.036148
 21
-129.162918
  0
LINE
  8
0
 10
133.396133
 20
-163.952927
 11
133.896133
 21
-164.452927
  0
LINE
  8
0
 10
133.396133
 20
-163.952927
 11
133.396133
 21
-162.952927
  0
LINE
  8
0
 10
133.636139
 20
-162.452927
 11
132.886139
 21
-162.452927
  0
LINE
  8
0
 10
133.466125
 20
-161.952911
 11
133.636139
 21
-162.452927
  0
LINE
  8
0
 10
132.886139
 20
-152.742920
 11
132.296127
 21
-152.452927
  0
LINE
  8
0
 10
132.886139
 20
-162.452927
 11
132.296127
 21
-161.952911
  0
LINE
  8
0
 10
132.296127
 20
-161.952927
 11
132.146133
 21
-161.952927
  0
LINE
  8
0
 10
135.586136
 20
-161.952927
 11
133.466141
 21
-161.952927
  0
LINE
  8
0
 10
133.466141
 20
-152.742920
 11
132.886139
 21
-152.742920
  0
LINE
  8
0
 10
133.466141
 20
-152.452927
 11
132.296127
 21
-152.452927
  0
LINE
  8
0
 10
132.296127
 20
-152.452927
 11
132.296127
 21
-161.952927
  0
LINE
  8
0
 10
132.886139
 20
-152.742920
 11
132.886139
 21
-162.452927
  0
LINE
  8
0
 10
133.466141
 20
-152.452927
 11
133.466141
 21
-161.952927
  0
LINE
  8
0
 10
135.586136
 20
-152.452927
 11
135.586136
 21
-161.952927
  0
LINE
  8
0
 62
     2
 10
134.646133
 20
-148.162918
 11
134.646133
 21
-149.452927
  0
LINE
  8
0
 10
133.896133
 20
-148.162918
 11
133.896133
 21
-149.452927
  0
LINE
  8
0
 10
132.646133
 20
-149.452911
 11
132.146133
 21
-149.952911
  0
LINE
  8
0
 10
133.146149
 20
-162.952911
 11
132.146149
 21
-161.952927
  0
LINE
  8
0
 10
132.146133
 20
-149.952927
 11
132.146133
 21
-161.952927
  0
LINE
  8
0
 10
132.326126
 20
-148.162918
 11
131.826126
 21
-147.662918
  0
LINE
  8
0
 10
131.826141
 20
-147.662918
 11
131.826141
 21
-146.662918
  0
LINE
  8
0
 10
173.316116
 20
-131.792923
 11
174.056122
 21
-47.472923
  0
LINE
  8
0
 10
168.616119
 20
-53.172928
 11
168.616119
 21
-129.162918
  0
LINE
  8
0
 10
168.016129
 20
-53.672928
 11
168.016129
 21
-128.662918
  0
LINE
  8
0
 10
167.766129
 20
-54.172928
 11
167.766129
 21
-86.172928
  0
LINE
  8
0
 10
165.926132
 20
-54.672928
 11
165.926132
 21
-85.672928
  0
LINE
  8
0
 10
158.856125
 20
-54.172928
 11
158.856125
 21
-86.172928
  0
LINE
  8
0
 10
158.476120
 20
-53.172928
 11
158.476120
 21
-129.162918
  0
LINE
  8
0
 10
167.616119
 20
-52.172928
 11
159.476120
 21
-52.172928
  0
LINE
  8
0
 10
167.016129
 20
-52.672928
 11
159.476120
 21
-52.672928
  0
LINE
  8
0
 10
159.476120
 20
-130.162918
 11
167.616119
 21
-130.162918
  0
LINE
  8
0
 10
159.476120
 20
-129.662918
 11
167.016129
 21
-129.662918
  0
LINE
  8
0
 10
158.856125
 20
-94.172928
 11
158.856125
 21
-128.162918
  0
LINE
  8
0
 10
165.926132
 20
-94.672928
 11
165.926132
 21
-127.662918
  0
LINE
  8
0
 10
167.766129
 20
-94.172928
 11
167.766129
 21
-128.162918
  0
LINE
  8
0
 10
159.856125
 20
-128.662918
 11
164.926132
 21
-128.662918
  0
LINE
  8
0
 10
159.856125
 20
-86.672928
 11
164.926132
 21
-86.672928
  0
LINE
  8
0
 10
159.856125
 20
-93.672928
 11
164.926132
 21
-93.672928
  0
LINE
  8
0
 10
164.926132
 20
-53.672928
 11
159.856125
 21
-53.672928
  0
LINE
  8
0
 10
166.766129
 20
-53.172928
 11
159.856125
 21
-53.172928
  0
LINE
  8
0
 10
159.856125
 20
-87.172928
 11
166.766129
 21
-87.172928
  0
LINE
  8
0
 10
159.856125
 20
-93.172928
 11
166.766129
 21
-93.172928
  0
LINE
  8
0
 10
159.856125
 20
-129.162918
 11
166.766129
 21
-129.162918
  0
LINE
  8
0
 10
144.216125
 20
-152.452927
 11
141.396133
 21
-152.452927
  0
LINE
  8
0
 10
143.556122
 20
-162.452927
 11
144.216125
 21
-161.952927
  0
LINE
  8
0
 10
143.556137
 20
-152.742920
 11
144.216125
 21
-152.452942
  0
LINE
  8
0
 10
145.896133
 20
-164.452927
 11
146.396133
 21
-163.952927
  0
LINE
  8
0
 10
146.396133
 20
-163.952927
 11
146.396133
 21
-162.952927
  0
LINE
  8
0
 10
146.916138
 20
-162.452927
 11
146.156128
 21
-162.452927
  0
LINE
  8
0
 10
146.336136
 20
-161.952927
 11
146.156143
 21
-162.452911
  0
LINE
  8
0
 10
146.916138
 20
-152.742920
 11
147.506134
 21
-152.452927
  0
LINE
  8
0
 10
146.916138
 20
-162.452911
 11
147.506149
 21
-161.952911
  0
LINE
  8
0
 10
146.336136
 20
-161.952927
 11
144.216125
 21
-161.952927
  0
LINE
  8
0
 10
147.646133
 20
-161.952927
 11
147.506134
 21
-161.952927
  0
LINE
  8
0
 10
146.916138
 20
-152.742920
 11
146.336136
 21
-152.742920
  0
LINE
  8
0
 10
147.506134
 20
-152.452927
 11
146.336136
 21
-152.452927
  0
LINE
  8
0
 10
147.506134
 20
-152.452927
 11
147.506134
 21
-161.952927
  0
LINE
  8
0
 10
146.916138
 20
-152.742920
 11
146.916138
 21
-162.452927
  0
LINE
  8
0
 10
146.336136
 20
-152.452927
 11
146.336136
 21
-161.952927
  0
LINE
  8
0
 10
144.216125
 20
-152.452927
 11
144.216125
 21
-161.952927
  0
LINE
  8
0
 62
     2
 10
145.146133
 20
-148.162918
 11
145.146133
 21
-149.452927
  0
LINE
  8
0
 10
145.896133
 20
-148.162918
 11
145.896133
 21
-149.452927
  0
LINE
  8
0
 10
147.146133
 20
-149.452911
 11
147.646133
 21
-149.952911
  0
LINE
  8
0
 10
147.646118
 20
-161.952927
 11
146.646118
 21
-162.952927
  0
LINE
  8
0
 10
147.646133
 20
-149.952927
 11
147.646133
 21
-161.952927
  0
LINE
  8
0
 10
147.476135
 20
-148.162918
 11
147.976135
 21
-147.662918
  0
LINE
  8
0
 10
147.976135
 20
-147.662918
 11
147.976135
 21
-146.662918
  0
LINE
  8
0
 10
138.056137
 20
-162.452927
 11
136.246140
 21
-162.452927
  0
LINE
  8
0
 10
141.746140
 20
-152.742935
 11
141.396133
 21
-152.452927
  0
LINE
  8
0
 10
138.056137
 20
-152.742920
 11
138.396149
 21
-152.452927
  0
LINE
  8
0
 10
138.396149
 20
-161.952911
 11
138.056137
 21
-162.452927
  0
LINE
  8
0
 10
141.746140
 20
-162.452927
 11
141.396133
 21
-161.952927
  0
LINE
  8
0
 10
143.556137
 20
-162.452927
 11
141.746140
 21
-162.452927
  0
LINE
  8
0
 10
141.396133
 20
-161.952927
 11
138.396133
 21
-161.952927
  0
LINE
  8
0
 10
143.556137
 20
-152.742920
 11
141.746140
 21
-152.742920
  0
LINE
  8
0
 10
138.056137
 20
-152.742920
 11
136.246140
 21
-152.742920
  0
LINE
  8
0
 10
143.556137
 20
-152.742920
 11
143.556137
 21
-162.452927
  0
LINE
  8
0
 10
136.246140
 20
-152.742920
 11
136.246140
 21
-162.452927
  0
LINE
  8
0
 10
138.056137
 20
-152.742920
 11
138.056137
 21
-162.452927
  0
LINE
  8
0
 10
141.746140
 20
-152.742920
 11
141.746140
 21
-162.452927
  0
LINE
  8
0
 10
141.396133
 20
-152.452927
 11
141.396133
 21
-161.952927
  0
LINE
  8
0
 10
138.396133
 20
-152.452927
 11
138.396133
 21
-161.952927
  0
LINE
  8
0
  6
CENTER
 62
     2
 10
139.896133
 20
70.427063
 11
139.896133
 21
-165.742920
  0
LINE
  8
0
  6
CENTER
 62
     2
 10
-32.888504
 20
73.027054
 11
-32.888504
 21
-167.722946
  0
LINE
  8
0
 10
-71.388512
 20
-47.472935
 11
-72.388504
 21
-46.472942
  0
LINE
  8
0
 10
6.611496
 20
-46.472946
 11
5.611495
 21
-47.472946
  0
LINE
  8
0
 10
5.611484
 20
16.027058
 11
6.611485
 21
15.027057
  0
LINE
  8
0
 10
-72.388504
 20
15.027070
 11
-71.388504
 21
16.027071
  0
LINE
  8
0
 10
6.611496
 20
15.027054
 11
6.611496
 21
-46.472946
  0
LINE
  8
0
 10
-72.388504
 20
15.027054
 11
-72.388504
 21
-46.472946
  0
LINE
  8
0
 10
-72.388504
 20
-46.472946
 11
6.611496
 21
-46.472946
  0
LINE
  8
0
 10
-72.388504
 20
15.027054
 11
6.611496
 21
15.027054
  0
LINE
  8
0
 10
-71.388504
 20
-47.472946
 11
5.611496
 21
-47.472946
  0
LINE
  8
0
 10
-57.888512
 20
42.027061
 11
-58.598507
 21
42.737057
  0
LINE
  8
0
 10
-67.888504
 20
42.027054
 11
-67.188507
 21
42.737053
  0
LINE
  8
0
 10
-67.888504
 20
62.027054
 11
-67.188507
 21
61.317059
  0
LINE
  8
0
 10
-57.888512
 20
62.027046
 11
-58.598511
 21
61.317047
  0
LINE
  8
0
 10
-58.598503
 20
42.737053
 11
-67.188507
 21
42.737053
  0
LINE
  8
0
 10
-58.598503
 20
61.317055
 11
-58.598503
 21
42.737053
  0
LINE
  8
0
 10
-58.598503
 20
61.317055
 11
-67.188507
 21
61.317055
  0
LINE
  8
0
 10
-67.188507
 20
61.317055
 11
-67.188507
 21
42.737053
  0
LINE
  8
0
 10
-57.888504
 20
42.027054
 11
-67.888504
 21
42.027054
  0
LINE
  8
0
 10
-57.888504
 20
62.027054
 11
-67.888504
 21
62.027054
  0
LINE
  8
0
 10
-57.888504
 20
62.027054
 11
-57.888504
 21
42.027054
  0
LINE
  8
0
 10
-67.888504
 20
62.027054
 11
-67.888504
 21
42.027054
  0
LINE
  8
0
 10
-7.888515
 20
42.027058
 11
-7.188519
 21
42.737057
  0
LINE
  8
0
 10
2.111480
 20
42.027054
 11
1.401482
 21
42.737053
  0
LINE
  8
0
 10
2.111479
 20
62.027054
 11
1.401480
 21
61.317055
  0
LINE
  8
0
 10
-7.888514
 20
62.027050
 11
-7.188518
 21
61.317055
  0
LINE
  8
0
 10
-7.188507
 20
42.737053
 11
1.401489
 21
42.737053
  0
LINE
  8
0
 10
-7.188507
 20
61.317055
 11
-7.188507
 21
42.737053
  0
LINE
  8
0
 10
-7.188507
 20
61.317055
 11
1.401489
 21
61.317055
  0
LINE
  8
0
 10
1.401489
 20
61.317055
 11
1.401489
 21
42.737053
  0
LINE
  8
0
 10
-7.888504
 20
42.027054
 11
2.111496
 21
42.027054
  0
LINE
  8
0
 10
-7.888504
 20
62.027054
 11
2.111496
 21
62.027054
  0
LINE
  8
0
 10
-7.888504
 20
62.027054
 11
-7.888504
 21
42.027054
  0
LINE
  8
0
 10
2.111496
 20
62.027054
 11
2.111496
 21
42.027054
  0
LINE
  8
0
 10
-53.198513
 20
64.027046
 11
-52.198509
 21
65.027046
  0
LINE
  8
0
 10
-13.588520
 20
65.027054
 11
-12.588521
 21
64.027061
  0
LINE
  8
0
 10
-53.198517
 20
64.027054
 11
-12.588516
 21
64.027054
  0
LINE
  8
0
 10
6.111485
 20
68.027061
 11
7.111487
 21
67.027061
  0
LINE
  8
0
 10
-71.888504
 20
68.027054
 11
-72.888504
 21
67.027054
  0
LINE
  8
0
 10
-72.888504
 20
67.027054
 11
7.111496
 21
67.027054
  0
LINE
  8
0
 10
6.111496
 20
68.027054
 11
6.111496
 21
36.027054
  0
LINE
  8
0
 10
-71.888504
 20
68.027054
 11
-71.888504
 21
36.027054
  0
LINE
  8
0
 10
-52.198517
 20
65.027054
 11
-13.588516
 21
65.027054
  0
LINE
  8
0
 10
-12.588516
 20
64.027054
 11
-12.588516
 21
37.027054
  0
LINE
  8
0
 10
-53.198517
 20
64.027054
 11
-53.198517
 21
37.027054
  0
LINE
  8
0
 10
7.111496
 20
67.027054
 11
7.111496
 21
36.027054
  0
LINE
  8
0
 10
-72.888504
 20
67.027054
 11
-72.888504
 21
36.027054
  0
LINE
  8
0
 10
-71.888504
 20
68.027054
 11
6.111496
 21
68.027054
  0
LINE
  8
0
 10
-72.888504
 20
36.027054
 11
7.111496
 21
36.027054
  0
LINE
  8
0
 10
1.171480
 20
36.027058
 11
0.171490
 21
37.027050
  0
LINE
  8
0
 10
-66.958504
 20
36.027054
 11
-65.958504
 21
37.027054
  0
LINE
  8
0
 10
-65.958504
 20
37.027054
 11
0.171494
 21
37.027054
  0
LINE
  8
0
 10
-72.388504
 20
17.027054
 11
6.611496
 21
17.027054
  0
LINE
  8
0
 10
6.611485
 20
17.027061
 11
5.611484
 21
16.027058
  0
LINE
  8
0
 10
-72.388504
 20
17.027067
 11
-71.388504
 21
16.027069
  0
LINE
  8
0
 10
6.611496
 20
36.027054
 11
6.611496
 21
17.027054
  0
LINE
  8
0
 10
-72.388504
 20
36.027054
 11
-72.388504
 21
17.027054
  0
LINE
  8
0
 10
-71.388504
 20
16.027054
 11
5.611496
 21
16.027054
  0
LINE
  8
0
 10
-51.298508
 20
-146.662933
 11
-14.468506
 21
-146.662933
  0
LINE
  8
0
 10
-66.928505
 20
-59.542938
 11
-67.038506
 21
-47.472942
  0
LINE
  8
0
 10
-70.288506
 20
-49.992935
 11
-69.748505
 21
-71.982933
  0
LINE
  8
0
 10
-69.808502
 20
-49.472946
 11
-69.458504
 21
-63.502945
  0
LINE
  8
0
 10
-40.458511
 20
-148.162933
 11
-25.308517
 21
-148.162933
  0
LINE
  8
0
 10
-26.138504
 20
-162.952942
 11
-39.638504
 21
-162.952942
  0
LINE
  8
0
 10
-25.638504
 20
-149.452942
 11
-40.138504
 21
-149.452942
  0
LINE
  8
0
 10
-37.198517
 20
-161.952942
 11
-39.328506
 21
-161.952942
  0
LINE
  8
0
 10
-25.138504
 20
-149.952942
 11
-40.638504
 21
-149.952942
  0
LINE
  8
0
 10
-26.888504
 20
-164.452942
 11
-38.888504
 21
-164.452942
  0
LINE
  8
0
 10
-39.388504
 20
-163.952942
 11
-26.388504
 21
-163.952942
  0
LINE
  8
0
 10
-40.958511
 20
-147.662933
 11
-24.808517
 21
-147.662933
  0
LINE
  8
0
 10
-39.388504
 20
-163.952942
 11
-38.888504
 21
-164.452942
  0
LINE
  8
0
 10
-39.388504
 20
-163.952942
 11
-39.388504
 21
-162.952942
  0
LINE
  8
0
 10
-39.148514
 20
-162.452942
 11
-39.898514
 21
-162.452942
  0
LINE
  8
0
 10
-39.328506
 20
-161.952927
 11
-39.148506
 21
-162.452927
  0
LINE
  8
0
 10
-39.898506
 20
-152.742935
 11
-40.488510
 21
-152.452927
  0
LINE
  8
0
 10
-39.898506
 20
-162.452957
 11
-40.488514
 21
-161.952942
  0
LINE
  8
0
 10
-40.488510
 20
-161.952942
 11
-40.638504
 21
-161.952942
  0
LINE
  8
0
 10
-39.328506
 20
-152.742935
 11
-39.898514
 21
-152.742935
  0
LINE
  8
0
 10
-39.328506
 20
-152.452942
 11
-40.488510
 21
-152.452942
  0
LINE
  8
0
 10
-40.488510
 20
-152.452942
 11
-40.488510
 21
-161.952942
  0
LINE
  8
0
 10
-39.898514
 20
-152.742935
 11
-39.898514
 21
-162.452942
  0
LINE
  8
0
 10
-39.328506
 20
-152.452942
 11
-39.328506
 21
-161.952942
  0
LINE
  8
0
 62
     2
 10
-38.138504
 20
-148.162933
 11
-38.138504
 21
-149.452942
  0
LINE
  8
0
 10
-38.888504
 20
-148.162933
 11
-38.888504
 21
-149.452942
  0
LINE
  8
0
 10
-40.138504
 20
-149.452927
 11
-40.638504
 21
-149.952927
  0
LINE
  8
0
 10
-39.638500
 20
-162.952942
 11
-40.638500
 21
-161.952942
  0
LINE
  8
0
 10
-40.638504
 20
-149.952942
 11
-40.638504
 21
-161.952942
  0
LINE
  8
0
 10
-40.458508
 20
-148.162933
 11
-40.958508
 21
-147.662933
  0
LINE
  8
0
 10
-40.958511
 20
-147.662933
 11
-40.958511
 21
-146.662933
  0
LINE
  8
0
 10
-69.748505
 20
-71.982933
 11
-69.628502
 21
-72.102936
  0
LINE
  8
0
 10
-66.928505
 20
-59.542934
 11
-69.698502
 21
-63.872932
  0
LINE
  8
0
 10
-69.618507
 20
-73.222946
 11
-69.698502
 21
-63.872944
  0
LINE
  8
0
 10
-66.778496
 20
-77.372940
 11
-69.558502
 21
-73.392937
  0
LINE
  8
0
 10
-61.608505
 20
-53.172943
 11
-61.608505
 21
-129.162933
  0
LINE
  8
0
 10
-61.008507
 20
-53.672943
 11
-61.008507
 21
-128.662933
  0
LINE
  8
0
 10
-60.748505
 20
-54.172943
 11
-60.748505
 21
-86.172943
  0
LINE
  8
0
 10
-58.918503
 20
-54.672943
 11
-58.918503
 21
-85.672943
  0
LINE
  8
0
 10
-51.848511
 20
-54.172943
 11
-51.848511
 21
-86.172943
  0
LINE
  8
0
 10
-51.458511
 20
-53.172943
 11
-51.458511
 21
-129.162933
  0
LINE
  8
0
 10
-60.608505
 20
-52.172943
 11
-52.458511
 21
-52.172943
  0
LINE
  8
0
 10
-60.008507
 20
-52.672943
 11
-52.458511
 21
-52.672943
  0
LINE
  8
0
 10
-52.458511
 20
-130.162933
 11
-60.608505
 21
-130.162933
  0
LINE
  8
0
 10
-52.458511
 20
-129.662933
 11
-60.008507
 21
-129.662933
  0
LINE
  8
0
 10
-51.848511
 20
-94.172943
 11
-51.848511
 21
-128.162933
  0
LINE
  8
0
 10
-58.918503
 20
-94.672943
 11
-58.918503
 21
-127.662933
  0
LINE
  8
0
 10
-60.748505
 20
-94.172943
 11
-60.748505
 21
-128.162933
  0
LINE
  8
0
 10
-52.848511
 20
-128.662933
 11
-57.918503
 21
-128.662933
  0
LINE
  8
0
 10
-52.848511
 20
-86.672943
 11
-57.918503
 21
-86.672943
  0
LINE
  8
0
 10
-52.848511
 20
-93.672943
 11
-57.918503
 21
-93.672943
  0
LINE
  8
0
 10
-57.918503
 20
-53.672943
 11
-52.848511
 21
-53.672943
  0
LINE
  8
0
 10
-66.298508
 20
-131.792938
 11
-66.778503
 21
-77.372940
  0
LINE
  8
0
 10
-59.748505
 20
-53.172943
 11
-52.848511
 21
-53.172943
  0
LINE
  8
0
 10
-52.848511
 20
-87.172943
 11
-59.748505
 21
-87.172943
  0
LINE
  8
0
 10
-52.848511
 20
-93.172943
 11
-59.748505
 21
-93.172943
  0
LINE
  8
0
 10
-52.848511
 20
-129.162933
 11
-59.748505
 21
-129.162933
  0
LINE
  8
0
 10
0.531493
 20
-131.792938
 11
1.261492
 21
-47.472942
  0
LINE
  8
0
 10
-4.168518
 20
-53.172943
 11
-4.168518
 21
-129.162933
  0
LINE
  8
0
 10
-4.768509
 20
-53.672943
 11
-4.768509
 21
-128.662933
  0
LINE
  8
0
 10
-5.028519
 20
-54.172943
 11
-5.028519
 21
-86.172943
  0
LINE
  8
0
 10
-6.858505
 20
-54.672943
 11
-6.858505
 21
-85.672943
  0
LINE
  8
0
 10
-13.928513
 20
-54.172943
 11
-13.928513
 21
-86.172943
  0
LINE
  8
0
 10
-14.318512
 20
-53.172943
 11
-14.318512
 21
-129.162933
  0
LINE
  8
0
 10
-5.168518
 20
-52.172943
 11
-13.318512
 21
-52.172943
  0
LINE
  8
0
 10
-5.768509
 20
-52.672943
 11
-13.318512
 21
-52.672943
  0
LINE
  8
0
 10
-13.318512
 20
-130.162933
 11
-5.168518
 21
-130.162933
  0
LINE
  8
0
 10
-13.318512
 20
-129.662933
 11
-5.768509
 21
-129.662933
  0
LINE
  8
0
 10
-13.928513
 20
-94.172943
 11
-13.928513
 21
-128.162933
  0
LINE
  8
0
 10
-6.858505
 20
-94.672943
 11
-6.858505
 21
-127.662933
  0
LINE
  8
0
 10
-5.028519
 20
-94.172943
 11
-5.028519
 21
-128.162933
  0
LINE
  8
0
 10
-12.928513
 20
-128.662933
 11
-7.858505
 21
-128.662933
  0
LINE
  8
0
 10
-12.928513
 20
-86.672943
 11
-7.858505
 21
-86.672943
  0
LINE
  8
0
 10
-12.928513
 20
-93.672943
 11
-7.858505
 21
-93.672943
  0
LINE
  8
0
 10
-7.858505
 20
-53.672943
 11
-12.928513
 21
-53.672943
  0
LINE
  8
0
 10
-6.028519
 20
-53.172943
 11
-12.928513
 21
-53.172943
  0
LINE
  8
0
 10
-12.928513
 20
-87.172943
 11
-6.028519
 21
-87.172943
  0
LINE
  8
0
 10
-12.928513
 20
-93.172943
 11
-6.028519
 21
-93.172943
  0
LINE
  8
0
 10
-12.928513
 20
-129.162933
 11
-6.028519
 21
-129.162933
  0
LINE
  8
0
 10
-69.348511
 20
-47.472939
 11
-69.308510
 21
-49.462944
  0
LINE
  8
0
 10
-68.778496
 20
-47.472935
 11
-68.728500
 21
-49.452942
  0
LINE
  8
0
 10
-70.288498
 20
-49.992928
 11
-69.808502
 21
-49.472931
  0
LINE
  8
0
 10
-69.808502
 20
-49.472950
 11
-68.728508
 21
-49.452950
  0
LINE
  8
0
 10
-26.388504
 20
-163.952942
 11
-26.388504
 21
-162.952942
  0
LINE
  8
0
 10
-25.878510
 20
-162.452942
 11
-26.628510
 21
-162.452942
  0
LINE
  8
0
 10
-34.728516
 20
-162.452942
 11
-36.548508
 21
-162.452942
  0
LINE
  8
0
 10
-26.448496
 20
-161.952942
 11
-26.628494
 21
-162.452927
  0
LINE
  8
0
 10
-25.878500
 20
-152.742935
 11
-25.288498
 21
-152.452927
  0
LINE
  8
0
 10
-29.228500
 20
-152.742935
 11
-28.568504
 21
-152.452927
  0
LINE
  8
0
 10
-31.048494
 20
-152.742920
 11
-31.388487
 21
-152.452927
  0
LINE
  8
0
 10
-34.728504
 20
-152.742935
 11
-34.388500
 21
-152.452942
  0
LINE
  8
0
 10
-36.548515
 20
-152.742935
 11
-37.198517
 21
-152.452927
  0
LINE
  8
0
 10
-36.548500
 20
-162.452942
 11
-37.198498
 21
-161.952927
  0
LINE
  8
0
 10
-34.388485
 20
-161.952927
 11
-34.728497
 21
-162.452942
  0
LINE
  8
0
 10
-31.048515
 20
-162.452942
 11
-31.388521
 21
-161.952942
  0
LINE
  8
0
 10
-29.228514
 20
-162.452927
 11
-28.568520
 21
-161.952942
  0
LINE
  8
0
 10
-25.878511
 20
-162.452942
 11
-25.288504
 21
-161.952942
  0
LINE
  8
0
 10
-29.228516
 20
-162.452942
 11
-31.048508
 21
-162.452942
  0
LINE
  8
0
 10
-26.448517
 20
-161.952942
 11
-28.568512
 21
-161.952942
  0
LINE
  8
0
 10
-31.388504
 20
-161.952942
 11
-34.388504
 21
-161.952942
  0
LINE
  8
0
 10
-29.228516
 20
-152.742935
 11
-31.048508
 21
-152.742935
  0
LINE
  8
0
 10
-28.568512
 20
-152.452942
 11
-31.388504
 21
-152.452942
  0
LINE
  8
0
 10
-34.728516
 20
-152.742935
 11
-36.548508
 21
-152.742935
  0
LINE
  8
0
 10
-34.388504
 20
-152.452942
 11
-37.198517
 21
-152.452942
  0
LINE
  8
0
 10
-25.138504
 20
-161.952942
 11
-25.288513
 21
-161.952942
  0
LINE
  8
0
 10
-25.878510
 20
-152.742935
 11
-26.448517
 21
-152.742935
  0
LINE
  8
0
 10
-25.288513
 20
-152.452942
 11
-26.448517
 21
-152.452942
  0
LINE
  8
0
 10
-25.288513
 20
-152.452942
 11
-25.288513
 21
-161.952942
  0
LINE
  8
0
 10
-25.878510
 20
-152.742935
 11
-25.878510
 21
-162.452942
  0
LINE
  8
0
 10
-26.448517
 20
-152.452942
 11
-26.448517
 21
-161.952942
  0
LINE
  8
0
 10
-28.568512
 20
-152.452942
 11
-28.568512
 21
-161.952942
  0
LINE
  8
0
 10
-29.228516
 20
-152.742935
 11
-29.228516
 21
-162.452942
  0
LINE
  8
0
 10
-37.198517
 20
-152.452942
 11
-37.198517
 21
-161.952942
  0
LINE
  8
0
 10
-36.548508
 20
-152.742935
 11
-36.548508
 21
-162.452942
  0
LINE
  8
0
 10
-34.728516
 20
-152.742935
 11
-34.728516
 21
-162.452942
  0
LINE
  8
0
 10
-31.048508
 20
-152.742935
 11
-31.048508
 21
-162.452942
  0
LINE
  8
0
 10
-31.388504
 20
-152.452942
 11
-31.388504
 21
-161.952942
  0
LINE
  8
0
 10
-34.388504
 20
-152.452942
 11
-34.388504
 21
-161.952942
  0
LINE
  8
0
 62
     2
 10
-27.638504
 20
-148.162933
 11
-27.638504
 21
-149.452942
  0
LINE
  8
0
 10
-26.888504
 20
-148.162933
 11
-26.888504
 21
-149.452942
  0
LINE
  8
0
 10
-25.638504
 20
-149.452927
 11
-25.138502
 21
-149.952927
  0
LINE
  8
0
 10
-25.138517
 20
-161.952957
 11
-26.138519
 21
-162.952957
  0
LINE
  8
0
 10
-25.138504
 20
-149.952942
 11
-25.138504
 21
-161.952942
  0
LINE
  8
0
 10
-25.308500
 20
-148.162933
 11
-24.808500
 21
-147.662933
  0
LINE
  8
0
 10
-24.808517
 20
-147.662933
 11
-24.808517
 21
-146.662933
  0
LINE
  8
0
 10
-26.888514
 20
-164.452942
 11
-26.388512
 21
-163.952942
  0
LINE
  8
0
  6
CENTER
 62
     2
 10
-83.087914
 20
52.027054
 11
17.271927
 21
52.027054
  0
LINE
  8
0
 10
-189.179993
 20
-146.169998
 11
-151.579987
 21
-146.169998
  0
LINE
  8
0
 10
-204.179993
 20
-107.109985
 11
-204.179993
 21
-131.169998
  0
LINE
  8
0
 10
-136.579987
 20
-125.229996
 11
-136.579987
 21
-131.169998
  0
LINE
  8
0
 62
     2
 10
-204.179993
 20
-107.110016
 11
-136.579987
 21
-125.230011
  0
LINE
  8
0
 10
-199.113373
 20
-108.468079
 11
-199.113373
 21
-128.669998
  0
LINE
  8
0
 10
-198.513382
 20
-108.628922
 11
-198.513382
 21
-128.169998
  0
LINE
  8
0
 10
-188.963379
 20
-111.188766
 11
-188.963379
 21
-128.669998
  0
LINE
  8
0
 10
-189.353378
 20
-111.084229
 11
-189.353378
 21
-127.669998
  0
LINE
  8
0
 10
-196.423370
 20
-109.189133
 11
-196.423370
 21
-127.169998
  0
LINE
  8
0
 10
-198.253372
 20
-108.698608
 11
-198.253372
 21
-127.669998
  0
LINE
  8
0
 10
-190.353378
 20
-128.669998
 11
-197.253372
 21
-128.669998
  0
LINE
  8
0
 10
-190.353378
 20
-128.169998
 11
-195.423370
 21
-128.169998
  0
LINE
  8
0
 10
-189.963379
 20
-129.169998
 11
-197.513382
 21
-129.169998
  0
LINE
  8
0
 10
-189.963379
 20
-129.669998
 11
-198.113373
 21
-129.669998
  0
LINE
  8
0
 10
-141.673370
 20
-128.672943
 11
-141.673370
 21
-123.864731
  0
LINE
  8
0
 10
-142.273376
 20
-123.703903
 11
-142.273376
 21
-128.169998
  0
LINE
  8
0
 10
-151.823380
 20
-121.144043
 11
-151.823380
 21
-128.669998
  0
LINE
  8
0
 10
-151.433380
 20
-121.248581
 11
-151.433380
 21
-127.669998
  0
LINE
  8
0
 10
-144.363373
 20
-123.143677
 11
-144.363373
 21
-127.169998
  0
LINE
  8
0
 10
-142.533371
 20
-123.634201
 11
-142.533371
 21
-127.669998
  0
LINE
  8
0
 10
-150.433380
 20
-128.669998
 11
-143.533371
 21
-128.669998
  0
LINE
  8
0
 10
-150.433380
 20
-128.169998
 11
-145.363373
 21
-128.169998
  0
LINE
  8
0
 10
-150.823380
 20
-129.169998
 11
-143.273376
 21
-129.169998
  0
LINE
  8
0
 10
-150.823380
 20
-129.669998
 11
-142.673370
 21
-129.669998
  0
LINE
  8
0
  6
CENTER
 62
     2
 10
-170.379990
 20
-106.169998
 11
-170.379990
 21
-172.849991
  0
LINE
  8
0
 10
-281.250000
 20
195.500000
 11
282.099854
 21
195.500000
  0
LINE
  8
0
 10
-281.250000
 20
195.500000
 11
-281.250000
 21
-195.000000
  0
LINE
  8
0
 10
282.099854
 20
195.500000
 11
282.099854
 21
-195.000000
  0
LINE
  8
0
 10
-281.250000
 20
-195.000000
 11
282.099854
 21
-195.000000
  0
LINE
  8
0
 10
162.099976
 20
-175.000000
 11
162.099976
 21
-195.000000
  0
LINE
  8
0
 10
162.099976
 20
-175.000000
 11
282.099854
 21
-175.000000
  0
LINE
  8
0
 10
162.099976
 20
175.500000
 11
282.099854
 21
175.500000
  0
LINE
  8
0
 10
-281.250000
 20
175.500000
 11
-161.250000
 21
175.500000
  0
LINE
  8
0
 10
162.099976
 20
195.500000
 11
162.099976
 21
175.500000
  0
LINE
  8
0
 10
-161.250000
 20
195.500000
 11
-161.250000
 21
175.500000
  0
ARC
  8
0
 10
-32.893509
 20
132.106827
 40
39.502197
 50
210.417755
 51
329.582275
  0
ARC
  8
0
 10
-32.893509
 20
132.106827
 40
38.497807
 50
211.299408
 51
328.700592
  0
ARC
  8
0
 10
-32.893509
 20
132.106827
 40
28.500748
 50
224.566467
 51
315.433563
  0
ARC
  8
0
 10
-32.893509
 20
132.106827
 40
27.797167
 50
226.013062
 51
313.987000
  0
ARC
  8
0
 10
-32.893509
 20
132.106827
 40
28.500751
 50
44.566441
 51
135.433517
  0
ARC
  8
0
 10
-32.893509
 20
132.106827
 40
27.797161
 50
46.013000
 51
133.986954
  0
ARC
  8
0
 10
-32.893509
 20
132.106827
 40
38.497803
 50
31.299400
 51
148.700592
  0
ARC
  8
0
 10
-32.893509
 20
132.106827
 40
39.502201
 50
30.417747
 51
149.582230
  0
CIRCLE
  8
0
 62
     2
 10
139.896133
 20
52.027069
 40
10.477500
  0
CIRCLE
  8
0
 10
139.896133
 20
52.027069
 40
9.315500
  0
ARC
  8
0
 10
117.896027
 20
67.027176
 40
2.000107
 50
270.003052
 51
359.996948
  0
CIRCLE
  8
0
 10
139.896133
 20
52.027069
 40
13.500000
  0
ARC
  8
0
 10
109.896042
 20
38.527172
 40
1.500103
 50
270.004089
 51
359.996063
  0
ARC
  8
0
 10
160.883255
 20
66.030663
 40
2.003634
 50
240.483566
 51
270.367828
  0
ARC
  8
0
 10
117.896042
 20
39.027161
 40
2.000092
 50
270.002625
 51
359.997375
  0
ARC
  8
0
 10
161.896225
 20
39.027164
 40
2.000092
 50
180.002731
 51
269.997375
  0
ARC
  8
0
 10
169.896240
 20
38.527180
 40
1.500107
 50
180.004227
 51
269.995911
  0
ARC
  8
0
 10
161.896240
 20
67.027176
 40
2.000107
 50
180.003067
 51
269.996948
  0
ARC
  8
0
 10
118.909012
 20
66.030670
 40
2.003642
 50
269.632172
 51
299.516327
  0
ARC
  8
0
 10
113.043457
 20
-86.165604
 40
1.007343
 50
180.416153
 51
269.584290
  0
ARC
  8
0
 10
114.880600
 20
-85.668472
 40
1.004458
 50
180.254150
 51
269.746277
  0
ARC
  8
0
 10
119.942184
 20
-86.168961
 40
1.003968
 50
270.225983
 51
359.774017
  0
ARC
  8
0
 10
119.942184
 20
-85.668961
 40
1.003968
 50
270.225983
 51
359.774017
  0
ARC
  8
0
 10
112.182327
 20
-53.169113
 40
0.996189
 50
89.780159
 51
180.219620
  0
ARC
  8
0
 10
112.776016
 20
-53.672791
 40
0.999866
 50
89.992569
 51
180.007645
  0
ARC
  8
0
 10
113.034546
 20
-54.171341
 40
0.998414
 50
89.908936
 51
180.091064
  0
ARC
  8
0
 10
114.871658
 20
-54.668442
 40
0.995535
 50
89.742249
 51
180.257523
  0
ARC
  8
0
 10
120.332870
 20
-53.166199
 40
0.993301
 50
359.612274
 51
90.387711
  0
ARC
  8
0
 10
120.332870
 20
-53.666199
 40
0.993301
 50
359.612274
 51
90.387711
  0
ARC
  8
0
 10
119.951111
 20
-54.167953
 40
0.995046
 50
359.714020
 51
90.285988
  0
ARC
  8
0
 10
119.951111
 20
-54.667953
 40
0.995046
 50
359.714020
 51
90.285988
  0
ARC
  8
0
 10
112.186249
 20
-129.162827
 40
1.000099
 50
180.006119
 51
269.994324
  0
ARC
  8
0
 10
112.779907
 20
-128.659149
 40
1.003776
 50
180.215134
 51
269.784882
  0
ARC
  8
0
 10
113.038467
 20
-128.160599
 40
1.002322
 50
180.132584
 51
269.867432
  0
ARC
  8
0
 10
113.034546
 20
-94.171326
 40
0.998407
 50
89.908493
 51
180.091064
  0
ARC
  8
0
 10
114.875580
 20
-127.663483
 40
0.999443
 50
179.968079
 51
270.031494
  0
ARC
  8
0
 10
120.328934
 20
-129.165710
 40
0.997212
 50
269.839569
 51
0.160438
  0
ARC
  8
0
 10
120.328934
 20
-128.665710
 40
0.997212
 50
269.839569
 51
0.160438
  0
ARC
  8
0
 10
119.947189
 20
-128.163971
 40
0.998963
 50
269.940063
 51
0.059512
  0
ARC
  8
0
 10
119.947189
 20
-127.663971
 40
0.998963
 50
269.940063
 51
0.059950
  0
ARC
  8
0
 10
119.951111
 20
-94.167953
 40
0.995038
 50
359.713562
 51
90.286430
  0
ARC
  8
0
 10
119.951111
 20
-94.667953
 40
0.995038
 50
359.713562
 51
90.286430
  0
ARC
  8
0
 10
114.871658
 20
-94.668442
 40
0.995532
 50
89.742249
 51
180.257751
  0
ARC
  8
0
 10
121.486542
 20
-131.661957
 40
15.000969
 50
180.500290
 51
269.998535
  0
ARC
  8
0
 10
166.761978
 20
-86.168777
 40
1.004159
 50
270.236816
 51
359.763184
  0
ARC
  8
0
 10
164.924728
 20
-85.671524
 40
1.001405
 50
270.080322
 51
359.919678
  0
ARC
  8
0
 10
159.863159
 20
-86.165894
 40
1.007059
 50
180.400208
 51
269.599792
  0
ARC
  8
0
 10
159.863159
 20
-85.665894
 40
1.007059
 50
180.400208
 51
269.599792
  0
ARC
  8
0
 10
167.623032
 20
-53.166016
 40
0.993112
 50
359.601196
 51
90.398788
  0
ARC
  8
0
 10
167.024460
 20
-53.664597
 40
0.991704
 50
359.518860
 51
90.481346
  0
ARC
  8
0
 10
166.770905
 20
-54.168137
 40
0.995236
 50
359.724823
 51
90.274956
  0
ARC
  8
0
 10
164.933670
 20
-54.665375
 40
0.992476
 50
359.563965
 51
90.436043
  0
ARC
  8
0
 10
159.472473
 20
-53.169266
 40
0.996356
 50
89.790283
 51
180.209930
  0
ARC
  8
0
 10
159.472473
 20
-53.669266
 40
0.996356
 50
89.790283
 51
180.209930
  0
ARC
  8
0
 10
159.854263
 20
-54.171051
 40
0.998133
 50
89.892265
 51
180.107300
  0
ARC
  8
0
 10
159.854263
 20
-54.671051
 40
0.998133
 50
89.892265
 51
180.107300
  0
ARC
  8
0
 10
167.619110
 20
-129.165909
 40
0.997029
 50
269.829010
 51
0.170990
  0
ARC
  8
0
 10
167.020523
 20
-128.667313
 40
0.995615
 50
269.747101
 51
0.252898
  0
ARC
  8
0
 10
166.766983
 20
-128.163788
 40
0.999146
 50
269.950989
 51
0.049001
  0
ARC
  8
0
 10
166.770905
 20
-94.168137
 40
0.995236
 50
359.724609
 51
90.274956
  0
ARC
  8
0
 10
164.929749
 20
-127.666534
 40
0.996390
 50
269.792053
 51
0.207952
  0
ARC
  8
0
 10
159.476395
 20
-129.162659
 40
1.000259
 50
180.014862
 51
269.985138
  0
ARC
  8
0
 10
159.476395
 20
-128.662659
 40
1.000259
 50
180.014862
 51
269.985138
  0
ARC
  8
0
 10
159.858170
 20
-128.160873
 40
1.002047
 50
180.116913
 51
269.883087
  0
ARC
  8
0
 10
159.858170
 20
-127.660873
 40
1.002047
 50
180.116913
 51
269.883087
  0
ARC
  8
0
 10
159.854248
 20
-94.171051
 40
0.998133
 50
89.892265
 51
180.107300
  0
ARC
  8
0
 10
159.854248
 20
-94.671051
 40
0.998133
 50
89.892265
 51
180.107300
  0
ARC
  8
0
 10
164.933685
 20
-94.665375
 40
0.992476
 50
359.563965
 51
90.436043
  0
ARC
  8
0
 10
158.318878
 20
-131.665131
 40
14.997787
 50
269.989502
 51
359.511780
  0
ARC
  8
0
 10
-69.311356
 20
-73.210114
 40
0.307419
 50
182.389557
 51
216.489670
  0
ARC
  8
0
 10
-59.742775
 20
-86.167206
 40
1.005742
 50
180.326416
 51
269.673798
  0
ARC
  8
0
 10
-57.910652
 20
-85.665085
 40
1.007881
 50
180.446289
 51
269.553711
  0
ARC
  8
0
 10
-52.849091
 20
-86.172363
 40
1.000572
 50
270.032990
 51
359.967224
  0
ARC
  8
0
 10
-52.849091
 20
-85.672363
 40
1.000572
 50
270.032990
 51
359.967224
  0
ARC
  8
0
 10
-60.608887
 20
-53.172562
 40
0.999615
 50
89.977913
 51
180.022079
  0
ARC
  8
0
 10
-60.010239
 20
-53.671204
 40
0.998266
 50
89.900383
 51
180.099625
  0
ARC
  8
0
 10
-59.751694
 20
-54.169754
 40
0.996816
 50
89.816696
 51
180.183304
  0
ARC
  8
0
 10
-57.919548
 20
-54.671890
 40
0.998955
 50
89.940048
 51
180.059952
  0
ARC
  8
0
 10
-52.453384
 20
-53.167816
 40
0.994882
 50
359.704529
 51
90.295265
  0
ARC
  8
0
 10
-52.453384
 20
-53.667816
 40
0.994882
 50
359.704529
 51
90.295265
  0
ARC
  8
0
 10
-52.840118
 20
-54.164551
 40
0.991647
 50
359.515320
 51
90.484459
  0
ARC
  8
0
 10
-52.840118
 20
-54.664551
 40
0.991647
 50
359.515320
 51
90.484459
  0
ARC
  8
0
 10
-60.604980
 20
-129.159424
 40
1.003527
 50
180.201248
 51
269.798981
  0
ARC
  8
0
 10
-60.006329
 20
-128.660767
 40
1.002181
 50
180.124741
 51
269.875458
  0
ARC
  8
0
 10
-59.747776
 20
-128.162216
 40
1.000729
 50
180.041931
 51
269.958282
  0
ARC
  8
0
 10
-59.751694
 20
-94.169754
 40
0.996816
 50
89.816475
 51
180.183304
  0
ARC
  8
0
 10
-57.915642
 20
-127.660080
 40
1.002869
 50
180.163895
 51
269.836334
  0
ARC
  8
0
 10
-52.457306
 20
-129.164139
 40
0.998795
 50
269.930847
 51
0.069150
  0
ARC
  8
0
 10
-52.457306
 20
-128.664139
 40
0.998795
 50
269.930847
 51
0.069150
  0
ARC
  8
0
 10
-52.844055
 20
-128.167389
 40
0.995554
 50
269.744019
 51
0.256424
  0
ARC
  8
0
 10
-52.844055
 20
-127.667389
 40
0.995554
 50
269.744019
 51
0.255985
  0
ARC
  8
0
 10
-52.840118
 20
-94.164551
 40
0.991647
 50
359.515106
 51
90.484680
  0
ARC
  8
0
 10
-52.840118
 20
-94.664551
 40
0.991647
 50
359.515106
 51
90.484680
  0
ARC
  8
0
 10
-57.919552
 20
-94.671890
 40
0.998955
 50
89.939835
 51
180.059952
  0
ARC
  8
0
 10
-51.299698
 20
-131.663574
 40
14.999368
 50
180.494217
 51
270.004547
  0
ARC
  8
0
 10
-6.029282
 20
-86.172165
 40
1.000771
 50
270.044006
 51
359.955872
  0
ARC
  8
0
 10
-7.861389
 20
-85.670059
 40
1.002888
 50
270.164703
 51
359.835236
  0
ARC
  8
0
 10
-12.922974
 20
-86.167404
 40
1.005548
 50
180.315170
 51
269.684723
  0
ARC
  8
0
 10
-12.922974
 20
-85.667404
 40
1.005548
 50
180.315170
 51
269.684723
  0
ARC
  8
0
 10
-5.163116
 20
-53.167542
 40
0.994613
 50
359.688843
 51
90.311111
  0
ARC
  8
0
 10
-5.761765
 20
-53.666199
 40
0.993278
 50
359.610962
 51
90.389046
  0
ARC
  8
0
 10
-6.020325
 20
-54.164749
 40
0.991842
 50
359.526886
 51
90.473183
  0
ARC
  8
0
 10
-7.852448
 20
-54.666885
 40
0.993960
 50
359.650818
 51
90.349197
  0
ARC
  8
0
 10
-13.318619
 20
-53.172821
 40
0.999889
 50
89.993660
 51
180.006332
  0
ARC
  8
0
 10
-13.318619
 20
-53.672821
 40
0.999889
 50
89.993660
 51
180.006332
  0
ARC
  8
0
 10
-12.931900
 20
-54.169556
 40
0.996622
 50
89.805473
 51
180.194519
  0
ARC
  8
0
 10
-12.931900
 20
-54.669556
 40
0.996622
 50
89.805473
 51
180.194519
  0
ARC
  8
0
 10
-5.167038
 20
-129.164413
 40
0.998521
 50
269.915314
 51
0.084929
  0
ARC
  8
0
 10
-5.765701
 20
-128.665756
 40
0.997196
 50
269.838318
 51
0.161318
  0
ARC
  8
0
 10
-6.024261
 20
-128.167191
 40
0.995752
 50
269.755188
 51
0.244961
  0
ARC
  8
0
 10
-6.020309
 20
-94.164749
 40
0.991838
 50
359.526642
 51
90.473404
  0
ARC
  8
0
 10
-7.856384
 20
-127.665070
 40
0.997866
 50
269.877655
 51
0.122220
  0
ARC
  8
0
 10
-13.314713
 20
-129.159149
 40
1.003801
 50
180.216873
 51
269.783417
  0
ARC
  8
0
 10
-13.314713
 20
-128.659149
 40
1.003801
 50
180.216873
 51
269.783417
  0
ARC
  8
0
 10
-12.927979
 20
-128.162399
 40
1.000533
 50
180.030579
 51
269.969482
  0
ARC
  8
0
 10
-12.927979
 20
-127.662399
 40
1.000533
 50
180.030579
 51
269.969482
  0
ARC
  8
0
 10
-12.931900
 20
-94.169556
 40
0.996618
 50
89.805252
 51
180.194748
  0
ARC
  8
0
 10
-12.931900
 20
-94.669556
 40
0.996618
 50
89.805252
 51
180.194748
  0
ARC
  8
0
 10
-7.852448
 20
-94.666870
 40
0.993956
 50
359.650360
 51
90.349419
  0
ARC
  8
0
 10
-14.467346
 20
-131.663544
 40
14.999390
 50
269.995605
 51
359.505737
  0
ARC
  8
0
 10
-189.185715
 20
-131.175705
 40
14.994279
 50
179.978134
 51
270.021820
  0
ARC
  8
0
 10
-151.582764
 20
-131.167221
 40
15.002777
 50
270.010620
 51
359.989380
  0
ARC
  8
0
 10
-190.348923
 20
-127.174438
 40
0.995554
 50
269.743561
 51
0.255987
  0
ARC
  8
0
 10
-190.348923
 20
-127.674438
 40
0.995554
 50
269.743561
 51
0.255987
  0
ARC
  8
0
 10
-189.962173
 20
-128.171204
 40
0.998795
 50
269.930847
 51
0.069150
  0
ARC
  8
0
 10
-189.962173
 20
-128.671204
 40
0.998795
 50
269.930847
 51
0.069150
  0
ARC
  8
0
 10
-195.420517
 20
-127.167130
 40
1.002873
 50
180.163895
 51
269.836121
  0
ARC
  8
0
 10
-197.252640
 20
-127.669266
 40
1.000733
 50
180.041931
 51
269.958069
  0
ARC
  8
0
 10
-197.511200
 20
-128.167816
 40
1.002184
 50
180.124741
 51
269.875244
  0
ARC
  8
0
 10
-198.109848
 20
-128.666473
 40
1.003531
 50
180.201248
 51
269.798767
  0
ARC
  8
0
 10
-150.432846
 20
-127.169464
 40
1.000534
 50
180.030579
 51
269.969421
  0
ARC
  8
0
 10
-150.432846
 20
-127.669464
 40
1.000534
 50
180.030579
 51
269.969421
  0
ARC
  8
0
 10
-150.819580
 20
-128.166199
 40
1.003807
 50
180.216873
 51
269.783142
  0
ARC
  8
0
 10
-150.819580
 20
-128.666199
 40
1.003807
 50
180.216873
 51
269.783142
  0
ARC
  8
0
 10
-145.361237
 20
-127.172119
 40
0.997866
 50
269.877350
 51
0.122221
  0
ARC
  8
0
 10
-143.529114
 20
-127.674255
 40
0.995752
 50
269.755035
 51
0.244961
  0
ARC
  8
0
 10
-143.270554
 20
-128.172806
 40
0.997196
 50
269.838684
 51
0.161317
  0
ARC
  8
0
 10
-142.671906
 20
-128.671463
 40
0.998521
 50
269.915070
 51
0.084929
  0
POLYLINE
  8
0
 66
     1
  0
VERTEX
  8
0
 10
-66.928505
 20
-59.542938
  0
VERTEX
  8
0
 10
-66.657562
 20
-60.483444
  0
VERTEX
  8
0
 10
-66.415871
 20
-61.411934
  0
VERTEX
  8
0
 10
-66.203590
 20
-62.339882
  0
VERTEX
  8
0
 10
-66.020874
 20
-63.278755
  0
VERTEX
  8
0
 10
-65.867851
 20
-64.240028
  0
VERTEX
  8
0
 10
-65.744682
 20
-65.235168
  0
VERTEX
  8
0
 10
-65.651520
 20
-66.275650
  0
VERTEX
  8
0
 10
-65.588501
 20
-67.372940
  0
VERTEX
  8
0
 10
-65.563721
 20
-68.292015
  0
VERTEX
  8
0
 10
-65.566963
 20
-69.211754
  0
VERTEX
  8
0
 10
-65.597740
 20
-70.131271
  0
VERTEX
  8
0
 10
-65.655586
 20
-71.049675
  0
VERTEX
  8
0
 10
-65.740028
 20
-71.966080
  0
VERTEX
  8
0
 10
-65.850586
 20
-72.879608
  0
VERTEX
  8
0
 10
-65.986786
 20
-73.789360
  0
VERTEX
  8
0
 10
-66.148148
 20
-74.694458
  0
VERTEX
  8
0
 10
-66.334206
 20
-75.594017
  0
VERTEX
  8
0
 10
-66.544487
 20
-76.487137
  0
VERTEX
  8
0
 10
-66.778503
 20
-77.372940
  0
SEQEND
  0
TEXT
  8
0
 10
199.400253
 20
180.830002
 40
6.300000
  1
Ｖｅｒ．２．０
 50
0.000000
 41
0.833333
 51
0.000000
  7
STANDARD
  0
TEXT
  8
0
 10
-240.799713
 20
180.830002
 40
6.300000
  1
FILTER
 50
0.000000
 41
1.052632
 51
0.000000
  7
STANDARD
  0
TEXT
  8
0
 10
-256.000000
 20
157.720001
 40
6.300000
  1
MODEL:MF600-04
 50
0.000000
 41
1.052632
 51
0.000000
  7
STANDARD
  0
TEXT
  8
0
 10
-205.699554
 20
-88.774063
 40
6.300000
  1
OPTION:-F1
 50
0.000000
 41
1.052632
 51
0.000000
  7
STANDARD
  0
TEXT
  8
0
 10
-218.199997
 20
149.720001
 40
6.300000
  1
MMF400-04
 50
0.000000
 41
1.052632
 51
0.000000
  7
STANDARD
  0
TEXT
  8
0
 10
18.083328
 20
53.027023
 40
6.300000
  1
OUT
 50
0.000000
 41
1.052632
 51
0.000000
  7
STANDARD
  0
TEXT
  8
0
 10
-101.583328
 20
53.027069
 40
6.300000
  1
IN
 50
0.000000
 41
1.052632
 51
0.000000
  7
STANDARD
  0
TEXT
  8
0
 10
167.564667
 20
-192.100006
 40
9.000000
  1
KOGANEI CORP.
 50
0.000000
 41
1.052632
 51
0.000000
  7
STANDARD
  0
LINE
  8
0
 10
42.111496
 20
52.027023
 11
17.111496
 21
52.027023
  0
LINE
  8
0
 10
42.111496
 20
52.027023
 11
39.213718
 21
52.803478
  0
LINE
  8
0
 10
42.111496
 20
52.027023
 11
39.213718
 21
51.250565
  0
LINE
  8
0
 10
-82.888504
 20
52.027054
 11
-107.888504
 21
52.027065
  0
LINE
  8
0
 10
-82.888504
 20
52.027054
 11
-85.786278
 21
52.803513
  0
LINE
  8
0
 10
-82.888504
 20
52.027054
 11
-85.786285
 21
51.250599
  0
ENDSEC
  0
EOF
