  0
SECTION
  2
HEADER
  9
$ACADVER
  1
AC1003
  9
$EXTMIN
 10
-3.99250000E+02
 20
-2.76750000E+02
  9
$EXTMAX
 10
3.99799805E+02
 20
2.76250000E+02
  9
$LIMMIN
 10
-3.99251000E+02
 20
-2.76751000E+02
  9
$LIMMAX
 10
3.99800805E+02
 20
2.76251000E+02
  9
$SNAPUNIT
 10
1
 20
1
  9
$SNAPBASE
 10
0
 20
0
  9
$GRIDMODE
 70
0
  9
$GRIDUNIT
 10
0
 20
0
  9
$LTSCALE
 40
1.33174967E+01
  9
$TEXTSIZE
 40
3.2
  9
$DIMTAD
 70
0
  9
$LUNITS
 70
2
  9
$LUPREC
 70
4
  9
$FILLETRAD
 40
0
  9
$AUNITS
 70
0
  9
$AUPREC
 70
0
  0
ENDSEC
  0
SECTION
  2
TABLES
  0
TABLE
  2
LTYPE
 70
2
  0
LTYPE
  2
CONTINUOUS
 70
64
  3
Solid-Line
 72
65
 73
0
 40
0
  0
LTYPE
  2
DASHED
 70
64
  3
DASHED
 72
65
 73
2
 40
.75
 49
.5
 49
-.25
  0
LTYPE
  2
HIDDEN
 70
64
  3
HIDDEN
 72
65
 73
2
 40
.375
 49
.25
 49
-.125
  0
LTYPE
  2
CENTER
 70
64
  3
CENTER
 72
65
 73
4
 40
2
 49
1.25
 49
-.25
 49
.25
 49
-.25
  0
LTYPE
  2
PHANTOM
 70
64
  3
PHANTOM
 72
65
 73
6
 40
2.5
 49
1.25
 49
-.25
 49
.25
 49
-.25
 49
.25
 49
-.25
  0
ENDTAB
  0
TABLE
  2
LAYER
 70
1
  0
LAYER
  2
0
 70
0
 62
3
  6
CONTINUOUS
 0
ENDTAB
  0
TABLE
  2
STYLE
 70
2
  0
STYLE
  2
MONOTXT
 70
0
 40
0
 41
1
 50
0
 71
0
 42
.2
  3
monotxt
  0
STYLE
  2
BIGFONT
 70
0
 40
0
 41
1
 50
0
 71
0
 42
.2
  3
txt
  4
bigfont
  0
ENDTAB
  0
ENDSEC
  0
SECTION
  2
ENTITIES
  0
LINE
  8
0
  6
CENTER
 62
2
 10
-2.65084920E+02
 20
-2.32112926E+01
 11
-1.00644920E+02
 21
-2.32112926E+01
  0
LINE
  8
0
  6
CENTER
 62
2
 10
-1.82864920E+02
 20
3.77887074E+01
 11
-1.82864920E+02
 21
-2.49291293E+02
  0
LINE
  8
0
 62
7
 10
-2.37864920E+02
 20
-6.31912926E+01
 11
-1.27864920E+02
 21
-6.31912926E+01
  0
LINE
  8
0
 62
7
 10
-2.42864920E+02
 20
-4.81912926E+01
 11
-1.22864920E+02
 21
-4.81912926E+01
  0
LINE
  8
0
 62
7
 10
-1.27864920E+02
 20
-4.96912926E+01
 11
-1.27864920E+02
 21
-7.31912926E+01
  0
LINE
  8
0
 62
7
 10
-2.37864920E+02
 20
-4.96912926E+01
 11
-2.37864920E+02
 21
-7.31912926E+01
  0
LINE
  8
0
 62
7
 10
-2.20364920E+02
 20
-5.01912926E+01
 11
-2.20364920E+02
 21
-5.62912926E+01
  0
LINE
  8
0
 62
7
 10
-1.45364920E+02
 20
-5.01912926E+01
 11
-1.45364920E+02
 21
-5.62912926E+01
  0
LINE
  8
0
 62
7
 10
-2.35864920E+02
 20
-5.67912926E+01
 11
-2.20864920E+02
 21
-5.67912926E+01
  0
LINE
  8
0
 62
7
 10
-1.44864920E+02
 20
-5.67912926E+01
 11
-1.29864920E+02
 21
-5.67912926E+01
  0
LINE
  8
0
  6
CENTER
 62
2
 10
-1.37864920E+02
 20
-4.41912926E+01
 11
-1.37864920E+02
 21
-6.07912926E+01
  0
LINE
  8
0
  6
CENTER
 62
2
 10
-2.27864920E+02
 20
-4.41912926E+01
 11
-2.27864920E+02
 21
-6.07912926E+01
  0
LINE
  8
0
 62
7
 10
-2.37864920E+02
 20
-7.31912926E+01
 11
-1.27864920E+02
 21
-7.31912926E+01
  0
LINE
  8
0
 62
7
 10
-2.27864920E+02
 20
-1.63191293E+02
 11
-1.37864920E+02
 21
-1.63191293E+02
  0
LINE
  8
0
 62
7
 10
-2.33804920E+02
 20
-7.51112926E+01
 11
-2.30784920E+02
 21
-1.61531293E+02
  0
LINE
  8
0
 62
7
 10
-1.31924920E+02
 20
-7.51112926E+01
 11
-1.34944920E+02
 21
-1.61531293E+02
  0
LINE
  8
0
 62
7
 10
-2.29284920E+02
 20
-1.64011293E+02
 11
-2.19304920E+02
 21
-1.69771293E+02
  0
LINE
  8
0
 62
7
 10
-1.36444920E+02
 20
-1.64011293E+02
 11
-1.46424920E+02
 21
-1.69771293E+02
  0
LINE
  8
0
 62
7
 10
-2.15364920E+02
 20
-1.70611293E+02
 11
-1.50364920E+02
 21
-1.70611293E+02
  0
LINE
  8
0
  6
CENTER
 62
2
 10
-2.06864920E+02
 20
-1.93191293E+02
 11
-1.58864920E+02
 21
-1.93191293E+02
  0
LINE
  8
0
 62
7
 10
-1.24364920E+02
 20
1.78870739E+00
 11
-1.24364920E+02
 21
-4.81912926E+01
  0
LINE
  8
0
 62
7
 10
-2.41364920E+02
 20
1.78870739E+00
 11
-1.24364920E+02
 21
1.78870739E+00
  0
LINE
  8
0
 62
7
 10
-1.22864920E+02
 20
2.88707391E-01
 11
-1.22864920E+02
 21
-4.81912926E+01
  0
LINE
  8
0
 62
7
 10
-2.42864920E+02
 20
2.88707391E-01
 11
-2.42864920E+02
 21
-4.81912926E+01
  0
LINE
  8
0
 62
7
 10
-2.42864920E+02
 20
2.88707391E-01
 11
-2.41364920E+02
 21
1.78870739E+00
  0
LINE
  8
0
 62
7
 10
-1.24364920E+02
 20
1.78870739E+00
 11
-1.22864920E+02
 21
2.88707391E-01
  0
LINE
  8
0
 62
7
 10
-2.42864920E+02
 20
2.88707391E-01
 11
-1.22864920E+02
 21
2.88707391E-01
  0
LINE
  8
0
 62
7
 10
-2.17084920E+02
 20
-1.21129261E+00
 11
-1.48644920E+02
 21
-1.21129261E+00
  0
LINE
  8
0
 62
7
 10
-1.29864920E+02
 20
-8.21129261E+00
 11
-1.29864920E+02
 21
-3.81912926E+01
  0
LINE
  8
0
 62
7
 10
-1.43864920E+02
 20
-8.21129261E+00
 11
-1.43864920E+02
 21
-3.81912926E+01
  0
LINE
  8
0
 62
7
 10
-2.20284920E+02
 20
-4.81912926E+01
 11
-2.18684920E+02
 21
-2.71129261E+00
  0
LINE
  8
0
 62
7
 10
-1.45444920E+02
 20
-4.81912926E+01
 11
-1.47044920E+02
 21
-2.71129261E+00
  0
LINE
  8
0
 62
7
 10
-2.18684920E+02
 20
-2.71129261E+00
 11
-2.17084920E+02
 21
-1.21129261E+00
  0
LINE
  8
0
 62
7
 10
-1.47024920E+02
 20
-2.71129261E+00
 11
-1.48644920E+02
 21
-1.21129261E+00
  0
LINE
  8
0
 62
7
 10
-2.18684920E+02
 20
-2.71129261E+00
 11
-1.47044920E+02
 21
-2.71129261E+00
  0
LINE
  8
0
 62
7
 10
-1.43864920E+02
 20
-8.21129261E+00
 11
-1.29864920E+02
 21
-8.21129261E+00
  0
LINE
  8
0
 62
7
 10
-1.43864920E+02
 20
-3.81912926E+01
 11
-1.29864920E+02
 21
-3.81912926E+01
  0
LINE
  8
0
 62
7
 10
-1.42984920E+02
 20
-9.03129261E+00
 11
-1.42984920E+02
 21
-3.73512926E+01
  0
LINE
  8
0
 62
7
 10
-1.30744920E+02
 20
-9.03129261E+00
 11
-1.30744920E+02
 21
-3.73512926E+01
  0
LINE
  8
0
 62
7
 10
-1.42984920E+02
 20
-9.03129261E+00
 11
-1.30744920E+02
 21
-9.03129261E+00
  0
LINE
  8
0
 62
7
 10
-1.42984920E+02
 20
-3.73512926E+01
 11
-1.30744920E+02
 21
-3.73512926E+01
  0
LINE
  8
0
 62
7
 10
-1.43864920E+02
 20
-3.81912926E+01
 11
-1.42984920E+02
 21
-3.73512926E+01
  0
LINE
  8
0
 62
7
 10
-1.30744920E+02
 20
-3.73512926E+01
 11
-1.29864920E+02
 21
-3.81912926E+01
  0
LINE
  8
0
 62
7
 10
-1.29864920E+02
 20
-8.21129261E+00
 11
-1.30744920E+02
 21
-9.03129261E+00
  0
LINE
  8
0
 62
7
 10
-1.43864920E+02
 20
-8.21129261E+00
 11
-1.42984920E+02
 21
-9.03129261E+00
  0
LINE
  8
0
 62
7
 10
-2.35864920E+02
 20
-8.21129261E+00
 11
-2.35864920E+02
 21
-3.81912926E+01
  0
LINE
  8
0
 62
7
 10
-2.21864920E+02
 20
-8.21129261E+00
 11
-2.21864920E+02
 21
-3.81912926E+01
  0
LINE
  8
0
 62
7
 10
-2.21864920E+02
 20
-8.21129261E+00
 11
-2.35864920E+02
 21
-8.21129261E+00
  0
LINE
  8
0
 62
7
 10
-2.21864920E+02
 20
-3.81912926E+01
 11
-2.35864920E+02
 21
-3.81912926E+01
  0
LINE
  8
0
 62
7
 10
-2.22744920E+02
 20
-9.03129261E+00
 11
-2.22744920E+02
 21
-3.73512926E+01
  0
LINE
  8
0
 62
7
 10
-2.34984920E+02
 20
-9.03129261E+00
 11
-2.34984920E+02
 21
-3.73512926E+01
  0
LINE
  8
0
 62
7
 10
-2.22744920E+02
 20
-9.03129261E+00
 11
-2.34984920E+02
 21
-9.03129261E+00
  0
LINE
  8
0
 62
7
 10
-2.22744920E+02
 20
-3.73512926E+01
 11
-2.34984920E+02
 21
-3.73512926E+01
  0
LINE
  8
0
 62
7
 10
-2.21864920E+02
 20
-3.81912926E+01
 11
-2.22744920E+02
 21
-3.73512926E+01
  0
LINE
  8
0
 62
7
 10
-2.34984920E+02
 20
-3.73512926E+01
 11
-2.35864920E+02
 21
-3.81912926E+01
  0
LINE
  8
0
 62
7
 10
-2.35864920E+02
 20
-8.21129261E+00
 11
-2.34984920E+02
 21
-9.03129261E+00
  0
LINE
  8
0
 62
7
 10
-2.21864920E+02
 20
-8.21129261E+00
 11
-2.22744920E+02
 21
-9.03129261E+00
  0
LINE
  8
0
 62
7
 10
-2.41364920E+02
 20
1.78870739E+00
 11
-2.41364920E+02
 21
-4.81912926E+01
  0
LINE
  8
0
  6
CENTER
 62
2
 10
-2.17864920E+02
 20
7.46870739E+00
 11
-2.17864920E+02
 21
-2.21129261E+00
  0
LINE
  8
0
  6
CENTER
 62
2
 10
-1.47864920E+02
 20
7.46870739E+00
 11
-1.47864920E+02
 21
-2.21129261E+00
  0
LINE
  8
0
 62
4
 10
-2.23224920E+02
 20
3.46870739E+00
 11
-2.12504920E+02
 21
3.46870739E+00
  0
LINE
  8
0
 62
6
 10
-2.12144920E+02
 20
3.26870739E+00
 11
-2.12144920E+02
 21
1.78870739E+00
  0
LINE
  8
0
 62
6
 10
-2.23584920E+02
 20
3.26870739E+00
 11
-2.23584920E+02
 21
1.78870739E+00
  0
LINE
  8
0
 62
4
 10
-2.24444920E+02
 20
2.76870739E+00
 11
-2.11284920E+02
 21
2.76870739E+00
  0
LINE
  8
0
 62
4
 10
-2.24444920E+02
 20
2.76870739E+00
 11
-2.23224920E+02
 21
3.46870739E+00
  0
LINE
  8
0
 62
4
 10
-2.12504920E+02
 20
3.46870739E+00
 11
-2.11284920E+02
 21
2.76870739E+00
  0
LINE
  8
0
 62
4
 10
-2.24444920E+02
 20
2.76870739E+00
 11
-2.24404920E+02
 21
1.78870739E+00
  0
LINE
  8
0
 62
4
 10
-2.11284920E+02
 20
2.76870739E+00
 11
-2.11304920E+02
 21
1.78870739E+00
  0
LINE
  8
0
  6
PHANTOM
 62
6
 10
-2.31864920E+02
 20
3.17887074E+01
 11
-1.33864920E+02
 21
3.17887074E+01
  0
LINE
  8
0
  6
PHANTOM
 62
6
 10
-2.36864920E+02
 20
2.67887074E+01
 11
-2.36864920E+02
 21
1.78870739E+00
  0
LINE
  8
0
  6
PHANTOM
 62
6
 10
-1.28864920E+02
 20
2.67887074E+01
 11
-1.28864920E+02
 21
1.78870739E+00
  0
LINE
  8
0
  6
PHANTOM
 62
6
 10
-2.31864920E+02
 20
3.17887074E+01
 11
-2.36864920E+02
 21
2.67887074E+01
  0
LINE
  8
0
  6
PHANTOM
 62
6
 10
-1.33864920E+02
 20
3.17887074E+01
 11
-1.28864920E+02
 21
2.67887074E+01
  0
LINE
  8
0
  6
CENTER
 62
6
 10
-2.33604920E+02
 20
2.17887074E+01
 11
-2.12104920E+02
 21
2.17887074E+01
  0
LINE
  8
0
  6
CENTER
 62
6
 10
-2.22864920E+02
 20
3.00487074E+01
 11
-2.22864920E+02
 21
1.35487074E+01
  0
LINE
  8
0
  6
CENTER
 62
6
 10
-2.20364920E+02
 20
3.00487074E+01
 11
-2.20364920E+02
 21
1.35487074E+01
  0
LINE
  8
0
  6
CENTER
 62
6
 10
-2.25364920E+02
 20
3.00487074E+01
 11
-2.25364920E+02
 21
1.35487074E+01
  0
LINE
  8
0
  6
PHANTOM
 62
6
 10
-2.25364920E+02
 20
2.60487074E+01
 11
-2.20364920E+02
 21
2.60487074E+01
  0
LINE
  8
0
  6
PHANTOM
 62
6
 10
-2.25364920E+02
 20
1.75487074E+01
 11
-2.20364920E+02
 21
1.75487074E+01
  0
LINE
  8
0
  6
CENTER
 62
6
 10
-1.45364920E+02
 20
3.00487074E+01
 11
-1.45364920E+02
 21
1.35487074E+01
  0
LINE
  8
0
  6
CENTER
 62
6
 10
-1.42864920E+02
 20
3.00487074E+01
 11
-1.42864920E+02
 21
1.35487074E+01
  0
LINE
  8
0
  6
PHANTOM
 62
6
 10
-1.40364920E+02
 20
2.60487074E+01
 11
-1.45364920E+02
 21
2.60487074E+01
  0
LINE
  8
0
  6
CENTER
 62
6
 10
-1.40364920E+02
 20
3.00487074E+01
 11
-1.40364920E+02
 21
1.35487074E+01
  0
LINE
  8
0
  6
CENTER
 62
6
 10
-1.32104920E+02
 20
2.17887074E+01
 11
-1.53604920E+02
 21
2.17887074E+01
  0
LINE
  8
0
  6
PHANTOM
 62
6
 10
-1.40364920E+02
 20
1.75487074E+01
 11
-1.45364920E+02
 21
1.75487074E+01
  0
LINE
  8
0
 62
7
 10
-1.98244920E+02
 20
-2.23191293E+02
 11
-1.67464920E+02
 21
-2.23191293E+02
  0
LINE
  8
0
 62
7
 10
-2.13864920E+02
 20
-2.13191293E+02
 11
-1.51864920E+02
 21
-2.13191293E+02
  0
LINE
  8
0
 62
7
 10
-2.17804920E+02
 20
-1.72271293E+02
 11
-2.16424920E+02
 21
-2.11531293E+02
  0
LINE
  8
0
 62
7
 10
-1.47924920E+02
 20
-1.72271293E+02
 11
-1.49284920E+02
 21
-2.11531293E+02
  0
LINE
  8
0
 62
7
 10
-2.14944920E+02
 20
-2.14011293E+02
 11
-1.99744920E+02
 21
-2.22791293E+02
  0
LINE
  8
0
 62
7
 10
-1.50784920E+02
 20
-2.14011293E+02
 11
-1.65964920E+02
 21
-2.22791293E+02
  0
LINE
  8
0
 62
4
 10
-1.90444920E+02
 20
-2.28591293E+02
 11
-1.75284920E+02
 21
-2.28591293E+02
  0
LINE
  8
0
 62
4
 10
-1.74784920E+02
 20
-2.23191293E+02
 11
-1.74784920E+02
 21
-2.28091293E+02
  0
LINE
  8
0
 62
4
 10
-1.90944920E+02
 20
-2.23191293E+02
 11
-1.90944920E+02
 21
-2.28091293E+02
  0
LINE
  8
0
 62
4
 10
-1.89604920E+02
 20
-2.43291293E+02
 11
-1.76104920E+02
 21
-2.43291293E+02
  0
LINE
  8
0
 62
4
 10
-1.90604920E+02
 20
-2.30291293E+02
 11
-1.90604920E+02
 21
-2.42291293E+02
  0
LINE
  8
0
 62
4
 10
-1.75104920E+02
 20
-2.30291293E+02
 11
-1.75104920E+02
 21
-2.42291293E+02
  0
LINE
  8
0
 62
4
 10
-1.90604920E+02
 20
-2.42291293E+02
 11
-1.89604920E+02
 21
-2.43291293E+02
  0
LINE
  8
0
 62
4
 10
-1.76104920E+02
 20
-2.43291293E+02
 11
-1.75104920E+02
 21
-2.42291293E+02
  0
LINE
  8
0
 62
4
 10
-1.90464920E+02
 20
-2.32791293E+02
 11
-1.89304920E+02
 21
-2.32791293E+02
  0
LINE
  8
0
 62
4
 10
-1.90104920E+02
 20
-2.29791293E+02
 11
-1.75604920E+02
 21
-2.29791293E+02
  0
LINE
  8
0
 62
4
 10
-1.90604920E+02
 20
-2.30291293E+02
 11
-1.90104920E+02
 21
-2.29791293E+02
  0
LINE
  8
0
 62
4
 10
-1.75604920E+02
 20
-2.29791293E+02
 11
-1.75104920E+02
 21
-2.30291293E+02
  0
LINE
  8
0
 62
4
 10
-1.88864920E+02
 20
-2.28591293E+02
 11
-1.88864920E+02
 21
-2.29791293E+02
  0
LINE
  8
0
 62
4
 10
-1.76864920E+02
 20
-2.28591293E+02
 11
-1.76864920E+02
 21
-2.29791293E+02
  0
LINE
  8
0
 62
4
 10
-1.90944920E+02
 20
-2.28091293E+02
 11
-1.90444920E+02
 21
-2.28591293E+02
  0
LINE
  8
0
 62
4
 10
-1.74784920E+02
 20
-2.28091293E+02
 11
-1.75284920E+02
 21
-2.28591293E+02
  0
LINE
  8
0
 62
4
 10
-1.90944920E+02
 20
-2.28091293E+02
 11
-1.74784920E+02
 21
-2.28091293E+02
  0
LINE
  8
0
 62
4
 10
-1.90604920E+02
 20
-2.30291293E+02
 11
-1.75104920E+02
 21
-2.30291293E+02
  0
LINE
  8
0
 62
4
 10
-1.90464920E+02
 20
-2.33071293E+02
 11
-1.89884920E+02
 21
-2.33071293E+02
  0
LINE
  8
0
 62
4
 10
-1.90604920E+02
 20
-2.42291293E+02
 11
-1.90464920E+02
 21
-2.42291293E+02
  0
LINE
  8
0
 62
4
 10
-1.84364920E+02
 20
-2.32791293E+02
 11
-1.84364920E+02
 21
-2.42291293E+02
  0
LINE
  8
0
 62
4
 10
-1.81364920E+02
 20
-2.32791293E+02
 11
-1.81364920E+02
 21
-2.42291293E+02
  0
LINE
  8
0
 62
4
 10
-1.81364920E+02
 20
-2.32791293E+02
 11
-1.78544920E+02
 21
-2.32791293E+02
  0
LINE
  8
0
 62
4
 10
-1.81024920E+02
 20
-2.33071293E+02
 11
-1.79204920E+02
 21
-2.33071293E+02
  0
LINE
  8
0
 62
4
 10
-1.84364920E+02
 20
-2.42291293E+02
 11
-1.81364920E+02
 21
-2.42291293E+02
  0
LINE
  8
0
 62
4
 10
-1.78544920E+02
 20
-2.42291293E+02
 11
-1.76424920E+02
 21
-2.42291293E+02
  0
LINE
  8
0
 62
4
 10
-1.90104920E+02
 20
-2.42791293E+02
 11
-1.89884920E+02
 21
-2.42791293E+02
  0
LINE
  8
0
 62
4
 10
-1.81024920E+02
 20
-2.33071293E+02
 11
-1.81024920E+02
 21
-2.42791293E+02
  0
LINE
  8
0
 62
4
 10
-1.84704920E+02
 20
-2.33071293E+02
 11
-1.84704920E+02
 21
-2.42791293E+02
  0
LINE
  8
0
 62
4
 10
-1.84704920E+02
 20
-2.42791293E+02
 11
-1.81024920E+02
 21
-2.42791293E+02
  0
LINE
  8
0
 62
4
 10
-1.79204920E+02
 20
-2.42791293E+02
 11
-1.76424920E+02
 21
-2.42791293E+02
  0
LINE
  8
0
 62
4
 10
-1.79204920E+02
 20
-2.33071293E+02
 11
-1.79204920E+02
 21
-2.42791293E+02
  0
LINE
  8
0
 62
4
 10
-1.86524920E+02
 20
-2.33071293E+02
 11
-1.86524920E+02
 21
-2.42791293E+02
  0
LINE
  8
0
 62
4
 10
-1.87184920E+02
 20
-2.32791293E+02
 11
-1.87184920E+02
 21
-2.42291293E+02
  0
LINE
  8
0
 62
4
 10
-1.78544920E+02
 20
-2.32791293E+02
 11
-1.78544920E+02
 21
-2.42291293E+02
  0
LINE
  8
0
 62
4
 10
-1.76424920E+02
 20
-2.32791293E+02
 11
-1.75264920E+02
 21
-2.32791293E+02
  0
LINE
  8
0
 62
4
 10
-1.75844920E+02
 20
-2.33071293E+02
 11
-1.75264920E+02
 21
-2.33071293E+02
  0
LINE
  8
0
 62
4
 10
-1.87184920E+02
 20
-2.32791293E+02
 11
-1.84364920E+02
 21
-2.32791293E+02
  0
LINE
  8
0
 62
4
 10
-1.86524920E+02
 20
-2.33071293E+02
 11
-1.84704920E+02
 21
-2.33071293E+02
  0
LINE
  8
0
 62
4
 10
-1.89304920E+02
 20
-2.42291293E+02
 11
-1.87184920E+02
 21
-2.42291293E+02
  0
LINE
  8
0
 62
4
 10
-1.89304920E+02
 20
-2.42791293E+02
 11
-1.86524920E+02
 21
-2.42791293E+02
  0
LINE
  8
0
 62
4
 10
-1.75264920E+02
 20
-2.42291293E+02
 11
-1.75104920E+02
 21
-2.42291293E+02
  0
LINE
  8
0
 62
4
 10
-1.75844920E+02
 20
-2.42791293E+02
 11
-1.75604920E+02
 21
-2.42791293E+02
  0
LINE
  8
0
 62
4
 10
-1.89304920E+02
 20
-2.32791293E+02
 11
-1.89304920E+02
 21
-2.42791293E+02
  0
LINE
  8
0
 62
4
 10
-1.76424920E+02
 20
-2.32791293E+02
 11
-1.76424920E+02
 21
-2.42791293E+02
  0
LINE
  8
0
 62
4
 10
-1.89884920E+02
 20
-2.33071293E+02
 11
-1.89884920E+02
 21
-2.42791293E+02
  0
LINE
  8
0
 62
4
 10
-1.75844920E+02
 20
-2.33071293E+02
 11
-1.75844920E+02
 21
-2.42791293E+02
  0
LINE
  8
0
 62
4
 10
-1.90464920E+02
 20
-2.32791293E+02
 11
-1.90464920E+02
 21
-2.42291293E+02
  0
LINE
  8
0
 62
4
 10
-1.75264920E+02
 20
-2.32791293E+02
 11
-1.75264920E+02
 21
-2.42291293E+02
  0
LINE
  8
0
 62
4
 10
-1.84704920E+02
 20
-2.33071293E+02
 11
-1.84364920E+02
 21
-2.32791293E+02
  0
LINE
  8
0
 62
4
 10
-1.81364920E+02
 20
-2.32791293E+02
 11
-1.81024920E+02
 21
-2.33071293E+02
  0
LINE
  8
0
 62
4
 10
-1.81364920E+02
 20
-2.42291293E+02
 11
-1.81024920E+02
 21
-2.42791293E+02
  0
LINE
  8
0
 62
4
 10
-1.84364920E+02
 20
-2.42291293E+02
 11
-1.84704920E+02
 21
-2.42791293E+02
  0
LINE
  8
0
 62
4
 10
-1.87184920E+02
 20
-2.32791293E+02
 11
-1.86524920E+02
 21
-2.33071293E+02
  0
LINE
  8
0
 62
4
 10
-1.79204920E+02
 20
-2.33071293E+02
 11
-1.78544920E+02
 21
-2.32791293E+02
  0
LINE
  8
0
 62
4
 10
-1.78544920E+02
 20
-2.42291293E+02
 11
-1.79204920E+02
 21
-2.42791293E+02
  0
LINE
  8
0
 62
4
 10
-1.87184920E+02
 20
-2.42291293E+02
 11
-1.86524920E+02
 21
-2.42791293E+02
  0
LINE
  8
0
 62
4
 10
-1.89864920E+02
 20
-2.33071293E+02
 11
-1.89304920E+02
 21
-2.32851293E+02
  0
LINE
  8
0
 62
4
 10
-1.76424920E+02
 20
-2.32851293E+02
 11
-1.75844920E+02
 21
-2.33071293E+02
  0
LINE
  8
0
 62
4
 10
-1.90464920E+02
 20
-2.42291293E+02
 11
-1.89864920E+02
 21
-2.42791293E+02
  0
LINE
  8
0
 62
4
 10
-1.75264920E+02
 20
-2.42291293E+02
 11
-1.75844920E+02
 21
-2.42791293E+02
  0
LINE
  8
0
 62
4
 10
-1.53224920E+02
 20
3.46870739E+00
 11
-1.42504920E+02
 21
3.46870739E+00
  0
LINE
  8
0
 62
4
 10
-1.54444920E+02
 20
2.76870739E+00
 11
-1.41284920E+02
 21
2.76870739E+00
  0
LINE
  8
0
 62
6
 10
-1.53584920E+02
 20
3.26870739E+00
 11
-1.53584920E+02
 21
1.78870739E+00
  0
LINE
  8
0
 62
4
 10
-1.54444920E+02
 20
2.76870739E+00
 11
-1.54404920E+02
 21
1.78870739E+00
  0
LINE
  8
0
 62
4
 10
-1.54444920E+02
 20
2.76870739E+00
 11
-1.53224920E+02
 21
3.46870739E+00
  0
LINE
  8
0
 62
4
 10
-1.42504920E+02
 20
3.46870739E+00
 11
-1.41284920E+02
 21
2.76870739E+00
  0
LINE
  8
0
 62
4
 10
-1.41284920E+02
 20
2.76870739E+00
 11
-1.41304920E+02
 21
1.78870739E+00
  0
LINE
  8
0
 62
6
 10
-1.42144920E+02
 20
3.26870739E+00
 11
-1.42144920E+02
 21
1.78870739E+00
  0
ARC
  8
0
 62
7
 10
-2.39370478E+02
 20
-4.96968503E+01
 40
1.50556791E+00
 50
2.11502134E-01
 51
8.97884980E+01
  0
ARC
  8
0
 62
7
 10
-1.26366009E+02
 20
-4.96902037E+01
 40
1.49891145E+00
 50
8.99583748E+01
 51
1.80041625E+02
  0
ARC
  8
0
 62
7
 10
-2.20866047E+02
 20
-5.62901655E+01
 40
5.01128377E-01
 50
2.70128867E+02
 51
3.59871133E+02
  0
ARC
  8
0
 62
7
 10
-1.44870479E+02
 20
-5.62968517E+01
 40
4.94472149E-01
 50
1.79355839E+02
 51
2.70644161E+02
  0
ARC
  8
0
 62
7
 10
-2.18366012E+02
 20
-5.01902011E+01
 40
1.99890878E+00
 50
8.99687133E+01
 51
1.80031287E+02
  0
ARC
  8
0
 62
7
 10
-1.47370478E+02
 20
-5.01968502E+01
 40
2.00556525E+00
 50
1.58770572E-01
 51
8.98412296E+01
  0
ARC
  8
0
 62
7
 10
-2.35866008E+02
 20
-5.87902041E+01
 40
1.99891183E+00
 50
8.99688009E+01
 51
1.80031199E+02
  0
ARC
  8
0
 62
7
 10
-1.29870481E+02
 20
-5.87968532E+01
 40
2.00556831E+00
 50
1.58857466E-01
 51
8.98411425E+01
  0
ARC
  8
0
 62
7
 10
-2.35805410E+02
 20
-7.51933606E+01
 40
2.00217287E+00
 50
2.34918226E+00
 51
8.94136260E+01
  0
ARC
  8
0
 62
7
 10
-1.29930838E+02
 20
-7.51867948E+01
 40
1.99551101E+00
 50
8.98300844E+01
 51
1.77831637E+02
  0
ARC
  8
0
 62
7
 10
-2.27795867E+02
 20
-1.61417026E+02
 40
2.99123663E+00
 50
1.82189249E+02
 51
2.40145097E+02
  0
ARC
  8
0
 62
7
 10
-1.37943751E+02
 20
-1.61411113E+02
 40
3.00123789E+00
 50
2.99960588E+02
 51
3.57705066E+02
  0
ARC
  8
0
 62
7
 10
-2.20816147E+02
 20
-1.72378029E+02
 40
3.01311790E+00
 50
2.03005889E+00
 51
5.98974542E+01
  0
ARC
  8
0
 62
7
 10
-1.44923439E+02
 20
-1.72372181E+02
 40
3.00317594E+00
 50
1.19997640E+02
 51
1.78074847E+02
  0
ARC
  8
0
  6
PHANTOM
 62
6
 10
-2.25364920E+02
 20
2.17987074E+01
 40
4.25000521E+00
 50
9.00000002E+01
 51
2.70000000E+02
  0
ARC
  8
0
  6
PHANTOM
 62
6
 10
-2.20364920E+02
 20
2.17987074E+01
 40
4.25000521E+00
 50
2.70000000E+02
 51
9.00000002E+01
  0
ARC
  8
0
  6
PHANTOM
 62
6
 10
-1.45364920E+02
 20
2.17987074E+01
 40
4.25000521E+00
 50
9.00000002E+01
 51
2.70000000E+02
  0
ARC
  8
0
  6
PHANTOM
 62
6
 10
-1.40364920E+02
 20
2.17987074E+01
 40
4.25000521E+00
 50
2.70000000E+02
 51
9.00000002E+01
  0
CIRCLE
  8
0
 62
7
 10
-1.82871577E+02
 20
-1.93195751E+02
 40
1.55000000E+01
  0
CIRCLE
  8
0
 62
7
 10
-1.82871577E+02
 20
-1.93195751E+02
 40
1.99999981E+01
  0
CIRCLE
  8
0
 62
7
 10
-1.82871577E+02
 20
-1.93195751E+02
 40
1.90000000E+01
  0
CIRCLE
  8
0
 62
7
 10
-1.82871577E+02
 20
-1.93195751E+02
 40
1.50000000E+01
  0
ARC
  8
0
 62
7
 10
-2.13442322E+02
 20
-2.11432968E+02
 40
2.98421777E+00
 50
1.81888129E+02
 51
2.39767196E+02
  0
ARC
  8
0
 62
7
 10
-1.98250165E+02
 20
-2.20198461E+02
 40
2.99283573E+00
 50
2.40036753E+02
 51
2.70100413E+02
  0
ARC
  8
0
 62
7
 10
-1.67461901E+02
 20
-2.20190113E+02
 40
3.00118141E+00
 50
2.69942370E+02
 51
2.99920465E+02
  0
ARC
  8
0
 62
7
 10
-1.52286642E+02
 20
-2.11409364E+02
 40
3.00419684E+00
 50
2.99991700E+02
 51
3.57673954E+02
  0
CIRCLE
  8
0
 62
7
 10
-1.87707575E+02
 20
-2.05415080E+02
 40
1.00000000E+00
  0
CIRCLE
  8
0
 62
7
 10
-1.78035578E+02
 20
-2.05415080E+02
 40
1.00000000E+00
  0
LINE
  8
0
 62
7
 10
-2.21371577E+02
 20
-4.92957567E+01
 11
-2.22241577E+02
 21
-4.87957567E+01
  0
LINE
  8
0
 62
7
 10
-2.21371577E+02
 20
-4.92957567E+01
 11
-2.21371577E+02
 21
-5.67957567E+01
  0
LINE
  8
0
 62
7
 10
-2.34371577E+02
 20
-4.92957567E+01
 11
-2.21371577E+02
 21
-4.92957567E+01
  0
LINE
  8
0
 62
7
 10
-2.33501577E+02
 20
-4.87957567E+01
 11
-2.22241577E+02
 21
-4.87957567E+01
  0
LINE
  8
0
 62
7
 10
-2.34371577E+02
 20
-4.92957567E+01
 11
-2.33501577E+02
 21
-4.87957567E+01
  0
LINE
  8
0
 62
7
 10
-2.34371577E+02
 20
-4.92957567E+01
 11
-2.34371577E+02
 21
-5.67957567E+01
  0
LINE
  8
0
 62
7
 10
-1.31371577E+02
 20
-4.92957567E+01
 11
-1.32241577E+02
 21
-4.87957567E+01
  0
LINE
  8
0
 62
7
 10
-1.31371577E+02
 20
-4.92957567E+01
 11
-1.31371577E+02
 21
-5.67957567E+01
  0
LINE
  8
0
 62
7
 10
-1.44371577E+02
 20
-4.92957567E+01
 11
-1.31371577E+02
 21
-4.92957567E+01
  0
LINE
  8
0
 62
7
 10
-1.43501577E+02
 20
-4.87957567E+01
 11
-1.32241577E+02
 21
-4.87957567E+01
  0
LINE
  8
0
 62
7
 10
-1.44371577E+02
 20
-4.92957567E+01
 11
-1.43501577E+02
 21
-4.87957567E+01
  0
LINE
  8
0
 62
7
 10
-1.44371577E+02
 20
-4.92957567E+01
 11
-1.44371577E+02
 21
-5.67957567E+01
  0
ARC
  8
0
 62
7
 10
-1.78041917E+02
 20
-2.05418921E+02
 40
1.51004724E+00
 50
4.74913752E+01
 51
1.94842970E+02
  0
ARC
  8
0
 62
7
 10
-1.82871577E+02
 20
-1.93945751E+02
 40
1.34437532E+01
 50
3.09052512E+02
 51
2.30947488E+02
  0
ARC
  8
0
 62
7
 10
-1.90077673E+02
 20
-2.02836082E+02
 40
1.99973131E+00
 50
2.30799466E+02
 51
3.12698427E+02
  0
ARC
  8
0
 62
7
 10
-1.87701236E+02
 20
-2.05418921E+02
 40
1.51004724E+00
 50
3.45157030E+02
 51
1.32508625E+02
  0
ARC
  8
0
 62
7
 10
-1.75665480E+02
 20
-2.02836082E+02
 40
1.99973131E+00
 50
2.27301573E+02
 51
3.09200534E+02
  0
ARC
  8
0
 62
7
 10
-1.82871577E+02
 20
-1.93195751E+02
 40
1.49908239E+01
 50
2.54999647E+02
 51
2.85000353E+02
  0
LINE
  8
0
 62
7
 10
-1.86241577E+02
 20
-2.05805751E+02
 11
-1.86751577E+02
 21
-2.07675751E+02
  0
LINE
  8
0
 62
7
 10
-1.79501577E+02
 20
-2.05805751E+02
 11
-1.78991577E+02
 21
-2.07675751E+02
  0
LINE
  8
0
 62
4
 10
3.61950800E+01
 20
-2.43291293E+02
 11
3.71950800E+01
 21
-2.42291293E+02
  0
LINE
  8
0
 62
4
 10
2.16950800E+01
 20
-2.42291293E+02
 11
2.26950800E+01
 21
-2.43291293E+02
  0
LINE
  8
0
  6
CENTER
 62
2
 10
2.94350800E+01
 20
7.88870739E+00
 11
2.94350800E+01
 21
-2.49291293E+02
  0
LINE
  8
0
  6
CENTER
 62
2
 10
5.93507998E+00
 20
-2.32112926E+01
 11
5.29350800E+01
 21
-2.32112926E+01
  0
LINE
  8
0
 62
7
 10
5.93507998E+00
 20
1.78870739E+00
 11
5.29350800E+01
 21
1.78870739E+00
  0
LINE
  8
0
 62
7
 10
-2.55649200E+01
 20
-6.31912926E+01
 11
8.44350800E+01
 21
-6.31912926E+01
  0
LINE
  8
0
 62
7
 10
-2.55649200E+01
 20
-5.01912926E+01
 11
-2.55649200E+01
 21
-7.31912926E+01
  0
LINE
  8
0
 62
7
 10
8.44350800E+01
 20
-5.01912926E+01
 11
8.44350800E+01
 21
-7.31912926E+01
  0
LINE
  8
0
 62
7
 10
4.43507998E+00
 20
2.88707391E-01
 11
4.43507998E+00
 21
-4.66912926E+01
  0
LINE
  8
0
 62
7
 10
5.44350800E+01
 20
2.88707391E-01
 11
5.44350800E+01
 21
-4.66912926E+01
  0
LINE
  8
0
 62
7
 10
5.93507998E+00
 20
1.78870739E+00
 11
4.43507998E+00
 21
2.88707391E-01
  0
LINE
  8
0
 62
7
 10
5.29350800E+01
 20
1.78870739E+00
 11
5.44350800E+01
 21
2.88707391E-01
  0
LINE
  8
0
 62
7
 10
4.43507998E+00
 20
2.88707391E-01
 11
5.44350800E+01
 21
2.88707391E-01
  0
LINE
  8
0
 62
7
 10
-1.23649200E+01
 20
-1.21129261E+00
 11
4.43507998E+00
 21
-1.21129261E+00
  0
LINE
  8
0
 62
7
 10
5.44350800E+01
 20
-1.21129261E+00
 11
7.12950800E+01
 21
-1.21129261E+00
  0
LINE
  8
0
 62
7
 10
-1.55049200E+01
 20
-4.62512926E+01
 11
-1.39849200E+01
 21
-2.71129261E+00
  0
LINE
  8
0
 62
7
 10
7.43750800E+01
 20
-4.62512926E+01
 11
7.28550800E+01
 21
-2.75129261E+00
  0
LINE
  8
0
 62
7
 10
-1.39649200E+01
 20
-2.71129261E+00
 11
-1.23649200E+01
 21
-1.21129261E+00
  0
LINE
  8
0
 62
7
 10
7.12950800E+01
 20
-1.21129261E+00
 11
7.28550800E+01
 21
-2.75129261E+00
  0
LINE
  8
0
 62
7
 10
-1.39849200E+01
 20
-2.71129261E+00
 11
4.43507998E+00
 21
-2.71129261E+00
  0
LINE
  8
0
 62
7
 10
7.28550800E+01
 20
-2.75129261E+00
 11
5.44350800E+01
 21
-2.75129261E+00
  0
LINE
  8
0
 62
7
 10
-8.06492002E+00
 20
-5.01912926E+01
 11
-8.06492002E+00
 21
-5.62912926E+01
  0
LINE
  8
0
 62
7
 10
6.69350800E+01
 20
-5.01912926E+01
 11
6.69350800E+01
 21
-5.62912926E+01
  0
LINE
  8
0
 62
7
 10
-2.35649200E+01
 20
-5.67912926E+01
 11
-8.56492002E+00
 21
-5.67912926E+01
  0
LINE
  8
0
 62
7
 10
6.74350800E+01
 20
-5.67912926E+01
 11
8.24350800E+01
 21
-5.67912926E+01
  0
LINE
  8
0
  6
CENTER
 62
2
 10
-1.55649200E+01
 20
-4.41912926E+01
 11
-1.55649200E+01
 21
-6.07912926E+01
  0
LINE
  8
0
  6
CENTER
 62
2
 10
7.44350800E+01
 20
-4.41912926E+01
 11
7.44350800E+01
 21
-6.07912926E+01
  0
LINE
  8
0
 62
7
 10
5.93507998E+00
 20
1.78870739E+00
 11
5.93507998E+00
 21
-4.81912926E+01
  0
LINE
  8
0
 62
7
 10
5.29350800E+01
 20
1.78870739E+00
 11
5.29350800E+01
 21
-4.81912926E+01
  0
LINE
  8
0
 62
7
 10
-2.35649200E+01
 20
-4.81912926E+01
 11
8.24350800E+01
 21
-4.81912926E+01
  0
LINE
  8
0
 62
7
 10
8.44350800E+01
 20
-7.31912926E+01
 11
-2.55649200E+01
 21
-7.31912926E+01
  0
LINE
  8
0
 62
7
 10
4.48350800E+01
 20
-2.23191293E+02
 11
1.40550800E+01
 21
-2.23191293E+02
  0
LINE
  8
0
 62
7
 10
7.44350800E+01
 20
-1.63191293E+02
 11
-1.55649200E+01
 21
-1.63191293E+02
  0
LINE
  8
0
 62
7
 10
8.03750800E+01
 20
-7.51112926E+01
 11
7.73550800E+01
 21
-1.61531293E+02
  0
LINE
  8
0
 62
7
 10
-2.15049200E+01
 20
-7.51112926E+01
 11
-1.84849200E+01
 21
-1.61531293E+02
  0
LINE
  8
0
 62
7
 10
7.58550800E+01
 20
-1.64011293E+02
 11
6.58750800E+01
 21
-1.69771293E+02
  0
LINE
  8
0
 62
7
 10
-1.69849200E+01
 20
-1.64011293E+02
 11
-7.00492002E+00
 21
-1.69771293E+02
  0
LINE
  8
0
 62
7
 10
6.19350800E+01
 20
-1.70611293E+02
 11
-3.06492002E+00
 21
-1.70611293E+02
  0
LINE
  8
0
 62
7
 10
6.04350800E+01
 20
-2.13191293E+02
 11
-1.56492002E+00
 21
-2.13191293E+02
  0
LINE
  8
0
 62
7
 10
6.43750800E+01
 20
-1.72271293E+02
 11
6.30150800E+01
 21
-2.11531293E+02
  0
LINE
  8
0
 62
7
 10
6.15150800E+01
 20
-2.14011293E+02
 11
4.63350800E+01
 21
-2.22791293E+02
  0
LINE
  8
0
 62
7
 10
-2.64492002E+00
 20
-2.14011293E+02
 11
1.25550800E+01
 21
-2.22791293E+02
  0
LINE
  8
0
 62
7
 10
-1.85649200E+01
 20
-1.74191293E+02
 11
-1.85649200E+01
 21
-2.12191293E+02
  0
LINE
  8
0
 62
7
 10
-1.75649200E+01
 20
-2.13191293E+02
 11
-3.80492002E+00
 21
-2.13191293E+02
  0
LINE
  8
0
 62
7
 10
-1.75649200E+01
 20
-1.73191293E+02
 11
-1.23049200E+01
 21
-1.73191293E+02
  0
LINE
  8
0
  6
CENTER
 62
2
 10
-2.25649200E+01
 20
-1.93191293E+02
 11
-7.64920024E-01
 21
-1.93191293E+02
  0
LINE
  8
0
 62
7
 10
-1.85649200E+01
 20
-1.74191293E+02
 11
-1.75649200E+01
 21
-1.73191293E+02
  0
LINE
  8
0
 62
7
 10
-1.75649200E+01
 20
-2.13191293E+02
 11
-1.85649200E+01
 21
-2.12191293E+02
  0
LINE
  8
0
 62
7
 10
-1.75649200E+01
 20
-2.13191293E+02
 11
-1.75649200E+01
 21
-1.73191293E+02
  0
LINE
  8
0
 62
7
 10
-5.50492002E+00
 20
-1.72271293E+02
 11
-4.14492002E+00
 21
-2.11531293E+02
  0
LINE
  8
0
 62
4
 10
3.58750800E+01
 20
-2.32851293E+02
 11
3.64550800E+01
 21
-2.33071293E+02
  0
LINE
  8
0
 62
4
 10
3.70350800E+01
 20
-2.42291293E+02
 11
3.64550800E+01
 21
-2.42791293E+02
  0
LINE
  8
0
 62
4
 10
2.18350800E+01
 20
-2.42291293E+02
 11
2.24150800E+01
 21
-2.42791293E+02
  0
LINE
  8
0
 62
4
 10
2.18550800E+01
 20
-2.28591293E+02
 11
3.70150800E+01
 21
-2.28591293E+02
  0
LINE
  8
0
 62
4
 10
3.75150800E+01
 20
-2.23191293E+02
 11
3.75150800E+01
 21
-2.28091293E+02
  0
LINE
  8
0
 62
4
 10
2.13550800E+01
 20
-2.23191293E+02
 11
2.13550800E+01
 21
-2.28091293E+02
  0
LINE
  8
0
 62
4
 10
2.16950800E+01
 20
-2.30291293E+02
 11
2.16950800E+01
 21
-2.42291293E+02
  0
LINE
  8
0
 62
4
 10
3.71950800E+01
 20
-2.30291293E+02
 11
3.71950800E+01
 21
-2.42291293E+02
  0
LINE
  8
0
 62
4
 10
2.18350800E+01
 20
-2.32791293E+02
 11
2.29950800E+01
 21
-2.32791293E+02
  0
LINE
  8
0
 62
4
 10
2.21950800E+01
 20
-2.29791293E+02
 11
3.66950800E+01
 21
-2.29791293E+02
  0
LINE
  8
0
 62
4
 10
2.16950800E+01
 20
-2.30291293E+02
 11
2.21950800E+01
 21
-2.29791293E+02
  0
LINE
  8
0
 62
4
 10
3.66950800E+01
 20
-2.29791293E+02
 11
3.71950800E+01
 21
-2.30291293E+02
  0
LINE
  8
0
 62
4
 10
2.34350800E+01
 20
-2.28591293E+02
 11
2.34350800E+01
 21
-2.29791293E+02
  0
LINE
  8
0
 62
4
 10
3.54350800E+01
 20
-2.28591293E+02
 11
3.54350800E+01
 21
-2.29791293E+02
  0
LINE
  8
0
 62
4
 10
2.13550800E+01
 20
-2.28091293E+02
 11
2.18550800E+01
 21
-2.28591293E+02
  0
LINE
  8
0
 62
4
 10
3.75150800E+01
 20
-2.28091293E+02
 11
3.70150800E+01
 21
-2.28591293E+02
  0
LINE
  8
0
 62
4
 10
2.13550800E+01
 20
-2.28091293E+02
 11
3.75150800E+01
 21
-2.28091293E+02
  0
LINE
  8
0
 62
4
 10
2.16950800E+01
 20
-2.30291293E+02
 11
3.71950800E+01
 21
-2.30291293E+02
  0
LINE
  8
0
 62
4
 10
2.18350800E+01
 20
-2.33071293E+02
 11
2.24150800E+01
 21
-2.33071293E+02
  0
LINE
  8
0
 62
4
 10
2.16950800E+01
 20
-2.42291293E+02
 11
2.18350800E+01
 21
-2.42291293E+02
  0
LINE
  8
0
 62
4
 10
2.79350800E+01
 20
-2.32791293E+02
 11
2.79350800E+01
 21
-2.42291293E+02
  0
LINE
  8
0
 62
4
 10
3.09350800E+01
 20
-2.32791293E+02
 11
3.09350800E+01
 21
-2.42291293E+02
  0
LINE
  8
0
 62
4
 10
3.09350800E+01
 20
-2.32791293E+02
 11
3.37550800E+01
 21
-2.32791293E+02
  0
LINE
  8
0
 62
4
 10
3.12750800E+01
 20
-2.33071293E+02
 11
3.30950800E+01
 21
-2.33071293E+02
  0
LINE
  8
0
 62
4
 10
2.79350800E+01
 20
-2.42291293E+02
 11
3.09350800E+01
 21
-2.42291293E+02
  0
LINE
  8
0
 62
4
 10
3.37550800E+01
 20
-2.42291293E+02
 11
3.58750800E+01
 21
-2.42291293E+02
  0
LINE
  8
0
 62
4
 10
2.21950800E+01
 20
-2.42791293E+02
 11
2.24150800E+01
 21
-2.42791293E+02
  0
LINE
  8
0
 62
4
 10
3.12750800E+01
 20
-2.33071293E+02
 11
3.12750800E+01
 21
-2.42791293E+02
  0
LINE
  8
0
 62
4
 10
2.75950800E+01
 20
-2.33071293E+02
 11
2.75950800E+01
 21
-2.42791293E+02
  0
LINE
  8
0
 62
4
 10
2.75950800E+01
 20
-2.42791293E+02
 11
3.12750800E+01
 21
-2.42791293E+02
  0
LINE
  8
0
 62
4
 10
3.30950800E+01
 20
-2.42791293E+02
 11
3.58750800E+01
 21
-2.42791293E+02
  0
LINE
  8
0
 62
4
 10
3.30950800E+01
 20
-2.33071293E+02
 11
3.30950800E+01
 21
-2.42791293E+02
  0
LINE
  8
0
 62
4
 10
2.57750800E+01
 20
-2.33071293E+02
 11
2.57750800E+01
 21
-2.42791293E+02
  0
LINE
  8
0
 62
4
 10
2.51150800E+01
 20
-2.32791293E+02
 11
2.51150800E+01
 21
-2.42291293E+02
  0
LINE
  8
0
 62
4
 10
3.37550800E+01
 20
-2.32791293E+02
 11
3.37550800E+01
 21
-2.42291293E+02
  0
LINE
  8
0
 62
4
 10
3.58750800E+01
 20
-2.32791293E+02
 11
3.70350800E+01
 21
-2.32791293E+02
  0
LINE
  8
0
 62
4
 10
3.64550800E+01
 20
-2.33071293E+02
 11
3.70350800E+01
 21
-2.33071293E+02
  0
LINE
  8
0
 62
4
 10
2.51150800E+01
 20
-2.32791293E+02
 11
2.79350800E+01
 21
-2.32791293E+02
  0
LINE
  8
0
 62
4
 10
2.57750800E+01
 20
-2.33071293E+02
 11
2.75950800E+01
 21
-2.33071293E+02
  0
LINE
  8
0
 62
4
 10
2.29950800E+01
 20
-2.42291293E+02
 11
2.51150800E+01
 21
-2.42291293E+02
  0
LINE
  8
0
 62
4
 10
2.29950800E+01
 20
-2.42791293E+02
 11
2.57750800E+01
 21
-2.42791293E+02
  0
LINE
  8
0
 62
4
 10
3.70350800E+01
 20
-2.42291293E+02
 11
3.71950800E+01
 21
-2.42291293E+02
  0
LINE
  8
0
 62
4
 10
3.64550800E+01
 20
-2.42791293E+02
 11
3.66950800E+01
 21
-2.42791293E+02
  0
LINE
  8
0
 62
4
 10
2.29950800E+01
 20
-2.32791293E+02
 11
2.29950800E+01
 21
-2.42791293E+02
  0
LINE
  8
0
 62
4
 10
3.58750800E+01
 20
-2.32791293E+02
 11
3.58750800E+01
 21
-2.42791293E+02
  0
LINE
  8
0
 62
4
 10
2.24150800E+01
 20
-2.33071293E+02
 11
2.24150800E+01
 21
-2.42791293E+02
  0
LINE
  8
0
 62
4
 10
3.64550800E+01
 20
-2.33071293E+02
 11
3.64550800E+01
 21
-2.42791293E+02
  0
LINE
  8
0
 62
4
 10
2.18350800E+01
 20
-2.32791293E+02
 11
2.18350800E+01
 21
-2.42291293E+02
  0
LINE
  8
0
 62
4
 10
3.70350800E+01
 20
-2.32791293E+02
 11
3.70350800E+01
 21
-2.42291293E+02
  0
LINE
  8
0
 62
4
 10
2.75950800E+01
 20
-2.33071293E+02
 11
2.79350800E+01
 21
-2.32791293E+02
  0
LINE
  8
0
 62
4
 10
3.09350800E+01
 20
-2.32791293E+02
 11
3.12750800E+01
 21
-2.33071293E+02
  0
LINE
  8
0
 62
4
 10
3.09350800E+01
 20
-2.42291293E+02
 11
3.12750800E+01
 21
-2.42791293E+02
  0
LINE
  8
0
 62
4
 10
2.79350800E+01
 20
-2.42291293E+02
 11
2.75950800E+01
 21
-2.42791293E+02
  0
LINE
  8
0
 62
4
 10
2.51150800E+01
 20
-2.32791293E+02
 11
2.57750800E+01
 21
-2.33071293E+02
  0
LINE
  8
0
 62
4
 10
3.30950800E+01
 20
-2.33071293E+02
 11
3.37550800E+01
 21
-2.32791293E+02
  0
LINE
  8
0
 62
4
 10
3.37550800E+01
 20
-2.42291293E+02
 11
3.30950800E+01
 21
-2.42791293E+02
  0
LINE
  8
0
 62
4
 10
2.51150800E+01
 20
-2.42291293E+02
 11
2.57750800E+01
 21
-2.42791293E+02
  0
LINE
  8
0
 62
4
 10
2.24150800E+01
 20
-2.33071293E+02
 11
2.29950800E+01
 21
-2.32851293E+02
  0
LINE
  8
0
  6
PHANTOM
 62
6
 10
5.64350800E+01
 20
-4.49912926E+01
 11
1.01435080E+02
 21
-4.49912926E+01
  0
LINE
  8
0
  6
PHANTOM
 62
6
 10
1.06435080E+02
 20
3.17887074E+01
 11
1.06435080E+02
 21
-4.31912926E+01
  0
LINE
  8
0
  6
PHANTOM
 62
6
 10
1.03235080E+02
 20
3.17887074E+01
 11
1.03235080E+02
 21
-4.31912926E+01
  0
LINE
  8
0
  6
PHANTOM
 62
6
 10
1.03235080E+02
 20
3.17887074E+01
 11
1.06435080E+02
 21
3.17887074E+01
  0
LINE
  8
0
  6
PHANTOM
 62
6
 10
1.03235080E+02
 20
2.67887074E+01
 11
1.06435080E+02
 21
2.67887074E+01
  0
LINE
  8
0
  6
PHANTOM
 62
6
 10
8.09350800E+01
 20
-3.74912926E+01
 11
8.09350800E+01
 21
-4.49912926E+01
  0
LINE
  8
0
  6
PHANTOM
 62
6
 10
8.09350800E+01
 20
-3.74912926E+01
 11
8.00750800E+01
 21
-3.69912926E+01
  0
LINE
  8
0
  6
PHANTOM
 62
6
 10
8.00750800E+01
 20
-3.69912926E+01
 11
6.87950800E+01
 21
-3.69912926E+01
  0
LINE
  8
0
  6
PHANTOM
 62
6
 10
8.09350800E+01
 20
-3.74912926E+01
 11
6.79350800E+01
 21
-3.74912926E+01
  0
LINE
  8
0
  6
PHANTOM
 62
6
 10
6.79350800E+01
 20
-3.74912926E+01
 11
6.87950800E+01
 21
-3.69912926E+01
  0
LINE
  8
0
  6
PHANTOM
 62
6
 10
6.79350800E+01
 20
-3.74912926E+01
 11
6.79350800E+01
 21
-4.49912926E+01
  0
LINE
  8
0
  6
PHANTOM
 62
6
 10
5.64350800E+01
 20
-4.49912926E+01
 11
5.64350800E+01
 21
-4.81912926E+01
  0
LINE
  8
0
  6
PHANTOM
 62
6
 10
5.94350800E+01
 20
-4.49912926E+01
 11
5.94350800E+01
 21
-4.81912926E+01
  0
LINE
  8
0
  6
PHANTOM
 62
6
 10
8.24350800E+01
 20
-4.81912926E+01
 11
1.01435080E+02
 21
-4.81912926E+01
  0
LINE
  8
0
 62
4
 10
2.40750800E+01
 20
3.46870739E+00
 11
3.47950800E+01
 21
3.46870739E+00
  0
LINE
  8
0
 62
4
 10
2.28550800E+01
 20
2.76870739E+00
 11
3.60150800E+01
 21
2.76870739E+00
  0
LINE
  8
0
 62
6
 10
2.37150800E+01
 20
3.26870739E+00
 11
2.37150800E+01
 21
1.78870739E+00
  0
LINE
  8
0
 62
4
 10
2.28550800E+01
 20
2.76870739E+00
 11
2.28950800E+01
 21
1.78870739E+00
  0
LINE
  8
0
 62
4
 10
2.28550800E+01
 20
2.76870739E+00
 11
2.40750800E+01
 21
3.46870739E+00
  0
LINE
  8
0
 62
4
 10
3.47950800E+01
 20
3.46870739E+00
 11
3.60150800E+01
 21
2.76870739E+00
  0
LINE
  8
0
 62
4
 10
3.60150800E+01
 20
2.76870739E+00
 11
3.59750800E+01
 21
1.78870739E+00
  0
LINE
  8
0
 62
6
 10
3.51550800E+01
 20
3.26870739E+00
 11
3.51550800E+01
 21
1.78870739E+00
  0
ARC
  8
0
 62
7
 10
-1.74932096E+01
 20
-4.62024374E+01
 40
1.98888967E+00
 50
2.69662644E+02
 51
3.58592442E+02
  0
ARC
  8
0
 62
7
 10
-8.55768349E+00
 20
-5.62985291E+01
 40
4.92816597E-01
 50
2.69158637E+02
 51
8.41363530E-01
  0
ARC
  8
0
 62
7
 10
6.74378971E+01
 20
-5.62884755E+01
 40
5.02825045E-01
 50
1.80321010E+02
 51
2.69678990E+02
  0
ARC
  8
0
 62
7
 10
-2.35577074E+01
 20
-5.01985052E+01
 40
2.00722555E+00
 50
9.02058823E+01
 51
1.79794118E+02
  0
ARC
  8
0
 62
7
 10
8.24378349E+01
 20
-5.01885377E+01
 40
1.99724701E+00
 50
3.59920969E+02
 51
9.00790305E+01
  0
ARC
  8
0
 62
7
 10
-2.35577044E+01
 20
-5.87985082E+01
 40
2.00722860E+00
 50
9.02059688E+01
 51
1.79794031E+02
  0
ARC
  8
0
 62
7
 10
-6.05767688E+00
 20
-5.01985358E+01
 40
2.00725622E+00
 50
9.02067514E+01
 51
1.79793249E+02
  0
ARC
  8
0
 62
7
 10
6.49378349E+01
 20
-5.01885377E+01
 40
1.99724701E+00
 50
3.59920969E+02
 51
9.00790305E+01
  0
ARC
  8
0
 62
7
 10
8.24378318E+01
 20
-5.87885408E+01
 40
1.99725007E+00
 50
3.59921057E+02
 51
9.00789429E+01
  0
CIRCLE
  8
0
 62
7
 10
2.94350800E+01
 20
-2.32112926E+01
 40
2.10000000E+01
  0
ARC
  8
0
 62
7
 10
5.59378653E+01
 20
-4.66885073E+01
 40
1.50278793E+00
 50
1.80106195E+02
 51
2.69893805E+02
  0
ARC
  8
0
 62
7
 10
2.94230337E+00
 20
-4.66985160E+01
 40
1.49279408E+00
 50
2.69722754E+02
 51
2.77246450E-01
  0
ARC
  8
0
 62
7
 10
1.40509370E+01
 20
-2.20194329E+02
 40
2.99696655E+00
 50
2.40057960E+02
 51
2.70079206E+02
  0
ARC
  8
0
 62
7
 10
-1.14074472E+00
 20
-2.11407880E+02
 40
3.00670914E+00
 50
1.82352406E+02
 51
2.39981939E+02
  0
ARC
  8
0
 62
7
 10
4.48392222E+01
 20
-2.20194326E+02
 40
2.99696961E+00
 50
2.69920810E+02
 51
2.99942024E+02
  0
ARC
  8
0
 62
7
 10
8.23771268E+01
 20
-7.51950914E+01
 40
2.00379981E+00
 50
9.00585255E+01
 51
1.77603196E+02
  0
ARC
  8
0
 62
7
 10
-2.34974246E+01
 20
-7.51851516E+01
 40
1.99387304E+00
 50
2.12289070E+00
 51
9.02153882E+01
  0
ARC
  8
0
 62
7
 10
7.43684983E+01
 20
-1.61418521E+02
 40
2.98871003E+00
 50
2.99828075E+02
 51
3.57837580E+02
  0
ARC
  8
0
 62
7
 10
-1.54836588E+01
 20
-1.61409643E+02
 40
3.00372560E+00
 50
1.82321095E+02
 51
2.40013250E+02
  0
ARC
  8
0
 62
7
 10
6.73887574E+01
 20
-1.72379499E+02
 40
3.01561941E+00
 50
1.20128816E+02
 51
1.77943671E+02
  0
ARC
  8
0
 62
7
 10
6.00255670E+01
 20
-2.11416748E+02
 40
2.99170657E+00
 50
2.99859887E+02
 51
3.57805767E+02
  0
ARC
  8
0
 62
7
 10
-1.22875648E+01
 20
-1.70195048E+02
 40
2.99629441E+00
 50
2.69668129E+02
 51
6.03417131E+01
  0
ARC
  8
0
 62
7
 10
-8.50393154E+00
 20
-1.72370700E+02
 40
3.00065856E+00
 50
1.89846278E+00
 51
6.00290500E+01
  0
ARC
  8
0
 62
7
 10
-3.80832991E+00
 20
-2.13689602E+02
 40
4.98321427E-01
 50
3.96997116E+01
 51
8.96079366E+01
  0
ARC
  8
0
  6
PHANTOM
 62
6
 10
1.01442305E+02
 20
-4.31985178E+01
 40
4.99278004E+00
 50
2.69917086E+02
 51
8.29142890E-02
  0
ARC
  8
0
  6
PHANTOM
 62
6
 10
1.01442304E+02
 20
-4.31985164E+01
 40
1.79279073E+00
 50
2.69769134E+02
 51
2.30866738E-01
  0
CIRCLE
  8
0
 62
2
 10
2.94350800E+01
 20
-2.32112926E+01
 40
1.04774990E+01
  0
CIRCLE
  8
0
 62
7
 10
2.94350800E+01
 20
-2.32112926E+01
 40
9.31550026E+00
  0
ARC
  8
0
 62
7
 10
7.63730503E+01
 20
-4.61924572E+01
 40
1.99883644E+00
 50
1.81686735E+02
 51
2.70058179E+02
  0
LINE
  8
0
 62
7
 10
-9.05495664E+00
 20
-4.92957567E+01
 11
-9.92495664E+00
 21
-4.87957567E+01
  0
LINE
  8
0
 62
7
 10
-9.05495664E+00
 20
-4.92957567E+01
 11
-9.05495664E+00
 21
-5.67957567E+01
  0
LINE
  8
0
 62
7
 10
-2.20549566E+01
 20
-4.92957567E+01
 11
-9.05495664E+00
 21
-4.92957567E+01
  0
LINE
  8
0
 62
7
 10
-2.11849566E+01
 20
-4.87957567E+01
 11
-9.92495664E+00
 21
-4.87957567E+01
  0
LINE
  8
0
 62
7
 10
-2.20549566E+01
 20
-4.92957567E+01
 11
-2.11849566E+01
 21
-4.87957567E+01
  0
LINE
  8
0
 62
7
 10
-2.20549566E+01
 20
-4.92957567E+01
 11
-2.20549566E+01
 21
-5.67957567E+01
  0
LINE
  8
0
 62
7
 10
8.09451044E+01
 20
-4.92957567E+01
 11
8.00751044E+01
 21
-4.87957567E+01
  0
LINE
  8
0
 62
7
 10
8.09451044E+01
 20
-4.92957567E+01
 11
8.09451044E+01
 21
-5.67957567E+01
  0
LINE
  8
0
 62
7
 10
6.79451044E+01
 20
-4.92957567E+01
 11
8.09451044E+01
 21
-4.92957567E+01
  0
LINE
  8
0
 62
7
 10
6.88151044E+01
 20
-4.87957567E+01
 11
8.00751044E+01
 21
-4.87957567E+01
  0
LINE
  8
0
 62
7
 10
6.79451044E+01
 20
-4.92957567E+01
 11
6.88151044E+01
 21
-4.87957567E+01
  0
LINE
  8
0
 62
7
 10
6.79451044E+01
 20
-4.92957567E+01
 11
6.79451044E+01
 21
-5.67957567E+01
  0
LINE
  8
0
 62
4
 10
2.26950800E+01
 20
-2.43291293E+02
 11
3.61950800E+01
 21
-2.43291293E+02
  0
LINE
  8
0
  6
CENTER
 62
2
 10
-1.82864920E+02
 20
9.73487074E+01
 11
-1.82864920E+02
 21
2.40348707E+02
  0
LINE
  8
0
  6
CENTER
 62
2
 10
-2.47864920E+02
 20
1.57348707E+02
 11
-1.17864920E+02
 21
1.57348707E+02
  0
LINE
  8
0
 62
7
 10
-1.22864920E+02
 20
1.80848707E+02
 11
-1.22864920E+02
 21
1.33848707E+02
  0
LINE
  8
0
 62
7
 10
-2.42864920E+02
 20
1.80848707E+02
 11
-2.42864920E+02
 21
1.33848707E+02
  0
LINE
  8
0
 62
7
 10
-2.41364920E+02
 20
1.82348707E+02
 11
-1.24364920E+02
 21
1.82348707E+02
  0
LINE
  8
0
 62
7
 10
-2.41364920E+02
 20
1.32348707E+02
 11
-1.24364920E+02
 21
1.32348707E+02
  0
LINE
  8
0
 62
7
 10
-2.42864920E+02
 20
1.80848707E+02
 11
-2.41364920E+02
 21
1.82348707E+02
  0
LINE
  8
0
 62
7
 10
-1.22864920E+02
 20
1.80848707E+02
 11
-1.24364920E+02
 21
1.82348707E+02
  0
LINE
  8
0
 62
7
 10
-1.24364920E+02
 20
1.32348707E+02
 11
-1.22864920E+02
 21
1.33848707E+02
  0
LINE
  8
0
 62
7
 10
-2.42864920E+02
 20
1.33848707E+02
 11
-2.41364920E+02
 21
1.32348707E+02
  0
LINE
  8
0
 62
7
 10
-2.42864920E+02
 20
1.80848707E+02
 11
-1.22864920E+02
 21
1.80848707E+02
  0
LINE
  8
0
 62
7
 10
-2.42864920E+02
 20
1.33848707E+02
 11
-1.22864920E+02
 21
1.33848707E+02
  0
LINE
  8
0
 62
7
 10
-1.24364920E+02
 20
1.32348707E+02
 11
-1.24364920E+02
 21
1.82348707E+02
  0
LINE
  8
0
 62
7
 10
-2.41364920E+02
 20
1.32348707E+02
 11
-2.41364920E+02
 21
1.82348707E+02
  0
LINE
  8
0
 62
7
 10
-2.27864920E+02
 20
1.02348707E+02
 11
-1.37864920E+02
 21
1.02348707E+02
  0
LINE
  8
0
 62
7
 10
-2.27864920E+02
 20
2.12348707E+02
 11
-1.37864920E+02
 21
2.12348707E+02
  0
LINE
  8
0
 62
7
 10
-1.27864920E+02
 20
2.02348707E+02
 11
-1.27864920E+02
 21
1.82348707E+02
  0
LINE
  8
0
 62
7
 10
-2.37864920E+02
 20
2.02348707E+02
 11
-2.37864920E+02
 21
1.82348707E+02
  0
LINE
  8
0
 62
7
 10
-2.37864920E+02
 20
1.32348707E+02
 11
-2.37864920E+02
 21
1.12348707E+02
  0
LINE
  8
0
 62
7
 10
-1.27864920E+02
 20
1.32348707E+02
 11
-1.27864920E+02
 21
1.12348707E+02
  0
LINE
  8
0
  6
CENTER
 62
2
 10
-1.48864920E+02
 20
1.12348707E+02
 11
-1.26864920E+02
 21
1.12348707E+02
  0
LINE
  8
0
  6
CENTER
 62
2
 10
-1.48864920E+02
 20
2.02348707E+02
 11
-1.26864920E+02
 21
2.02348707E+02
  0
LINE
  8
0
  6
CENTER
 62
2
 10
-2.38864920E+02
 20
2.02348707E+02
 11
-2.16864920E+02
 21
2.02348707E+02
  0
LINE
  8
0
  6
CENTER
 62
2
 10
-2.38864920E+02
 20
1.12348707E+02
 11
-2.16864920E+02
 21
1.12348707E+02
  0
LINE
  8
0
  6
CENTER
 62
2
 10
-2.27864920E+02
 20
1.23348707E+02
 11
-2.27864920E+02
 21
1.01348707E+02
  0
LINE
  8
0
  6
CENTER
 62
2
 10
-2.27864920E+02
 20
2.13348707E+02
 11
-2.27864920E+02
 21
1.91348707E+02
  0
LINE
  8
0
  6
CENTER
 62
2
 10
-1.37864920E+02
 20
2.13348707E+02
 11
-1.37864920E+02
 21
1.91348707E+02
  0
LINE
  8
0
  6
CENTER
 62
2
 10
-1.37864920E+02
 20
1.23348707E+02
 11
-1.37864920E+02
 21
1.01348707E+02
  0
LINE
  8
0
 62
7
 10
-1.37864920E+02
 20
1.19848707E+02
 11
-1.29864920E+02
 21
1.19848707E+02
  0
LINE
  8
0
 62
7
 10
-2.27864920E+02
 20
1.19848707E+02
 11
-2.35864920E+02
 21
1.19848707E+02
  0
LINE
  8
0
 62
7
 10
-2.27864920E+02
 20
1.94848707E+02
 11
-2.35864920E+02
 21
1.94848707E+02
  0
LINE
  8
0
 62
7
 10
-1.37864920E+02
 20
1.94848707E+02
 11
-1.29864920E+02
 21
1.94848707E+02
  0
LINE
  8
0
 62
7
 10
-2.20364920E+02
 20
2.02348707E+02
 11
-2.20364920E+02
 21
2.10348707E+02
  0
LINE
  8
0
 62
7
 10
-1.45364920E+02
 20
2.02348707E+02
 11
-1.45364920E+02
 21
2.10348707E+02
  0
LINE
  8
0
 62
7
 10
-1.45364920E+02
 20
1.12348707E+02
 11
-1.45364920E+02
 21
1.04348707E+02
  0
LINE
  8
0
 62
7
 10
-2.20364920E+02
 20
1.12348707E+02
 11
-2.20364920E+02
 21
1.04348707E+02
  0
LINE
  8
0
 62
7
 10
-2.33864920E+02
 20
1.60348707E+02
 11
-2.33864920E+02
 21
1.54348707E+02
  0
LINE
  8
0
 62
7
 10
-2.33864920E+02
 20
1.60348707E+02
 11
-2.25624920E+02
 21
1.57348707E+02
  0
LINE
  8
0
 62
7
 10
-2.33864920E+02
 20
1.54348707E+02
 11
-2.25624920E+02
 21
1.57348707E+02
  0
LINE
  8
0
  6
CENTER
 62
2
 10
-2.17864920E+02
 20
1.67348707E+02
 11
-2.17864920E+02
 21
1.47348707E+02
  0
LINE
  8
0
  6
CENTER
 62
2
 10
-1.47864920E+02
 20
1.67348707E+02
 11
-1.47864920E+02
 21
1.47348707E+02
  0
LINE
  8
0
  6
PHANTOM
 62
6
 10
-2.36864920E+02
 20
2.34348707E+02
 11
-1.28864920E+02
 21
2.34348707E+02
  0
LINE
  8
0
  6
PHANTOM
 62
6
 10
-1.28864920E+02
 20
1.87348707E+02
 11
-1.28864920E+02
 21
2.34348707E+02
  0
LINE
  8
0
  6
PHANTOM
 62
6
 10
-2.36864920E+02
 20
1.87348707E+02
 11
-2.36864920E+02
 21
2.34348707E+02
  0
LINE
  8
0
  6
PHANTOM
 62
6
 10
-2.33864920E+02
 20
1.84348707E+02
 11
-2.21324920E+02
 21
1.84348707E+02
  0
LINE
  8
0
  6
PHANTOM
 62
6
 10
-2.36864920E+02
 20
1.87348707E+02
 11
-2.33864920E+02
 21
1.84348707E+02
  0
LINE
  8
0
  6
PHANTOM
 62
6
 10
-1.31864920E+02
 20
1.84348707E+02
 11
-1.28864920E+02
 21
1.87348707E+02
  0
LINE
  8
0
  6
PHANTOM
 62
6
 10
-2.36864920E+02
 20
2.31148707E+02
 11
-1.28864920E+02
 21
2.31148707E+02
  0
LINE
  8
0
  6
PHANTOM
 62
6
 10
-2.31864920E+02
 20
2.31148707E+02
 11
-2.31864920E+02
 21
2.34348707E+02
  0
LINE
  8
0
  6
PHANTOM
 62
6
 10
-1.33864920E+02
 20
2.31148707E+02
 11
-1.33864920E+02
 21
2.34348707E+02
  0
LINE
  8
0
  6
PHANTOM
 62
6
 10
-1.44384920E+02
 20
1.84348707E+02
 11
-1.31864920E+02
 21
1.84348707E+02
  0
ARC
  8
0
 62
7
 10
-2.27873821E+02
 20
2.02357608E+02
 40
9.99110346E+00
 50
8.99489582E+01
 51
1.80051042E+02
  0
ARC
  8
0
 62
7
 10
-1.37862680E+02
 20
2.02350948E+02
 40
9.99775995E+00
 50
3.59987161E+02
 51
9.00128390E+01
  0
ARC
  8
0
 62
7
 10
-1.37873806E+02
 20
1.12357593E+02
 40
1.00088897E+01
 50
2.70050867E+02
 51
3.59949134E+02
  0
ARC
  8
0
 62
7
 10
-2.27862687E+02
 20
1.12350940E+02
 40
1.00022332E+01
 50
1.80012791E+02
 51
2.69987209E+02
  0
ARC
  8
0
 62
7
 10
-1.82864920E+02
 20
1.57359852E+02
 40
4.49966586E+01
 50
3.37347654E+01
 51
1.46265234E+02
  0
ARC
  8
0
 62
7
 10
-1.82864920E+02
 20
1.57359853E+02
 40
4.50090412E+01
 50
2.13758363E+02
 51
3.26241637E+02
  0
ARC
  8
0
 62
7
 10
-1.82864920E+02
 20
1.57359852E+02
 40
4.23727659E+01
 50
3.61384601E+01
 51
1.43861540E+02
  0
ARC
  8
0
 62
7
 10
-1.82864920E+02
 20
1.57359852E+02
 40
4.36751106E+01
 50
3.49005134E+01
 51
1.45099486E+02
  0
ARC
  8
0
 62
7
 10
-1.82864920E+02
 20
1.57359853E+02
 40
4.23859150E+01
 50
2.16162794E+02
 51
3.23837206E+02
  0
ARC
  8
0
 62
7
 10
-1.82864920E+02
 20
1.57359853E+02
 40
4.36878678E+01
 50
2.14924489E+02
 51
3.25075511E+02
  0
ARC
  8
0
 62
7
 10
-2.27873821E+02
 20
2.02357608E+02
 40
7.50890637E+00
 50
2.70067919E+02
 51
3.59932081E+02
  0
ARC
  8
0
 62
7
 10
-1.37862670E+02
 20
2.02350957E+02
 40
7.50224988E+00
 50
1.80017180E+02
 51
2.69982820E+02
  0
ARC
  8
0
 62
7
 10
-1.37873805E+02
 20
1.12357593E+02
 40
7.49112010E+00
 50
8.99320417E+01
 51
1.80067958E+02
  0
ARC
  8
0
 62
7
 10
-2.27862696E+02
 20
1.12350931E+02
 40
7.49777659E+00
 50
3.59983007E+02
 51
9.00169930E+01
  0
ARC
  8
0
 62
7
 10
-2.18362671E+02
 20
1.04350956E+02
 40
2.00225000E+00
 50
1.80064349E+02
 51
2.69935651E+02
  0
ARC
  8
0
 62
7
 10
-1.47373807E+02
 20
1.04357594E+02
 40
2.00890640E+00
 50
2.70253459E+02
 51
3.59746541E+02
  0
ARC
  8
0
 62
7
 10
-1.29873807E+02
 20
1.21857594E+02
 40
2.00890640E+00
 50
2.70253459E+02
 51
3.59746541E+02
  0
ARC
  8
0
 62
7
 10
-1.29862756E+02
 20
1.92850871E+02
 40
1.99783748E+00
 50
3.59937948E+02
 51
9.00620521E+01
  0
ARC
  8
0
 62
7
 10
-1.47362696E+02
 20
2.10350932E+02
 40
1.99777678E+00
 50
3.59936203E+02
 51
9.00637967E+01
  0
ARC
  8
0
 62
7
 10
-2.18373820E+02
 20
2.10357607E+02
 40
1.99112039E+00
 50
8.97439104E+01
 51
1.80256090E+02
  0
ARC
  8
0
 62
7
 10
-2.35873759E+02
 20
1.92857546E+02
 40
1.99118109E+00
 50
8.97456722E+01
 51
1.80254328E+02
  0
ARC
  8
0
 62
7
 10
-2.35862671E+02
 20
1.21850956E+02
 40
2.00225000E+00
 50
1.80064349E+02
 51
2.69935651E+02
  0
CIRCLE
  8
0
 62
6
 10
-2.17871577E+02
 20
1.57359852E+02
 40
5.72250366E+00
  0
CIRCLE
  8
0
 62
4
 10
-2.17871577E+02
 20
1.57359852E+02
 40
6.57850647E+00
  0
CIRCLE
  8
0
 62
4
 10
-1.47871577E+02
 20
1.57359852E+02
 40
6.57850647E+00
  0
CIRCLE
  8
0
 62
6
 10
-1.47871577E+02
 20
1.57359852E+02
 40
5.72250366E+00
  0
ARC
  8
0
  6
PHANTOM
 62
6
 10
-2.17854920E+02
 20
2.31159781E+02
 40
7.99978202E+00
 50
1.86395291E+02
 51
3.53604709E+02
  0
ARC
  8
0
  6
PHANTOM
 62
6
 10
-2.08924365E+02
 20
2.30162408E+02
 40
9.86299641E-01
 50
9.00000002E+01
 51
1.73812869E+02
  0
ARC
  8
0
  6
PHANTOM
 62
6
 10
-2.26800250E+02
 20
2.30145832E+02
 40
1.00288581E+00
 50
7.03764020E+00
 51
9.02668054E+01
  0
ARC
  8
0
  6
PHANTOM
 62
6
 10
-1.38924365E+02
 20
2.30162408E+02
 40
9.86299641E-01
 50
9.00000002E+01
 51
1.73812869E+02
  0
ARC
  8
0
  6
PHANTOM
 62
6
 10
-1.47854920E+02
 20
2.31159781E+02
 40
7.99978202E+00
 50
1.86395291E+02
 51
3.53604709E+02
  0
ARC
  8
0
  6
PHANTOM
 62
6
 10
-1.56800250E+02
 20
2.30145832E+02
 40
1.00288581E+00
 50
7.03764020E+00
 51
9.02668054E+01
  0
ARC
  8
0
  6
PHANTOM
 62
6
 10
-1.82854920E+02
 20
1.57359851E+02
 40
4.69929706E+01
 50
3.50518075E+01
 51
1.44948192E+02
  0
CIRCLE
  8
0
 62
7
 10
-2.27871577E+02
 20
1.12359822E+02
 40
3.46410084E+00
  0
CIRCLE
  8
0
 62
7
 10
-2.27871577E+02
 20
1.12359822E+02
 40
5.63397503E+00
  0
CIRCLE
  8
0
 62
7
 10
-2.27871577E+02
 20
1.12359822E+02
 40
6.50000000E+00
  0
LINE
  8
0
 62
7
 10
-2.24871577E+02
 20
1.14089822E+02
 11
-2.24871577E+02
 21
1.10629822E+02
  0
LINE
  8
0
 62
7
 10
-2.27871577E+02
 20
1.08899822E+02
 11
-2.24871577E+02
 21
1.10629822E+02
  0
LINE
  8
0
 62
7
 10
-2.30871577E+02
 20
1.10629822E+02
 11
-2.27871577E+02
 21
1.08899822E+02
  0
LINE
  8
0
 62
7
 10
-2.30871577E+02
 20
1.14089822E+02
 11
-2.30871577E+02
 21
1.10629822E+02
  0
LINE
  8
0
 62
7
 10
-2.30871577E+02
 20
1.14089822E+02
 11
-2.27871577E+02
 21
1.15819822E+02
  0
LINE
  8
0
 62
7
 10
-2.27871577E+02
 20
1.15819822E+02
 11
-2.24871577E+02
 21
1.14089822E+02
  0
CIRCLE
  8
0
 62
7
 10
-1.37871577E+02
 20
1.12359822E+02
 40
3.46410084E+00
  0
CIRCLE
  8
0
 62
7
 10
-1.37871577E+02
 20
1.12359822E+02
 40
5.63397503E+00
  0
CIRCLE
  8
0
 62
7
 10
-1.37871577E+02
 20
1.12359822E+02
 40
6.50000000E+00
  0
LINE
  8
0
 62
7
 10
-1.34871577E+02
 20
1.14089822E+02
 11
-1.34871577E+02
 21
1.10629822E+02
  0
LINE
  8
0
 62
7
 10
-1.37871577E+02
 20
1.08899822E+02
 11
-1.34871577E+02
 21
1.10629822E+02
  0
LINE
  8
0
 62
7
 10
-1.40871577E+02
 20
1.10629822E+02
 11
-1.37871577E+02
 21
1.08899822E+02
  0
LINE
  8
0
 62
7
 10
-1.40871577E+02
 20
1.14089822E+02
 11
-1.40871577E+02
 21
1.10629822E+02
  0
LINE
  8
0
 62
7
 10
-1.40871577E+02
 20
1.14089822E+02
 11
-1.37871577E+02
 21
1.15819822E+02
  0
LINE
  8
0
 62
7
 10
-1.37871577E+02
 20
1.15819822E+02
 11
-1.34871577E+02
 21
1.14089822E+02
  0
CIRCLE
  8
0
 62
7
 10
-1.37871577E+02
 20
2.02359852E+02
 40
3.46410084E+00
  0
CIRCLE
  8
0
 62
7
 10
-1.37871577E+02
 20
2.02359852E+02
 40
5.63397503E+00
  0
CIRCLE
  8
0
 62
7
 10
-1.37871577E+02
 20
2.02359852E+02
 40
6.50000000E+00
  0
LINE
  8
0
 62
7
 10
-1.34871577E+02
 20
2.04089852E+02
 11
-1.34871577E+02
 21
2.00629852E+02
  0
LINE
  8
0
 62
7
 10
-1.37871577E+02
 20
1.98899852E+02
 11
-1.34871577E+02
 21
2.00629852E+02
  0
LINE
  8
0
 62
7
 10
-1.40871577E+02
 20
2.00629852E+02
 11
-1.37871577E+02
 21
1.98899852E+02
  0
LINE
  8
0
 62
7
 10
-1.40871577E+02
 20
2.04089852E+02
 11
-1.40871577E+02
 21
2.00629852E+02
  0
LINE
  8
0
 62
7
 10
-1.40871577E+02
 20
2.04089852E+02
 11
-1.37871577E+02
 21
2.05819852E+02
  0
LINE
  8
0
 62
7
 10
-1.37871577E+02
 20
2.05819852E+02
 11
-1.34871577E+02
 21
2.04089852E+02
  0
CIRCLE
  8
0
 62
7
 10
-2.27871577E+02
 20
2.02359852E+02
 40
3.46410084E+00
  0
CIRCLE
  8
0
 62
7
 10
-2.27871577E+02
 20
2.02359852E+02
 40
5.63397503E+00
  0
CIRCLE
  8
0
 62
7
 10
-2.27871577E+02
 20
2.02359852E+02
 40
6.50000000E+00
  0
LINE
  8
0
 62
7
 10
-2.24871577E+02
 20
2.04089852E+02
 11
-2.24871577E+02
 21
2.00629852E+02
  0
LINE
  8
0
 62
7
 10
-2.27871577E+02
 20
1.98899852E+02
 11
-2.24871577E+02
 21
2.00629852E+02
  0
LINE
  8
0
 62
7
 10
-2.30871577E+02
 20
2.00629852E+02
 11
-2.27871577E+02
 21
1.98899852E+02
  0
LINE
  8
0
 62
7
 10
-2.30871577E+02
 20
2.04089852E+02
 11
-2.30871577E+02
 21
2.00629852E+02
  0
LINE
  8
0
 62
7
 10
-2.30871577E+02
 20
2.04089852E+02
 11
-2.27871577E+02
 21
2.05819852E+02
  0
LINE
  8
0
 62
7
 10
-2.27871577E+02
 20
2.05819852E+02
 11
-2.24871577E+02
 21
2.04089852E+02
  0
LINE
  8
0
 62
7
 10
-2.33871577E+02
 20
1.54359852E+02
 11
-2.25631577E+02
 21
1.57359852E+02
  0
LINE
  8
0
 62
7
 10
-2.33871577E+02
 20
1.60359852E+02
 11
-2.25631577E+02
 21
1.57359852E+02
  0
LINE
  8
0
 62
7
 10
-2.33871577E+02
 20
1.60359852E+02
 11
-2.33871577E+02
 21
1.54359852E+02
  0
LINE
  8
0
  6
CENTER
 62
6
 10
1.82555080E+02
 20
3.92487074E+01
 11
2.37555080E+02
 21
3.92487074E+01
  0
LINE
  8
0
  6
CENTER
 62
6
 10
2.80055080E+02
 20
3.32487074E+01
 11
2.80055080E+02
 21
7.24870739E+00
  0
LINE
  8
0
 62
4
 10
2.03395080E+02
 20
1.42487074E+01
 11
2.03475080E+02
 21
1.12487074E+01
  0
LINE
  8
0
 62
6
 10
2.04335080E+02
 20
1.42487074E+01
 11
2.04335080E+02
 21
1.12487074E+01
  0
LINE
  8
0
 62
6
 10
2.15775080E+02
 20
1.42487074E+01
 11
2.15775080E+02
 21
1.12487074E+01
  0
LINE
  8
0
 62
4
 10
2.16735080E+02
 20
1.42487074E+01
 11
2.16635080E+02
 21
1.12487074E+01
  0
LINE
  8
0
  6
CENTER
 62
6
 10
2.10055080E+02
 20
6.62487074E+01
 11
2.10055080E+02
 21
7.24870739E+00
  0
LINE
  8
0
 62
4
 10
1.97555080E+02
 20
3.42687074E+01
 11
2.08595080E+02
 21
3.82887074E+01
  0
LINE
  8
0
 62
4
 10
1.97535080E+02
 20
3.42887074E+01
 11
2.08335080E+02
 21
3.89087074E+01
  0
LINE
  8
0
 62
4
 10
2.17055080E+02
 20
4.26487074E+01
 11
2.17535080E+02
 21
4.15487074E+01
  0
LINE
  8
0
 62
4
 10
2.11475080E+02
 20
4.02687074E+01
 11
2.17055080E+02
 21
4.26487074E+01
  0
LINE
  8
0
 62
4
 10
2.11795080E+02
 20
3.94487074E+01
 11
2.17535080E+02
 21
4.15487074E+01
  0
LINE
  8
0
 62
4
 10
2.73475080E+02
 20
1.22487074E+01
 11
2.73475080E+02
 21
1.12487074E+01
  0
LINE
  8
0
 62
4
 10
2.86635080E+02
 20
1.22487074E+01
 11
2.86635080E+02
 21
1.12487074E+01
  0
LINE
  8
0
 62
4
 10
2.87055080E+02
 20
1.72487074E+01
 11
2.73055080E+02
 21
1.72487074E+01
  0
LINE
  8
0
 62
4
 10
2.73055080E+02
 20
1.72487074E+01
 11
2.71975080E+02
 21
1.66087074E+01
  0
LINE
  8
0
 62
4
 10
2.71975080E+02
 20
1.66087074E+01
 11
2.71975080E+02
 21
1.22487074E+01
  0
LINE
  8
0
 62
4
 10
2.88135080E+02
 20
1.22487074E+01
 11
2.71975080E+02
 21
1.22487074E+01
  0
LINE
  8
0
 62
4
 10
2.76015080E+02
 20
1.66087074E+01
 11
2.76015080E+02
 21
1.22487074E+01
  0
LINE
  8
0
 62
4
 10
2.84095080E+02
 20
1.66087074E+01
 11
2.84095080E+02
 21
1.22487074E+01
  0
LINE
  8
0
 62
4
 10
2.87055080E+02
 20
1.72487074E+01
 11
2.88135080E+02
 21
1.66087074E+01
  0
LINE
  8
0
 62
4
 10
2.88135080E+02
 20
1.66087074E+01
 11
2.88135080E+02
 21
1.22487074E+01
  0
LINE
  8
0
 62
4
 10
2.83555080E+02
 20
2.12487074E+01
 11
2.83555080E+02
 21
1.72487074E+01
  0
LINE
  8
0
 62
4
 10
2.76555080E+02
 20
2.12487074E+01
 11
2.76555080E+02
 21
1.72487074E+01
  0
LINE
  8
0
 62
4
 10
2.84935080E+02
 20
3.02487074E+01
 11
2.75175080E+02
 21
3.02487074E+01
  0
LINE
  8
0
 62
4
 10
2.74315080E+02
 20
2.97487074E+01
 11
2.74315080E+02
 21
2.17487074E+01
  0
LINE
  8
0
 62
4
 10
2.85815080E+02
 20
2.97487074E+01
 11
2.85815080E+02
 21
2.17487074E+01
  0
LINE
  8
0
 62
4
 10
2.82815080E+02
 20
2.97487074E+01
 11
2.82815080E+02
 21
2.17487074E+01
  0
LINE
  8
0
 62
4
 10
2.77315080E+02
 20
2.97487074E+01
 11
2.77315080E+02
 21
2.17487074E+01
  0
LINE
  8
0
 62
4
 10
2.74315080E+02
 20
2.97487074E+01
 11
2.75175080E+02
 21
3.02487074E+01
  0
LINE
  8
0
 62
4
 10
2.85815080E+02
 20
2.97487074E+01
 11
2.84935080E+02
 21
3.02487074E+01
  0
LINE
  8
0
 62
4
 10
2.74315080E+02
 20
2.17487074E+01
 11
2.75175080E+02
 21
2.12487074E+01
  0
LINE
  8
0
 62
4
 10
2.84935080E+02
 20
2.12487074E+01
 11
2.75175080E+02
 21
2.12487074E+01
  0
LINE
  8
0
 62
4
 10
2.85815080E+02
 20
2.17487074E+01
 11
2.84935080E+02
 21
2.12487074E+01
  0
LINE
  8
0
 62
4
 10
2.77315080E+02
 20
4.14887074E+01
 11
2.77315080E+02
 21
3.02487074E+01
  0
LINE
  8
0
 62
4
 10
2.82815080E+02
 20
4.14887074E+01
 11
2.82815080E+02
 21
3.02487074E+01
  0
LINE
  8
0
 62
4
 10
2.27995080E+02
 20
5.19887074E+01
 11
2.72315080E+02
 21
5.19887074E+01
  0
LINE
  8
0
 62
4
 10
2.30835080E+02
 20
4.64887074E+01
 11
2.72315080E+02
 21
4.64887074E+01
  0
LINE
  8
0
 62
4
 10
2.18555080E+02
 20
1.89487074E+01
 11
2.18555080E+02
 21
1.62487074E+01
  0
LINE
  8
0
 62
4
 10
2.01555080E+02
 20
1.89487074E+01
 11
2.01555080E+02
 21
1.62487074E+01
  0
LINE
  8
0
 62
4
 10
2.01555080E+02
 20
1.62487074E+01
 11
2.18555080E+02
 21
1.62487074E+01
  0
LINE
  8
0
 62
4
 10
2.16815080E+02
 20
1.62487074E+01
 11
2.16815080E+02
 21
1.42487074E+01
  0
LINE
  8
0
 62
4
 10
2.03315080E+02
 20
1.62487074E+01
 11
2.03315080E+02
 21
1.42487074E+01
  0
LINE
  8
0
 62
4
 10
2.03315080E+02
 20
1.42487074E+01
 11
2.16815080E+02
 21
1.42487074E+01
  0
CIRCLE
  8
0
 62
4
 10
2.10066473E+02
 20
3.92487074E+01
 40
2.20000000E+01
  0
CIRCLE
  8
0
 62
4
 10
2.10066473E+02
 20
3.92487074E+01
 40
2.05000000E+01
  0
CIRCLE
  8
0
 62
4
 10
2.10066473E+02
 20
3.92487074E+01
 40
1.45000000E+01
  0
CIRCLE
  8
0
 62
4
 10
2.10066473E+02
 20
3.92487074E+01
 40
1.50000000E+00
  0
CIRCLE
  8
0
 62
4
 10
2.10066473E+02
 20
3.92487074E+01
 40
1.75000012E+00
  0
ARC
  8
0
 62
4
 10
1.97556816E+02
 20
3.42904437E+01
 40
2.18055625E-02
 50
1.84567156E+02
 51
2.65432843E+02
  0
ARC
  8
0
 62
4
 10
2.73993046E+02
 20
1.36714198E+01
 40
3.56598922E+00
 50
5.54564085E+01
 51
1.15549288E+02
  0
ARC
  8
0
 62
4
 10
2.80055080E+02
 20
3.87391643E+00
 40
1.33602583E+01
 50
7.23988295E+01
 51
1.07601170E+02
  0
ARC
  8
0
 62
4
 10
2.86125847E+02
 20
1.36703351E+01
 40
3.57184051E+00
 50
6.42951511E+01
 51
1.24649109E+02
  0
ARC
  8
0
 62
4
 10
2.80065080E+02
 20
2.24362378E+01
 40
7.81247154E+00
 50
6.93902287E+01
 51
1.10609772E+02
  0
ARC
  8
0
 62
4
 10
2.75833251E+02
 20
2.77467937E+01
 40
2.49067771E+00
 50
5.34909248E+01
 51
1.13625875E+02
  0
ARC
  8
0
 62
4
 10
2.84296945E+02
 20
2.77464729E+01
 40
2.49095711E+00
 50
6.63778453E+01
 51
1.26505355E+02
  0
ARC
  8
0
 62
4
 10
2.75815028E+02
 20
2.37484719E+01
 40
2.49984293E+00
 50
2.46920763E+02
 51
3.06874092E+02
  0
ARC
  8
0
 62
4
 10
2.80065080E+02
 20
2.90611465E+01
 40
7.81244297E+00
 50
2.49390150E+02
 51
2.90609851E+02
  0
ARC
  8
0
 62
4
 10
2.84315171E+02
 20
2.37487967E+01
 40
2.50012629E+00
 50
2.33129654E+02
 51
2.93075491E+02
  0
ARC
  8
0
 62
4
 10
2.72320744E+02
 20
4.14943714E+01
 40
4.99433920E+00
 50
3.59935022E+02
 51
9.00649782E+01
  0
ARC
  8
0
 62
4
 10
2.72320745E+02
 20
4.14943724E+01
 40
1.04943365E+01
 50
3.59969071E+02
 51
9.00309290E+01
  0
LINE
  8
0
 62
4
 10
2.37475080E+02
 20
-1.59871293E+02
 11
2.52635080E+02
 21
-1.59871293E+02
  0
LINE
  8
0
 62
4
 10
2.53135080E+02
 20
-1.54471293E+02
 11
2.53135080E+02
 21
-1.59371293E+02
  0
LINE
  8
0
 62
4
 10
2.36975080E+02
 20
-1.54471293E+02
 11
2.36975080E+02
 21
-1.59371293E+02
  0
LINE
  8
0
 62
4
 10
2.38315080E+02
 20
-1.74571293E+02
 11
2.51815080E+02
 21
-1.74571293E+02
  0
LINE
  8
0
 62
4
 10
2.37315080E+02
 20
-1.61571293E+02
 11
2.37315080E+02
 21
-1.73571293E+02
  0
LINE
  8
0
 62
4
 10
2.52815080E+02
 20
-1.61571293E+02
 11
2.52815080E+02
 21
-1.73571293E+02
  0
LINE
  8
0
 62
4
 10
2.37315080E+02
 20
-1.73571293E+02
 11
2.38315080E+02
 21
-1.74571293E+02
  0
LINE
  8
0
 62
4
 10
2.51815080E+02
 20
-1.74571293E+02
 11
2.52815080E+02
 21
-1.73571293E+02
  0
LINE
  8
0
 62
4
 10
2.37455080E+02
 20
-1.64071293E+02
 11
2.38615080E+02
 21
-1.64071293E+02
  0
LINE
  8
0
 62
4
 10
2.37815080E+02
 20
-1.61071293E+02
 11
2.52315080E+02
 21
-1.61071293E+02
  0
LINE
  8
0
 62
4
 10
2.37315080E+02
 20
-1.61571293E+02
 11
2.37815080E+02
 21
-1.61071293E+02
  0
LINE
  8
0
 62
4
 10
2.52315080E+02
 20
-1.61071293E+02
 11
2.52815080E+02
 21
-1.61571293E+02
  0
LINE
  8
0
 62
4
 10
2.39055080E+02
 20
-1.59871293E+02
 11
2.39055080E+02
 21
-1.61071293E+02
  0
LINE
  8
0
 62
4
 10
2.51055080E+02
 20
-1.59871293E+02
 11
2.51055080E+02
 21
-1.61071293E+02
  0
LINE
  8
0
 62
4
 10
2.36975080E+02
 20
-1.59371293E+02
 11
2.37475080E+02
 21
-1.59871293E+02
  0
LINE
  8
0
 62
4
 10
2.53135080E+02
 20
-1.59371293E+02
 11
2.52635080E+02
 21
-1.59871293E+02
  0
LINE
  8
0
 62
4
 10
2.36975080E+02
 20
-1.59371293E+02
 11
2.53135080E+02
 21
-1.59371293E+02
  0
LINE
  8
0
 62
4
 10
2.37315080E+02
 20
-1.61571293E+02
 11
2.52815080E+02
 21
-1.61571293E+02
  0
LINE
  8
0
 62
4
 10
2.39055080E+02
 20
-1.75971293E+02
 11
2.51055080E+02
 21
-1.75971293E+02
  0
LINE
  8
0
 62
4
 10
2.38555080E+02
 20
-1.74571293E+02
 11
2.38555080E+02
 21
-1.75471293E+02
  0
LINE
  8
0
 62
4
 10
2.51555080E+02
 20
-1.74571293E+02
 11
2.51555080E+02
 21
-1.75471293E+02
  0
LINE
  8
0
 62
4
 10
2.38555080E+02
 20
-1.75471293E+02
 11
2.39055080E+02
 21
-1.75971293E+02
  0
LINE
  8
0
 62
4
 10
2.51555080E+02
 20
-1.75471293E+02
 11
2.51055080E+02
 21
-1.75971293E+02
  0
LINE
  8
0
 62
4
 10
2.38555080E+02
 20
-1.75471293E+02
 11
2.51555080E+02
 21
-1.75471293E+02
  0
LINE
  8
0
 62
4
 10
2.37455080E+02
 20
-1.64371293E+02
 11
2.38055080E+02
 21
-1.64371293E+02
  0
LINE
  8
0
 62
4
 10
2.37315080E+02
 20
-1.73571293E+02
 11
2.37455080E+02
 21
-1.73571293E+02
  0
LINE
  8
0
 62
4
 10
2.43555080E+02
 20
-1.64071293E+02
 11
2.43555080E+02
 21
-1.73571293E+02
  0
LINE
  8
0
 62
4
 10
2.46555080E+02
 20
-1.64071293E+02
 11
2.46555080E+02
 21
-1.73571293E+02
  0
LINE
  8
0
 62
4
 10
2.46555080E+02
 20
-1.64071293E+02
 11
2.49375080E+02
 21
-1.64071293E+02
  0
LINE
  8
0
 62
4
 10
2.46895080E+02
 20
-1.64371293E+02
 11
2.48715080E+02
 21
-1.64371293E+02
  0
LINE
  8
0
 62
4
 10
2.43555080E+02
 20
-1.73571293E+02
 11
2.46555080E+02
 21
-1.73571293E+02
  0
LINE
  8
0
 62
4
 10
2.49375080E+02
 20
-1.73571293E+02
 11
2.51495080E+02
 21
-1.73571293E+02
  0
LINE
  8
0
 62
4
 10
2.37815080E+02
 20
-1.74071293E+02
 11
2.38055080E+02
 21
-1.74071293E+02
  0
LINE
  8
0
 62
4
 10
2.46895080E+02
 20
-1.64371293E+02
 11
2.46895080E+02
 21
-1.74071293E+02
  0
LINE
  8
0
 62
4
 10
2.43215080E+02
 20
-1.64371293E+02
 11
2.43215080E+02
 21
-1.74071293E+02
  0
LINE
  8
0
 62
4
 10
2.43215080E+02
 20
-1.74071293E+02
 11
2.46895080E+02
 21
-1.74071293E+02
  0
LINE
  8
0
 62
4
 10
2.48715080E+02
 20
-1.74071293E+02
 11
2.51495080E+02
 21
-1.74071293E+02
  0
LINE
  8
0
 62
4
 10
2.48715080E+02
 20
-1.64371293E+02
 11
2.48715080E+02
 21
-1.74071293E+02
  0
LINE
  8
0
 62
4
 10
2.41395080E+02
 20
-1.64371293E+02
 11
2.41395080E+02
 21
-1.74071293E+02
  0
LINE
  8
0
 62
4
 10
2.40735080E+02
 20
-1.64071293E+02
 11
2.40735080E+02
 21
-1.73571293E+02
  0
LINE
  8
0
 62
4
 10
2.49375080E+02
 20
-1.64071293E+02
 11
2.49375080E+02
 21
-1.73571293E+02
  0
LINE
  8
0
 62
4
 10
2.51495080E+02
 20
-1.64071293E+02
 11
2.52655080E+02
 21
-1.64071293E+02
  0
LINE
  8
0
 62
4
 10
2.52075080E+02
 20
-1.64371293E+02
 11
2.52655080E+02
 21
-1.64371293E+02
  0
LINE
  8
0
 62
4
 10
2.40735080E+02
 20
-1.64071293E+02
 11
2.43555080E+02
 21
-1.64071293E+02
  0
LINE
  8
0
 62
4
 10
2.41395080E+02
 20
-1.64371293E+02
 11
2.43215080E+02
 21
-1.64371293E+02
  0
LINE
  8
0
 62
4
 10
2.38615080E+02
 20
-1.73571293E+02
 11
2.40735080E+02
 21
-1.73571293E+02
  0
LINE
  8
0
 62
4
 10
2.38615080E+02
 20
-1.74071293E+02
 11
2.41395080E+02
 21
-1.74071293E+02
  0
LINE
  8
0
 62
4
 10
2.52655080E+02
 20
-1.73571293E+02
 11
2.52815080E+02
 21
-1.73571293E+02
  0
LINE
  8
0
 62
4
 10
2.52075080E+02
 20
-1.74071293E+02
 11
2.52315080E+02
 21
-1.74071293E+02
  0
LINE
  8
0
 62
4
 10
2.38615080E+02
 20
-1.64071293E+02
 11
2.38615080E+02
 21
-1.74071293E+02
  0
LINE
  8
0
 62
4
 10
2.51495080E+02
 20
-1.64071293E+02
 11
2.51495080E+02
 21
-1.74071293E+02
  0
LINE
  8
0
 62
4
 10
2.38055080E+02
 20
-1.64371293E+02
 11
2.38055080E+02
 21
-1.74071293E+02
  0
LINE
  8
0
 62
4
 10
2.52075080E+02
 20
-1.64371293E+02
 11
2.52075080E+02
 21
-1.74071293E+02
  0
LINE
  8
0
 62
4
 10
2.37455080E+02
 20
-1.64071293E+02
 11
2.37455080E+02
 21
-1.73571293E+02
  0
LINE
  8
0
 62
4
 10
2.52655080E+02
 20
-1.64071293E+02
 11
2.52655080E+02
 21
-1.73571293E+02
  0
LINE
  8
0
 62
4
 10
2.43215080E+02
 20
-1.64371293E+02
 11
2.43555080E+02
 21
-1.64071293E+02
  0
LINE
  8
0
 62
4
 10
2.46555080E+02
 20
-1.64071293E+02
 11
2.46895080E+02
 21
-1.64371293E+02
  0
LINE
  8
0
 62
4
 10
2.46555080E+02
 20
-1.73571293E+02
 11
2.46895080E+02
 21
-1.74071293E+02
  0
LINE
  8
0
 62
4
 10
2.43555080E+02
 20
-1.73571293E+02
 11
2.43215080E+02
 21
-1.74071293E+02
  0
LINE
  8
0
 62
4
 10
2.40735080E+02
 20
-1.64071293E+02
 11
2.41395080E+02
 21
-1.64371293E+02
  0
LINE
  8
0
 62
4
 10
2.48715080E+02
 20
-1.64371293E+02
 11
2.49375080E+02
 21
-1.64071293E+02
  0
LINE
  8
0
 62
4
 10
2.49375080E+02
 20
-1.73571293E+02
 11
2.48715080E+02
 21
-1.74071293E+02
  0
LINE
  8
0
 62
4
 10
2.40735080E+02
 20
-1.73571293E+02
 11
2.41395080E+02
 21
-1.74071293E+02
  0
LINE
  8
0
 62
4
 10
2.38055080E+02
 20
-1.64371293E+02
 11
2.38615080E+02
 21
-1.64151293E+02
  0
LINE
  8
0
 62
4
 10
2.51495080E+02
 20
-1.64151293E+02
 11
2.52075080E+02
 21
-1.64371293E+02
  0
LINE
  8
0
 62
4
 10
2.37455080E+02
 20
-1.73571293E+02
 11
2.38055080E+02
 21
-1.74071293E+02
  0
LINE
  8
0
 62
4
 10
2.52655080E+02
 20
-1.73571293E+02
 11
2.52075080E+02
 21
-1.74071293E+02
  0
LINE
  8
0
 62
4
 10
2.42215080E+02
 20
-1.75971293E+02
 11
2.42215080E+02
 21
-1.77871293E+02
  0
LINE
  8
0
 62
4
 10
2.41815080E+02
 20
-1.77871293E+02
 11
2.48315080E+02
 21
-1.77871293E+02
  0
LINE
  8
0
 62
4
 10
2.41815080E+02
 20
-1.77871293E+02
 11
2.42275080E+02
 21
-1.80471293E+02
  0
LINE
  8
0
 62
4
 10
2.41815080E+02
 20
-1.80471293E+02
 11
2.48315080E+02
 21
-1.80471293E+02
  0
LINE
  8
0
 62
4
 10
2.41815080E+02
 20
-1.80471293E+02
 11
2.42275080E+02
 21
-1.83071293E+02
  0
LINE
  8
0
 62
4
 10
2.42275080E+02
 20
-1.83071293E+02
 11
2.47855080E+02
 21
-1.83071293E+02
  0
LINE
  8
0
 62
4
 10
2.48315080E+02
 20
-1.80471293E+02
 11
2.47855080E+02
 21
-1.83071293E+02
  0
LINE
  8
0
 62
4
 10
2.48315080E+02
 20
-1.77871293E+02
 11
2.47855080E+02
 21
-1.80471293E+02
  0
LINE
  8
0
 62
4
 10
2.47915080E+02
 20
-1.75971293E+02
 11
2.47915080E+02
 21
-1.77871293E+02
  0
TEXT
  8
0
 62
7
 10
2.72403769E+02
 20
-1.83998354E+02
 40
6.30000019E+00
  1
-F1,-A
 41
1.00000000E+00
  7
MONOTXT
  0
TEXT
  8
0
 62
7
 10
2.35899989E+02
 20
7.61000389E+01
 40
6.30000019E+00
  1
-DU
 41
1.00000000E+00
  7
MONOTXT
  0
TEXT
  8
0
 62
7
 10
-3.58000282E+02
 20
2.58100000E+02
 40
6.30000019E+00
  1
MIST FILTER
 41
1.05769231E+00
  7
MONOTXT
  0
LINE
  8
0
 62
7
 10
-2.49250000E+02
 20
2.76250000E+02
 11
-2.49250000E+02
 21
2.56250000E+02
  0
LINE
  8
0
 62
7
 10
-3.99250000E+02
 20
2.56250000E+02
 11
-2.49250000E+02
 21
2.56250000E+02
  0
TEXT
  8
0
 62
7
 10
-3.95800283E+02
 20
2.68100000E+02
 40
6.30000019E+00
  1
F.R.L.LARGE FLOW SERIES
 41
1.05504587E+00
  7
MONOTXT
  0
LINE
  8
0
 62
7
 10
1.86555080E+02
 20
1.12487074E+01
 11
3.03555080E+02
 21
1.12487074E+01
  0
LINE
  8
0
 62
7
 10
3.05055080E+02
 20
9.74870739E+00
 11
3.05055080E+02
 21
-2.87512926E+01
  0
LINE
  8
0
 62
7
 10
1.85055080E+02
 20
9.74870739E+00
 11
1.85055080E+02
 21
-2.87512926E+01
  0
LINE
  8
0
 62
7
 10
1.85055080E+02
 20
9.74870739E+00
 11
1.86555080E+02
 21
1.12487074E+01
  0
LINE
  8
0
 62
7
 10
3.03555080E+02
 20
1.12487074E+01
 11
3.05055080E+02
 21
9.74870739E+00
  0
LINE
  8
0
 62
7
 10
1.85055080E+02
 20
9.74870739E+00
 11
3.05055080E+02
 21
9.74870739E+00
  0
LINE
  8
0
 62
7
 10
2.10835080E+02
 20
8.24870739E+00
 11
2.79275080E+02
 21
8.24870739E+00
  0
LINE
  8
0
 62
7
 10
2.98055080E+02
 20
1.24870739E+00
 11
2.98055080E+02
 21
-2.87512926E+01
  0
LINE
  8
0
 62
7
 10
2.84055080E+02
 20
1.24870739E+00
 11
2.84055080E+02
 21
-2.87512926E+01
  0
LINE
  8
0
 62
7
 10
2.07995080E+02
 20
-2.87512926E+01
 11
2.09235080E+02
 21
6.74870739E+00
  0
LINE
  8
0
 62
7
 10
2.82135080E+02
 20
-2.87512926E+01
 11
2.80895080E+02
 21
6.74870739E+00
  0
LINE
  8
0
 62
7
 10
2.09235080E+02
 20
6.74870739E+00
 11
2.10835080E+02
 21
8.24870739E+00
  0
LINE
  8
0
 62
7
 10
2.80895080E+02
 20
6.74870739E+00
 11
2.79275080E+02
 21
8.24870739E+00
  0
LINE
  8
0
 62
7
 10
2.09235080E+02
 20
6.74870739E+00
 11
2.80895080E+02
 21
6.74870739E+00
  0
LINE
  8
0
 62
7
 10
2.84055080E+02
 20
1.24870739E+00
 11
2.98055080E+02
 21
1.24870739E+00
  0
LINE
  8
0
 62
7
 10
2.84055080E+02
 20
-2.87512926E+01
 11
2.98055080E+02
 21
-2.87512926E+01
  0
LINE
  8
0
 62
7
 10
2.84935080E+02
 20
4.08707391E-01
 11
2.84935080E+02
 21
-2.79112926E+01
  0
LINE
  8
0
 62
7
 10
2.97175080E+02
 20
4.08707391E-01
 11
2.97175080E+02
 21
-2.79112926E+01
  0
LINE
  8
0
 62
7
 10
2.84935080E+02
 20
4.08707391E-01
 11
2.97175080E+02
 21
4.08707391E-01
  0
LINE
  8
0
 62
7
 10
2.84935080E+02
 20
-2.79112926E+01
 11
2.97175080E+02
 21
-2.79112926E+01
  0
LINE
  8
0
 62
7
 10
2.84055080E+02
 20
-2.87512926E+01
 11
2.84935080E+02
 21
-2.79112926E+01
  0
LINE
  8
0
 62
7
 10
2.97175080E+02
 20
-2.79112926E+01
 11
2.98055080E+02
 21
-2.87512926E+01
  0
LINE
  8
0
 62
7
 10
2.98055080E+02
 20
1.24870739E+00
 11
2.97175080E+02
 21
4.08707391E-01
  0
LINE
  8
0
 62
7
 10
2.84055080E+02
 20
1.24870739E+00
 11
2.84935080E+02
 21
4.08707391E-01
  0
LINE
  8
0
 62
7
 10
1.92055080E+02
 20
1.24870739E+00
 11
1.92055080E+02
 21
-2.87512926E+01
  0
LINE
  8
0
 62
7
 10
2.06055080E+02
 20
1.24870739E+00
 11
2.06055080E+02
 21
-2.87512926E+01
  0
LINE
  8
0
 62
7
 10
2.06055080E+02
 20
1.24870739E+00
 11
1.92055080E+02
 21
1.24870739E+00
  0
LINE
  8
0
 62
7
 10
2.06055080E+02
 20
-2.87512926E+01
 11
1.92055080E+02
 21
-2.87512926E+01
  0
LINE
  8
0
 62
7
 10
2.05175080E+02
 20
4.08707391E-01
 11
2.05175080E+02
 21
-2.79112926E+01
  0
LINE
  8
0
 62
7
 10
1.92935080E+02
 20
4.08707391E-01
 11
1.92935080E+02
 21
-2.79112926E+01
  0
LINE
  8
0
 62
7
 10
2.05175080E+02
 20
4.08707391E-01
 11
1.92935080E+02
 21
4.08707391E-01
  0
LINE
  8
0
 62
7
 10
2.05175080E+02
 20
-2.79112926E+01
 11
1.92935080E+02
 21
-2.79112926E+01
  0
LINE
  8
0
 62
7
 10
2.06055080E+02
 20
-2.87512926E+01
 11
2.05175080E+02
 21
-2.79112926E+01
  0
LINE
  8
0
 62
7
 10
1.92935080E+02
 20
-2.79112926E+01
 11
1.92055080E+02
 21
-2.87512926E+01
  0
LINE
  8
0
 62
7
 10
1.92055080E+02
 20
1.24870739E+00
 11
1.92935080E+02
 21
4.08707391E-01
  0
LINE
  8
0
 62
7
 10
2.06055080E+02
 20
1.24870739E+00
 11
2.05175080E+02
 21
4.08707391E-01
  0
LINE
  8
0
 62
7
 10
2.29675080E+02
 20
-1.54471293E+02
 11
2.60455080E+02
 21
-1.54471293E+02
  0
LINE
  8
0
 62
7
 10
2.14055080E+02
 20
-1.44471293E+02
 11
2.76055080E+02
 21
-1.44471293E+02
  0
LINE
  8
0
 62
7
 10
2.10675080E+02
 20
-1.19291293E+02
 11
2.11495080E+02
 21
-1.42811293E+02
  0
LINE
  8
0
 62
7
 10
2.79455080E+02
 20
-1.19291293E+02
 11
2.78635080E+02
 21
-1.42811293E+02
  0
LINE
  8
0
 62
7
 10
2.12995080E+02
 20
-1.45311293E+02
 11
2.28175080E+02
 21
-1.54071293E+02
  0
LINE
  8
0
 62
7
 10
2.77135080E+02
 20
-1.45311293E+02
 11
2.61955080E+02
 21
-1.54071293E+02
  0
LINE
  8
0
 62
7
 10
1.86555080E+02
 20
1.12487074E+01
 11
1.86555080E+02
 21
-2.87512926E+01
  0
LINE
  8
0
 62
7
 10
3.03555080E+02
 20
1.12487074E+01
 11
3.03555080E+02
 21
-2.87512926E+01
  0
LINE
  8
0
  6
CENTER
 62
2
 10
2.45055080E+02
 20
1.62487074E+01
 11
2.45055080E+02
 21
-2.87512926E+01
  0
LINE
  8
0
  6
CENTER
 62
2
 10
1.81055080E+02
 20
-1.37512926E+01
 11
3.09055080E+02
 21
-1.37512926E+01
  0
LINE
  8
0
  6
CENTER
 62
2
 10
2.45055080E+02
 20
-1.19191293E+02
 11
2.45055080E+02
 21
-1.87191293E+02
  0
ARC
  8
0
 62
7
 10
2.14490510E+02
 20
-1.42714035E+02
 40
2.99700864E+00
 50
1.81859673E+02
 51
2.40067840E+02
  0
ARC
  8
0
 62
7
 10
2.29668614E+02
 20
-1.51483039E+02
 40
2.98826106E+00
 50
2.40013197E+02
 51
2.70123969E+02
  0
ARC
  8
0
 62
7
 10
2.60461732E+02
 20
-1.51483739E+02
 40
2.98756125E+00
 50
2.69872421E+02
 51
2.99990413E+02
  0
ARC
  8
0
 62
7
 10
2.75641700E+02
 20
-1.42715265E+02
 40
2.99491999E+00
 50
2.99909914E+02
 51
3.58162573E+02
  0
TEXT
  8
0
 62
7
 10
-9.80885450E+01
 20
-1.52546362E+01
 40
6.30000019E+00
  1
OUT
 41
1.00000000E+00
  7
MONOTXT
  0
TEXT
  8
0
 62
7
 10
-2.81605232E+02
 20
-1.52546362E+01
 40
6.30000019E+00
  1
IN
 41
1.00000000E+00
  7
MONOTXT
  0
LINE
  8
0
 62
7
 10
2.79799927E+02
 20
-2.56750000E+02
 11
3.99799805E+02
 21
-2.56750000E+02
  0
LINE
  8
0
 62
7
 10
2.79799927E+02
 20
-2.56750000E+02
 11
2.79799927E+02
 21
-2.76750000E+02
  0
TEXT
  8
0
 62
7
 10
2.87585240E+02
 20
-2.71250000E+02
 40
9.00000000E+00
  1
KOGANEI CORP.
 41
1.04838710E+00
  7
MONOTXT
  0
TEXT
  8
0
 62
7
 10
3.15499645E+02
 20
2.63100000E+02
 40
6.30000019E+00
  1
Ver. 1.0
 41
1.08108108E+00
  7
MONOTXT
  0
LINE
  8
0
 62
7
 10
2.79799927E+02
 20
2.56250000E+02
 11
3.99799805E+02
 21
2.56250000E+02
  0
LINE
  8
0
 62
7
 10
2.79799927E+02
 20
2.76250000E+02
 11
2.79799927E+02
 21
2.56250000E+02
  0
TEXT
  8
0
 62
7
 10
-3.85600562E+02
 20
2.38100000E+02
 40
6.30000019E+00
  1
MODEL:MF800-04
 41
1.00000000E+00
  7
MONOTXT
  0
LINE
  8
0
 62
7
 10
-3.99250000E+02
 20
-2.76750000E+02
 11
3.99799805E+02
 21
-2.76750000E+02
  0
LINE
  8
0
 62
7
 10
-3.99250000E+02
 20
2.76250000E+02
 11
3.99799805E+02
 21
2.76250000E+02
  0
LINE
  8
0
 62
7
 10
-3.99250000E+02
 20
2.76250000E+02
 11
-3.99250000E+02
 21
-2.76750000E+02
  0
LINE
  8
0
 62
7
 10
3.99799805E+02
 20
2.76250000E+02
 11
3.99799805E+02
 21
-2.76750000E+02
  0
ENDSEC
  0
EOF
