  0
SECTION
  2
HEADER
  9
$ACADVER
  1
AC1012
  9
$DWGCODEPAGE
  3
dos932
  9
$INSBASE
 10
0.0
 20
0.0
 30
0.0
  9
$EXTMIN
 10
-281.25
 20
-195.0
 30
0.0
  9
$EXTMAX
 10
285.5999755859375
 20
195.5
 30
0.0
  9
$LIMMIN
 10
-281.25
 20
-195.0
  9
$LIMMAX
 10
285.5999755859375
 20
195.5
  9
$ORTHOMODE
 70
               0
  9
$REGENMODE
 70
               1
  9
$FILLMODE
 70
               1
  9
$QTEXTMODE
 70
               0
  9
$MIRRTEXT
 70
               1
  9
$DRAGMODE
 70
               2
  9
$LTSCALE
 40
1.0
  9
$OSMODE
 70
               0
  9
$ATTMODE
 70
               1
  9
$TEXTSIZE
 40
3.2000000476837158
  9
$TRACEWID
 40
0.05
  9
$TEXTSTYLE
  7
MX_NOTE_STANDARD
  9
$CLAYER
  8
0
  9
$CELTYPE
  6
CONTINUOUS
  9
$CECOLOR
 62
             256
  9
$CELTSCALE
 40
1.0
  9
$DELOBJ
 70
               1
  9
$DISPSILH
 70
               0
  9
$DIMSCALE
 40
1.0
  9
$DIMASZ
 40
2.5
  9
$DIMEXO
 40
1.5
  9
$DIMDLI
 40
3.75
  9
$DIMRND
 40
0.0
  9
$DIMDLE
 40
0.0
  9
$DIMEXE
 40
1.5
  9
$DIMTP
 40
0.0
  9
$DIMTM
 40
0.0
  9
$DIMTXT
 40
3.2000000476837158
  9
$DIMCEN
 40
2.5
  9
$DIMTSZ
 40
0.0
  9
$DIMTOL
 70
               0
  9
$DIMLIM
 70
               0
  9
$DIMTIH
 70
               0
  9
$DIMTOH
 70
               0
  9
$DIMSE1
 70
               0
  9
$DIMSE2
 70
               0
  9
$DIMTAD
 70
               1
  9
$DIMZIN
 70
               8
  9
$DIMBLK
  1

  9
$DIMASO
 70
               1
  9
$DIMSHO
 70
               1
  9
$DIMPOST
  1

  9
$DIMAPOST
  1

  9
$DIMALT
 70
               0
  9
$DIMALTD
 70
               4
  9
$DIMALTF
 40
0.03937007874016
  9
$DIMLFAC
 40
1.0
  9
$DIMTOFL
 70
               1
  9
$DIMTVP
 40
0.0
  9
$DIMTIX
 70
               0
  9
$DIMSOXD
 70
               0
  9
$DIMSAH
 70
               0
  9
$DIMBLK1
  1

  9
$DIMBLK2
  1

  9
$DIMSTYLE
  2
MXDIMSTYLE
  9
$DIMCLRD
 70
               0
  9
$DIMCLRE
 70
               0
  9
$DIMCLRT
 70
               0
  9
$DIMTFAC
 40
1.0
  9
$DIMGAP
 40
1.0
  9
$DIMJUST
 70
               0
  9
$DIMSD1
 70
               0
  9
$DIMSD2
 70
               0
  9
$DIMTOLJ
 70
               1
  9
$DIMTZIN
 70
               0
  9
$DIMALTZ
 70
               0
  9
$DIMALTTZ
 70
               0
  9
$DIMFIT
 70
               3
  9
$DIMUPT
 70
               1
  9
$DIMUNIT
 70
               2
  9
$DIMDEC
 70
               4
  9
$DIMTDEC
 70
               4
  9
$DIMALTU
 70
               2
  9
$DIMALTTD
 70
               4
  9
$DIMTXSTY
  7
MX_NOTE_STANDARD
  9
$DIMAUNIT
 70
               0
  9
$LUNITS
 70
               2
  9
$LUPREC
 70
               4
  9
$SKETCHINC
 40
0.1
  9
$FILLETRAD
 40
0.0
  9
$AUNITS
 70
               0
  9
$AUPREC
 70
               0
  9
$MENU
  1
acad
  9
$ELEVATION
 40
0.0
  9
$PELEVATION
 40
0.0
  9
$THICKNESS
 40
0.0
  9
$LIMCHECK
 70
               0
  9
$BLIPMODE
 70
               1
  9
$CHAMFERA
 40
0.0
  9
$CHAMFERB
 40
0.0
  9
$CHAMFERC
 40
0.0
  9
$CHAMFERD
 40
0.0
  9
$SKPOLY
 70
               0
  9
$TDCREATE
 40
2453629.727638889
  9
$TDUPDATE
 40
2453629.727638889
  9
$TDINDWG
 40
0.0000000000
  9
$TDUSRTIMER
 40
0.0000000000
  9
$USRTIMER
 70
               1
  9
$ANGBASE
 50
0.0
  9
$ANGDIR
 70
               0
  9
$PDMODE
 70
               0
  9
$PDSIZE
 40
0.0
  9
$PLINEWID
 40
0.0
  9
$COORDS
 70
               1
  9
$SPLFRAME
 70
               0
  9
$SPLINETYPE
 70
               6
  9
$SPLINESEGS
 70
               8
  9
$ATTDIA
 70
               0
  9
$ATTREQ
 70
               1
  9
$HANDLING
 70
               1
  9
$HANDSEED
  5
77D
  9
$SURFTAB1
 70
               6
  9
$SURFTAB2
 70
               6
  9
$SURFTYPE
 70
               6
  9
$SURFU
 70
               6
  9
$SURFV
 70
               6
  9
$UCSNAME
  2

  9
$UCSORG
 10
0.0
 20
0.0
 30
0.0
  9
$UCSXDIR
 10
1.0
 20
0.0
 30
0.0
  9
$UCSYDIR
 10
0.0
 20
1.0
 30
0.0
  9
$PUCSNAME
  2

  9
$PUCSORG
 10
0.0
 20
0.0
 30
0.0
  9
$PUCSXDIR
 10
1.0
 20
0.0
 30
0.0
  9
$PUCSYDIR
 10
0.0
 20
1.0
 30
0.0
  9
$USERI1
 70
               0
  9
$USERI2
 70
               0
  9
$USERI3
 70
               0
  9
$USERI4
 70
               0
  9
$USERI5
 70
               0
  9
$USERR1
 40
0.0
  9
$USERR2
 40
0.0
  9
$USERR3
 40
0.0
  9
$USERR4
 40
0.0
  9
$USERR5
 40
0.0
  9
$WORLDVIEW
 70
               1
  9
$SHADEDGE
 70
               3
  9
$SHADEDIF
 70
              70
  9
$TILEMODE
 70
               1
  9
$MAXACTVP
 70
              16
  9
$PINSBASE
 10
0.0
 20
0.0
 30
0.0
  9
$PLIMCHECK
 70
               0
  9
$PEXTMIN
 10
1.0000000000000000E+20
 20
1.0000000000000000E+20
 30
1.0000000000000000E+20
  9
$PEXTMAX
 10
-1.0000000000000000E+20
 20
-1.0000000000000000E+20
 30
-1.0000000000000000E+20
  9
$PLIMMIN
 10
0.0
 20
0.0
  9
$PLIMMAX
 10
12.0
 20
9.0
  9
$UNITMODE
 70
               0
  9
$VISRETAIN
 70
               0
  9
$PLINEGEN
 70
               1
  9
$PSLTSCALE
 70
               0
  9
$TREEDEPTH
 70
            3020
  9
$PICKSTYLE
 70
               1
  9
$CMLSTYLE
  2
Standard
  9
$CMLJUST
 70
               0
  9
$CMLSCALE
 40
1.0
  9
$SAVEIMAGES
 70
               0
  0
ENDSEC
  0
SECTION
  2
CLASSES
  0
CLASS
  1
LWPOLYLINE
  2
AcDbPolyline
  3
"AutoCAD"
 90
        0
280
               0
281
               1
  0
CLASS
  1
IMAGE
  2
AcDbRasterImage
  3
ISM
 90
      127
280
               0
281
               1
  0
CLASS
  1
OLE2FRAME
  2
AcDbOle2Frame
  3
""
 90
        0
280
               0
281
               1
  0
CLASS
  1
HATCH
  2
AcDbHatch
  3
"ACAD_SEDONA"
 90
        0
280
               0
281
               1
  0
CLASS
  1
DICTIONARYVAR
  2
AcDbDictionaryVar
  3
"AutoCAD"
 90
        0
280
               0
281
               0
  0
CLASS
  1
RASTERVARIABLES
  2
AcDbRasterVariables
  3
ISM
 90
        0
280
               0
281
               0
  0
CLASS
  1
IMAGEDEF
  2
AcDbRasterImageDef
  3
ISM
 90
        0
280
               0
281
               0
  0
CLASS
  1
IMAGEDEF_REACTOR
  2
AcDbRasterImageDefReactor
  3
ISM
 90
        1
280
               0
281
               0
  0
CLASS
  1
IDBUFFER
  2
AcDbIdBuffer
  3
"Acad"
 90
        0
280
               0
281
               0
  0
CLASS
  1
SPATIAL_FILTER
  2
AcDbSpatialFilter
  3
"Acad"
 90
        0
280
               0
281
               0
  0
CLASS
  1
XRECORD
  2
AcDbXrecord
  3
"<Built In>"
 90
        0
280
               0
281
               0
  0
CLASS
  1
SORTENTSTABLE
  2
AcDbSortentsTable
  3
"AutoCAD"
 90
        0
280
               0
281
               0
  0
CLASS
  1
LAYER_INDEX
  2
AcDbLayerIndex
  3
"Acad"
 90
        0
280
               0
281
               0
  0
CLASS
  1
SPATIAL_INDEX
  2
AcDbSpatialIndex
  3
"Acad"
 90
        0
280
               0
281
               0
  0
CLASS
  1
OBJECT_PTR
  2
CAseDLPNTableRecord
  3
"ASE-LPNTableRecord"
 90
        1
280
               0
281
               0
  0
CLASS
  1
LAYOUT
  2
AcDbLayout
  3
"AutoCAD 2000"
 90
        1
280
               0
281
               0
  0
CLASS
  1
PLOTSETTINGS
  2
AcDbPlotSettings
  3
"AutoCAD 2000"
 90
        1
280
               0
281
               0
  0
CLASS
  1
ACDBDICTIONARYWDFLT
  2
AcDbDictionaryWithDefault
  3
"AutoCAD 2000"
 90
        1
280
               0
281
               0
  0
CLASS
  1
ACDBPLACEHOLDER
  2
AcDbPlaceHolder
  3
"AutoCAD 2000"
 90
        1
280
               0
281
               0
  0
ENDSEC
  0
SECTION
  2
TABLES
  0
TABLE
  2
VPORT
  5
7
100
AcDbSymbolTable
 70
               1
  0
VPORT
  5
15
100
AcDbSymbolTableRecord
100
AcDbViewportTableRecord
  2
*ACTIVE
 70
               0
 10
0.0
 20
0.0
 11
1.0
 21
1.0
 12
2.17498779296875
 22
0.25
 13
0.0
 23
0.0
 14
1.0
 24
1.0
 15
0.0
 25
0.0
 16
0.0
 26
0.0
 36
1.0
 17
0.0
 27
0.0
 37
0.0
 40
394.40500000000003
 41
1.7320508075688772
 42
50.0
 43
0.0
 44
0.0
 50
0.0
 51
0.0
 71
               0
 72
             100
 73
               1
 74
               1
 75
               0
 76
               0
 77
               0
 78
               0
  0
ENDTAB
  0
TABLE
  2
LTYPE
  5
4
100
AcDbSymbolTable
 70
               6
  0
LTYPE
  5
11
100
AcDbSymbolTableRecord
100
AcDbLinetypeTableRecord
  2
BYBLOCK
 70
              64
  3

 72
              65
 73
               0
 40
0.0
  0
LTYPE
  5
12
100
AcDbSymbolTableRecord
100
AcDbLinetypeTableRecord
  2
BYLAYER
 70
              64
  3

 72
              65
 73
               0
 40
0.0
  0
LTYPE
  5
13
100
AcDbSymbolTableRecord
100
AcDbLinetypeTableRecord
  2
CONTINUOUS
 70
              64
  3
Solid line
 72
              65
 73
               0
 40
0.0
  0
LTYPE
  5
76
100
AcDbSymbolTableRecord
100
AcDbLinetypeTableRecord
  2
DASHED
 70
              64
  3
Dashed __ __ __ __ __ __ __ __ __ __ __ __ __ _
 72
              65
 73
               2
 40
4.0
 49
2.0
 74
               0
 49
-2.0
 74
               0
  0
LTYPE
  5
95
100
AcDbSymbolTableRecord
100
AcDbLinetypeTableRecord
  2
PHANTOM
 70
              64
  3
Phantom ______  __  __  ______  __  __  ______
 72
              65
 73
               6
 40
30.0
 49
20.0
 74
               0
 49
-2.0
 74
               0
 49
2.0
 74
               0
 49
-2.0
 74
               0
 49
2.0
 74
               0
 49
-2.0
 74
               0
  0
LTYPE
  5
56F
100
AcDbSymbolTableRecord
100
AcDbLinetypeTableRecord
  2
CENTER
 70
              64
  3
Center ____ _ ____ _ ____ _ ____ _ ____ _ ____
 72
              65
 73
               4
 40
26.0
 49
20.0
 74
               0
 49
-2.0
 74
               0
 49
2.0
 74
               0
 49
-2.0
 74
               0
  0
ENDTAB
  0
TABLE
  2
LAYER
  5
2
100
AcDbSymbolTable
 70
               2
  0
LAYER
  5
14
100
AcDbSymbolTableRecord
100
AcDbLayerTableRecord
  2
0
 70
               0
 62
               7
  6
CONTINUOUS
  0
LAYER
  5
1D
100
AcDbSymbolTableRecord
100
AcDbLayerTableRecord
  2
DEFPOINTS
 70
               0
 62
               7
  6
CONTINUOUS
  0
ENDTAB
  0
TABLE
  2
STYLE
  5
3
100
AcDbSymbolTable
 70
               1
  0
STYLE
  5
17
100
AcDbSymbolTableRecord
100
AcDbTextStyleTableRecord
  2
MX_NOTE_STANDARD
 70
               0
 40
0.0
 41
1.0
 50
0.0
 71
               0
 42
3.2000000476837158
  3
txt.shx
  4
extfont.shx
  0
ENDTAB
  0
TABLE
  2
VIEW
  5
5
100
AcDbSymbolTable
 70
               0
  0
ENDTAB
  0
TABLE
  2
UCS
  5
6
100
AcDbSymbolTable
 70
               0
  0
ENDTAB
  0
TABLE
  2
APPID
  5
8
100
AcDbSymbolTable
 70
               1
  0
APPID
  5
16
100
AcDbSymbolTableRecord
100
AcDbRegAppTableRecord
  2
ACAD
 70
               0
  0
ENDTAB
  0
TABLE
  2
DIMSTYLE
  5
9
100
AcDbSymbolTable
 70
               1
  0
DIMSTYLE
105
18
100
AcDbSymbolTableRecord
100
AcDbDimStyleTableRecord
  2
MXDIMSTYLE
 70
               0
  3

  4

  5

  6

  7

 40
1.0
 41
2.5
 42
1.5
 43
3.75
 44
1.5
 45
0.0
 46
0.0
 47
0.0
 48
0.0
 71
               0
 72
               0
 73
               0
 74
               0
 75
               0
 76
               0
 77
               1
 78
               8
140
3.2000000476837158
141
2.5
142
0.0
143
0.03937007874016
144
1.0
145
0.0
146
1.0
147
1.0
170
               0
171
               4
172
               1
173
               0
174
               0
175
               0
176
               0
177
               0
178
               0
270
               2
271
               4
272
               4
273
               2
274
               4
275
               0
280
               0
281
               0
282
               0
283
               1
284
               0
285
               0
286
               0
287
               3
288
               1
340
17
  0
ENDTAB
  0
TABLE
  2
BLOCK_RECORD
  5
1
100
AcDbSymbolTable
 70
              26
  0
BLOCK_RECORD
  5
A
100
AcDbSymbolTableRecord
100
AcDbBlockTableRecord
  2
*MODEL_SPACE
  0
BLOCK_RECORD
  5
B
100
AcDbSymbolTableRecord
100
AcDbBlockTableRecord
  2
*PAPER_SPACE
  0
BLOCK_RECORD
  5
1E
100
AcDbSymbolTableRecord
100
AcDbBlockTableRecord
  2
MGAG6-1
  0
BLOCK_RECORD
  5
1F
100
AcDbSymbolTableRecord
100
AcDbBlockTableRecord
  2
MGAG6-2
  0
BLOCK_RECORD
  5
20
100
AcDbSymbolTableRecord
100
AcDbBlockTableRecord
  2
MGAG6-3
  0
BLOCK_RECORD
  5
21
100
AcDbSymbolTableRecord
100
AcDbBlockTableRecord
  2
MGAG6-4
  0
BLOCK_RECORD
  5
22
100
AcDbSymbolTableRecord
100
AcDbBlockTableRecord
  2
MGAG6-5
  0
BLOCK_RECORD
  5
23
100
AcDbSymbolTableRecord
100
AcDbBlockTableRecord
  2
MGAG6-6
  0
BLOCK_RECORD
  5
24
100
AcDbSymbolTableRecord
100
AcDbBlockTableRecord
  2
MGAG6-7
  0
BLOCK_RECORD
  5
25
100
AcDbSymbolTableRecord
100
AcDbBlockTableRecord
  2
MGAG6-8
  0
BLOCK_RECORD
  5
26
100
AcDbSymbolTableRecord
100
AcDbBlockTableRecord
  2
MGAG6-9
  0
BLOCK_RECORD
  5
27
100
AcDbSymbolTableRecord
100
AcDbBlockTableRecord
  2
MGAG6-10
  0
BLOCK_RECORD
  5
28
100
AcDbSymbolTableRecord
100
AcDbBlockTableRecord
  2
MGAG6-11
  0
BLOCK_RECORD
  5
29
100
AcDbSymbolTableRecord
100
AcDbBlockTableRecord
  2
MGAG6-12
  0
BLOCK_RECORD
  5
2A
100
AcDbSymbolTableRecord
100
AcDbBlockTableRecord
  2
MGAG6-13
  0
BLOCK_RECORD
  5
2B
100
AcDbSymbolTableRecord
100
AcDbBlockTableRecord
  2
MGAG6-14
  0
BLOCK_RECORD
  5
2C
100
AcDbSymbolTableRecord
100
AcDbBlockTableRecord
  2
MGAG6-15
  0
BLOCK_RECORD
  5
2D
100
AcDbSymbolTableRecord
100
AcDbBlockTableRecord
  2
MGAG6-16
  0
BLOCK_RECORD
  5
2E
100
AcDbSymbolTableRecord
100
AcDbBlockTableRecord
  2
MGAG6-17
  0
BLOCK_RECORD
  5
2F
100
AcDbSymbolTableRecord
100
AcDbBlockTableRecord
  2
MGAG6-18
  0
BLOCK_RECORD
  5
30
100
AcDbSymbolTableRecord
100
AcDbBlockTableRecord
  2
MGAG6-19
  0
BLOCK_RECORD
  5
31
100
AcDbSymbolTableRecord
100
AcDbBlockTableRecord
  2
MGAG6-20
  0
BLOCK_RECORD
  5
32
100
AcDbSymbolTableRecord
100
AcDbBlockTableRecord
  2
MGAG6-21
  0
BLOCK_RECORD
  5
33
100
AcDbSymbolTableRecord
100
AcDbBlockTableRecord
  2
MGAG6-22
  0
BLOCK_RECORD
  5
34
100
AcDbSymbolTableRecord
100
AcDbBlockTableRecord
  2
MGAG6-23
  0
BLOCK_RECORD
  5
35
100
AcDbSymbolTableRecord
100
AcDbBlockTableRecord
  2
MGAG6-24
  0
BLOCK_RECORD
  5
36
100
AcDbSymbolTableRecord
100
AcDbBlockTableRecord
  2
MGAG6-25
  0
BLOCK_RECORD
  5
37
100
AcDbSymbolTableRecord
100
AcDbBlockTableRecord
  2
MGAG6-26
  0
ENDTAB
  0
ENDSEC
  0
SECTION
  2
BLOCKS
  0
BLOCK
  5
D
100
AcDbEntity
  8
0
100
AcDbBlockBegin
  2
*MODEL_SPACE
 70
               0
 10
0.0
 20
0.0
 30
0.0
  3
*MODEL_SPACE
  1

  0
ENDBLK
  5
E
100
AcDbEntity
  8
0
100
AcDbBlockEnd
  0
BLOCK
  5
F
100
AcDbEntity
 67
               1
  8
0
100
AcDbBlockBegin
  2
*PAPER_SPACE
 70
               0
 10
0.0
 20
0.0
 30
0.0
  3
*PAPER_SPACE
  1

  0
ENDBLK
  5
10
100
AcDbEntity
 67
               1
  8
0
100
AcDbBlockEnd
  0
BLOCK
  5
38
100
AcDbEntity
  8
0
100
AcDbBlockBegin
  2
MGAG6-1
 70
               0
 10
0.0
 20
0.0
 30
0.0
  3
MGAG6-1
  1

  0
LINE
  5
39
100
AcDbEntity
  8
0
  6
CONTINUOUS
 62
               7
100
AcDbLine
 10
0.0
 20
-4.4000000000000057
 30
0.0
 11
3.3000000000000682
 21
-4.4000000000000057
 31
0.0
  0
LINE
  5
3A
100
AcDbEntity
  8
0
  6
CONTINUOUS
 62
               7
100
AcDbLine
 10
3.3000000000000682
 20
-8.5999999999999943
 30
0.0
 11
3.3000000000000682
 21
-4.4000000000000057
 31
0.0
  0
LINE
  5
3B
100
AcDbEntity
  8
0
  6
CONTINUOUS
 62
               7
100
AcDbLine
 10
0.0
 20
-8.5999999999999943
 30
0.0
 11
3.3000000000000682
 21
-8.5999999999999943
 31
0.0
  0
LINE
  5
3C
100
AcDbEntity
  8
0
  6
CONTINUOUS
 62
               7
100
AcDbLine
 10
0.0
 20
4.4000000000000057
 30
0.0
 11
3.3000000000000682
 21
4.4000000000000057
 31
0.0
  0
LINE
  5
3D
100
AcDbEntity
  8
0
  6
CONTINUOUS
 62
               7
100
AcDbLine
 10
0.0
 20
8.5999999999999943
 30
0.0
 11
3.3000000000000682
 21
8.5999999999999943
 31
0.0
  0
LINE
  5
3E
100
AcDbEntity
  8
0
  6
CONTINUOUS
 62
               7
100
AcDbLine
 10
0.0000000273480509
 20
10.0
 30
0.0
 11
54.0
 21
10.0
 31
0.0
  0
LINE
  5
3F
100
AcDbEntity
  8
0
  6
CONTINUOUS
 62
               2
100
AcDbLine
 10
38.0
 20
4.5
 30
0.0
 11
38.0
 21
9.5
 31
0.0
  0
CIRCLE
  5
40
100
AcDbEntity
  8
0
  6
CONTINUOUS
 62
               2
100
AcDbCircle
 10
38.0
 20
7.0
 30
0.0
 40
1.5
  0
CIRCLE
  5
41
100
AcDbEntity
  8
0
  6
CONTINUOUS
 62
               7
100
AcDbCircle
 10
38.0
 20
7.0
 30
0.0
 40
1.25
  0
CIRCLE
  5
42
100
AcDbEntity
  8
0
  6
CONTINUOUS
 62
               7
100
AcDbCircle
 10
27.0
 20
7.0
 30
0.0
 40
2.3999999999999999
  0
CIRCLE
  5
43
100
AcDbEntity
  8
0
  6
CONTINUOUS
 62
               2
100
AcDbCircle
 10
22.0
 20
7.0
 30
0.0
 40
1.5
  0
CIRCLE
  5
44
100
AcDbEntity
  8
0
  6
CONTINUOUS
 62
               7
100
AcDbCircle
 10
22.0
 20
7.0
 30
0.0
 40
1.25
  0
LINE
  5
45
100
AcDbEntity
  8
0
  6
CONTINUOUS
 62
               2
100
AcDbLine
 10
22.0
 20
4.5
 30
0.0
 11
22.0
 21
9.5
 31
0.0
  0
LINE
  5
46
100
AcDbEntity
  8
0
  6
CONTINUOUS
 62
               7
100
AcDbLine
 10
1.6000000000000227
 20
4.5999999999999943
 30
0.0
 11
3.3000000000000682
 21
4.5999999999999943
 31
0.0
  0
LINE
  5
47
100
AcDbEntity
  8
0
  6
CONTINUOUS
 62
               7
100
AcDbLine
 10
1.6000000000000227
 20
8.4000000000000057
 30
0.0
 11
3.3000000000000682
 21
8.4000000000000057
 31
0.0
  0
LINE
  5
48
100
AcDbEntity
  8
0
  6
CONTINUOUS
 62
               7
100
AcDbLine
 10
1.3000000000000682
 20
4.9000000000000057
 30
0.0
 11
1.6000000000000227
 21
4.5999999999999943
 31
0.0
  0
LINE
  5
49
100
AcDbEntity
  8
0
  6
CONTINUOUS
 62
               7
100
AcDbLine
 10
1.3000000000000682
 20
8.0999999999999943
 30
0.0
 11
1.6000000000000227
 21
8.4000000000000057
 31
0.0
  0
LINE
  5
4A
100
AcDbEntity
  8
0
  6
CONTINUOUS
 62
               7
100
AcDbLine
 10
3.3000000000000682
 20
8.5999999999999943
 30
0.0
 11
3.3000000000000682
 21
4.4000000000000057
 31
0.0
  0
LINE
  5
4B
100
AcDbEntity
  8
0
  6
CONTINUOUS
 62
               7
100
AcDbLine
 10
1.3000000000000682
 20
8.0999999999999943
 30
0.0
 11
1.3000000000000682
 21
4.9000000000000057
 31
0.0
  0
LINE
  5
4C
100
AcDbEntity
  8
0
  6
CONTINUOUS
 62
               7
100
AcDbLine
 10
1.6000000000000227
 20
8.4000000000000057
 30
0.0
 11
1.6000000000000227
 21
4.5999999999999943
 31
0.0
  0
LINE
  5
4D
100
AcDbEntity
  8
0
  6
CONTINUOUS
 62
               2
100
AcDbLine
 10
22.0
 20
-4.5
 30
0.0
 11
22.0
 21
-9.5
 31
0.0
  0
CIRCLE
  5
4E
100
AcDbEntity
  8
0
  6
CONTINUOUS
 62
               2
100
AcDbCircle
 10
22.0
 20
-7.0
 30
0.0
 40
1.5
  0
CIRCLE
  5
4F
100
AcDbEntity
  8
0
  6
CONTINUOUS
 62
               7
100
AcDbCircle
 10
22.0
 20
-7.0
 30
0.0
 40
1.25
  0
ARC
  5
50
100
AcDbEntity
  8
0
  6
CONTINUOUS
 62
               7
100
AcDbCircle
 10
37.5
 20
0.0
 30
0.0
 40
1.5
100
AcDbArc
 50
90.0
 51
270.0
  0
ARC
  5
51
100
AcDbEntity
  8
0
  6
CONTINUOUS
 62
               7
100
AcDbCircle
 10
38.5
 20
0.0
 30
0.0
 40
1.5
100
AcDbArc
 50
270.0
 51
90.0
  0
LINE
  5
52
100
AcDbEntity
  8
0
  6
CONTINUOUS
 62
               7
100
AcDbLine
 10
37.5
 20
1.5
 30
0.0
 11
38.5
 21
1.5
 31
0.0
  0
LINE
  5
53
100
AcDbEntity
  8
0
  6
CONTINUOUS
 62
               7
100
AcDbLine
 10
37.5
 20
-1.5
 30
0.0
 11
38.5
 21
-1.5
 31
0.0
  0
CIRCLE
  5
54
100
AcDbEntity
  8
0
  6
CONTINUOUS
 62
               7
100
AcDbCircle
 10
22.0
 20
0.0
 30
0.0
 40
1.5
  0
CIRCLE
  5
55
100
AcDbEntity
  8
0
  6
CONTINUOUS
 62
               7
100
AcDbCircle
 10
27.0
 20
-7.0
 30
0.0
 40
2.3999999999999999
  0
LINE
  5
56
100
AcDbEntity
  8
0
  6
CONTINUOUS
 62
               7
100
AcDbLine
 10
1.6000000000000227
 20
-8.4000000000000057
 30
0.0
 11
1.6000000000000227
 21
-4.5999999999999943
 31
0.0
  0
LINE
  5
57
100
AcDbEntity
  8
0
  6
CONTINUOUS
 62
               7
100
AcDbLine
 10
1.3000000000000682
 20
-8.0999999999999943
 30
0.0
 11
1.3000000000000682
 21
-4.9000000000000057
 31
0.0
  0
LINE
  5
58
100
AcDbEntity
  8
0
  6
CONTINUOUS
 62
               7
100
AcDbLine
 10
1.3000000000000682
 20
-8.0999999999999943
 30
0.0
 11
1.6000000000000227
 21
-8.4000000000000057
 31
0.0
  0
LINE
  5
59
100
AcDbEntity
  8
0
  6
CONTINUOUS
 62
               7
100
AcDbLine
 10
1.3000000000000682
 20
-4.9000000000000057
 30
0.0
 11
1.6000000000000227
 21
-4.5999999999999943
 31
0.0
  0
LINE
  5
5A
100
AcDbEntity
  8
0
  6
CONTINUOUS
 62
               7
100
AcDbLine
 10
1.6000000000000227
 20
-8.4000000000000057
 30
0.0
 11
3.3000000000000682
 21
-8.4000000000000057
 31
0.0
  0
LINE
  5
5B
100
AcDbEntity
  8
0
  6
CONTINUOUS
 62
               7
100
AcDbLine
 10
1.6000000000000227
 20
-4.5999999999999943
 30
0.0
 11
3.3000000000000682
 21
-4.5999999999999943
 31
0.0
  0
LINE
  5
5C
100
AcDbEntity
  8
0
  6
CONTINUOUS
 62
               7
100
AcDbLine
 10
0.0000000273480509
 20
-10.0
 30
0.0
 11
54.0
 21
-10.0
 31
0.0
  0
LINE
  5
5D
100
AcDbEntity
  8
0
  6
CONTINUOUS
 62
               7
100
AcDbLine
 10
54.0
 20
-10.0
 30
0.0
 11
54.0
 21
10.0
 31
0.0
  0
LINE
  5
5E
100
AcDbEntity
  8
0
  6
CONTINUOUS
 62
               7
100
AcDbLine
 10
15.0
 20
-10.0
 30
0.0
 11
15.0
 21
10.0
 31
0.0
  0
LINE
  5
5F
100
AcDbEntity
  8
0
  6
CONTINUOUS
 62
               7
100
AcDbLine
 10
0.0
 20
-10.0
 30
0.0
 11
0.0
 21
10.0
 31
0.0
  0
LINE
  5
60
100
AcDbEntity
  8
0
  6
CONTINUOUS
 62
               2
100
AcDbLine
 10
-4.0
 20
0.0
 30
0.0
 11
58.5
 21
0.0
 31
0.0
  0
LINE
  5
61
100
AcDbEntity
  8
0
  6
CONTINUOUS
 62
               7
100
AcDbLine
 10
0.0000000273480509
 20
9.5
 30
0.0
 11
54.0
 21
9.5
 31
0.0
  0
LINE
  5
62
100
AcDbEntity
  8
0
  6
CONTINUOUS
 62
               7
100
AcDbLine
 10
0.0000000273480509
 20
-9.5
 30
0.0
 11
54.0
 21
-9.5
 31
0.0
  0
CIRCLE
  5
63
100
AcDbEntity
  8
0
  6
CONTINUOUS
 62
               7
100
AcDbCircle
 10
26.0
 20
7.0
 30
0.0
 40
1.3
  0
CIRCLE
  5
64
100
AcDbEntity
  8
0
  6
CONTINUOUS
 62
               7
100
AcDbCircle
 10
26.0
 20
-7.0
 30
0.0
 40
1.3
  0
CIRCLE
  5
65
100
AcDbEntity
  8
0
  6
CONTINUOUS
 62
               7
100
AcDbCircle
 10
43.0
 20
7.0
 30
0.0
 40
2.3999999999999999
  0
CIRCLE
  5
66
100
AcDbEntity
  8
0
  6
CONTINUOUS
 62
               7
100
AcDbCircle
 10
42.0
 20
7.0
 30
0.0
 40
1.3
  0
LINE
  5
67
100
AcDbEntity
  8
0
  6
CONTINUOUS
 62
               7
100
AcDbLine
 10
54.5
 20
7.3000000000000114
 30
0.0
 11
54.5
 21
-7.3000000000000114
 31
0.0
  0
LINE
  5
68
100
AcDbEntity
  8
0
  6
CONTINUOUS
 62
               7
100
AcDbLine
 10
54.0
 20
7.3000000000000114
 30
0.0
 11
54.5
 21
7.3000000000000114
 31
0.0
  0
LINE
  5
69
100
AcDbEntity
  8
0
  6
CONTINUOUS
 62
               7
100
AcDbLine
 10
54.5
 20
6.5
 30
0.0
 11
54.700000000000045
 21
6.5
 31
0.0
  0
LINE
  5
6A
100
AcDbEntity
  8
0
  6
CONTINUOUS
 62
               7
100
AcDbLine
 10
54.5
 20
4.5
 30
0.0
 11
54.700000000000045
 21
4.5
 31
0.0
  0
ARC
  5
6B
100
AcDbEntity
  8
0
  6
CONTINUOUS
 62
               7
100
AcDbCircle
 10
54.700000000000045
 20
4.7999999999999972
 30
0.0
 40
0.3
100
AcDbArc
 50
270.0
 51
0.0
  0
ARC
  5
6C
100
AcDbEntity
  8
0
  6
CONTINUOUS
 62
               7
100
AcDbCircle
 10
54.700000000000045
 20
6.2000000000000028
 30
0.0
 40
0.3
100
AcDbArc
 50
0.0
 51
90.0
  0
LINE
  5
6D
100
AcDbEntity
  8
0
  6
CONTINUOUS
 62
               7
100
AcDbLine
 10
55.0
 20
4.7999999999999972
 30
0.0
 11
55.0
 21
6.2000000000000028
 31
0.0
  0
LINE
  5
6E
100
AcDbEntity
  8
0
  6
CONTINUOUS
 62
               7
100
AcDbLine
 10
54.0
 20
-7.3000000000000114
 30
0.0
 11
54.5
 21
-7.3000000000000114
 31
0.0
  0
LINE
  5
6F
100
AcDbEntity
  8
0
  6
CONTINUOUS
 62
               7
100
AcDbLine
 10
55.0
 20
-4.7999999999999972
 30
0.0
 11
55.0
 21
-6.2000000000000028
 31
0.0
  0
LINE
  5
70
100
AcDbEntity
  8
0
  6
CONTINUOUS
 62
               7
100
AcDbLine
 10
54.5
 20
-6.5
 30
0.0
 11
54.700000000000045
 21
-6.5
 31
0.0
  0
LINE
  5
71
100
AcDbEntity
  8
0
  6
CONTINUOUS
 62
               7
100
AcDbLine
 10
54.5
 20
-4.5
 30
0.0
 11
54.700000000000045
 21
-4.5
 31
0.0
  0
ARC
  5
72
100
AcDbEntity
  8
0
  6
CONTINUOUS
 62
               7
100
AcDbCircle
 10
54.700000000000045
 20
-6.2000000000000028
 30
0.0
 40
0.3
100
AcDbArc
 50
270.0
 51
0.0
  0
ARC
  5
73
100
AcDbEntity
  8
0
  6
CONTINUOUS
 62
               7
100
AcDbCircle
 10
54.700000000000045
 20
-4.7999999999999972
 30
0.0
 40
0.3
100
AcDbArc
 50
0.0
 51
90.0
  0
LINE
  5
74
100
AcDbEntity
  8
0
  6
CONTINUOUS
 62
               7
100
AcDbLine
 10
28.5
 20
-7.0
 30
0.0
 11
28.5
 21
-8.8734993995195168
 31
0.0
  0
ARC
  5
75
100
AcDbEntity
  8
0
  6
CONTINUOUS
 62
               7
100
AcDbCircle
 10
26.0
 20
-7.0
 30
0.0
 40
2.5
100
AcDbArc
 50
0.0
 51
72.662481982469401
  0
LINE
  5
77
100
AcDbEntity
  8
0
  6
DASHED
 62
               7
100
AcDbLine
 10
28.5
 20
-8.8734993995195168
 30
0.0
 11
28.5
 21
-9.5
 31
0.0
  0
LINE
  5
78
100
AcDbEntity
  8
0
  6
CONTINUOUS
 62
               7
100
AcDbLine
 10
28.5
 20
7.0
 30
0.0
 11
28.5
 21
8.8734993995195168
 31
0.0
  0
ARC
  5
79
100
AcDbEntity
  8
0
  6
CONTINUOUS
 62
               7
100
AcDbCircle
 10
26.0
 20
7.0
 30
0.0
 40
2.5
100
AcDbArc
 50
287.33751801753061
 51
0.0
  0
LINE
  5
7A
100
AcDbEntity
  8
0
  6
CONTINUOUS
 62
               7
100
AcDbLine
 10
44.5
 20
7.0
 30
0.0
 11
44.5
 21
8.8734993995195168
 31
0.0
  0
ARC
  5
7B
100
AcDbEntity
  8
0
  6
CONTINUOUS
 62
               7
100
AcDbCircle
 10
42.0
 20
7.0
 30
0.0
 40
2.5
100
AcDbArc
 50
287.33751801753061
 51
0.0
  0
LINE
  5
7C
100
AcDbEntity
  8
0
  6
CONTINUOUS
 62
               2
100
AcDbLine
 10
38.0
 20
-4.5
 30
0.0
 11
38.0
 21
-9.5
 31
0.0
  0
CIRCLE
  5
7D
100
AcDbEntity
  8
0
  6
CONTINUOUS
 62
               7
100
AcDbCircle
 10
43.0
 20
-7.0
 30
0.0
 40
2.3999999999999999
  0
LINE
  5
7E
100
AcDbEntity
  8
0
  6
CONTINUOUS
 62
               7
100
AcDbLine
 10
44.5
 20
-7.0
 30
0.0
 11
44.5
 21
-8.8734993995195168
 31
0.0
  0
ARC
  5
7F
100
AcDbEntity
  8
0
  6
CONTINUOUS
 62
               7
100
AcDbCircle
 10
42.0
 20
-7.0
 30
0.0
 40
2.5
100
AcDbArc
 50
0.0
 51
72.662481982469401
  0
CIRCLE
  5
80
100
AcDbEntity
  8
0
  6
CONTINUOUS
 62
               7
100
AcDbCircle
 10
42.0
 20
-7.0
 30
0.0
 40
1.3
  0
CIRCLE
  5
81
100
AcDbEntity
  8
0
  6
CONTINUOUS
 62
               7
100
AcDbCircle
 10
38.0
 20
-7.0
 30
0.0
 40
1.25
  0
CIRCLE
  5
82
100
AcDbEntity
  8
0
  6
CONTINUOUS
 62
               2
100
AcDbCircle
 10
38.0
 20
-7.0
 30
0.0
 40
1.5
  0
LINE
  5
83
100
AcDbEntity
  8
0
  6
CONTINUOUS
 62
               2
100
AcDbLine
 10
-2.5
 20
-7.0
 30
0.0
 11
2.5
 21
-7.0
 31
0.0
  0
LINE
  5
84
100
AcDbEntity
  8
0
  6
CONTINUOUS
 62
               2
100
AcDbLine
 10
-2.5
 20
7.0
 30
0.0
 11
2.5
 21
7.0
 31
0.0
  0
LINE
  5
85
100
AcDbEntity
  8
0
  6
CONTINUOUS
 62
               2
100
AcDbLine
 10
52.0
 20
5.5
 30
0.0
 11
57.0
 21
5.5
 31
0.0
  0
LINE
  5
86
100
AcDbEntity
  8
0
  6
CONTINUOUS
 62
               2
100
AcDbLine
 10
52.0
 20
-5.5
 30
0.0
 11
57.0
 21
-5.5
 31
0.0
  0
LINE
  5
87
100
AcDbEntity
  8
0
  6
CONTINUOUS
 62
               2
100
AcDbLine
 10
26.0
 20
9.5
 30
0.0
 11
26.0
 21
4.5
 31
0.0
  0
LINE
  5
88
100
AcDbEntity
  8
0
  6
CONTINUOUS
 62
               2
100
AcDbLine
 10
42.0
 20
9.5
 30
0.0
 11
42.0
 21
4.5
 31
0.0
  0
LINE
  5
89
100
AcDbEntity
  8
0
  6
CONTINUOUS
 62
               2
100
AcDbLine
 10
26.0
 20
-4.5
 30
0.0
 11
26.0
 21
-9.5
 31
0.0
  0
LINE
  5
8A
100
AcDbEntity
  8
0
  6
CONTINUOUS
 62
               2
100
AcDbLine
 10
42.0
 20
-4.5
 30
0.0
 11
42.0
 21
-9.5
 31
0.0
  0
LINE
  5
8B
100
AcDbEntity
  8
0
  6
CONTINUOUS
 62
               2
100
AcDbLine
 10
35.5
 20
-7.0
 30
0.0
 11
46.400000000000006
 21
-7.0
 31
0.0
  0
LINE
  5
8C
100
AcDbEntity
  8
0
  6
CONTINUOUS
 62
               2
100
AcDbLine
 10
19.5
 20
7.0
 30
0.0
 11
30.400000000000006
 21
7.0
 31
0.0
  0
LINE
  5
8D
100
AcDbEntity
  8
0
  6
CONTINUOUS
 62
               2
100
AcDbLine
 10
19.5
 20
-7.0
 30
0.0
 11
30.400000000000006
 21
-7.0
 31
0.0
  0
LINE
  5
8E
100
AcDbEntity
  8
0
  6
CONTINUOUS
 62
               2
100
AcDbLine
 10
35.5
 20
7.0
 30
0.0
 11
46.400000000000006
 21
7.0
 31
0.0
  0
LINE
  5
8F
100
AcDbEntity
  8
0
  6
CONTINUOUS
 62
               2
100
AcDbLine
 10
22.0
 20
-2.5
 30
0.0
 11
22.0
 21
2.5
 31
0.0
  0
LINE
  5
90
100
AcDbEntity
  8
0
  6
CONTINUOUS
 62
               2
100
AcDbLine
 10
38.0
 20
-2.5
 30
0.0
 11
38.0
 21
2.5
 31
0.0
  0
LINE
  5
91
100
AcDbEntity
  8
0
  6
CONTINUOUS
 62
               2
100
AcDbLine
 10
27.0
 20
10.5
 30
0.0
 11
27.0
 21
3.5
 31
0.0
  0
LINE
  5
92
100
AcDbEntity
  8
0
  6
CONTINUOUS
 62
               2
100
AcDbLine
 10
27.0
 20
-3.5
 30
0.0
 11
27.0
 21
-10.5
 31
0.0
  0
LINE
  5
93
100
AcDbEntity
  8
0
  6
CONTINUOUS
 62
               2
100
AcDbLine
 10
43.0
 20
10.5
 30
0.0
 11
43.0
 21
3.5
 31
0.0
  0
LINE
  5
94
100
AcDbEntity
  8
0
  6
CONTINUOUS
 62
               2
100
AcDbLine
 10
43.0
 20
-3.5
 30
0.0
 11
43.0
 21
-10.5
 31
0.0
  0
LINE
  5
96
100
AcDbEntity
  8
0
  6
PHANTOM
 62
               3
100
AcDbLine
 10
32.246375358162737
 20
21.238345857874691
 30
0.0
 11
32.246375358162737
 21
-23.332880540020263
 31
0.0
  0
ENDBLK
  5
97
100
AcDbEntity
  8
0
100
AcDbBlockEnd
  0
BLOCK
  5
98
100
AcDbEntity
  8
0
100
AcDbBlockBegin
  2
MGAG6-2
 70
               0
 10
0.0
 20
0.0
 30
0.0
  3
MGAG6-2
  1

  0
LINE
  5
99
100
AcDbEntity
  8
0
  6
CONTINUOUS
 62
               7
100
AcDbLine
 10
0.3000000000000114
 20
2.4000000000000057
 30
0.0
 11
0.3000000000000114
 21
-2.4000000000000057
 31
0.0
  0
LINE
  5
9A
100
AcDbEntity
  8
0
  6
CONTINUOUS
 62
               7
100
AcDbLine
 10
0.3000000000000114
 20
-2.4000000000000057
 30
0.0
 11
0.0
 21
-2.7000000000000171
 31
0.0
  0
LINE
  5
9B
100
AcDbEntity
  8
0
  6
CONTINUOUS
 62
               7
100
AcDbLine
 10
0.3000000000000114
 20
2.4000000000000057
 30
0.0
 11
0.0
 21
2.7000000000000171
 31
0.0
  0
LINE
  5
9C
100
AcDbEntity
  8
0
  6
CONTINUOUS
 62
               7
100
AcDbLine
 10
0.0
 20
-2.7000000000000171
 30
0.0
 11
0.0
 21
-9.5
 31
0.0
  0
CIRCLE
  5
9D
100
AcDbEntity
  8
0
  6
CONTINUOUS
 62
               7
100
AcDbCircle
 10
4.5000000000000568
 20
-2.5
 30
0.0
 40
0.5
  0
LINE
  5
9E
100
AcDbEntity
  8
0
  6
CONTINUOUS
 62
               7
100
AcDbLine
 10
4.5000000000000568
 20
-4.2000000000000028
 30
0.0
 11
0.8000000000000114
 21
-4.2000000000000028
 31
0.0
  0
LINE
  5
9F
100
AcDbEntity
  8
0
  6
CONTINUOUS
 62
               7
100
AcDbLine
 10
4.5000000000000568
 20
4.2000000000000028
 30
0.0
 11
0.8000000000000114
 21
4.2000000000000028
 31
0.0
  0
CIRCLE
  5
A0
100
AcDbEntity
  8
0
  6
CONTINUOUS
 62
               7
100
AcDbCircle
 10
4.5000000000000568
 20
0.0
 30
0.0
 40
3.7000000000000002
  0
LINE
  5
A1
100
AcDbEntity
  8
0
  6
CONTINUOUS
 62
               7
100
AcDbLine
 10
0.8000000000000114
 20
2.5
 30
0.0
 11
0.8000000000000114
 21
10.0
 31
0.0
  0
LINE
  5
A2
100
AcDbEntity
  8
0
  6
CONTINUOUS
 62
               7
100
AcDbLine
 10
1.7723636606028208
 20
-2.5
 30
0.0
 11
0.8000000000000114
 21
-2.5
 31
0.0
  0
LINE
  5
A3
100
AcDbEntity
  8
0
  6
CONTINUOUS
 62
               7
100
AcDbLine
 10
1.7723636606028208
 20
2.5
 30
0.0
 11
0.8000000000000114
 21
2.5
 31
0.0
  0
LINE
  5
A4
100
AcDbEntity
  8
0
  6
CONTINUOUS
 62
               7
100
AcDbLine
 10
9.9000000000000341
 20
-4.4000000000000057
 30
0.0
 11
11.800000000000011
 21
-4.4000000000000057
 31
0.0
  0
ARC
  5
A5
100
AcDbEntity
  8
0
  6
CONTINUOUS
 62
               7
100
AcDbCircle
 10
9.9000000000000341
 20
-6.5
 30
0.0
 40
2.1000000000000001
100
AcDbArc
 50
90.0
 51
270.0
  0
LINE
  5
A6
100
AcDbEntity
  8
0
  6
CONTINUOUS
 62
               7
100
AcDbLine
 10
9.9000000000000341
 20
-8.5999999999999943
 30
0.0
 11
11.800000000000011
 21
-8.5999999999999943
 31
0.0
  0
LINE
  5
A7
100
AcDbEntity
  8
0
  6
CONTINUOUS
 62
               7
100
AcDbLine
 10
9.9000000000000341
 20
4.4000000000000057
 30
0.0
 11
11.800000000000011
 21
4.4000000000000057
 31
0.0
  0
LINE
  5
A8
100
AcDbEntity
  8
0
  6
CONTINUOUS
 62
               7
100
AcDbLine
 10
9.9000000000000341
 20
8.5999999999999943
 30
0.0
 11
11.800000000000011
 21
8.5999999999999943
 31
0.0
  0
ARC
  5
A9
100
AcDbEntity
  8
0
  6
CONTINUOUS
 62
               7
100
AcDbCircle
 10
9.9000000000000341
 20
6.5
 30
0.0
 40
2.1000000000000001
100
AcDbArc
 50
90.0
 51
270.0
  0
LINE
  5
AA
100
AcDbEntity
  8
0
  6
CONTINUOUS
 62
               7
100
AcDbLine
 10
11.500000000000057
 20
-10.0
 30
0.0
 11
12.000000000000057
 21
-9.5000000000000142
 31
0.0
  0
LINE
  5
AB
100
AcDbEntity
  8
0
  6
CONTINUOUS
 62
               7
100
AcDbLine
 10
11.800000000000011
 20
-9.5
 30
0.0
 11
11.300000000000011
 21
-10.0
 31
0.0
  0
LINE
  5
AC
100
AcDbEntity
  8
0
  6
CONTINUOUS
 62
               7
100
AcDbLine
 10
12.000000000000057
 20
9.5
 30
0.0
 11
11.500000000000057
 21
10.0
 31
0.0
  0
LINE
  5
AD
100
AcDbEntity
  8
0
  6
CONTINUOUS
 62
               7
100
AcDbLine
 10
11.300000000000011
 20
10.0
 30
0.0
 11
11.800000000000011
 21
9.5000000000000142
 31
0.0
  0
LINE
  5
AE
100
AcDbEntity
  8
0
  6
CONTINUOUS
 62
               2
100
AcDbLine
 10
5.0000000000000568
 20
-4.5
 30
0.0
 11
5.0000000000000568
 21
-9.5
 31
0.0
  0
CIRCLE
  5
AF
100
AcDbEntity
  8
0
  6
CONTINUOUS
 62
               2
100
AcDbCircle
 10
5.0000000000000568
 20
-7.0
 30
0.0
 40
1.5
  0
LINE
  5
B0
100
AcDbEntity
  8
0
  6
CONTINUOUS
 62
               2
100
AcDbLine
 10
2.5000000000000568
 20
-7.0
 30
0.0
 11
7.5000000000000568
 21
-7.0
 31
0.0
  0
CIRCLE
  5
B1
100
AcDbEntity
  8
0
  6
CONTINUOUS
 62
               7
100
AcDbCircle
 10
5.0000000000000568
 20
-7.0
 30
0.0
 40
1.25
  0
LINE
  5
B2
100
AcDbEntity
  8
0
  6
CONTINUOUS
 62
               2
100
AcDbLine
 10
5.0000000000000568
 20
9.5
 30
0.0
 11
5.0000000000000568
 21
4.5
 31
0.0
  0
CIRCLE
  5
B3
100
AcDbEntity
  8
0
  6
CONTINUOUS
 62
               2
100
AcDbCircle
 10
5.0000000000000568
 20
7.0
 30
0.0
 40
1.5
  0
LINE
  5
B4
100
AcDbEntity
  8
0
  6
CONTINUOUS
 62
               2
100
AcDbLine
 10
2.5000000000000568
 20
7.0
 30
0.0
 11
7.5000000000000568
 21
7.0
 31
0.0
  0
CIRCLE
  5
B5
100
AcDbEntity
  8
0
  6
CONTINUOUS
 62
               7
100
AcDbCircle
 10
5.0000000000000568
 20
7.0
 30
0.0
 40
1.25
  0
CIRCLE
  5
B6
100
AcDbEntity
  8
0
  6
CONTINUOUS
 62
               7
100
AcDbCircle
 10
4.5000000000000568
 20
2.5
 30
0.0
 40
0.5
  0
LINE
  5
B7
100
AcDbEntity
  8
0
  6
CONTINUOUS
 62
               2
100
AcDbLine
 10
4.5000000000000568
 20
-5.0
 30
0.0
 11
4.5000000000000568
 21
5.0
 31
0.0
  0
CIRCLE
  5
B8
100
AcDbEntity
  8
0
  6
CONTINUOUS
 62
               7
100
AcDbCircle
 10
4.5000000000000568
 20
0.0
 30
0.0
 40
1.2
  0
LINE
  5
B9
100
AcDbEntity
  8
0
  6
CONTINUOUS
 62
               7
100
AcDbLine
 10
11.800000000000011
 20
-9.5
 30
0.0
 11
11.800000000000011
 21
9.5000000000000142
 31
0.0
  0
LINE
  5
BA
100
AcDbEntity
  8
0
  6
CONTINUOUS
 62
               7
100
AcDbLine
 10
10.766025490378695
 20
6.4999998632791716
 30
0.0
 11
10.333012674446707
 21
7.2500000233842599
 31
0.0
  0
LINE
  5
BB
100
AcDbEntity
  8
0
  6
CONTINUOUS
 62
               7
100
AcDbLine
 10
9.4669873732144083
 20
7.2500001433532191
 30
0.0
 11
9.033974589687034
 21
6.4999999645392847
 31
0.0
  0
LINE
  5
BC
100
AcDbEntity
  8
0
  6
CONTINUOUS
 62
               7
100
AcDbLine
 10
9.0339745096213733
 20
6.5000001367208284
 30
0.0
 11
9.4669873255533616
 21
5.7499999766157401
 31
0.0
  0
LINE
  5
BD
100
AcDbEntity
  8
0
  6
CONTINUOUS
 62
               7
100
AcDbLine
 10
10.33301262678566
 20
5.7499998566467809
 30
0.0
 11
10.766025410313034
 21
6.5000000354607153
 31
0.0
  0
LINE
  5
BE
100
AcDbEntity
  8
0
  6
CONTINUOUS
 62
               7
100
AcDbLine
 10
9.4669871364069991
 20
5.7499999933676094
 30
0.0
 11
10.333012735866475
 21
5.7500000120764554
 31
0.0
  0
LINE
  5
BF
100
AcDbEntity
  8
0
  6
CONTINUOUS
 62
               7
100
AcDbLine
 10
10.333012863593069
 20
7.2500000066324048
 30
0.0
 11
9.4669872641337065
 21
7.2499999879235446
 31
0.0
  0
CIRCLE
  5
C0
100
AcDbEntity
  8
0
  6
CONTINUOUS
 62
               7
100
AcDbCircle
 10
9.9000000000000341
 20
6.5
 30
0.0
 40
1.9000000000000148
  0
CIRCLE
  5
C1
100
AcDbEntity
  8
0
  6
CONTINUOUS
 62
               7
100
AcDbCircle
 10
9.9000000000000341
 20
6.5
 30
0.0
 40
1.6000000000000174
  0
LINE
  5
C2
100
AcDbEntity
  8
0
  6
CONTINUOUS
 62
               7
100
AcDbLine
 10
10.766025490378695
 20
-6.5000001367208142
 30
0.0
 11
10.333012674446707
 21
-5.7499999766157401
 31
0.0
  0
LINE
  5
C3
100
AcDbEntity
  8
0
  6
CONTINUOUS
 62
               7
100
AcDbLine
 10
9.4669873732144083
 20
-5.7499998566467809
 30
0.0
 11
9.033974589687034
 21
-6.5000000354607153
 31
0.0
  0
LINE
  5
C4
100
AcDbEntity
  8
0
  6
CONTINUOUS
 62
               7
100
AcDbLine
 10
9.0339745096213733
 20
-6.4999998632791858
 30
0.0
 11
9.4669873255533616
 21
-7.2500000233842599
 31
0.0
  0
LINE
  5
C5
100
AcDbEntity
  8
0
  6
CONTINUOUS
 62
               7
100
AcDbLine
 10
10.33301262678566
 20
-7.2500001433532191
 30
0.0
 11
10.766025410313034
 21
-6.4999999645392847
 31
0.0
  0
LINE
  5
C6
100
AcDbEntity
  8
0
  6
CONTINUOUS
 62
               7
100
AcDbLine
 10
9.4669871364069991
 20
-7.2500000066324048
 30
0.0
 11
10.333012735866475
 21
-7.2499999879235446
 31
0.0
  0
LINE
  5
C7
100
AcDbEntity
  8
0
  6
CONTINUOUS
 62
               7
100
AcDbLine
 10
10.333012863593069
 20
-5.7499999933675952
 30
0.0
 11
9.4669872641337065
 21
-5.7500000120764554
 31
0.0
  0
CIRCLE
  5
C8
100
AcDbEntity
  8
0
  6
CONTINUOUS
 62
               7
100
AcDbCircle
 10
9.9000000000000341
 20
-6.5
 30
0.0
 40
1.9000000000000148
  0
CIRCLE
  5
C9
100
AcDbEntity
  8
0
  6
CONTINUOUS
 62
               7
100
AcDbCircle
 10
9.9000000000000341
 20
-6.5
 30
0.0
 40
1.6000000000000174
  0
LINE
  5
CA
100
AcDbEntity
  8
0
  6
CONTINUOUS
 62
               7
100
AcDbLine
 10
0.8000000000000114
 20
-10.0
 30
0.0
 11
0.8000000000000114
 21
-2.5
 31
0.0
  0
LINE
  5
CB
100
AcDbEntity
  8
0
  6
CONTINUOUS
 62
               7
100
AcDbLine
 10
0.0
 20
9.499999992019184
 30
0.0
 11
0.0
 21
2.7000000000000171
 31
0.0
  0
LINE
  5
CC
100
AcDbEntity
  8
0
  6
CONTINUOUS
 62
               7
100
AcDbLine
 10
12.000000000000057
 20
-9.5000000000000142
 30
0.0
 11
12.000000000000057
 21
9.5
 31
0.0
  0
LINE
  5
CD
100
AcDbEntity
  8
0
  6
CONTINUOUS
 62
               7
100
AcDbLine
 10
0.8000000000000114
 20
-9.5
 30
0.0
 11
0.0
 21
-9.5
 31
0.0
  0
LINE
  5
CE
100
AcDbEntity
  8
0
  6
CONTINUOUS
 62
               7
100
AcDbLine
 10
11.500000000000057
 20
-10.0
 30
0.0
 11
0.8000000000000114
 21
-10.0
 31
0.0
  0
LINE
  5
CF
100
AcDbEntity
  8
0
  6
CONTINUOUS
 62
               7
100
AcDbLine
 10
0.8000000000000114
 20
9.5
 30
0.0
 11
0.0
 21
9.5
 31
0.0
  0
LINE
  5
D0
100
AcDbEntity
  8
0
  6
CONTINUOUS
 62
               7
100
AcDbLine
 10
11.500000000000057
 20
10.0
 30
0.0
 11
0.8000000000000114
 21
10.0
 31
0.0
  0
ARC
  5
D1
100
AcDbEntity
  8
0
  6
CONTINUOUS
 62
               7
100
AcDbCircle
 10
4.5000000000000568
 20
0.0
 30
0.0
 40
4.2000000000000028
100
AcDbArc
 50
270.0
 51
90.0
  0
LINE
  5
D2
100
AcDbEntity
  8
0
  6
CONTINUOUS
 62
               2
100
AcDbLine
 10
-2.5
 20
7.0
 30
0.0
 11
2.5
 21
7.0
 31
0.0
  0
LINE
  5
D3
100
AcDbEntity
  8
0
  6
CONTINUOUS
 62
               2
100
AcDbLine
 10
-2.5
 20
-7.0
 30
0.0
 11
2.5
 21
-7.0
 31
0.0
  0
LINE
  5
D4
100
AcDbEntity
  8
0
  6
CONTINUOUS
 62
               2
100
AcDbLine
 10
-4.0
 20
0.0
 30
0.0
 11
16.000000000000057
 21
0.0
 31
0.0
  0
ENDBLK
  5
D5
100
AcDbEntity
  8
0
100
AcDbBlockEnd
  0
BLOCK
  5
D6
100
AcDbEntity
  8
0
100
AcDbBlockBegin
  2
MGAG6-3
 70
               0
 10
0.0
 20
0.0
 30
0.0
  3
MGAG6-3
  1

  0
LINE
  5
D7
100
AcDbEntity
  8
0
  6
CONTINUOUS
 62
               7
100
AcDbLine
 10
-0.2999999999999545
 20
-2.4000000000000057
 30
0.0
 11
-0.2999999999999545
 21
2.4000000000000057
 31
0.0
  0
LINE
  5
D8
100
AcDbEntity
  8
0
  6
CONTINUOUS
 62
               7
100
AcDbLine
 10
-0.2999999999999545
 20
2.4000000000000057
 30
0.0
 11
0.0
 21
2.7000000000000171
 31
0.0
  0
LINE
  5
D9
100
AcDbEntity
  8
0
  6
CONTINUOUS
 62
               7
100
AcDbLine
 10
-0.2999999999999545
 20
-2.4000000000000057
 30
0.0
 11
0.0
 21
-2.7000000000000171
 31
0.0
  0
LINE
  5
DA
100
AcDbEntity
  8
0
  6
CONTINUOUS
 62
               7
100
AcDbLine
 10
-8.9343145750507347
 20
-6.0656854249492369
 30
0.0
 11
-10.065685424949152
 21
-4.9343145750507631
 31
0.0
  0
LINE
  5
DB
100
AcDbEntity
  8
0
  6
CONTINUOUS
 62
               7
100
AcDbLine
 10
-8.9343145750507347
 20
-4.9343145750507631
 30
0.0
 11
-10.065685424949152
 21
-6.0656854249492369
 31
0.0
  0
CIRCLE
  5
DC
100
AcDbEntity
  8
0
  6
CONTINUOUS
 62
               7
100
AcDbCircle
 10
-9.5
 20
-5.5
 30
0.0
 40
1.0
  0
ARC
  5
DD
100
AcDbEntity
  8
0
  6
CONTINUOUS
 62
               7
100
AcDbCircle
 10
-9.0
 20
-3.1999999999999886
 30
0.0
 40
0.5
100
AcDbArc
 50
11.536959032814943
 51
168.46304096718507
  0
LINE
  5
DE
100
AcDbEntity
  8
0
  6
CONTINUOUS
 62
               7
100
AcDbLine
 10
-9.7999999999999545
 20
-3.0
 30
0.0
 11
-9.4658171329847391
 21
-3.0
 31
0.0
  0
LINE
  5
DF
100
AcDbEntity
  8
0
  6
CONTINUOUS
 62
               7
100
AcDbLine
 10
-8.5341828670152609
 20
-3.0
 30
0.0
 11
-7.5
 21
-3.0
 31
0.0
  0
LINE
  5
E0
100
AcDbEntity
  8
0
  6
CONTINUOUS
 62
               7
100
AcDbLine
 10
-8.9343145750507347
 20
4.9343145750507631
 30
0.0
 11
-10.065685424949152
 21
6.0656854249492369
 31
0.0
  0
LINE
  5
E1
100
AcDbEntity
  8
0
  6
CONTINUOUS
 62
               7
100
AcDbLine
 10
-8.9343145750507347
 20
6.0656854249492369
 30
0.0
 11
-10.065685424949152
 21
4.9343145750507631
 31
0.0
  0
CIRCLE
  5
E2
100
AcDbEntity
  8
0
  6
CONTINUOUS
 62
               7
100
AcDbCircle
 10
-9.5
 20
5.5
 30
0.0
 40
1.0
  0
LINE
  5
E3
100
AcDbEntity
  8
0
  6
CONTINUOUS
 62
               7
100
AcDbLine
 10
-9.7999999999999545
 20
3.0
 30
0.0
 11
-9.7999999999999545
 21
-3.0
 31
0.0
  0
LINE
  5
E4
100
AcDbEntity
  8
0
  6
CONTINUOUS
 62
               7
100
AcDbLine
 10
0.0
 20
-2.7000000000000171
 30
0.0
 11
0.0
 21
-9.5
 31
0.0
  0
CIRCLE
  5
E5
100
AcDbEntity
  8
0
  6
CONTINUOUS
 62
               7
100
AcDbCircle
 10
-4.5
 20
0.0
 30
0.0
 40
3.3500000000000085
  0
CIRCLE
  5
E6
100
AcDbEntity
  8
0
  6
CONTINUOUS
 62
               7
100
AcDbCircle
 10
-4.5
 20
0.0
 30
0.0
 40
3.1499999999999915
  0
CIRCLE
  5
E7
100
AcDbEntity
  8
0
  6
CONTINUOUS
 62
               7
100
AcDbCircle
 10
-4.5
 20
0.0
 30
0.0
 40
2.4000000000000057
  0
LINE
  5
E8
100
AcDbEntity
  8
0
  6
CONTINUOUS
 62
               7
100
AcDbLine
 10
-12.0
 20
-9.5
 30
0.0
 11
-11.5
 21
-10.0
 31
0.0
  0
LINE
  5
E9
100
AcDbEntity
  8
0
  6
CONTINUOUS
 62
               7
100
AcDbLine
 10
-12.0
 20
9.5
 30
0.0
 11
-11.499999999999886
 21
10.0
 31
0.0
  0
LINE
  5
EA
100
AcDbEntity
  8
0
  6
CONTINUOUS
 62
               7
100
AcDbLine
 10
0.0
 20
9.499999992019184
 30
0.0
 11
0.0
 21
2.7000000000000171
 31
0.0
  0
LINE
  5
EB
100
AcDbEntity
  8
0
  6
CONTINUOUS
 62
               2
100
AcDbLine
 10
4.0
 20
0.0
 30
0.0
 11
-16.0
 21
0.0
 31
0.0
  0
LINE
  5
EC
100
AcDbEntity
  8
0
  6
CONTINUOUS
 62
               2
100
AcDbLine
 10
-4.5
 20
-4.3500000000000085
 30
0.0
 11
-4.5
 21
4.3500000000000085
 31
0.0
  0
LINE
  5
ED
100
AcDbEntity
  8
0
  6
CONTINUOUS
 62
               7
100
AcDbLine
 10
-7.5
 20
-9.5
 30
0.0
 11
-7.5
 21
-3.0
 31
0.0
  0
LINE
  5
EE
100
AcDbEntity
  8
0
  6
CONTINUOUS
 62
               7
100
AcDbLine
 10
-12.0
 20
-9.5
 30
0.0
 11
-12.0
 21
9.5
 31
0.0
  0
LINE
  5
EF
100
AcDbEntity
  8
0
  6
CONTINUOUS
 62
               7
100
AcDbLine
 10
-8.0
 20
-10.0
 30
0.0
 11
-8.0
 21
-3.4000000000000057
 31
0.0
  0
LINE
  5
F0
100
AcDbEntity
  8
0
  6
CONTINUOUS
 62
               7
100
AcDbLine
 10
-7.5
 20
-9.5
 30
0.0
 11
0.0
 21
-9.5
 31
0.0
  0
LINE
  5
F1
100
AcDbEntity
  8
0
  6
CONTINUOUS
 62
               7
100
AcDbLine
 10
-11.5
 20
-10.0
 30
0.0
 11
-0.7999999999999545
 21
-10.0
 31
0.0
  0
LINE
  5
F2
100
AcDbEntity
  8
0
  6
CONTINUOUS
 62
               7
100
AcDbLine
 10
-7.5
 20
9.5
 30
0.0
 11
0.0
 21
9.5
 31
0.0
  0
LINE
  5
F3
100
AcDbEntity
  8
0
  6
CONTINUOUS
 62
               7
100
AcDbLine
 10
-11.499999999999886
 20
10.0
 30
0.0
 11
-0.7999999999999545
 21
10.0
 31
0.0
  0
LINE
  5
F4
100
AcDbEntity
  8
0
  6
CONTINUOUS
 62
               7
100
AcDbLine
 10
-9.7999999999999545
 20
3.0
 30
0.0
 11
-9.4658171329847391
 21
3.0
 31
0.0
  0
LINE
  5
F5
100
AcDbEntity
  8
0
  6
CONTINUOUS
 62
               7
100
AcDbLine
 10
-7.5
 20
9.5
 30
0.0
 11
-7.5
 21
3.0
 31
0.0
  0
LINE
  5
F6
100
AcDbEntity
  8
0
  6
CONTINUOUS
 62
               7
100
AcDbLine
 10
-8.0
 20
10.0
 30
0.0
 11
-8.0
 21
3.4000000000000057
 31
0.0
  0
LINE
  5
F7
100
AcDbEntity
  8
0
  6
CONTINUOUS
 62
               7
100
AcDbLine
 10
-8.5341828670152609
 20
3.0
 30
0.0
 11
-7.5
 21
3.0
 31
0.0
  0
ARC
  5
F8
100
AcDbEntity
  8
0
  6
CONTINUOUS
 62
               7
100
AcDbCircle
 10
-9.0
 20
3.1999999999999886
 30
0.0
 40
0.5
100
AcDbArc
 50
191.53695903281493
 51
348.46304096718501
  0
LINE
  5
F9
100
AcDbEntity
  8
0
  6
CONTINUOUS
 62
               7
100
AcDbLine
 10
-11.699999999999932
 20
-7.3000000000000114
 30
0.0
 11
-11.699999999999932
 21
7.3000000000000114
 31
0.0
  0
LINE
  5
FA
100
AcDbEntity
  8
0
  6
CONTINUOUS
 62
               7
100
AcDbLine
 10
-8.1999999999999318
 20
-7.3000000000000114
 30
0.0
 11
-11.699999999999932
 21
-7.3000000000000114
 31
0.0
  0
LINE
  5
FB
100
AcDbEntity
  8
0
  6
CONTINUOUS
 62
               7
100
AcDbLine
 10
-8.1999999999999318
 20
-7.3000000000000114
 30
0.0
 11
-8.1999999999999318
 21
-3.0999999999999943
 31
0.0
  0
LINE
  5
FC
100
AcDbEntity
  8
0
  6
CONTINUOUS
 62
               7
100
AcDbLine
 10
-8.1999999999999318
 20
-3.0999999999999943
 30
0.0
 11
-10.199999999999932
 21
-3.0999999999999943
 31
0.0
  0
LINE
  5
FD
100
AcDbEntity
  8
0
  6
CONTINUOUS
 62
               7
100
AcDbLine
 10
-8.1999999999999318
 20
3.0999999999999943
 30
0.0
 11
-10.199999999999932
 21
3.0999999999999943
 31
0.0
  0
LINE
  5
FE
100
AcDbEntity
  8
0
  6
CONTINUOUS
 62
               7
100
AcDbLine
 10
-8.1999999999999318
 20
7.3000000000000114
 30
0.0
 11
-8.1999999999999318
 21
3.0999999999999943
 31
0.0
  0
LINE
  5
FF
100
AcDbEntity
  8
0
  6
CONTINUOUS
 62
               7
100
AcDbLine
 10
-8.1999999999999318
 20
7.3000000000000114
 30
0.0
 11
-11.699999999999932
 21
7.3000000000000114
 31
0.0
  0
LINE
  5
100
100
AcDbEntity
  8
0
  6
CONTINUOUS
 62
               7
100
AcDbLine
 10
-10.199999999999932
 20
3.0999999999999943
 30
0.0
 11
-10.199999999999932
 21
-3.0999999999999943
 31
0.0
  0
LINE
  5
101
100
AcDbEntity
  8
0
  6
CONTINUOUS
 62
               7
100
AcDbLine
 10
-8.1999999999999318
 20
3.4000000000000057
 30
0.0
 11
-8.0
 21
3.4000000000000057
 31
0.0
  0
LINE
  5
102
100
AcDbEntity
  8
0
  6
CONTINUOUS
 62
               7
100
AcDbLine
 10
-8.1999999999999318
 20
-3.4000000000000057
 30
0.0
 11
-8.0
 21
-3.4000000000000057
 31
0.0
  0
CIRCLE
  5
103
100
AcDbEntity
  8
0
  6
CONTINUOUS
 62
               2
100
AcDbCircle
 10
-3.0
 20
-5.5
 30
0.0
 40
1.25
  0
CIRCLE
  5
104
100
AcDbEntity
  8
0
  6
CONTINUOUS
 62
               7
100
AcDbCircle
 10
-3.0
 20
-5.5
 30
0.0
 40
1.05
  0
LINE
  5
105
100
AcDbEntity
  8
0
  6
CONTINUOUS
 62
               2
100
AcDbLine
 10
-3.0
 20
-7.5499999999999972
 30
0.0
 11
-3.0
 21
-3.4500000000000028
 31
0.0
  0
LINE
  5
106
100
AcDbEntity
  8
0
  6
CONTINUOUS
 62
               2
100
AcDbLine
 10
-0.9499999999999318
 20
-5.5
 30
0.0
 11
-5.0499999999999545
 21
-5.5
 31
0.0
  0
CIRCLE
  5
107
100
AcDbEntity
  8
0
  6
CONTINUOUS
 62
               2
100
AcDbCircle
 10
-3.0
 20
5.5
 30
0.0
 40
1.25
  0
CIRCLE
  5
108
100
AcDbEntity
  8
0
  6
CONTINUOUS
 62
               7
100
AcDbCircle
 10
-3.0
 20
5.5
 30
0.0
 40
1.05
  0
LINE
  5
109
100
AcDbEntity
  8
0
  6
CONTINUOUS
 62
               2
100
AcDbLine
 10
-0.9499999999999318
 20
5.5
 30
0.0
 11
-5.0499999999999545
 21
5.5
 31
0.0
  0
LINE
  5
10A
100
AcDbEntity
  8
0
  6
CONTINUOUS
 62
               2
100
AcDbLine
 10
-3.0
 20
7.5499999999999972
 30
0.0
 11
-3.0
 21
3.4500000000000028
 31
0.0
  0
LINE
  5
10B
100
AcDbEntity
  8
0
  6
CONTINUOUS
 62
               7
100
AcDbLine
 10
-0.7999999999999545
 20
-10.0
 30
0.0
 11
-0.7999999999999545
 21
-9.5
 31
0.0
  0
LINE
  5
10C
100
AcDbEntity
  8
0
  6
CONTINUOUS
 62
               7
100
AcDbLine
 10
-0.7999999999999545
 20
9.5
 30
0.0
 11
-0.7999999999999545
 21
10.0
 31
0.0
  0
LINE
  5
10D
100
AcDbEntity
  8
0
  6
CONTINUOUS
 62
               2
100
AcDbLine
 10
-2.4999999999999574
 20
7.0
 30
0.0
 11
2.5000000000000426
 21
7.0
 31
0.0
  0
LINE
  5
10E
100
AcDbEntity
  8
0
  6
CONTINUOUS
 62
               2
100
AcDbLine
 10
-2.4999999999999574
 20
-7.0
 30
0.0
 11
2.5000000000000426
 21
-7.0
 31
0.0
  0
ENDBLK
  5
10F
100
AcDbEntity
  8
0
100
AcDbBlockEnd
  0
BLOCK
  5
110
100
AcDbEntity
  8
0
100
AcDbBlockBegin
  2
MGAG6-4
 70
               0
 10
0.0
 20
0.0
 30
0.0
  3
MGAG6-4
  1

  0
LINE
  5
111
100
AcDbEntity
  8
0
  6
CONTINUOUS
 62
               7
100
AcDbLine
 10
15.0
 20
-11.5
 30
0.0
 11
54.0
 21
-11.5
 31
0.0
  0
LINE
  5
112
100
AcDbEntity
  8
0
  6
CONTINUOUS
 62
               7
100
AcDbLine
 10
39.499999997462623
 20
-5.0
 30
0.0
 11
44.499999997462623
 21
-5.0
 31
0.0
  0
LINE
  5
113
100
AcDbEntity
  8
0
  6
CONTINUOUS
 62
               7
100
AcDbLine
 10
23.499999997462623
 20
-5.0
 30
0.0
 11
28.499999997462623
 21
-5.0
 31
0.0
  0
LINE
  5
114
100
AcDbEntity
  8
0
  6
CONTINUOUS
 62
               7
100
AcDbLine
 10
18.999999975855985
 20
-7.5
 30
0.0
 11
54.0
 21
-7.5
 31
0.0
  0
LINE
  5
115
100
AcDbEntity
  8
0
  6
CONTINUOUS
 62
               2
100
AcDbLine
 10
46.999999999999886
 20
-2.0
 30
0.0
 11
46.999999999999886
 21
-7.0
 31
0.0
  0
CIRCLE
  5
116
100
AcDbEntity
  8
0
  6
CONTINUOUS
 62
               2
100
AcDbCircle
 10
46.999999999999886
 20
-4.5
 30
0.0
 40
1.5
  0
LINE
  5
117
100
AcDbEntity
  8
0
  6
CONTINUOUS
 62
               2
100
AcDbLine
 10
44.499999999999886
 20
-4.5
 30
0.0
 11
49.499999999999886
 21
-4.5
 31
0.0
  0
CIRCLE
  5
118
100
AcDbEntity
  8
0
  6
CONTINUOUS
 62
               7
100
AcDbCircle
 10
46.999999999999886
 20
-4.5
 30
0.0
 40
1.2
  0
LINE
  5
119
100
AcDbEntity
  8
0
  6
CONTINUOUS
 62
               2
100
AcDbLine
 10
31.0
 20
-2.0
 30
0.0
 11
31.0
 21
-7.0
 31
0.0
  0
CIRCLE
  5
11A
100
AcDbEntity
  8
0
  6
CONTINUOUS
 62
               2
100
AcDbCircle
 10
31.0
 20
-4.5
 30
0.0
 40
1.5
  0
LINE
  5
11B
100
AcDbEntity
  8
0
  6
CONTINUOUS
 62
               2
100
AcDbLine
 10
28.5
 20
-4.5
 30
0.0
 11
33.499999999999886
 21
-4.5
 31
0.0
  0
CIRCLE
  5
11C
100
AcDbEntity
  8
0
  6
CONTINUOUS
 62
               7
100
AcDbCircle
 10
31.0
 20
-4.5
 30
0.0
 40
1.2
  0
LINE
  5
11D
100
AcDbEntity
  8
0
  6
CONTINUOUS
 62
               2
100
AcDbLine
 10
22.0
 20
-1.1999999999999886
 30
0.0
 11
22.0
 21
-5.1999999999999886
 31
0.0
  0
LINE
  5
11E
100
AcDbEntity
  8
0
  6
CONTINUOUS
 62
               2
100
AcDbLine
 10
20.0
 20
-3.1999999999999886
 30
0.0
 11
24.0
 21
-3.1999999999999886
 31
0.0
  0
CIRCLE
  5
11F
100
AcDbEntity
  8
0
  6
CONTINUOUS
 62
               2
100
AcDbCircle
 10
22.0
 20
-3.1999999999999886
 30
0.0
 40
1.0
  0
CIRCLE
  5
120
100
AcDbEntity
  8
0
  6
CONTINUOUS
 62
               7
100
AcDbCircle
 10
22.0
 20
-3.1999999999999886
 30
0.0
 40
0.8
  0
LINE
  5
121
100
AcDbEntity
  8
0
  6
CONTINUOUS
 62
               2
100
AcDbLine
 10
35.0
 20
-7.9000000000000057
 30
0.0
 11
35.0
 21
-11.900000000000006
 31
0.0
  0
LINE
  5
122
100
AcDbEntity
  8
0
  6
CONTINUOUS
 62
               2
100
AcDbLine
 10
33.0
 20
-9.9000000000000057
 30
0.0
 11
37.0
 21
-9.9000000000000057
 31
0.0
  0
CIRCLE
  5
123
100
AcDbEntity
  8
0
  6
CONTINUOUS
 62
               2
100
AcDbCircle
 10
35.0
 20
-9.9000000000000057
 30
0.0
 40
1.0
  0
CIRCLE
  5
124
100
AcDbEntity
  8
0
  6
CONTINUOUS
 62
               7
100
AcDbCircle
 10
35.0
 20
-9.9000000000000057
 30
0.0
 40
0.8
  0
LINE
  5
125
100
AcDbEntity
  8
0
  6
CONTINUOUS
 62
               2
100
AcDbLine
 10
49.0
 20
-7.9000000000000057
 30
0.0
 11
49.0
 21
-11.900000000000006
 31
0.0
  0
LINE
  5
126
100
AcDbEntity
  8
0
  6
CONTINUOUS
 62
               2
100
AcDbLine
 10
47.0
 20
-9.9000000000000057
 30
0.0
 11
51.0
 21
-9.9000000000000057
 31
0.0
  0
CIRCLE
  5
127
100
AcDbEntity
  8
0
  6
CONTINUOUS
 62
               2
100
AcDbCircle
 10
49.0
 20
-9.9000000000000057
 30
0.0
 40
1.0
  0
CIRCLE
  5
128
100
AcDbEntity
  8
0
  6
CONTINUOUS
 62
               7
100
AcDbCircle
 10
49.0
 20
-9.9000000000000057
 30
0.0
 40
0.8
  0
LINE
  5
129
100
AcDbEntity
  8
0
  6
CONTINUOUS
 62
               2
100
AcDbLine
 10
51.0
 20
-1.1999999999999886
 30
0.0
 11
51.0
 21
-5.1999999999999886
 31
0.0
  0
LINE
  5
12A
100
AcDbEntity
  8
0
  6
CONTINUOUS
 62
               2
100
AcDbLine
 10
49.0
 20
-3.1999999999999886
 30
0.0
 11
53.0
 21
-3.1999999999999886
 31
0.0
  0
CIRCLE
  5
12B
100
AcDbEntity
  8
0
  6
CONTINUOUS
 62
               2
100
AcDbCircle
 10
51.0
 20
-3.1999999999999886
 30
0.0
 40
1.0
  0
CIRCLE
  5
12C
100
AcDbEntity
  8
0
  6
CONTINUOUS
 62
               7
100
AcDbCircle
 10
51.0
 20
-3.1999999999999886
 30
0.0
 40
0.8
  0
LINE
  5
12D
100
AcDbEntity
  8
0
  6
CONTINUOUS
 62
               7
100
AcDbLine
 10
14.999999975855985
 20
-8.0
 30
0.0
 11
14.999999975855985
 21
-11.99999998630939
 31
0.0
  0
LINE
  5
12E
100
AcDbEntity
  8
0
  6
CONTINUOUS
 62
               7
100
AcDbLine
 10
14.999999975855985
 20
-8.0
 30
0.0
 11
54.0
 21
-8.0
 31
0.0
  0
LINE
  5
12F
100
AcDbEntity
  8
0
  6
CONTINUOUS
 62
               7
100
AcDbLine
 10
19.0
 20
0.0
 30
0.0
 11
19.0
 21
-8.0
 31
0.0
  0
LINE
  5
130
100
AcDbEntity
  8
0
  6
CONTINUOUS
 62
               7
100
AcDbLine
 10
54.0
 20
0.0
 30
0.0
 11
54.0
 21
-12.0
 31
0.0
  0
LINE
  5
131
100
AcDbEntity
  8
0
  6
CONTINUOUS
 62
               7
100
AcDbLine
 10
15.0
 20
-12.0
 30
0.0
 11
54.0
 21
-12.0
 31
0.0
  0
LINE
  5
132
100
AcDbEntity
  8
0
  6
CONTINUOUS
 62
               7
100
AcDbLine
 10
19.0
 20
0.0
 30
0.0
 11
54.0
 21
0.0
 31
0.0
  0
LINE
  5
133
100
AcDbEntity
  8
0
  6
CONTINUOUS
 62
               7
100
AcDbLine
 10
54.000000001754415
 20
-11.699999999999989
 30
0.0
 11
54.500000001754415
 21
-11.699999999999989
 31
0.0
  0
LINE
  5
134
100
AcDbEntity
  8
0
  6
CONTINUOUS
 62
               7
100
AcDbLine
 10
54.000000001754415
 20
-8.1999999999999886
 30
0.0
 11
54.500000001754415
 21
-8.1999999999999886
 31
0.0
  0
LINE
  5
135
100
AcDbEntity
  8
0
  6
CONTINUOUS
 62
               7
100
AcDbLine
 10
55.0
 20
-8.7999999999999972
 30
0.0
 11
55.0
 21
-10.200000000000003
 31
0.0
  0
LINE
  5
136
100
AcDbEntity
  8
0
  6
CONTINUOUS
 62
               7
100
AcDbLine
 10
54.5
 20
-10.5
 30
0.0
 11
54.699999999999932
 21
-10.5
 31
0.0
  0
LINE
  5
137
100
AcDbEntity
  8
0
  6
CONTINUOUS
 62
               7
100
AcDbLine
 10
54.5
 20
-8.5
 30
0.0
 11
54.699999999999932
 21
-8.5
 31
0.0
  0
ARC
  5
138
100
AcDbEntity
  8
0
  6
CONTINUOUS
 62
               7
100
AcDbCircle
 10
54.699999999999932
 20
-10.200000000000003
 30
0.0
 40
0.3
100
AcDbArc
 50
270.0
 51
0.0
  0
ARC
  5
139
100
AcDbEntity
  8
0
  6
CONTINUOUS
 62
               7
100
AcDbCircle
 10
54.699999999999932
 20
-8.7999999999999972
 30
0.0
 40
0.3
100
AcDbArc
 50
0.0
 51
90.0
  0
LINE
  5
13A
100
AcDbEntity
  8
0
  6
CONTINUOUS
 62
               7
100
AcDbLine
 10
54.5
 20
-11.699999999999989
 30
0.0
 11
54.5
 21
-8.1999999999999886
 31
0.0
  0
LINE
  5
13B
100
AcDbEntity
  8
0
  6
PHANTOM
 62
               7
100
AcDbLine
 10
15.999999975855985
 20
-7.5
 30
0.0
 11
16.649999999999977
 21
-7.5
 31
0.0
  0
LINE
  5
13C
100
AcDbEntity
  8
0
  6
PHANTOM
 62
               7
100
AcDbLine
 10
15.999999975855985
 20
-7.2000000000000028
 30
0.0
 11
16.649999999999977
 21
-7.2000000000000028
 31
0.0
  0
LINE
  5
13D
100
AcDbEntity
  8
0
  6
CONTINUOUS
 62
               7
100
AcDbLine
 10
15.999999975855985
 20
-7.0
 30
0.0
 11
15.999999975855985
 21
-8.0
 31
0.0
  0
CIRCLE
  5
13E
100
AcDbEntity
  8
0
  6
CONTINUOUS
 62
               7
100
AcDbCircle
 10
16.649999999999977
 20
-1.6500000000000057
 30
0.0
 40
0.15
  0
CIRCLE
  5
13F
100
AcDbEntity
  8
0
  6
CONTINUOUS
 62
               7
100
AcDbCircle
 10
16.649999999999977
 20
-7.3499999999999943
 30
0.0
 40
0.15
  0
LINE
  5
140
100
AcDbEntity
  8
0
  6
CONTINUOUS
 62
               7
100
AcDbLine
 10
17.5
 20
-1.2999999999999829
 30
0.0
 11
17.5
 21
-7.7000000000000028
 31
0.0
  0
LINE
  5
141
100
AcDbEntity
  8
0
  6
CONTINUOUS
 62
               7
100
AcDbLine
 10
15.500000000000114
 20
-2.0
 30
0.0
 11
16.800000000000068
 21
-2.0
 31
0.0
  0
LINE
  5
142
100
AcDbEntity
  8
0
  6
CONTINUOUS
 62
               7
100
AcDbLine
 10
15.500000000000114
 20
-7.0
 30
0.0
 11
15.500000000000114
 21
-2.0
 31
0.0
  0
LINE
  5
143
100
AcDbEntity
  8
0
  6
CONTINUOUS
 62
               7
100
AcDbLine
 10
16.800000000000068
 20
-8.0
 30
0.0
 11
16.800000000000068
 21
-0.799999999999983
 31
0.0
  0
LINE
  5
144
100
AcDbEntity
  8
0
  6
CONTINUOUS
 62
               7
100
AcDbLine
 10
16.800000000000068
 20
-0.799999999999983
 30
0.0
 11
17.300000000000068
 21
-0.799999999999983
 31
0.0
  0
LINE
  5
145
100
AcDbEntity
  8
0
  6
CONTINUOUS
 62
               7
100
AcDbLine
 10
17.300000000000068
 20
-0.799999999999983
 30
0.0
 11
17.300000000000068
 21
-8.0
 31
0.0
  0
LINE
  5
146
100
AcDbEntity
  8
0
  6
CONTINUOUS
 62
               7
100
AcDbLine
 10
17.300000000000068
 20
-7.7000000000000028
 30
0.0
 11
17.5
 21
-7.7000000000000028
 31
0.0
  0
LINE
  5
147
100
AcDbEntity
  8
0
  6
CONTINUOUS
 62
               7
100
AcDbLine
 10
17.300000000000068
 20
-1.2999999999999829
 30
0.0
 11
17.5
 21
-1.2999999999999829
 31
0.0
  0
LINE
  5
148
100
AcDbEntity
  8
0
  6
CONTINUOUS
 62
               7
100
AcDbLine
 10
16.800000000000068
 20
-5.7000000000000028
 30
0.0
 11
17.300000000000068
 21
-5.7000000000000028
 31
0.0
  0
LINE
  5
149
100
AcDbEntity
  8
0
  6
CONTINUOUS
 62
               7
100
AcDbLine
 10
16.800000000000068
 20
-3.2999999999999829
 30
0.0
 11
17.300000000000068
 21
-3.2999999999999829
 31
0.0
  0
LINE
  5
14A
100
AcDbEntity
  8
0
  6
CONTINUOUS
 62
               2
100
AcDbLine
 10
17.300000000000068
 20
-5.7000000000000028
 30
0.0
 11
16.800000000000068
 21
-3.2999999999999829
 31
0.0
  0
LINE
  5
14B
100
AcDbEntity
  8
0
  6
CONTINUOUS
 62
               2
100
AcDbLine
 10
16.800000000000068
 20
-5.7000000000000028
 30
0.0
 11
17.300000000000068
 21
-3.2999999999999829
 31
0.0
  0
LINE
  5
14C
100
AcDbEntity
  8
0
  6
CONTINUOUS
 62
               2
100
AcDbLine
 10
17.5
 20
-5.7999999999999972
 30
0.0
 11
17.846410161513745
 21
-6.0
 31
0.0
  0
LINE
  5
14D
100
AcDbEntity
  8
0
  6
CONTINUOUS
 62
               2
100
AcDbLine
 10
17.5
 20
-3.2000000000000171
 30
0.0
 11
17.846410161513745
 21
-3.0
 31
0.0
  0
LINE
  5
14E
100
AcDbEntity
  8
0
  6
CONTINUOUS
 62
               7
100
AcDbLine
 10
17.5
 20
-6.0
 30
0.0
 11
19.0
 21
-6.0
 31
0.0
  0
LINE
  5
14F
100
AcDbEntity
  8
0
  6
CONTINUOUS
 62
               7
100
AcDbLine
 10
17.5
 20
-3.0
 30
0.0
 11
19.0
 21
-3.0
 31
0.0
  0
CIRCLE
  5
150
100
AcDbEntity
  8
0
  6
CONTINUOUS
 62
               7
100
AcDbCircle
 10
9.9500000000000455
 20
-1.6500000000000057
 30
0.0
 40
0.15
  0
LINE
  5
151
100
AcDbEntity
  8
0
  6
CONTINUOUS
 62
               7
100
AcDbLine
 10
11.300000000000068
 20
-2.0
 30
0.0
 11
9.8000000000000682
 21
-2.0
 31
0.0
  0
LINE
  5
152
100
AcDbEntity
  8
0
  6
CONTINUOUS
 62
               7
100
AcDbLine
 10
9.8000000000000682
 20
-0.799999999999983
 30
0.0
 11
9.8000000000000682
 21
-7.0
 31
0.0
  0
LINE
  5
153
100
AcDbEntity
  8
0
  6
CONTINUOUS
 62
               7
100
AcDbLine
 10
11.300000000000068
 20
-7.0
 30
0.0
 11
11.300000000000068
 21
-2.0
 31
0.0
  0
LINE
  5
154
100
AcDbEntity
  8
0
  6
CONTINUOUS
 62
               7
100
AcDbLine
 10
0.0
 20
-11.799999999999997
 30
0.0
 11
0.0
 21
-0.799999999999983
 31
0.0
  0
LINE
  5
155
100
AcDbEntity
  8
0
  6
CONTINUOUS
 62
               7
100
AcDbLine
 10
9.0
 20
-7.0
 30
0.0
 11
9.0
 21
-0.799999999999983
 31
0.0
  0
LINE
  5
156
100
AcDbEntity
  8
0
  6
CONTINUOUS
 62
               7
100
AcDbLine
 10
0.0
 20
-0.799999999999983
 30
0.0
 11
9.8000000000000682
 21
-0.799999999999983
 31
0.0
  0
LINE
  5
157
100
AcDbEntity
  8
0
  6
CONTINUOUS
 62
               7
100
AcDbLine
 10
9.0
 20
-7.0
 30
0.0
 11
16.800000000000068
 21
-7.0
 31
0.0
  0
LINE
  5
158
100
AcDbEntity
  8
0
  6
CONTINUOUS
 62
               7
100
AcDbLine
 10
11.300000000000068
 20
-2.5
 30
0.0
 11
15.500000000000114
 21
-2.5
 31
0.0
  0
LINE
  5
159
100
AcDbEntity
  8
0
  6
CONTINUOUS
 62
               7
100
AcDbLine
 10
11.300000000000068
 20
-6.5
 30
0.0
 11
15.500000000000114
 21
-6.5
 31
0.0
  0
LINE
  5
15A
100
AcDbEntity
  8
0
  6
CONTINUOUS
 62
               2
100
AcDbLine
 10
7.6015234846273643
 20
-4.5
 30
0.0
 11
20.159103191063423
 21
-4.5
 31
0.0
  0
LINE
  5
15B
100
AcDbEntity
  8
0
  6
CONTINUOUS
 62
               7
100
AcDbLine
 10
0.0
 20
-11.799999999999997
 30
0.0
 11
14.999999975855985
 21
-11.799999999999997
 31
0.0
  0
LINE
  5
15C
100
AcDbEntity
  8
0
  6
CONTINUOUS
 62
               7
100
AcDbLine
 10
0.0
 20
-11.299999999999997
 30
0.0
 11
15.0
 21
-11.299999999999997
 31
0.0
  0
LINE
  5
15D
100
AcDbEntity
  8
0
  6
CONTINUOUS
 62
               7
100
AcDbLine
 10
44.499999997462623
 20
-7.5
 30
0.0
 11
44.499999997462623
 21
-5.0
 31
0.0
  0
LINE
  5
15E
100
AcDbEntity
  8
0
  6
CONTINUOUS
 62
               7
100
AcDbLine
 10
39.499999997462623
 20
-7.5
 30
0.0
 11
39.499999997462623
 21
-5.0
 31
0.0
  0
LINE
  5
15F
100
AcDbEntity
  8
0
  6
CONTINUOUS
 62
               7
100
AcDbLine
 10
28.499999997462623
 20
-7.5
 30
0.0
 11
28.499999997462623
 21
-5.0
 31
0.0
  0
LINE
  5
160
100
AcDbEntity
  8
0
  6
CONTINUOUS
 62
               7
100
AcDbLine
 10
23.499999997462623
 20
-7.5
 30
0.0
 11
23.499999997462623
 21
-5.0
 31
0.0
  0
LINE
  5
161
100
AcDbEntity
  8
0
  6
CONTINUOUS
 62
               2
100
AcDbLine
 10
25.999999997462623
 20
-2.5
 30
0.0
 11
25.999999997462623
 21
2.5
 31
0.0
  0
LINE
  5
162
100
AcDbEntity
  8
0
  6
CONTINUOUS
 62
               2
100
AcDbLine
 10
41.999999997462623
 20
-2.5
 30
0.0
 11
41.999999997462623
 21
2.5
 31
0.0
  0
LINE
  5
163
100
AcDbEntity
  8
0
  6
CONTINUOUS
 62
               2
100
AcDbLine
 10
-2.5
 20
-4.9999999999999858
 30
0.0
 11
2.5
 21
-4.9999999999999858
 31
0.0
  0
LINE
  5
164
100
AcDbEntity
  8
0
  6
CONTINUOUS
 62
               2
100
AcDbLine
 10
51.5
 20
-3.0
 30
0.0
 11
56.5
 21
-3.0
 31
0.0
  0
LINE
  5
165
100
AcDbEntity
  8
0
  6
PHANTOM
 62
               3
100
AcDbLine
 10
36.14099585999088
 20
10.743793905958455
 30
0.0
 11
36.14099585999088
 21
-6.4247407622867172
 31
0.0
  0
LINE
  5
166
100
AcDbEntity
  8
0
  6
PHANTOM
 62
               3
100
AcDbLine
 10
36.14099585999088
 20
-6.4247407622867172
 30
0.0
 11
32.246375355625361
 21
-6.4247407622867172
 31
0.0
  0
LINE
  5
167
100
AcDbEntity
  8
0
  6
PHANTOM
 62
               2
100
AcDbLine
 10
9.9500000000000455
 20
-1.8000000000000114
 30
0.0
 11
16.649999999999977
 21
-1.8000000000000114
 31
0.0
  0
LINE
  5
168
100
AcDbEntity
  8
0
  6
PHANTOM
 62
               2
100
AcDbLine
 10
9.9500000000000455
 20
-1.5000000000000142
 30
0.0
 11
16.649999999999977
 21
-1.5000000000000142
 31
0.0
  0
LINE
  5
169
100
AcDbEntity
  8
0
  6
PHANTOM
 62
               3
100
AcDbLine
 10
32.246375355625361
 20
-6.4247407622867172
 30
0.0
 11
32.246375355625361
 21
-25.261654142125309
 31
0.0
  0
ENDBLK
  5
16A
100
AcDbEntity
  8
0
100
AcDbBlockEnd
  0
BLOCK
  5
16B
100
AcDbEntity
  8
0
100
AcDbBlockBegin
  2
MGAG6-5
 70
               0
 10
0.0
 20
0.0
 30
0.0
  3
MGAG6-5
  1

  0
LINE
  5
16C
100
AcDbEntity
  8
0
  6
CONTINUOUS
 62
               7
100
AcDbLine
 10
19.0
 20
0.0
 30
0.0
 11
54.0
 21
0.0
 31
0.0
  0
LINE
  5
16D
100
AcDbEntity
  8
0
  6
CONTINUOUS
 62
               7
100
AcDbLine
 10
15.0
 20
12.0
 30
0.0
 11
54.0
 21
12.0
 31
0.0
  0
LINE
  5
16E
100
AcDbEntity
  8
0
  6
CONTINUOUS
 62
               7
100
AcDbLine
 10
54.0
 20
0.0
 30
0.0
 11
54.0
 21
12.0
 31
0.0
  0
LINE
  5
16F
100
AcDbEntity
  8
0
  6
CONTINUOUS
 62
               7
100
AcDbLine
 10
19.0
 20
0.0
 30
0.0
 11
19.0
 21
8.0
 31
0.0
  0
LINE
  5
170
100
AcDbEntity
  8
0
  6
CONTINUOUS
 62
               7
100
AcDbLine
 10
14.999999975855985
 20
8.0
 30
0.0
 11
54.0
 21
8.0
 31
0.0
  0
LINE
  5
171
100
AcDbEntity
  8
0
  6
CONTINUOUS
 62
               7
100
AcDbLine
 10
14.999999975855985
 20
8.0
 30
0.0
 11
14.999999975855985
 21
11.99999998630939
 31
0.0
  0
CIRCLE
  5
172
100
AcDbEntity
  8
0
  6
CONTINUOUS
 62
               7
100
AcDbCircle
 10
51.0
 20
3.1999999999999886
 30
0.0
 40
0.8
  0
CIRCLE
  5
173
100
AcDbEntity
  8
0
  6
CONTINUOUS
 62
               2
100
AcDbCircle
 10
51.0
 20
3.1999999999999886
 30
0.0
 40
1.0
  0
LINE
  5
174
100
AcDbEntity
  8
0
  6
CONTINUOUS
 62
               2
100
AcDbLine
 10
49.0
 20
3.1999999999999886
 30
0.0
 11
53.0
 21
3.1999999999999886
 31
0.0
  0
LINE
  5
175
100
AcDbEntity
  8
0
  6
CONTINUOUS
 62
               2
100
AcDbLine
 10
51.0
 20
1.1999999999999886
 30
0.0
 11
51.0
 21
5.1999999999999886
 31
0.0
  0
CIRCLE
  5
176
100
AcDbEntity
  8
0
  6
CONTINUOUS
 62
               7
100
AcDbCircle
 10
49.0
 20
9.9000000000000057
 30
0.0
 40
0.8
  0
CIRCLE
  5
177
100
AcDbEntity
  8
0
  6
CONTINUOUS
 62
               2
100
AcDbCircle
 10
49.0
 20
9.9000000000000057
 30
0.0
 40
1.0
  0
LINE
  5
178
100
AcDbEntity
  8
0
  6
CONTINUOUS
 62
               2
100
AcDbLine
 10
47.0
 20
9.9000000000000057
 30
0.0
 11
51.0
 21
9.9000000000000057
 31
0.0
  0
LINE
  5
179
100
AcDbEntity
  8
0
  6
CONTINUOUS
 62
               2
100
AcDbLine
 10
49.0
 20
7.9000000000000057
 30
0.0
 11
49.0
 21
11.900000000000006
 31
0.0
  0
CIRCLE
  5
17A
100
AcDbEntity
  8
0
  6
CONTINUOUS
 62
               7
100
AcDbCircle
 10
35.0
 20
9.9000000000000057
 30
0.0
 40
0.8
  0
CIRCLE
  5
17B
100
AcDbEntity
  8
0
  6
CONTINUOUS
 62
               2
100
AcDbCircle
 10
35.0
 20
9.9000000000000057
 30
0.0
 40
1.0
  0
LINE
  5
17C
100
AcDbEntity
  8
0
  6
CONTINUOUS
 62
               2
100
AcDbLine
 10
33.0
 20
9.9000000000000057
 30
0.0
 11
37.0
 21
9.9000000000000057
 31
0.0
  0
LINE
  5
17D
100
AcDbEntity
  8
0
  6
CONTINUOUS
 62
               2
100
AcDbLine
 10
35.0
 20
7.9000000000000057
 30
0.0
 11
35.0
 21
11.900000000000006
 31
0.0
  0
CIRCLE
  5
17E
100
AcDbEntity
  8
0
  6
CONTINUOUS
 62
               7
100
AcDbCircle
 10
22.0
 20
3.1999999999999886
 30
0.0
 40
0.8
  0
CIRCLE
  5
17F
100
AcDbEntity
  8
0
  6
CONTINUOUS
 62
               2
100
AcDbCircle
 10
22.0
 20
3.1999999999999886
 30
0.0
 40
1.0
  0
LINE
  5
180
100
AcDbEntity
  8
0
  6
CONTINUOUS
 62
               2
100
AcDbLine
 10
20.0
 20
3.1999999999999886
 30
0.0
 11
24.0
 21
3.1999999999999886
 31
0.0
  0
LINE
  5
181
100
AcDbEntity
  8
0
  6
CONTINUOUS
 62
               2
100
AcDbLine
 10
22.0
 20
1.1999999999999886
 30
0.0
 11
22.0
 21
5.1999999999999886
 31
0.0
  0
CIRCLE
  5
182
100
AcDbEntity
  8
0
  6
CONTINUOUS
 62
               7
100
AcDbCircle
 10
31.0
 20
4.5
 30
0.0
 40
1.2
  0
LINE
  5
183
100
AcDbEntity
  8
0
  6
CONTINUOUS
 62
               2
100
AcDbLine
 10
28.5
 20
4.5
 30
0.0
 11
33.499999999999886
 21
4.5
 31
0.0
  0
CIRCLE
  5
184
100
AcDbEntity
  8
0
  6
CONTINUOUS
 62
               2
100
AcDbCircle
 10
31.0
 20
4.5
 30
0.0
 40
1.5
  0
LINE
  5
185
100
AcDbEntity
  8
0
  6
CONTINUOUS
 62
               2
100
AcDbLine
 10
31.0
 20
2.0
 30
0.0
 11
31.0
 21
7.0
 31
0.0
  0
CIRCLE
  5
186
100
AcDbEntity
  8
0
  6
CONTINUOUS
 62
               7
100
AcDbCircle
 10
46.999999999999886
 20
4.5
 30
0.0
 40
1.2
  0
LINE
  5
187
100
AcDbEntity
  8
0
  6
CONTINUOUS
 62
               2
100
AcDbLine
 10
44.499999999999886
 20
4.5
 30
0.0
 11
49.499999999999886
 21
4.5
 31
0.0
  0
CIRCLE
  5
188
100
AcDbEntity
  8
0
  6
CONTINUOUS
 62
               2
100
AcDbCircle
 10
46.999999999999886
 20
4.5
 30
0.0
 40
1.5
  0
LINE
  5
189
100
AcDbEntity
  8
0
  6
CONTINUOUS
 62
               2
100
AcDbLine
 10
46.999999999999886
 20
2.0
 30
0.0
 11
46.999999999999886
 21
7.0
 31
0.0
  0
LINE
  5
18A
100
AcDbEntity
  8
0
  6
CONTINUOUS
 62
               7
100
AcDbLine
 10
18.999999975855985
 20
7.5
 30
0.0
 11
54.0
 21
7.5
 31
0.0
  0
LINE
  5
18B
100
AcDbEntity
  8
0
  6
CONTINUOUS
 62
               7
100
AcDbLine
 10
23.499999997462623
 20
5.0
 30
0.0
 11
28.499999997462623
 21
5.0
 31
0.0
  0
LINE
  5
18C
100
AcDbEntity
  8
0
  6
CONTINUOUS
 62
               7
100
AcDbLine
 10
39.499999997462623
 20
5.0
 30
0.0
 11
44.499999997462623
 21
5.0
 31
0.0
  0
LINE
  5
18D
100
AcDbEntity
  8
0
  6
CONTINUOUS
 62
               7
100
AcDbLine
 10
15.0
 20
11.5
 30
0.0
 11
54.0
 21
11.5
 31
0.0
  0
LINE
  5
18E
100
AcDbEntity
  8
0
  6
CONTINUOUS
 62
               7
100
AcDbLine
 10
0.0
 20
11.299999999999997
 30
0.0
 11
15.0
 21
11.299999999999997
 31
0.0
  0
LINE
  5
18F
100
AcDbEntity
  8
0
  6
CONTINUOUS
 62
               7
100
AcDbLine
 10
54.000000001754415
 20
11.699999999999996
 30
0.0
 11
54.500000001754415
 21
11.699999999999996
 31
0.0
  0
LINE
  5
190
100
AcDbEntity
  8
0
  6
CONTINUOUS
 62
               7
100
AcDbLine
 10
54.000000001754415
 20
8.1999999999999957
 30
0.0
 11
54.500000001754415
 21
8.1999999999999957
 31
0.0
  0
LINE
  5
191
100
AcDbEntity
  8
0
  6
CONTINUOUS
 62
               7
100
AcDbLine
 10
55.0
 20
10.200000000000003
 30
0.0
 11
55.0
 21
8.7999999999999972
 31
0.0
  0
LINE
  5
192
100
AcDbEntity
  8
0
  6
CONTINUOUS
 62
               7
100
AcDbLine
 10
54.5
 20
8.5
 30
0.0
 11
54.699999999999932
 21
8.5
 31
0.0
  0
LINE
  5
193
100
AcDbEntity
  8
0
  6
CONTINUOUS
 62
               7
100
AcDbLine
 10
54.5
 20
10.5
 30
0.0
 11
54.699999999999932
 21
10.5
 31
0.0
  0
ARC
  5
194
100
AcDbEntity
  8
0
  6
CONTINUOUS
 62
               7
100
AcDbCircle
 10
54.699999999999932
 20
8.7999999999999972
 30
0.0
 40
0.3
100
AcDbArc
 50
270.0
 51
0.0
  0
ARC
  5
195
100
AcDbEntity
  8
0
  6
CONTINUOUS
 62
               7
100
AcDbCircle
 10
54.699999999999932
 20
10.200000000000003
 30
0.0
 40
0.3
100
AcDbArc
 50
0.0
 51
90.0
  0
LINE
  5
196
100
AcDbEntity
  8
0
  6
CONTINUOUS
 62
               7
100
AcDbLine
 10
54.5
 20
11.699999999999996
 30
0.0
 11
54.5
 21
8.1999999999999957
 31
0.0
  0
LINE
  5
197
100
AcDbEntity
  8
0
  6
CONTINUOUS
 62
               7
100
AcDbLine
 10
17.5
 20
3.0
 30
0.0
 11
19.0
 21
3.0
 31
0.0
  0
LINE
  5
198
100
AcDbEntity
  8
0
  6
CONTINUOUS
 62
               7
100
AcDbLine
 10
17.5
 20
6.0
 30
0.0
 11
19.0
 21
6.0
 31
0.0
  0
LINE
  5
199
100
AcDbEntity
  8
0
  6
CONTINUOUS
 62
               7
100
AcDbLine
 10
0.0
 20
11.799999999999997
 30
0.0
 11
14.999999975855985
 21
11.799999999999997
 31
0.0
  0
LINE
  5
19A
100
AcDbEntity
  8
0
  6
CONTINUOUS
 62
               2
100
AcDbLine
 10
7.6015234846273643
 20
4.5
 30
0.0
 11
20.159103191063423
 21
4.5
 31
0.0
  0
LINE
  5
19B
100
AcDbEntity
  8
0
  6
PHANTOM
 62
               7
100
AcDbLine
 10
15.999999975855985
 20
7.5
 30
0.0
 11
16.649999999999977
 21
7.5
 31
0.0
  0
LINE
  5
19C
100
AcDbEntity
  8
0
  6
CONTINUOUS
 62
               7
100
AcDbLine
 10
11.300000000000068
 20
6.5
 30
0.0
 11
15.500000000000114
 21
6.5
 31
0.0
  0
LINE
  5
19D
100
AcDbEntity
  8
0
  6
CONTINUOUS
 62
               7
100
AcDbLine
 10
11.300000000000068
 20
2.5
 30
0.0
 11
15.500000000000114
 21
2.5
 31
0.0
  0
LINE
  5
19E
100
AcDbEntity
  8
0
  6
PHANTOM
 62
               7
100
AcDbLine
 10
15.999999975855985
 20
7.2000000000000028
 30
0.0
 11
16.649999999999977
 21
7.2000000000000028
 31
0.0
  0
CIRCLE
  5
19F
100
AcDbEntity
  8
0
  6
CONTINUOUS
 62
               7
100
AcDbCircle
 10
9.9500000000000455
 20
1.6499999999999986
 30
0.0
 40
0.15
  0
LINE
  5
1A0
100
AcDbEntity
  8
0
  6
CONTINUOUS
 62
               7
100
AcDbLine
 10
11.300000000000068
 20
2.0
 30
0.0
 11
9.8000000000000682
 21
2.0
 31
0.0
  0
LINE
  5
1A1
100
AcDbEntity
  8
0
  6
CONTINUOUS
 62
               7
100
AcDbLine
 10
9.8000000000000682
 20
0.7999999999999972
 30
0.0
 11
9.8000000000000682
 21
7.0
 31
0.0
  0
LINE
  5
1A2
100
AcDbEntity
  8
0
  6
CONTINUOUS
 62
               7
100
AcDbLine
 10
11.300000000000068
 20
7.0
 30
0.0
 11
11.300000000000068
 21
2.0
 31
0.0
  0
LINE
  5
1A3
100
AcDbEntity
  8
0
  6
CONTINUOUS
 62
               7
100
AcDbLine
 10
0.0
 20
11.799999999999997
 30
0.0
 11
0.0
 21
0.7999999999999972
 31
0.0
  0
LINE
  5
1A4
100
AcDbEntity
  8
0
  6
CONTINUOUS
 62
               7
100
AcDbLine
 10
9.0
 20
7.0
 30
0.0
 11
9.0
 21
0.7999999999999972
 31
0.0
  0
LINE
  5
1A5
100
AcDbEntity
  8
0
  6
CONTINUOUS
 62
               7
100
AcDbLine
 10
0.0
 20
0.7999999999999972
 30
0.0
 11
9.8000000000000682
 21
0.7999999999999972
 31
0.0
  0
LINE
  5
1A6
100
AcDbEntity
  8
0
  6
CONTINUOUS
 62
               7
100
AcDbLine
 10
15.999999975855985
 20
7.0
 30
0.0
 11
15.999999975855985
 21
8.0
 31
0.0
  0
CIRCLE
  5
1A7
100
AcDbEntity
  8
0
  6
CONTINUOUS
 62
               7
100
AcDbCircle
 10
16.649999999999977
 20
1.6499999999999986
 30
0.0
 40
0.15
  0
CIRCLE
  5
1A8
100
AcDbEntity
  8
0
  6
CONTINUOUS
 62
               7
100
AcDbCircle
 10
16.649999999999977
 20
7.3500000000000014
 30
0.0
 40
0.15
  0
LINE
  5
1A9
100
AcDbEntity
  8
0
  6
CONTINUOUS
 62
               7
100
AcDbLine
 10
17.5
 20
1.2999999999999972
 30
0.0
 11
17.5
 21
7.7000000000000028
 31
0.0
  0
LINE
  5
1AA
100
AcDbEntity
  8
0
  6
CONTINUOUS
 62
               7
100
AcDbLine
 10
15.500000000000114
 20
2.0
 30
0.0
 11
16.800000000000068
 21
2.0
 31
0.0
  0
LINE
  5
1AB
100
AcDbEntity
  8
0
  6
CONTINUOUS
 62
               7
100
AcDbLine
 10
15.500000000000114
 20
7.0
 30
0.0
 11
15.500000000000114
 21
2.0
 31
0.0
  0
LINE
  5
1AC
100
AcDbEntity
  8
0
  6
CONTINUOUS
 62
               7
100
AcDbLine
 10
16.800000000000068
 20
8.0
 30
0.0
 11
16.800000000000068
 21
0.7999999999999972
 31
0.0
  0
LINE
  5
1AD
100
AcDbEntity
  8
0
  6
CONTINUOUS
 62
               7
100
AcDbLine
 10
9.0
 20
7.0
 30
0.0
 11
16.800000000000068
 21
7.0
 31
0.0
  0
LINE
  5
1AE
100
AcDbEntity
  8
0
  6
CONTINUOUS
 62
               7
100
AcDbLine
 10
16.800000000000068
 20
0.7999999999999972
 30
0.0
 11
17.300000000000068
 21
0.7999999999999972
 31
0.0
  0
LINE
  5
1AF
100
AcDbEntity
  8
0
  6
CONTINUOUS
 62
               7
100
AcDbLine
 10
17.300000000000068
 20
0.7999999999999972
 30
0.0
 11
17.300000000000068
 21
8.0
 31
0.0
  0
LINE
  5
1B0
100
AcDbEntity
  8
0
  6
CONTINUOUS
 62
               7
100
AcDbLine
 10
17.300000000000068
 20
7.7000000000000028
 30
0.0
 11
17.5
 21
7.7000000000000028
 31
0.0
  0
LINE
  5
1B1
100
AcDbEntity
  8
0
  6
CONTINUOUS
 62
               7
100
AcDbLine
 10
17.300000000000068
 20
1.2999999999999972
 30
0.0
 11
17.5
 21
1.2999999999999972
 31
0.0
  0
LINE
  5
1B2
100
AcDbEntity
  8
0
  6
CONTINUOUS
 62
               7
100
AcDbLine
 10
16.800000000000068
 20
5.7000000000000028
 30
0.0
 11
17.300000000000068
 21
5.7000000000000028
 31
0.0
  0
LINE
  5
1B3
100
AcDbEntity
  8
0
  6
CONTINUOUS
 62
               7
100
AcDbLine
 10
16.800000000000068
 20
3.2999999999999972
 30
0.0
 11
17.300000000000068
 21
3.2999999999999972
 31
0.0
  0
LINE
  5
1B4
100
AcDbEntity
  8
0
  6
CONTINUOUS
 62
               2
100
AcDbLine
 10
17.300000000000068
 20
5.7000000000000028
 30
0.0
 11
16.800000000000068
 21
3.2999999999999972
 31
0.0
  0
LINE
  5
1B5
100
AcDbEntity
  8
0
  6
CONTINUOUS
 62
               2
100
AcDbLine
 10
16.800000000000068
 20
5.7000000000000028
 30
0.0
 11
17.300000000000068
 21
3.2999999999999972
 31
0.0
  0
LINE
  5
1B6
100
AcDbEntity
  8
0
  6
CONTINUOUS
 62
               2
100
AcDbLine
 10
17.5
 20
5.7999999999999972
 30
0.0
 11
17.846410161513745
 21
6.0
 31
0.0
  0
LINE
  5
1B7
100
AcDbEntity
  8
0
  6
CONTINUOUS
 62
               2
100
AcDbLine
 10
17.5
 20
3.2000000000000028
 30
0.0
 11
17.846410161513745
 21
3.0
 31
0.0
  0
LINE
  5
1B8
100
AcDbEntity
  8
0
  6
CONTINUOUS
 62
               7
100
AcDbLine
 10
44.499999997462623
 20
5.0
 30
0.0
 11
44.499999997462623
 21
7.5
 31
0.0
  0
LINE
  5
1B9
100
AcDbEntity
  8
0
  6
CONTINUOUS
 62
               7
100
AcDbLine
 10
39.499999997462623
 20
5.0
 30
0.0
 11
39.499999997462623
 21
7.5
 31
0.0
  0
LINE
  5
1BA
100
AcDbEntity
  8
0
  6
CONTINUOUS
 62
               7
100
AcDbLine
 10
28.499999997462623
 20
5.0
 30
0.0
 11
28.499999997462623
 21
7.5
 31
0.0
  0
LINE
  5
1BB
100
AcDbEntity
  8
0
  6
CONTINUOUS
 62
               7
100
AcDbLine
 10
23.499999997462623
 20
5.0
 30
0.0
 11
23.499999997462623
 21
7.5
 31
0.0
  0
LINE
  5
1BC
100
AcDbEntity
  8
0
  6
CONTINUOUS
 62
               2
100
AcDbLine
 10
-2.5
 20
4.9999999999999964
 30
0.0
 11
2.5
 21
4.9999999999999964
 31
0.0
  0
LINE
  5
1BD
100
AcDbEntity
  8
0
  6
CONTINUOUS
 62
               2
100
AcDbLine
 10
51.5
 20
3.0
 30
0.0
 11
56.5
 21
3.0
 31
0.0
  0
LINE
  5
1BE
100
AcDbEntity
  8
0
  6
PHANTOM
 62
               3
100
AcDbLine
 10
32.246375355625361
 20
28.167119459979737
 30
0.0
 11
32.246375355625361
 21
6.2870873441548767
 31
0.0
  0
LINE
  5
1BF
100
AcDbEntity
  8
0
  6
PHANTOM
 62
               3
100
AcDbLine
 10
32.246375355625361
 20
6.2870873441548767
 30
0.0
 11
37.7964322825663
 21
6.2870873441548767
 31
0.0
  0
LINE
  5
1C0
100
AcDbEntity
  8
0
  6
PHANTOM
 62
               2
100
AcDbLine
 10
9.9500000000000455
 20
1.7999999999999972
 30
0.0
 11
16.649999999999977
 21
1.7999999999999972
 31
0.0
  0
LINE
  5
1C1
100
AcDbEntity
  8
0
  6
PHANTOM
 62
               2
100
AcDbLine
 10
9.9500000000000455
 20
1.5
 30
0.0
 11
16.649999999999977
 21
1.5
 31
0.0
  0
LINE
  5
1C2
100
AcDbEntity
  8
0
  6
PHANTOM
 62
               3
100
AcDbLine
 10
37.7964322825663
 20
6.2017018529711727
 30
0.0
 11
37.7964322825663
 21
-24.02476202606103
 31
0.0
  0
LINE
  5
1C3
100
AcDbEntity
  8
0
  6
CONTINUOUS
 62
               2
100
AcDbLine
 10
41.999999997462623
 20
-2.5
 30
0.0
 11
41.999999997462623
 21
2.5
 31
0.0
  0
LINE
  5
1C4
100
AcDbEntity
  8
0
  6
CONTINUOUS
 62
               2
100
AcDbLine
 10
25.999999997462623
 20
-2.5
 30
0.0
 11
25.999999997462623
 21
2.5
 31
0.0
  0
ENDBLK
  5
1C5
100
AcDbEntity
  8
0
100
AcDbBlockEnd
  0
BLOCK
  5
1C6
100
AcDbEntity
  8
0
100
AcDbBlockBegin
  2
MGAG6-6
 70
               0
 10
0.0
 20
0.0
 30
0.0
  3
MGAG6-6
  1

  0
LINE
  5
1C7
100
AcDbEntity
  8
0
  6
CONTINUOUS
 62
               7
100
AcDbLine
 10
19.0
 20
2.4000000000000057
 30
0.0
 11
54.0
 21
2.4000000000000057
 31
0.0
  0
LINE
  5
1C8
100
AcDbEntity
  8
0
  6
CONTINUOUS
 62
               7
100
AcDbLine
 10
19.0
 20
2.7000000000000028
 30
0.0
 11
54.0
 21
2.7000000000000028
 31
0.0
  0
LINE
  5
1C9
100
AcDbEntity
  8
0
  6
CONTINUOUS
 62
               7
100
AcDbLine
 10
19.0
 20
-2.4000000000000057
 30
0.0
 11
54.0
 21
-2.4000000000000057
 31
0.0
  0
LINE
  5
1CA
100
AcDbEntity
  8
0
  6
CONTINUOUS
 62
               7
100
AcDbLine
 10
19.0
 20
-2.7000000000000028
 30
0.0
 11
54.0
 21
-2.7000000000000028
 31
0.0
  0
CIRCLE
  5
1CB
100
AcDbEntity
  8
0
  6
CONTINUOUS
 62
               2
100
AcDbCircle
 10
42.0
 20
-7.0
 30
0.0
 40
1.5
  0
CIRCLE
  5
1CC
100
AcDbEntity
  8
0
  6
CONTINUOUS
 62
               7
100
AcDbCircle
 10
42.0
 20
-7.0
 30
0.0
 40
1.25
  0
CIRCLE
  5
1CD
100
AcDbEntity
  8
0
  6
CONTINUOUS
 62
               2
100
AcDbCircle
 10
26.0
 20
-7.0
 30
0.0
 40
1.5
  0
CIRCLE
  5
1CE
100
AcDbEntity
  8
0
  6
CONTINUOUS
 62
               7
100
AcDbCircle
 10
26.0
 20
-7.0
 30
0.0
 40
1.25
  0
CIRCLE
  5
1CF
100
AcDbEntity
  8
0
  6
CONTINUOUS
 62
               2
100
AcDbCircle
 10
42.0
 20
7.0
 30
0.0
 40
1.5
  0
CIRCLE
  5
1D0
100
AcDbEntity
  8
0
  6
CONTINUOUS
 62
               7
100
AcDbCircle
 10
42.0
 20
7.0
 30
0.0
 40
1.25
  0
CIRCLE
  5
1D1
100
AcDbEntity
  8
0
  6
CONTINUOUS
 62
               2
100
AcDbCircle
 10
26.0
 20
7.0
 30
0.0
 40
1.5
  0
CIRCLE
  5
1D2
100
AcDbEntity
  8
0
  6
CONTINUOUS
 62
               7
100
AcDbCircle
 10
26.0
 20
7.0
 30
0.0
 40
1.25
  0
LINE
  5
1D3
100
AcDbEntity
  8
0
  6
CONTINUOUS
 62
               7
100
AcDbLine
 10
32.5
 20
6.5
 30
0.0
 11
32.5
 21
7.5
 31
0.0
  0
LINE
  5
1D4
100
AcDbEntity
  8
0
  6
CONTINUOUS
 62
               7
100
AcDbLine
 10
35.5
 20
6.5
 30
0.0
 11
35.5
 21
7.5
 31
0.0
  0
ARC
  5
1D5
100
AcDbEntity
  8
0
  6
CONTINUOUS
 62
               7
100
AcDbCircle
 10
34.0
 20
6.5
 30
0.0
 40
1.5
100
AcDbArc
 50
180.0
 51
0.0
  0
ARC
  5
1D6
100
AcDbEntity
  8
0
  6
CONTINUOUS
 62
               7
100
AcDbCircle
 10
34.0
 20
7.5
 30
0.0
 40
1.5
100
AcDbArc
 50
0.0
 51
180.0
  0
CIRCLE
  5
1D7
100
AcDbEntity
  8
0
  6
CONTINUOUS
 62
               7
100
AcDbCircle
 10
34.0
 20
-7.0
 30
0.0
 40
1.5
  0
LINE
  5
1D8
100
AcDbEntity
  8
0
  6
CONTINUOUS
 62
               2
100
AcDbLine
 10
-4.0
 20
0.0
 30
0.0
 11
58.0
 21
0.0
 31
0.0
  0
LINE
  5
1D9
100
AcDbEntity
  8
0
  6
CONTINUOUS
 62
               7
100
AcDbLine
 10
19.0
 20
9.5
 30
0.0
 11
19.0
 21
-9.4999999863093905
 31
0.0
  0
LINE
  5
1DA
100
AcDbEntity
  8
0
  6
CONTINUOUS
 62
               7
100
AcDbLine
 10
18.999999975856099
 20
9.5
 30
0.0
 11
54.0
 21
9.5
 31
0.0
  0
LINE
  5
1DB
100
AcDbEntity
  8
0
  6
CONTINUOUS
 62
               7
100
AcDbLine
 10
18.999999975856099
 20
-9.5
 30
0.0
 11
54.0
 21
-9.5
 31
0.0
  0
LINE
  5
1DC
100
AcDbEntity
  8
0
  6
CONTINUOUS
 62
               7
100
AcDbLine
 10
54.0
 20
10.0
 30
0.0
 11
54.0
 21
-10.0
 31
0.0
  0
LINE
  5
1DD
100
AcDbEntity
  8
0
  6
CONTINUOUS
 62
               7
100
AcDbLine
 10
0.0000000273480509
 20
-10.0
 30
0.0
 11
54.0
 21
-10.0
 31
0.0
  0
LINE
  5
1DE
100
AcDbEntity
  8
0
  6
CONTINUOUS
 62
               7
100
AcDbLine
 10
0.0000000273480509
 20
10.0
 30
0.0
 11
54.0
 21
10.0
 31
0.0
  0
LINE
  5
1DF
100
AcDbEntity
  8
0
  6
CONTINUOUS
 62
               7
100
AcDbLine
 10
54.5
 20
7.3000000000000114
 30
0.0
 11
54.5
 21
-7.3000000000000114
 31
0.0
  0
LINE
  5
1E0
100
AcDbEntity
  8
0
  6
CONTINUOUS
 62
               7
100
AcDbLine
 10
54.0
 20
7.3000000000000114
 30
0.0
 11
54.5
 21
7.3000000000000114
 31
0.0
  0
LINE
  5
1E1
100
AcDbEntity
  8
0
  6
CONTINUOUS
 62
               7
100
AcDbLine
 10
54.0
 20
3.0999999999999943
 30
0.0
 11
54.5
 21
3.0999999999999943
 31
0.0
  0
LINE
  5
1E2
100
AcDbEntity
  8
0
  6
CONTINUOUS
 62
               7
100
AcDbLine
 10
54.5
 20
6.5
 30
0.0
 11
54.700000000000045
 21
6.5
 31
0.0
  0
LINE
  5
1E3
100
AcDbEntity
  8
0
  6
CONTINUOUS
 62
               7
100
AcDbLine
 10
54.5
 20
4.5
 30
0.0
 11
54.700000000000045
 21
4.5
 31
0.0
  0
ARC
  5
1E4
100
AcDbEntity
  8
0
  6
CONTINUOUS
 62
               7
100
AcDbCircle
 10
54.700000000000045
 20
4.7999999999999972
 30
0.0
 40
0.3
100
AcDbArc
 50
270.0
 51
0.0
  0
ARC
  5
1E5
100
AcDbEntity
  8
0
  6
CONTINUOUS
 62
               7
100
AcDbCircle
 10
54.700000000000045
 20
6.2000000000000028
 30
0.0
 40
0.3
100
AcDbArc
 50
0.0
 51
90.0
  0
LINE
  5
1E6
100
AcDbEntity
  8
0
  6
CONTINUOUS
 62
               7
100
AcDbLine
 10
55.0
 20
4.7999999999999972
 30
0.0
 11
55.0
 21
6.2000000000000028
 31
0.0
  0
LINE
  5
1E7
100
AcDbEntity
  8
0
  6
CONTINUOUS
 62
               7
100
AcDbLine
 10
54.0
 20
-3.0999999999999943
 30
0.0
 11
54.5
 21
-3.0999999999999943
 31
0.0
  0
LINE
  5
1E8
100
AcDbEntity
  8
0
  6
CONTINUOUS
 62
               7
100
AcDbLine
 10
54.0
 20
-7.3000000000000114
 30
0.0
 11
54.5
 21
-7.3000000000000114
 31
0.0
  0
LINE
  5
1E9
100
AcDbEntity
  8
0
  6
CONTINUOUS
 62
               7
100
AcDbLine
 10
55.0
 20
-4.7999999999999972
 30
0.0
 11
55.0
 21
-6.2000000000000028
 31
0.0
  0
LINE
  5
1EA
100
AcDbEntity
  8
0
  6
CONTINUOUS
 62
               7
100
AcDbLine
 10
54.5
 20
-6.5
 30
0.0
 11
54.700000000000045
 21
-6.5
 31
0.0
  0
LINE
  5
1EB
100
AcDbEntity
  8
0
  6
CONTINUOUS
 62
               7
100
AcDbLine
 10
54.5
 20
-4.5
 30
0.0
 11
54.700000000000045
 21
-4.5
 31
0.0
  0
ARC
  5
1EC
100
AcDbEntity
  8
0
  6
CONTINUOUS
 62
               7
100
AcDbCircle
 10
54.700000000000045
 20
-6.2000000000000028
 30
0.0
 40
0.3
100
AcDbArc
 50
270.0
 51
0.0
  0
ARC
  5
1ED
100
AcDbEntity
  8
0
  6
CONTINUOUS
 62
               7
100
AcDbCircle
 10
54.700000000000045
 20
-4.7999999999999972
 30
0.0
 40
0.3
100
AcDbArc
 50
0.0
 51
90.0
  0
LINE
  5
1EE
100
AcDbEntity
  8
0
  6
CONTINUOUS
 62
               7
100
AcDbLine
 10
18.5
 20
3.3000000000000185
 30
0.0
 11
18.5
 21
1.5
 31
0.0
  0
LINE
  5
1EF
100
AcDbEntity
  8
0
  6
CONTINUOUS
 62
               7
100
AcDbLine
 10
18.0
 20
1.5
 30
0.0
 11
18.0
 21
2.2000000000000028
 31
0.0
  0
LINE
  5
1F0
100
AcDbEntity
  8
0
  6
CONTINUOUS
 62
               7
100
AcDbLine
 10
18.5
 20
3.3000000000000185
 30
0.0
 11
19.0
 21
3.3000000000000185
 31
0.0
  0
LINE
  5
1F1
100
AcDbEntity
  8
0
  6
CONTINUOUS
 62
               7
100
AcDbLine
 10
18.5
 20
2.5
 30
0.0
 11
18.300000000000068
 21
2.5
 31
0.0
  0
ARC
  5
1F2
100
AcDbEntity
  8
0
  6
CONTINUOUS
 62
               7
100
AcDbCircle
 10
18.300000000000068
 20
2.2000000000000028
 30
0.0
 40
0.3
100
AcDbArc
 50
90.0
 51
180.0
  0
LINE
  5
1F3
100
AcDbEntity
  8
0
  6
CONTINUOUS
 62
               7
100
AcDbLine
 10
18.5
 20
-1.5
 30
0.0
 11
18.5
 21
-3.2999999999999972
 31
0.0
  0
LINE
  5
1F4
100
AcDbEntity
  8
0
  6
CONTINUOUS
 62
               7
100
AcDbLine
 10
18.0
 20
-2.2000000000000028
 30
0.0
 11
18.0
 21
-1.5
 31
0.0
  0
LINE
  5
1F5
100
AcDbEntity
  8
0
  6
CONTINUOUS
 62
               7
100
AcDbLine
 10
18.5
 20
-3.2999999999999972
 30
0.0
 11
19.0
 21
-3.2999999999999972
 31
0.0
  0
ARC
  5
1F6
100
AcDbEntity
  8
0
  6
CONTINUOUS
 62
               7
100
AcDbCircle
 10
18.300000000000068
 20
-2.2000000000000028
 30
0.0
 40
0.3
100
AcDbArc
 50
180.0
 51
270.0
  0
LINE
  5
1F7
100
AcDbEntity
  8
0
  6
CONTINUOUS
 62
               7
100
AcDbLine
 10
18.5
 20
-2.5
 30
0.0
 11
18.300000000000068
 21
-2.5
 31
0.0
  0
LINE
  5
1F8
100
AcDbEntity
  8
0
  6
CONTINUOUS
 62
               7
100
AcDbLine
 10
0.0
 20
10.00000001369061
 30
0.0
 11
0.0
 21
-9.9999999863093905
 31
0.0
  0
LINE
  5
1F9
100
AcDbEntity
  8
0
  6
CONTINUOUS
 62
               7
100
AcDbLine
 10
15.999999975856099
 20
3.0
 30
0.0
 11
15.999999975856099
 21
10.0
 31
0.0
  0
LINE
  5
1FA
100
AcDbEntity
  8
0
  6
CONTINUOUS
 62
               7
100
AcDbLine
 10
17.500000000000114
 20
1.5
 30
0.0
 11
19.0
 21
1.5
 31
0.0
  0
LINE
  5
1FB
100
AcDbEntity
  8
0
  6
CONTINUOUS
 62
               7
100
AcDbLine
 10
17.500000000000114
 20
-1.5
 30
0.0
 11
19.0
 21
-1.5
 31
0.0
  0
LINE
  5
1FC
100
AcDbEntity
  8
0
  6
CONTINUOUS
 62
               7
100
AcDbLine
 10
9.0
 20
-10.0
 30
0.0
 11
9.0
 21
10.0
 31
0.0
  0
LINE
  5
1FD
100
AcDbEntity
  8
0
  6
CONTINUOUS
 62
               7
100
AcDbLine
 10
15.999999975856099
 20
-3.0
 30
0.0
 11
15.999999975856099
 21
-10.0
 31
0.0
  0
LINE
  5
1FE
100
AcDbEntity
  8
0
  6
CONTINUOUS
 62
               7
100
AcDbLine
 10
14.999999975856099
 20
2.0
 30
0.0
 11
14.999999975856099
 21
3.0
 31
0.0
  0
LINE
  5
1FF
100
AcDbEntity
  8
0
  6
CONTINUOUS
 62
               7
100
AcDbLine
 10
14.999999975856099
 20
-2.0
 30
0.0
 11
14.999999975856099
 21
-3.0
 31
0.0
  0
LINE
  5
200
100
AcDbEntity
  8
0
  6
CONTINUOUS
 62
               7
100
AcDbLine
 10
14.999999975856099
 20
-3.0
 30
0.0
 11
15.999999975856099
 21
-3.0
 31
0.0
  0
LINE
  5
201
100
AcDbEntity
  8
0
  6
CONTINUOUS
 62
               7
100
AcDbLine
 10
14.999999975856099
 20
3.0
 30
0.0
 11
15.999999975856099
 21
3.0
 31
0.0
  0
LINE
  5
202
100
AcDbEntity
  8
0
  6
CONTINUOUS
 62
               7
100
AcDbLine
 10
8.9999999758560989
 20
-4.0
 30
0.0
 11
15.999999975856099
 21
-4.0
 31
0.0
  0
LINE
  5
203
100
AcDbEntity
  8
0
  6
CONTINUOUS
 62
               7
100
AcDbLine
 10
8.9999999758560989
 20
4.0
 30
0.0
 11
15.999999975856099
 21
4.0
 31
0.0
  0
LINE
  5
204
100
AcDbEntity
  8
0
  6
CONTINUOUS
 62
               7
100
AcDbLine
 10
11.300000000000182
 20
-2.0
 30
0.0
 11
15.500000000000114
 21
-2.0
 31
0.0
  0
LINE
  5
205
100
AcDbEntity
  8
0
  6
CONTINUOUS
 62
               7
100
AcDbLine
 10
11.300000000000182
 20
2.0
 30
0.0
 11
15.500000000000114
 21
2.0
 31
0.0
  0
LINE
  5
206
100
AcDbEntity
  8
0
  6
CONTINUOUS
 62
               7
100
AcDbLine
 10
11.300000000000182
 20
-2.5
 30
0.0
 11
9.8000000000000682
 21
-2.5
 31
0.0
  0
LINE
  5
207
100
AcDbEntity
  8
0
  6
CONTINUOUS
 62
               7
100
AcDbLine
 10
15.500000000000114
 20
-2.5
 30
0.0
 11
16.800000000000068
 21
-2.5
 31
0.0
  0
CIRCLE
  5
208
100
AcDbEntity
  8
0
  6
CONTINUOUS
 62
               7
100
AcDbCircle
 10
16.650000000000091
 20
-2.8500000000000085
 30
0.0
 40
0.15
  0
CIRCLE
  5
209
100
AcDbEntity
  8
0
  6
CONTINUOUS
 62
               7
100
AcDbCircle
 10
9.9500000000000455
 20
-2.8500000000000085
 30
0.0
 40
0.15
  0
LINE
  5
20A
100
AcDbEntity
  8
0
  6
CONTINUOUS
 62
               7
100
AcDbLine
 10
6.8000000000000682
 20
-2.0
 30
0.0
 11
9.0
 21
-2.0
 31
0.0
  0
LINE
  5
20B
100
AcDbEntity
  8
0
  6
CONTINUOUS
 62
               7
100
AcDbLine
 10
9.0
 20
-3.7000000000000028
 30
0.0
 11
9.8000000000000682
 21
-3.7000000000000028
 31
0.0
  0
LINE
  5
20C
100
AcDbEntity
  8
0
  6
CONTINUOUS
 62
               7
100
AcDbLine
 10
9.0
 20
3.7000000000000028
 30
0.0
 11
9.8000000000000682
 21
3.7000000000000028
 31
0.0
  0
LINE
  5
20D
100
AcDbEntity
  8
0
  6
CONTINUOUS
 62
               7
100
AcDbLine
 10
15.500000000000114
 20
2.5
 30
0.0
 11
16.800000000000068
 21
2.5
 31
0.0
  0
LINE
  5
20E
100
AcDbEntity
  8
0
  6
CONTINUOUS
 62
               7
100
AcDbLine
 10
16.800000000000068
 20
3.5
 30
0.0
 11
16.800000000000068
 21
-3.5
 31
0.0
  0
LINE
  5
20F
100
AcDbEntity
  8
0
  6
CONTINUOUS
 62
               7
100
AcDbLine
 10
11.300000000000182
 20
2.5
 30
0.0
 11
11.300000000000182
 21
-2.5
 31
0.0
  0
LINE
  5
210
100
AcDbEntity
  8
0
  6
CONTINUOUS
 62
               7
100
AcDbLine
 10
11.300000000000182
 20
2.5
 30
0.0
 11
9.8000000000000682
 21
2.5
 31
0.0
  0
CIRCLE
  5
211
100
AcDbEntity
  8
0
  6
CONTINUOUS
 62
               7
100
AcDbCircle
 10
16.650000000000091
 20
2.8500000000000085
 30
0.0
 40
0.15
  0
CIRCLE
  5
212
100
AcDbEntity
  8
0
  6
CONTINUOUS
 62
               7
100
AcDbCircle
 10
9.9500000000000455
 20
2.8500000000000085
 30
0.0
 40
0.15
  0
LINE
  5
213
100
AcDbEntity
  8
0
  6
CONTINUOUS
 62
               7
100
AcDbLine
 10
9.8000000000000682
 20
3.7000000000000028
 30
0.0
 11
9.8000000000000682
 21
-3.7000000000000028
 31
0.0
  0
LINE
  5
214
100
AcDbEntity
  8
0
  6
CONTINUOUS
 62
               7
100
AcDbLine
 10
15.500000000000114
 20
2.5
 30
0.0
 11
15.500000000000114
 21
-2.5
 31
0.0
  0
LINE
  5
215
100
AcDbEntity
  8
0
  6
CONTINUOUS
 62
               7
100
AcDbLine
 10
6.8000000000000682
 20
2.0
 30
0.0
 11
9.0
 21
2.0
 31
0.0
  0
LINE
  5
216
100
AcDbEntity
  8
0
  6
CONTINUOUS
 62
               7
100
AcDbLine
 10
17.500000000000114
 20
3.2000000000000028
 30
0.0
 11
17.500000000000114
 21
-3.2000000000000028
 31
0.0
  0
LINE
  5
217
100
AcDbEntity
  8
0
  6
CONTINUOUS
 62
               7
100
AcDbLine
 10
6.8000000000000682
 20
2.4999999999999858
 30
0.0
 11
9.0
 21
2.4999999999999858
 31
0.0
  0
LINE
  5
218
100
AcDbEntity
  8
0
  6
CONTINUOUS
 62
               7
100
AcDbLine
 10
6.8000000000000682
 20
-2.5
 30
0.0
 11
9.0
 21
-2.5
 31
0.0
  0
LINE
  5
219
100
AcDbEntity
  8
0
  6
CONTINUOUS
 62
               7
100
AcDbLine
 10
4.3000000000000682
 20
-3.7000000000000028
 30
0.0
 11
6.8000000000000682
 21
-3.7000000000000028
 31
0.0
  0
LINE
  5
21A
100
AcDbEntity
  8
0
  6
CONTINUOUS
 62
               7
100
AcDbLine
 10
4.3000000000000682
 20
3.7000000000000028
 30
0.0
 11
6.8000000000000682
 21
3.7000000000000028
 31
0.0
  0
LINE
  5
21B
100
AcDbEntity
  8
0
  6
CONTINUOUS
 62
               7
100
AcDbLine
 10
4.3000000000000682
 20
-3.7000000000000028
 30
0.0
 11
4.3000000000000682
 21
3.7000000000000028
 31
0.0
  0
LINE
  5
21C
100
AcDbEntity
  8
0
  6
CONTINUOUS
 62
               7
100
AcDbLine
 10
6.8000000000000682
 20
-4.2000000000000028
 30
0.0
 11
6.8000000000000682
 21
4.2000000000000028
 31
0.0
  0
LINE
  5
21D
100
AcDbEntity
  8
0
  6
CONTINUOUS
 62
               7
100
AcDbLine
 10
0.0
 20
-4.2000000000000028
 30
0.0
 11
6.8000000000000682
 21
-4.2000000000000028
 31
0.0
  0
LINE
  5
21E
100
AcDbEntity
  8
0
  6
CONTINUOUS
 62
               7
100
AcDbLine
 10
0.0
 20
4.2000000000000028
 30
0.0
 11
6.8000000000000682
 21
4.2000000000000028
 31
0.0
  0
LINE
  5
21F
100
AcDbEntity
  8
0
  6
CONTINUOUS
 62
               7
100
AcDbLine
 10
15.999999975856099
 20
3.3999999999999986
 30
0.0
 11
16.800000000000068
 21
3.3999999999999986
 31
0.0
  0
LINE
  5
220
100
AcDbEntity
  8
0
  6
CONTINUOUS
 62
               7
100
AcDbLine
 10
15.999999975856099
 20
-3.4000000000000057
 30
0.0
 11
16.800000000000068
 21
-3.4000000000000057
 31
0.0
  0
LINE
  5
221
100
AcDbEntity
  8
0
  6
CONTINUOUS
 62
               7
100
AcDbLine
 10
16.800000000000068
 20
3.5
 30
0.0
 11
17.300000000000068
 21
3.5
 31
0.0
  0
LINE
  5
222
100
AcDbEntity
  8
0
  6
CONTINUOUS
 62
               7
100
AcDbLine
 10
16.800000000000068
 20
-3.5
 30
0.0
 11
17.300000000000068
 21
-3.5
 31
0.0
  0
LINE
  5
223
100
AcDbEntity
  8
0
  6
CONTINUOUS
 62
               7
100
AcDbLine
 10
17.300000000000068
 20
3.2000000000000028
 30
0.0
 11
17.500000000000114
 21
3.2000000000000028
 31
0.0
  0
LINE
  5
224
100
AcDbEntity
  8
0
  6
CONTINUOUS
 62
               7
100
AcDbLine
 10
17.300000000000068
 20
-3.2000000000000028
 30
0.0
 11
17.500000000000114
 21
-3.2000000000000028
 31
0.0
  0
LINE
  5
225
100
AcDbEntity
  8
0
  6
CONTINUOUS
 62
               7
100
AcDbLine
 10
17.300000000000068
 20
3.5
 30
0.0
 11
17.300000000000068
 21
-3.5
 31
0.0
  0
LINE
  5
226
100
AcDbEntity
  8
0
  6
CONTINUOUS
 62
               7
100
AcDbLine
 10
17.300000000000068
 20
3.3999999999999986
 30
0.0
 11
19.0
 21
3.3999999999999986
 31
0.0
  0
LINE
  5
227
100
AcDbEntity
  8
0
  6
CONTINUOUS
 62
               7
100
AcDbLine
 10
17.300000000000068
 20
-3.4000000000000057
 30
0.0
 11
19.0
 21
-3.4000000000000057
 31
0.0
  0
LINE
  5
228
100
AcDbEntity
  8
0
  6
CONTINUOUS
 62
               2
100
AcDbLine
 10
17.500000000000114
 20
-1.2999999999999972
 30
0.0
 11
17.846410161513859
 21
-1.5
 31
0.0
  0
LINE
  5
229
100
AcDbEntity
  8
0
  6
CONTINUOUS
 62
               2
100
AcDbLine
 10
17.500000000000114
 20
1.2999999999999972
 30
0.0
 11
17.846410161513859
 21
1.5
 31
0.0
  0
LINE
  5
22A
100
AcDbEntity
  8
0
  6
CONTINUOUS
 62
               2
100
AcDbLine
 10
-2.5
 20
7.0
 30
0.0
 11
2.5
 21
7.0
 31
0.0
  0
LINE
  5
22B
100
AcDbEntity
  8
0
  6
CONTINUOUS
 62
               2
100
AcDbLine
 10
-2.5
 20
-7.0
 30
0.0
 11
2.5
 21
-7.0
 31
0.0
  0
LINE
  5
22C
100
AcDbEntity
  8
0
  6
CONTINUOUS
 62
               2
100
AcDbLine
 10
52.0
 20
5.5
 30
0.0
 11
57.0
 21
5.5
 31
0.0
  0
LINE
  5
22D
100
AcDbEntity
  8
0
  6
CONTINUOUS
 62
               2
100
AcDbLine
 10
52.0
 20
-5.5
 30
0.0
 11
57.0
 21
-5.5
 31
0.0
  0
LINE
  5
22E
100
AcDbEntity
  8
0
  6
CONTINUOUS
 62
               2
100
AcDbLine
 10
26.0
 20
9.5
 30
0.0
 11
26.0
 21
4.5
 31
0.0
  0
LINE
  5
22F
100
AcDbEntity
  8
0
  6
CONTINUOUS
 62
               2
100
AcDbLine
 10
42.0
 20
9.5
 30
0.0
 11
42.0
 21
4.5
 31
0.0
  0
LINE
  5
230
100
AcDbEntity
  8
0
  6
CONTINUOUS
 62
               2
100
AcDbLine
 10
39.5
 20
7.0
 30
0.0
 11
44.5
 21
7.0
 31
0.0
  0
LINE
  5
231
100
AcDbEntity
  8
0
  6
CONTINUOUS
 62
               2
100
AcDbLine
 10
23.5
 20
-7.0
 30
0.0
 11
28.5
 21
-7.0
 31
0.0
  0
LINE
  5
232
100
AcDbEntity
  8
0
  6
CONTINUOUS
 62
               2
100
AcDbLine
 10
26.0
 20
-4.5
 30
0.0
 11
26.0
 21
-9.5
 31
0.0
  0
LINE
  5
233
100
AcDbEntity
  8
0
  6
CONTINUOUS
 62
               2
100
AcDbLine
 10
23.5
 20
7.0
 30
0.0
 11
28.5
 21
7.0
 31
0.0
  0
LINE
  5
234
100
AcDbEntity
  8
0
  6
CONTINUOUS
 62
               2
100
AcDbLine
 10
42.0
 20
-4.5
 30
0.0
 11
42.0
 21
-9.5
 31
0.0
  0
LINE
  5
235
100
AcDbEntity
  8
0
  6
CONTINUOUS
 62
               2
100
AcDbLine
 10
39.5
 20
-7.0
 30
0.0
 11
44.5
 21
-7.0
 31
0.0
  0
LINE
  5
236
100
AcDbEntity
  8
0
  6
PHANTOM
 62
               2
100
AcDbLine
 10
9.9500000000000455
 20
3.0000000000000071
 30
0.0
 11
16.649999999999977
 21
3.0000000000000071
 31
0.0
  0
LINE
  5
237
100
AcDbEntity
  8
0
  6
PHANTOM
 62
               2
100
AcDbLine
 10
9.9500000000000455
 20
2.7000000000000099
 30
0.0
 11
16.649999999999977
 21
2.7000000000000099
 31
0.0
  0
LINE
  5
238
100
AcDbEntity
  8
0
  6
PHANTOM
 62
               2
100
AcDbLine
 10
9.9500000000000455
 20
-2.7000000000000099
 30
0.0
 11
16.649999999999977
 21
-2.7000000000000099
 31
0.0
  0
LINE
  5
239
100
AcDbEntity
  8
0
  6
PHANTOM
 62
               2
100
AcDbLine
 10
9.9500000000000455
 20
-3.0000000000000071
 30
0.0
 11
16.649999999999977
 21
-3.0000000000000071
 31
0.0
  0
LINE
  5
23A
100
AcDbEntity
  8
0
  6
CONTINUOUS
 62
               2
100
AcDbLine
 10
34.0
 20
-4.5
 30
0.0
 11
34.0
 21
-9.5
 31
0.0
  0
LINE
  5
23B
100
AcDbEntity
  8
0
  6
CONTINUOUS
 62
               2
100
AcDbLine
 10
31.5
 20
-7.0
 30
0.0
 11
36.5
 21
-7.0
 31
0.0
  0
LINE
  5
23C
100
AcDbEntity
  8
0
  6
CONTINUOUS
 62
               2
100
AcDbLine
 10
34.0
 20
9.5
 30
0.0
 11
34.0
 21
4.5
 31
0.0
  0
LINE
  5
23D
100
AcDbEntity
  8
0
  6
CONTINUOUS
 62
               2
100
AcDbLine
 10
31.5
 20
7.0
 30
0.0
 11
36.5
 21
7.0
 31
0.0
  0
LINE
  5
23E
100
AcDbEntity
  8
0
  6
PHANTOM
 62
               3
100
AcDbLine
 10
37.796432285103677
 20
24.47523797393897
 30
0.0
 11
37.796432285103677
 21
-24.322570237549456
 31
0.0
  0
ENDBLK
  5
23F
100
AcDbEntity
  8
0
100
AcDbBlockEnd
  0
BLOCK
  5
240
100
AcDbEntity
  8
0
100
AcDbBlockBegin
  2
MGAG6-7
 70
               0
 10
0.0
 20
0.0
 30
0.0
  3
MGAG6-7
  1

  0
LINE
  5
241
100
AcDbEntity
  8
0
  6
CONTINUOUS
 62
               7
100
AcDbLine
 10
0.0000000273479941
 20
9.5
 30
0.0
 11
54.0
 21
9.5
 31
0.0
  0
LINE
  5
242
100
AcDbEntity
  8
0
  6
CONTINUOUS
 62
               7
100
AcDbLine
 10
0.0000000273479941
 20
-9.5
 30
0.0
 11
54.0
 21
-9.5
 31
0.0
  0
LINE
  5
243
100
AcDbEntity
  8
0
  6
CONTINUOUS
 62
               7
100
AcDbLine
 10
40.0
 20
12.699999986309393
 30
0.0
 11
44.0
 21
12.699999986309393
 31
0.0
  0
LINE
  5
244
100
AcDbEntity
  8
0
  6
CONTINUOUS
 62
               7
100
AcDbLine
 10
33.0
 20
10.99999998630939
 30
0.0
 11
51.0
 21
10.99999998630939
 31
0.0
  0
LINE
  5
245
100
AcDbEntity
  8
0
  6
CONTINUOUS
 62
               7
100
AcDbLine
 10
44.0
 20
12.699999986309393
 30
0.0
 11
44.0
 21
10.99999998630939
 31
0.0
  0
LINE
  5
246
100
AcDbEntity
  8
0
  6
CONTINUOUS
 62
               7
100
AcDbLine
 10
40.0
 20
12.699999986309393
 30
0.0
 11
40.0
 21
10.99999998630939
 31
0.0
  0
LINE
  5
247
100
AcDbEntity
  8
0
  6
CONTINUOUS
 62
               7
100
AcDbLine
 10
47.400000000000034
 20
12.99999998630939
 30
0.0
 11
47.100000000000023
 21
12.699999986309393
 31
0.0
  0
LINE
  5
248
100
AcDbEntity
  8
0
  6
CONTINUOUS
 62
               7
100
AcDbLine
 10
50.600000000000023
 20
12.99999998630939
 30
0.0
 11
47.400000000000034
 21
12.99999998630939
 31
0.0
  0
LINE
  5
249
100
AcDbEntity
  8
0
  6
CONTINUOUS
 62
               7
100
AcDbLine
 10
47.100000000000023
 20
12.699999986309393
 30
0.0
 11
47.100000000000023
 21
10.99999998630939
 31
0.0
  0
LINE
  5
24A
100
AcDbEntity
  8
0
  6
CONTINUOUS
 62
               7
100
AcDbLine
 10
50.900000000000034
 20
12.699999986309393
 30
0.0
 11
47.100000000000023
 21
12.699999986309393
 31
0.0
  0
LINE
  5
24B
100
AcDbEntity
  8
0
  6
CONTINUOUS
 62
               7
100
AcDbLine
 10
50.600000000000023
 20
12.99999998630939
 30
0.0
 11
50.900000000000034
 21
12.699999986309393
 31
0.0
  0
LINE
  5
24C
100
AcDbEntity
  8
0
  6
CONTINUOUS
 62
               7
100
AcDbLine
 10
50.900000000000034
 20
12.699999986309393
 30
0.0
 11
50.900000000000034
 21
10.99999998630939
 31
0.0
  0
LINE
  5
24D
100
AcDbEntity
  8
0
  6
CONTINUOUS
 62
               7
100
AcDbLine
 10
51.0
 20
10.99999998630939
 30
0.0
 11
51.0
 21
10.0
 31
0.0
  0
LINE
  5
24E
100
AcDbEntity
  8
0
  6
CONTINUOUS
 62
               7
100
AcDbLine
 10
33.100000000000023
 20
12.699999986309393
 30
0.0
 11
33.100000000000023
 21
10.99999998630939
 31
0.0
  0
LINE
  5
24F
100
AcDbEntity
  8
0
  6
CONTINUOUS
 62
               7
100
AcDbLine
 10
36.900000000000034
 20
12.699999986309393
 30
0.0
 11
36.900000000000034
 21
10.99999998630939
 31
0.0
  0
LINE
  5
250
100
AcDbEntity
  8
0
  6
CONTINUOUS
 62
               7
100
AcDbLine
 10
33.400000000000034
 20
12.99999998630939
 30
0.0
 11
33.100000000000023
 21
12.699999986309393
 31
0.0
  0
LINE
  5
251
100
AcDbEntity
  8
0
  6
CONTINUOUS
 62
               7
100
AcDbLine
 10
36.600000000000023
 20
12.99999998630939
 30
0.0
 11
36.900000000000034
 21
12.699999986309393
 31
0.0
  0
LINE
  5
252
100
AcDbEntity
  8
0
  6
CONTINUOUS
 62
               7
100
AcDbLine
 10
36.600000000000023
 20
12.99999998630939
 30
0.0
 11
33.400000000000034
 21
12.99999998630939
 31
0.0
  0
LINE
  5
253
100
AcDbEntity
  8
0
  6
CONTINUOUS
 62
               7
100
AcDbLine
 10
36.900000000000034
 20
12.699999986309393
 30
0.0
 11
33.100000000000023
 21
12.699999986309393
 31
0.0
  0
LINE
  5
254
100
AcDbEntity
  8
0
  6
CONTINUOUS
 62
               7
100
AcDbLine
 10
33.0
 20
10.99999998630939
 30
0.0
 11
33.0
 21
10.0
 31
0.0
  0
LINE
  5
255
100
AcDbEntity
  8
0
  6
CONTINUOUS
 62
               7
100
AcDbLine
 10
0.0
 20
4.4000000000000057
 30
0.0
 11
3.3000000000000114
 21
4.4000000000000057
 31
0.0
  0
LINE
  5
256
100
AcDbEntity
  8
0
  6
CONTINUOUS
 62
               7
100
AcDbLine
 10
3.3000000000000114
 20
8.5999999999999943
 30
0.0
 11
3.3000000000000114
 21
4.4000000000000057
 31
0.0
  0
LINE
  5
257
100
AcDbEntity
  8
0
  6
CONTINUOUS
 62
               7
100
AcDbLine
 10
0.0
 20
8.5999999999999943
 30
0.0
 11
3.3000000000000114
 21
8.5999999999999943
 31
0.0
  0
LINE
  5
258
100
AcDbEntity
  8
0
  6
CONTINUOUS
 62
               7
100
AcDbLine
 10
0.0
 20
-4.4000000000000057
 30
0.0
 11
3.3000000000000114
 21
-4.4000000000000057
 31
0.0
  0
LINE
  5
259
100
AcDbEntity
  8
0
  6
CONTINUOUS
 62
               7
100
AcDbLine
 10
0.0
 20
-8.5999999999999943
 30
0.0
 11
3.3000000000000114
 21
-8.5999999999999943
 31
0.0
  0
LINE
  5
25A
100
AcDbEntity
  8
0
  6
CONTINUOUS
 62
               7
100
AcDbLine
 10
0.0000000273479941
 20
-10.0
 30
0.0
 11
54.0
 21
-10.0
 31
0.0
  0
LINE
  5
25B
100
AcDbEntity
  8
0
  6
CONTINUOUS
 62
               2
100
AcDbLine
 10
38.0
 20
-4.5
 30
0.0
 11
38.0
 21
-9.5
 31
0.0
  0
CIRCLE
  5
25C
100
AcDbEntity
  8
0
  6
CONTINUOUS
 62
               2
100
AcDbCircle
 10
38.0
 20
-7.0
 30
0.0
 40
1.5
  0
CIRCLE
  5
25D
100
AcDbEntity
  8
0
  6
CONTINUOUS
 62
               7
100
AcDbCircle
 10
38.0
 20
-7.0
 30
0.0
 40
1.25
  0
CIRCLE
  5
25E
100
AcDbEntity
  8
0
  6
CONTINUOUS
 62
               7
100
AcDbCircle
 10
43.0
 20
-7.0
 30
0.0
 40
2.3999999999999999
  0
CIRCLE
  5
25F
100
AcDbEntity
  8
0
  6
CONTINUOUS
 62
               7
100
AcDbCircle
 10
27.0
 20
-7.0
 30
0.0
 40
2.3999999999999999
  0
CIRCLE
  5
260
100
AcDbEntity
  8
0
  6
CONTINUOUS
 62
               2
100
AcDbCircle
 10
22.0
 20
-7.0
 30
0.0
 40
1.5
  0
CIRCLE
  5
261
100
AcDbEntity
  8
0
  6
CONTINUOUS
 62
               7
100
AcDbCircle
 10
22.0
 20
-7.0
 30
0.0
 40
1.25
  0
LINE
  5
262
100
AcDbEntity
  8
0
  6
CONTINUOUS
 62
               2
100
AcDbLine
 10
22.0
 20
-4.5
 30
0.0
 11
22.0
 21
-9.5
 31
0.0
  0
LINE
  5
263
100
AcDbEntity
  8
0
  6
CONTINUOUS
 62
               7
100
AcDbLine
 10
1.6000000000000227
 20
-4.5999999999999943
 30
0.0
 11
3.3000000000000114
 21
-4.5999999999999943
 31
0.0
  0
LINE
  5
264
100
AcDbEntity
  8
0
  6
CONTINUOUS
 62
               7
100
AcDbLine
 10
1.6000000000000227
 20
-8.4000000000000057
 30
0.0
 11
3.3000000000000114
 21
-8.4000000000000057
 31
0.0
  0
LINE
  5
265
100
AcDbEntity
  8
0
  6
CONTINUOUS
 62
               7
100
AcDbLine
 10
1.3000000000000114
 20
-4.9000000000000057
 30
0.0
 11
1.6000000000000227
 21
-4.5999999999999943
 31
0.0
  0
LINE
  5
266
100
AcDbEntity
  8
0
  6
CONTINUOUS
 62
               7
100
AcDbLine
 10
1.3000000000000114
 20
-8.0999999999999943
 30
0.0
 11
1.6000000000000227
 21
-8.4000000000000057
 31
0.0
  0
LINE
  5
267
100
AcDbEntity
  8
0
  6
CONTINUOUS
 62
               7
100
AcDbLine
 10
3.3000000000000114
 20
-8.5999999999999943
 30
0.0
 11
3.3000000000000114
 21
-4.4000000000000057
 31
0.0
  0
LINE
  5
268
100
AcDbEntity
  8
0
  6
CONTINUOUS
 62
               7
100
AcDbLine
 10
1.3000000000000114
 20
-8.0999999999999943
 30
0.0
 11
1.3000000000000114
 21
-4.9000000000000057
 31
0.0
  0
LINE
  5
269
100
AcDbEntity
  8
0
  6
CONTINUOUS
 62
               7
100
AcDbLine
 10
1.6000000000000227
 20
-8.4000000000000057
 30
0.0
 11
1.6000000000000227
 21
-4.5999999999999943
 31
0.0
  0
LINE
  5
26A
100
AcDbEntity
  8
0
  6
CONTINUOUS
 62
               2
100
AcDbLine
 10
38.0
 20
4.5
 30
0.0
 11
38.0
 21
9.5
 31
0.0
  0
CIRCLE
  5
26B
100
AcDbEntity
  8
0
  6
CONTINUOUS
 62
               2
100
AcDbCircle
 10
38.0
 20
7.0
 30
0.0
 40
1.5
  0
CIRCLE
  5
26C
100
AcDbEntity
  8
0
  6
CONTINUOUS
 62
               7
100
AcDbCircle
 10
38.0
 20
7.0
 30
0.0
 40
1.25
  0
LINE
  5
26D
100
AcDbEntity
  8
0
  6
CONTINUOUS
 62
               2
100
AcDbLine
 10
22.0
 20
4.5
 30
0.0
 11
22.0
 21
9.5
 31
0.0
  0
CIRCLE
  5
26E
100
AcDbEntity
  8
0
  6
CONTINUOUS
 62
               2
100
AcDbCircle
 10
22.0
 20
7.0
 30
0.0
 40
1.5
  0
CIRCLE
  5
26F
100
AcDbEntity
  8
0
  6
CONTINUOUS
 62
               7
100
AcDbCircle
 10
22.0
 20
7.0
 30
0.0
 40
1.25
  0
ARC
  5
270
100
AcDbEntity
  8
0
  6
CONTINUOUS
 62
               7
100
AcDbCircle
 10
37.5
 20
0.0
 30
0.0
 40
1.5
100
AcDbArc
 50
90.0
 51
270.0
  0
ARC
  5
271
100
AcDbEntity
  8
0
  6
CONTINUOUS
 62
               7
100
AcDbCircle
 10
38.5
 20
0.0
 30
0.0
 40
1.5
100
AcDbArc
 50
270.0
 51
90.0
  0
LINE
  5
272
100
AcDbEntity
  8
0
  6
CONTINUOUS
 62
               7
100
AcDbLine
 10
37.5
 20
-1.5
 30
0.0
 11
38.5
 21
-1.5
 31
0.0
  0
LINE
  5
273
100
AcDbEntity
  8
0
  6
CONTINUOUS
 62
               7
100
AcDbLine
 10
37.5
 20
1.5
 30
0.0
 11
38.5
 21
1.5
 31
0.0
  0
CIRCLE
  5
274
100
AcDbEntity
  8
0
  6
CONTINUOUS
 62
               7
100
AcDbCircle
 10
22.0
 20
0.0
 30
0.0
 40
1.5
  0
CIRCLE
  5
275
100
AcDbEntity
  8
0
  6
CONTINUOUS
 62
               7
100
AcDbCircle
 10
43.0
 20
7.0
 30
0.0
 40
2.3999999999999999
  0
CIRCLE
  5
276
100
AcDbEntity
  8
0
  6
CONTINUOUS
 62
               7
100
AcDbCircle
 10
27.0
 20
7.0
 30
0.0
 40
2.3999999999999999
  0
LINE
  5
277
100
AcDbEntity
  8
0
  6
CONTINUOUS
 62
               7
100
AcDbLine
 10
1.6000000000000227
 20
8.4000000000000057
 30
0.0
 11
1.6000000000000227
 21
4.5999999999999943
 31
0.0
  0
LINE
  5
278
100
AcDbEntity
  8
0
  6
CONTINUOUS
 62
               7
100
AcDbLine
 10
1.3000000000000114
 20
8.0999999999999943
 30
0.0
 11
1.3000000000000114
 21
4.9000000000000057
 31
0.0
  0
LINE
  5
279
100
AcDbEntity
  8
0
  6
CONTINUOUS
 62
               7
100
AcDbLine
 10
1.3000000000000114
 20
8.0999999999999943
 30
0.0
 11
1.6000000000000227
 21
8.4000000000000057
 31
0.0
  0
LINE
  5
27A
100
AcDbEntity
  8
0
  6
CONTINUOUS
 62
               7
100
AcDbLine
 10
1.3000000000000114
 20
4.9000000000000057
 30
0.0
 11
1.6000000000000227
 21
4.5999999999999943
 31
0.0
  0
LINE
  5
27B
100
AcDbEntity
  8
0
  6
CONTINUOUS
 62
               7
100
AcDbLine
 10
1.6000000000000227
 20
8.4000000000000057
 30
0.0
 11
3.3000000000000114
 21
8.4000000000000057
 31
0.0
  0
LINE
  5
27C
100
AcDbEntity
  8
0
  6
CONTINUOUS
 62
               7
100
AcDbLine
 10
1.6000000000000227
 20
4.5999999999999943
 30
0.0
 11
3.3000000000000114
 21
4.5999999999999943
 31
0.0
  0
LINE
  5
27D
100
AcDbEntity
  8
0
  6
CONTINUOUS
 62
               7
100
AcDbLine
 10
0.0000000273479941
 20
10.0
 30
0.0
 11
54.0
 21
10.0
 31
0.0
  0
LINE
  5
27E
100
AcDbEntity
  8
0
  6
CONTINUOUS
 62
               7
100
AcDbLine
 10
54.0
 20
10.0
 30
0.0
 11
54.0
 21
-10.0
 31
0.0
  0
LINE
  5
27F
100
AcDbEntity
  8
0
  6
CONTINUOUS
 62
               7
100
AcDbLine
 10
15.0
 20
10.0
 30
0.0
 11
15.0
 21
-10.0
 31
0.0
  0
LINE
  5
280
100
AcDbEntity
  8
0
  6
CONTINUOUS
 62
               7
100
AcDbLine
 10
19.000000023539769
 20
19.500000000000071
 30
0.0
 11
54.0
 21
19.500000000000071
 31
0.0
  0
LINE
  5
281
100
AcDbEntity
  8
0
  6
CONTINUOUS
 62
               7
100
AcDbLine
 10
19.0
 20
13.5
 30
0.0
 11
54.0
 21
13.5
 31
0.0
  0
LINE
  5
282
100
AcDbEntity
  8
0
  6
CONTINUOUS
 62
               7
100
AcDbLine
 10
25.0
 20
13.50000001369061
 30
0.0
 11
25.0
 21
10.0
 31
0.0
  0
LINE
  5
283
100
AcDbEntity
  8
0
  6
CONTINUOUS
 62
               7
100
AcDbLine
 10
48.0
 20
13.50000001369061
 30
0.0
 11
48.0
 21
12.99999998630939
 31
0.0
  0
LINE
  5
284
100
AcDbEntity
  8
0
  6
CONTINUOUS
 62
               7
100
AcDbLine
 10
54.0
 20
19.500000000000071
 30
0.0
 11
54.0
 21
10.0
 31
0.0
  0
LINE
  5
285
100
AcDbEntity
  8
0
  6
CONTINUOUS
 62
               7
100
AcDbLine
 10
19.0
 20
19.500000000000071
 30
0.0
 11
19.0
 21
10.0
 31
0.0
  0
LINE
  5
286
100
AcDbEntity
  8
0
  6
CONTINUOUS
 62
               7
100
AcDbLine
 10
0.0
 20
10.0
 30
0.0
 11
0.0
 21
-10.0
 31
0.0
  0
LINE
  5
287
100
AcDbEntity
  8
0
  6
CONTINUOUS
 62
               2
100
AcDbLine
 10
-4.0
 20
0.0
 30
0.0
 11
58.5
 21
0.0
 31
0.0
  0
LINE
  5
288
100
AcDbEntity
  8
0
  6
CONTINUOUS
 62
               7
100
AcDbLine
 10
54.5
 20
-7.3000000000000114
 30
0.0
 11
54.5
 21
7.3000000000000114
 31
0.0
  0
LINE
  5
289
100
AcDbEntity
  8
0
  6
CONTINUOUS
 62
               7
100
AcDbLine
 10
54.0
 20
-7.3000000000000114
 30
0.0
 11
54.5
 21
-7.3000000000000114
 31
0.0
  0
LINE
  5
28A
100
AcDbEntity
  8
0
  6
CONTINUOUS
 62
               7
100
AcDbLine
 10
54.5
 20
-6.5
 30
0.0
 11
54.699999999999989
 21
-6.5
 31
0.0
  0
LINE
  5
28B
100
AcDbEntity
  8
0
  6
CONTINUOUS
 62
               7
100
AcDbLine
 10
54.5
 20
-4.5
 30
0.0
 11
54.699999999999989
 21
-4.5
 31
0.0
  0
ARC
  5
28C
100
AcDbEntity
  8
0
  6
CONTINUOUS
 62
               7
100
AcDbCircle
 10
54.699999999999989
 20
-4.7999999999999972
 30
0.0
 40
0.3
100
AcDbArc
 50
0.0
 51
90.0
  0
ARC
  5
28D
100
AcDbEntity
  8
0
  6
CONTINUOUS
 62
               7
100
AcDbCircle
 10
54.699999999999989
 20
-6.2000000000000028
 30
0.0
 40
0.3
100
AcDbArc
 50
270.0
 51
0.0
  0
LINE
  5
28E
100
AcDbEntity
  8
0
  6
CONTINUOUS
 62
               7
100
AcDbLine
 10
55.0
 20
-4.7999999999999972
 30
0.0
 11
55.0
 21
-6.2000000000000028
 31
0.0
  0
LINE
  5
28F
100
AcDbEntity
  8
0
  6
CONTINUOUS
 62
               7
100
AcDbLine
 10
54.0
 20
7.3000000000000114
 30
0.0
 11
54.5
 21
7.3000000000000114
 31
0.0
  0
LINE
  5
290
100
AcDbEntity
  8
0
  6
CONTINUOUS
 62
               7
100
AcDbLine
 10
55.0
 20
4.7999999999999972
 30
0.0
 11
55.0
 21
6.2000000000000028
 31
0.0
  0
LINE
  5
291
100
AcDbEntity
  8
0
  6
CONTINUOUS
 62
               7
100
AcDbLine
 10
54.5
 20
6.5
 30
0.0
 11
54.699999999999989
 21
6.5
 31
0.0
  0
LINE
  5
292
100
AcDbEntity
  8
0
  6
CONTINUOUS
 62
               7
100
AcDbLine
 10
54.5
 20
4.5
 30
0.0
 11
54.699999999999989
 21
4.5
 31
0.0
  0
ARC
  5
293
100
AcDbEntity
  8
0
  6
CONTINUOUS
 62
               7
100
AcDbCircle
 10
54.699999999999989
 20
6.2000000000000028
 30
0.0
 40
0.3
100
AcDbArc
 50
0.0
 51
90.0
  0
ARC
  5
294
100
AcDbEntity
  8
0
  6
CONTINUOUS
 62
               7
100
AcDbCircle
 10
54.699999999999989
 20
4.7999999999999972
 30
0.0
 40
0.3
100
AcDbArc
 50
270.0
 51
0.0
  0
LINE
  5
295
100
AcDbEntity
  8
0
  6
CONTINUOUS
 62
               2
100
AcDbLine
 10
-2.5
 20
7.0
 30
0.0
 11
2.5
 21
7.0
 31
0.0
  0
LINE
  5
296
100
AcDbEntity
  8
0
  6
CONTINUOUS
 62
               2
100
AcDbLine
 10
-2.5
 20
-7.0
 30
0.0
 11
2.5
 21
-7.0
 31
0.0
  0
LINE
  5
297
100
AcDbEntity
  8
0
  6
CONTINUOUS
 62
               2
100
AcDbLine
 10
52.0
 20
5.5
 30
0.0
 11
57.0
 21
5.5
 31
0.0
  0
LINE
  5
298
100
AcDbEntity
  8
0
  6
CONTINUOUS
 62
               2
100
AcDbLine
 10
52.0
 20
-5.5
 30
0.0
 11
57.0
 21
-5.5
 31
0.0
  0
CIRCLE
  5
299
100
AcDbEntity
  8
0
  6
CONTINUOUS
 62
               7
100
AcDbCircle
 10
26.0
 20
7.0
 30
0.0
 40
1.3
  0
CIRCLE
  5
29A
100
AcDbEntity
  8
0
  6
CONTINUOUS
 62
               7
100
AcDbCircle
 10
26.0
 20
-7.0
 30
0.0
 40
1.3
  0
CIRCLE
  5
29B
100
AcDbEntity
  8
0
  6
CONTINUOUS
 62
               7
100
AcDbCircle
 10
42.0
 20
-7.0
 30
0.0
 40
1.3
  0
CIRCLE
  5
29C
100
AcDbEntity
  8
0
  6
CONTINUOUS
 62
               7
100
AcDbCircle
 10
42.0
 20
7.0
 30
0.0
 40
1.3
  0
LINE
  5
29D
100
AcDbEntity
  8
0
  6
CONTINUOUS
 62
               2
100
AcDbLine
 10
26.0
 20
9.5
 30
0.0
 11
26.0
 21
4.5
 31
0.0
  0
LINE
  5
29E
100
AcDbEntity
  8
0
  6
CONTINUOUS
 62
               2
100
AcDbLine
 10
42.0
 20
9.5
 30
0.0
 11
42.0
 21
4.5
 31
0.0
  0
LINE
  5
29F
100
AcDbEntity
  8
0
  6
CONTINUOUS
 62
               2
100
AcDbLine
 10
26.0
 20
-4.5
 30
0.0
 11
26.0
 21
-9.5
 31
0.0
  0
LINE
  5
2A0
100
AcDbEntity
  8
0
  6
CONTINUOUS
 62
               2
100
AcDbLine
 10
42.0
 20
-4.5
 30
0.0
 11
42.0
 21
-9.5
 31
0.0
  0
LINE
  5
2A1
100
AcDbEntity
  8
0
  6
CONTINUOUS
 62
               2
100
AcDbLine
 10
35.5
 20
-7.0
 30
0.0
 11
46.400000000000006
 21
-7.0
 31
0.0
  0
LINE
  5
2A2
100
AcDbEntity
  8
0
  6
CONTINUOUS
 62
               2
100
AcDbLine
 10
19.5
 20
-7.0
 30
0.0
 11
30.400000000000006
 21
-7.0
 31
0.0
  0
LINE
  5
2A3
100
AcDbEntity
  8
0
  6
CONTINUOUS
 62
               2
100
AcDbLine
 10
35.5
 20
7.0
 30
0.0
 11
46.400000000000006
 21
7.0
 31
0.0
  0
LINE
  5
2A4
100
AcDbEntity
  8
0
  6
CONTINUOUS
 62
               2
100
AcDbLine
 10
19.5
 20
7.0
 30
0.0
 11
30.400000000000006
 21
7.0
 31
0.0
  0
LINE
  5
2A5
100
AcDbEntity
  8
0
  6
CONTINUOUS
 62
               2
100
AcDbLine
 10
22.0
 20
-2.5
 30
0.0
 11
22.0
 21
2.5
 31
0.0
  0
LINE
  5
2A6
100
AcDbEntity
  8
0
  6
CONTINUOUS
 62
               2
100
AcDbLine
 10
38.0
 20
-2.5
 30
0.0
 11
38.0
 21
2.5
 31
0.0
  0
LINE
  5
2A7
100
AcDbEntity
  8
0
  6
CONTINUOUS
 62
               2
100
AcDbLine
 10
27.0
 20
10.5
 30
0.0
 11
27.0
 21
3.5
 31
0.0
  0
LINE
  5
2A8
100
AcDbEntity
  8
0
  6
CONTINUOUS
 62
               2
100
AcDbLine
 10
27.0
 20
-3.5
 30
0.0
 11
27.0
 21
-10.5
 31
0.0
  0
LINE
  5
2A9
100
AcDbEntity
  8
0
  6
CONTINUOUS
 62
               2
100
AcDbLine
 10
43.0
 20
10.5
 30
0.0
 11
43.0
 21
3.5
 31
0.0
  0
LINE
  5
2AA
100
AcDbEntity
  8
0
  6
CONTINUOUS
 62
               2
100
AcDbLine
 10
43.0
 20
-3.5
 30
0.0
 11
43.0
 21
-10.5
 31
0.0
  0
LINE
  5
2AB
100
AcDbEntity
  8
0
  6
PHANTOM
 62
               3
100
AcDbLine
 10
31.062911465010956
 20
36.238345857874663
 30
0.0
 11
31.062911465010956
 21
-17.558321838925252
 31
0.0
  0
ENDBLK
  5
2AC
100
AcDbEntity
  8
0
100
AcDbBlockEnd
  0
BLOCK
  5
2AD
100
AcDbEntity
  8
0
100
AcDbBlockBegin
  2
MGAG6-8
 70
               0
 10
0.0
 20
0.0
 30
0.0
  3
MGAG6-8
  1

  0
LINE
  5
2AE
100
AcDbEntity
  8
0
  6
CONTINUOUS
 62
               7
100
AcDbLine
 10
8.0
 20
12.700000000000003
 30
0.0
 11
5.8999999999999773
 21
12.700000000000003
 31
0.0
  0
LINE
  5
2AF
100
AcDbEntity
  8
0
  6
CONTINUOUS
 62
               7
100
AcDbLine
 10
0.0999999999999659
 20
19.500000000000071
 30
0.0
 11
0.0999999999999659
 21
9.5
 31
0.0
  0
LINE
  5
2B0
100
AcDbEntity
  8
0
  6
CONTINUOUS
 62
               2
100
AcDbLine
 10
3.1999999999999886
 20
20.421064405906037
 30
0.0
 11
3.1999999999999886
 21
13.861515364768522
 31
0.0
  0
LINE
  5
2B1
100
AcDbEntity
  8
0
  6
CONTINUOUS
 62
               7
100
AcDbLine
 10
5.8999999999999773
 20
13.5
 30
0.0
 11
5.8999999999999773
 21
10.0
 31
0.0
  0
ARC
  5
2B2
100
AcDbEntity
  8
0
  6
CONTINUOUS
 62
               7
100
AcDbCircle
 10
9.5
 20
15.5
 30
0.0
 40
2.0
100
AcDbArc
 50
269.99999999999994
 51
359.99999999999994
  0
LINE
  5
2B3
100
AcDbEntity
  8
0
  6
CONTINUOUS
 62
               7
100
AcDbLine
 10
11.5
 20
19.500000000000057
 30
0.0
 11
11.5
 21
15.5
 31
0.0
  0
LINE
  5
2B4
100
AcDbEntity
  8
0
  6
CONTINUOUS
 62
               7
100
AcDbLine
 10
10.0
 20
19.200000000000045
 30
0.0
 11
10.0
 21
19.000000000000057
 31
0.0
  0
LINE
  5
2B5
100
AcDbEntity
  8
0
  6
CONTINUOUS
 62
               7
100
AcDbLine
 10
10.0
 20
19.000000000000057
 30
0.0
 11
10.5
 21
18.500000000000057
 31
0.0
  0
ARC
  5
2B6
100
AcDbEntity
  8
0
  6
CONTINUOUS
 62
               7
100
AcDbCircle
 10
10.299523973635416
 20
19.20047602636464
 30
0.0
 40
0.2995243519038812
100
AcDbArc
 50
89.908941249896912
 51
180.091058750104
  0
LINE
  5
2B7
100
AcDbEntity
  8
0
  6
CONTINUOUS
 62
               7
100
AcDbLine
 10
10.5
 20
18.500000000000057
 30
0.0
 11
10.5
 21
16.900000000000063
 31
0.0
  0
LINE
  5
2B8
100
AcDbEntity
  8
0
  6
CONTINUOUS
 62
               7
100
AcDbLine
 10
10.300000000000011
 20
19.500000000000057
 30
0.0
 11
11.5
 21
19.500000000000057
 31
0.0
  0
ARC
  5
2B9
100
AcDbEntity
  8
0
  6
CONTINUOUS
 62
               7
100
AcDbCircle
 10
8.4000000000000341
 20
16.900000000000063
 30
0.0
 40
2.1000000111152071
100
AcDbArc
 50
180.0
 51
0.0
  0
LINE
  5
2BA
100
AcDbEntity
  8
0
  6
CONTINUOUS
 62
               2
100
AcDbLine
 10
8.3999999999999773
 20
20.421064405906037
 30
0.0
 11
8.3999999999999773
 21
13.861515364768522
 31
0.0
  0
LINE
  5
2BB
100
AcDbEntity
  8
0
  6
CONTINUOUS
 62
               7
100
AcDbLine
 10
6.8000000000000114
 20
19.20000000000006
 30
0.0
 11
6.8000000000000114
 21
19.000000000000057
 31
0.0
  0
LINE
  5
2BC
100
AcDbEntity
  8
0
  6
CONTINUOUS
 62
               7
100
AcDbLine
 10
6.3000000000000114
 20
18.500000000000057
 30
0.0
 11
6.8000000000000114
 21
19.000000000000057
 31
0.0
  0
ARC
  5
2BD
100
AcDbEntity
  8
0
  6
CONTINUOUS
 62
               7
100
AcDbCircle
 10
6.4993006134913571
 20
19.199300613491431
 30
0.0
 40
0.3007001998472195
100
AcDbArc
 50
0.1332620708018084
 51
89.866737929199033
  0
LINE
  5
2BE
100
AcDbEntity
  8
0
  6
CONTINUOUS
 62
               7
100
AcDbLine
 10
6.3000000000000114
 20
18.500000000000057
 30
0.0
 11
6.3000000000000114
 21
16.900000000000063
 31
0.0
  0
ARC
  5
2BF
100
AcDbEntity
  8
0
  6
CONTINUOUS
 62
               7
100
AcDbCircle
 10
1.3004760263646062
 20
19.200476026364655
 30
0.0
 40
0.2995243519038812
100
AcDbArc
 50
359.90894124989592
 51
90.091058750103045
  0
ARC
  5
2C0
100
AcDbEntity
  8
0
  6
CONTINUOUS
 62
               7
100
AcDbCircle
 10
5.1006993865086088
 20
19.199300613491431
 30
0.0
 40
0.3007001998472195
100
AcDbArc
 50
90.133262070800924
 51
179.86673792919814
  0
ARC
  5
2C1
100
AcDbEntity
  8
0
  6
CONTINUOUS
 62
               7
100
AcDbCircle
 10
3.1999999999999886
 20
16.900000000000063
 30
0.0
 40
2.1000000111152071
100
AcDbArc
 50
179.99999999999994
 51
359.99999999999994
  0
LINE
  5
2C2
100
AcDbEntity
  8
0
  6
CONTINUOUS
 62
               7
100
AcDbLine
 10
5.3000000000000114
 20
18.500000000000057
 30
0.0
 11
4.8000000000000114
 21
19.000000000000057
 31
0.0
  0
LINE
  5
2C3
100
AcDbEntity
  8
0
  6
CONTINUOUS
 62
               7
100
AcDbLine
 10
1.5999999999999659
 20
19.000000000000057
 30
0.0
 11
1.0999999999999659
 21
18.500000000000057
 31
0.0
  0
LINE
  5
2C4
100
AcDbEntity
  8
0
  6
CONTINUOUS
 62
               7
100
AcDbLine
 10
1.0999999999999659
 20
18.500000000000057
 30
0.0
 11
1.0999999999999659
 21
16.900000000000063
 31
0.0
  0
LINE
  5
2C5
100
AcDbEntity
  8
0
  6
CONTINUOUS
 62
               7
100
AcDbLine
 10
5.3000000000000114
 20
18.500000000000057
 30
0.0
 11
5.3000000000000114
 21
16.900000000000063
 31
0.0
  0
LINE
  5
2C6
100
AcDbEntity
  8
0
  6
CONTINUOUS
 62
               7
100
AcDbLine
 10
6.5
 20
19.500000000000057
 30
0.0
 11
5.1006993865086088
 21
19.500000000000057
 31
0.0
  0
LINE
  5
2C7
100
AcDbEntity
  8
0
  6
CONTINUOUS
 62
               7
100
AcDbLine
 10
4.8000000000000114
 20
19.20000000000006
 30
0.0
 11
4.8000000000000114
 21
19.000000000000057
 31
0.0
  0
LINE
  5
2C8
100
AcDbEntity
  8
0
  6
CONTINUOUS
 62
               7
100
AcDbLine
 10
1.5999999999999659
 20
19.20000000000006
 30
0.0
 11
1.5999999999999659
 21
19.000000000000057
 31
0.0
  0
LINE
  5
2C9
100
AcDbEntity
  8
0
  6
CONTINUOUS
 62
               7
100
AcDbLine
 10
1.3000000000000114
 20
19.500000000000057
 30
0.0
 11
0.0999999999999659
 21
19.500000000000071
 31
0.0
  0
LINE
  5
2CA
100
AcDbEntity
  8
0
  6
CONTINUOUS
 62
               7
100
AcDbLine
 10
9.5
 20
13.5
 30
0.0
 11
5.8999999999999773
 21
13.5
 31
0.0
  0
LINE
  5
2CB
100
AcDbEntity
  8
0
  6
CONTINUOUS
 62
               7
100
AcDbLine
 10
0.3000000000000114
 20
-2.4000000000000057
 30
0.0
 11
0.3000000000000114
 21
2.4000000000000057
 31
0.0
  0
LINE
  5
2CC
100
AcDbEntity
  8
0
  6
CONTINUOUS
 62
               7
100
AcDbLine
 10
0.3000000000000114
 20
2.4000000000000057
 30
0.0
 11
0.0
 21
2.7000000000000171
 31
0.0
  0
LINE
  5
2CD
100
AcDbEntity
  8
0
  6
CONTINUOUS
 62
               7
100
AcDbLine
 10
0.3000000000000114
 20
-2.4000000000000057
 30
0.0
 11
0.0
 21
-2.7000000000000171
 31
0.0
  0
LINE
  5
2CE
100
AcDbEntity
  8
0
  6
CONTINUOUS
 62
               7
100
AcDbLine
 10
0.0
 20
2.7000000000000171
 30
0.0
 11
0.0
 21
9.5
 31
0.0
  0
CIRCLE
  5
2CF
100
AcDbEntity
  8
0
  6
CONTINUOUS
 62
               7
100
AcDbCircle
 10
4.5
 20
2.5
 30
0.0
 40
0.5
  0
CIRCLE
  5
2D0
100
AcDbEntity
  8
0
  6
CONTINUOUS
 62
               7
100
AcDbCircle
 10
4.5
 20
0.0
 30
0.0
 40
3.7000000000000002
  0
LINE
  5
2D1
100
AcDbEntity
  8
0
  6
CONTINUOUS
 62
               7
100
AcDbLine
 10
0.8000000000000114
 20
-2.5
 30
0.0
 11
0.8000000000000114
 21
-10.0
 31
0.0
  0
LINE
  5
2D2
100
AcDbEntity
  8
0
  6
CONTINUOUS
 62
               7
100
AcDbLine
 10
1.7723636606028208
 20
2.5
 30
0.0
 11
0.8000000000000114
 21
2.5
 31
0.0
  0
LINE
  5
2D3
100
AcDbEntity
  8
0
  6
CONTINUOUS
 62
               7
100
AcDbLine
 10
1.7723636606028208
 20
-2.5
 30
0.0
 11
0.8000000000000114
 21
-2.5
 31
0.0
  0
LINE
  5
2D4
100
AcDbEntity
  8
0
  6
CONTINUOUS
 62
               7
100
AcDbLine
 10
9.9000000000000341
 20
4.4000000000000057
 30
0.0
 11
11.800000000000011
 21
4.4000000000000057
 31
0.0
  0
ARC
  5
2D5
100
AcDbEntity
  8
0
  6
CONTINUOUS
 62
               7
100
AcDbCircle
 10
9.9000000000000341
 20
6.5
 30
0.0
 40
2.1000000000000001
100
AcDbArc
 50
90.0
 51
270.0
  0
LINE
  5
2D6
100
AcDbEntity
  8
0
  6
CONTINUOUS
 62
               7
100
AcDbLine
 10
9.9000000000000341
 20
8.5999999999999943
 30
0.0
 11
11.800000000000011
 21
8.5999999999999943
 31
0.0
  0
LINE
  5
2D7
100
AcDbEntity
  8
0
  6
CONTINUOUS
 62
               7
100
AcDbLine
 10
9.9000000000000341
 20
-4.4000000000000057
 30
0.0
 11
11.800000000000011
 21
-4.4000000000000057
 31
0.0
  0
LINE
  5
2D8
100
AcDbEntity
  8
0
  6
CONTINUOUS
 62
               7
100
AcDbLine
 10
9.9000000000000341
 20
-8.5999999999999943
 30
0.0
 11
11.800000000000011
 21
-8.5999999999999943
 31
0.0
  0
ARC
  5
2D9
100
AcDbEntity
  8
0
  6
CONTINUOUS
 62
               7
100
AcDbCircle
 10
9.9000000000000341
 20
-6.5
 30
0.0
 40
2.1000000000000001
100
AcDbArc
 50
90.0
 51
270.0
  0
LINE
  5
2DA
100
AcDbEntity
  8
0
  6
CONTINUOUS
 62
               7
100
AcDbLine
 10
11.5
 20
10.0
 30
0.0
 11
12.0
 21
9.5000000000000142
 31
0.0
  0
LINE
  5
2DB
100
AcDbEntity
  8
0
  6
CONTINUOUS
 62
               7
100
AcDbLine
 10
11.800000000000011
 20
9.5
 30
0.0
 11
11.300000000000011
 21
10.0
 31
0.0
  0
LINE
  5
2DC
100
AcDbEntity
  8
0
  6
CONTINUOUS
 62
               7
100
AcDbLine
 10
12.0
 20
-9.5
 30
0.0
 11
11.5
 21
-10.0
 31
0.0
  0
LINE
  5
2DD
100
AcDbEntity
  8
0
  6
CONTINUOUS
 62
               7
100
AcDbLine
 10
11.300000000000011
 20
-10.0
 30
0.0
 11
11.800000000000011
 21
-9.5000000000000142
 31
0.0
  0
LINE
  5
2DE
100
AcDbEntity
  8
0
  6
CONTINUOUS
 62
               2
100
AcDbLine
 10
5.0
 20
4.5
 30
0.0
 11
5.0
 21
9.5
 31
0.0
  0
CIRCLE
  5
2DF
100
AcDbEntity
  8
0
  6
CONTINUOUS
 62
               2
100
AcDbCircle
 10
5.0
 20
7.0
 30
0.0
 40
1.5
  0
LINE
  5
2E0
100
AcDbEntity
  8
0
  6
CONTINUOUS
 62
               2
100
AcDbLine
 10
2.5
 20
7.0
 30
0.0
 11
7.4999999999999432
 21
7.0
 31
0.0
  0
CIRCLE
  5
2E1
100
AcDbEntity
  8
0
  6
CONTINUOUS
 62
               7
100
AcDbCircle
 10
5.0
 20
7.0
 30
0.0
 40
1.25
  0
LINE
  5
2E2
100
AcDbEntity
  8
0
  6
CONTINUOUS
 62
               2
100
AcDbLine
 10
5.0
 20
-9.5
 30
0.0
 11
5.0
 21
-4.5
 31
0.0
  0
CIRCLE
  5
2E3
100
AcDbEntity
  8
0
  6
CONTINUOUS
 62
               2
100
AcDbCircle
 10
5.0
 20
-7.0
 30
0.0
 40
1.5
  0
LINE
  5
2E4
100
AcDbEntity
  8
0
  6
CONTINUOUS
 62
               2
100
AcDbLine
 10
2.5
 20
-7.0
 30
0.0
 11
7.4999999999999432
 21
-7.0
 31
0.0
  0
CIRCLE
  5
2E5
100
AcDbEntity
  8
0
  6
CONTINUOUS
 62
               7
100
AcDbCircle
 10
5.0
 20
-7.0
 30
0.0
 40
1.25
  0
CIRCLE
  5
2E6
100
AcDbEntity
  8
0
  6
CONTINUOUS
 62
               7
100
AcDbCircle
 10
4.5
 20
-2.5
 30
0.0
 40
0.5
  0
LINE
  5
2E7
100
AcDbEntity
  8
0
  6
CONTINUOUS
 62
               2
100
AcDbLine
 10
4.5
 20
5.0
 30
0.0
 11
4.5
 21
-5.0
 31
0.0
  0
CIRCLE
  5
2E8
100
AcDbEntity
  8
0
  6
CONTINUOUS
 62
               7
100
AcDbCircle
 10
4.5
 20
0.0
 30
0.0
 40
1.2
  0
LINE
  5
2E9
100
AcDbEntity
  8
0
  6
CONTINUOUS
 62
               7
100
AcDbLine
 10
8.0999999999999659
 20
11.0
 30
0.0
 11
8.0999999999999659
 21
10.0
 31
0.0
  0
LINE
  5
2EA
100
AcDbEntity
  8
0
  6
CONTINUOUS
 62
               7
100
AcDbLine
 10
11.800000000000011
 20
9.5
 30
0.0
 11
11.800000000000011
 21
-9.5000000000000142
 31
0.0
  0
LINE
  5
2EB
100
AcDbEntity
  8
0
  6
CONTINUOUS
 62
               7
100
AcDbLine
 10
10.766025490378695
 20
-6.4999998632791716
 30
0.0
 11
10.333012674446593
 21
-7.2500000233842599
 31
0.0
  0
LINE
  5
2EC
100
AcDbEntity
  8
0
  6
CONTINUOUS
 62
               7
100
AcDbLine
 10
9.4669873732143515
 20
-7.2500001433532191
 30
0.0
 11
9.0339745896869772
 21
-6.4999999645392847
 31
0.0
  0
LINE
  5
2ED
100
AcDbEntity
  8
0
  6
CONTINUOUS
 62
               7
100
AcDbLine
 10
9.0339745096213164
 20
-6.5000001367208284
 30
0.0
 11
9.4669873255533616
 21
-5.7499999766157401
 31
0.0
  0
LINE
  5
2EE
100
AcDbEntity
  8
0
  6
CONTINUOUS
 62
               7
100
AcDbLine
 10
10.33301262678566
 20
-5.7499998566467809
 30
0.0
 11
10.766025410313034
 21
-6.5000000354607153
 31
0.0
  0
LINE
  5
2EF
100
AcDbEntity
  8
0
  6
CONTINUOUS
 62
               7
100
AcDbLine
 10
9.4669871364069422
 20
-5.7499999933676094
 30
0.0
 11
10.333012735866362
 21
-5.7500000120764554
 31
0.0
  0
LINE
  5
2F0
100
AcDbEntity
  8
0
  6
CONTINUOUS
 62
               7
100
AcDbLine
 10
10.333012863593069
 20
-7.2500000066324048
 30
0.0
 11
9.4669872641335928
 21
-7.2499999879235446
 31
0.0
  0
CIRCLE
  5
2F1
100
AcDbEntity
  8
0
  6
CONTINUOUS
 62
               7
100
AcDbCircle
 10
9.9000000000000341
 20
-6.5
 30
0.0
 40
1.9000000000000148
  0
CIRCLE
  5
2F2
100
AcDbEntity
  8
0
  6
CONTINUOUS
 62
               7
100
AcDbCircle
 10
9.9000000000000341
 20
-6.5
 30
0.0
 40
1.6000000000000174
  0
LINE
  5
2F3
100
AcDbEntity
  8
0
  6
CONTINUOUS
 62
               7
100
AcDbLine
 10
10.766025490378695
 20
6.5000001367208142
 30
0.0
 11
10.333012674446593
 21
5.7499999766157401
 31
0.0
  0
LINE
  5
2F4
100
AcDbEntity
  8
0
  6
CONTINUOUS
 62
               7
100
AcDbLine
 10
9.4669873732143515
 20
5.7499998566467809
 30
0.0
 11
9.0339745896869772
 21
6.5000000354607153
 31
0.0
  0
LINE
  5
2F5
100
AcDbEntity
  8
0
  6
CONTINUOUS
 62
               7
100
AcDbLine
 10
9.0339745096213164
 20
6.4999998632791858
 30
0.0
 11
9.4669873255533616
 21
7.2500000233842599
 31
0.0
  0
LINE
  5
2F6
100
AcDbEntity
  8
0
  6
CONTINUOUS
 62
               7
100
AcDbLine
 10
10.33301262678566
 20
7.2500001433532191
 30
0.0
 11
10.766025410313034
 21
6.4999999645392847
 31
0.0
  0
LINE
  5
2F7
100
AcDbEntity
  8
0
  6
CONTINUOUS
 62
               7
100
AcDbLine
 10
9.4669871364069422
 20
7.2500000066324048
 30
0.0
 11
10.333012735866362
 21
7.2499999879235446
 31
0.0
  0
LINE
  5
2F8
100
AcDbEntity
  8
0
  6
CONTINUOUS
 62
               7
100
AcDbLine
 10
10.333012863593069
 20
5.7499999933675952
 30
0.0
 11
9.4669872641335928
 21
5.7500000120764554
 31
0.0
  0
CIRCLE
  5
2F9
100
AcDbEntity
  8
0
  6
CONTINUOUS
 62
               7
100
AcDbCircle
 10
9.9000000000000341
 20
6.5
 30
0.0
 40
1.9000000000000148
  0
CIRCLE
  5
2FA
100
AcDbEntity
  8
0
  6
CONTINUOUS
 62
               7
100
AcDbCircle
 10
9.9000000000000341
 20
6.5
 30
0.0
 40
1.6000000000000174
  0
LINE
  5
2FB
100
AcDbEntity
  8
0
  6
CONTINUOUS
 62
               7
100
AcDbLine
 10
0.8000000000000114
 20
10.0
 30
0.0
 11
0.8000000000000114
 21
2.5
 31
0.0
  0
LINE
  5
2FC
100
AcDbEntity
  8
0
  6
CONTINUOUS
 62
               7
100
AcDbLine
 10
0.0
 20
-9.499999992019184
 30
0.0
 11
0.0
 21
-2.7000000000000171
 31
0.0
  0
LINE
  5
2FD
100
AcDbEntity
  8
0
  6
CONTINUOUS
 62
               2
100
AcDbLine
 10
-4.0
 20
0.0
 30
0.0
 11
16.0
 21
0.0
 31
0.0
  0
LINE
  5
2FE
100
AcDbEntity
  8
0
  6
CONTINUOUS
 62
               7
100
AcDbLine
 10
12.0
 20
9.5000000000000142
 30
0.0
 11
12.0
 21
-9.5
 31
0.0
  0
LINE
  5
2FF
100
AcDbEntity
  8
0
  6
CONTINUOUS
 62
               7
100
AcDbLine
 10
0.8000000000000114
 20
9.5
 30
0.0
 11
0.0
 21
9.5
 31
0.0
  0
LINE
  5
300
100
AcDbEntity
  8
0
  6
CONTINUOUS
 62
               7
100
AcDbLine
 10
0.8000000000000114
 20
-9.5
 30
0.0
 11
0.0
 21
-9.5
 31
0.0
  0
LINE
  5
301
100
AcDbEntity
  8
0
  6
CONTINUOUS
 62
               7
100
AcDbLine
 10
11.5
 20
-10.0
 30
0.0
 11
0.8000000000000114
 21
-10.0
 31
0.0
  0
LINE
  5
302
100
AcDbEntity
  8
0
  6
CONTINUOUS
 62
               7
100
AcDbLine
 10
11.800000000000011
 20
11.0
 30
0.0
 11
5.8999999999999773
 21
11.0
 31
0.0
  0
LINE
  5
303
100
AcDbEntity
  8
0
  6
CONTINUOUS
 62
               7
100
AcDbLine
 10
11.5
 20
13.0
 30
0.0
 11
8.3000000000000114
 21
13.0
 31
0.0
  0
LINE
  5
304
100
AcDbEntity
  8
0
  6
CONTINUOUS
 62
               7
100
AcDbLine
 10
8.0
 20
12.700000000000003
 30
0.0
 11
8.0
 21
11.0
 31
0.0
  0
LINE
  5
305
100
AcDbEntity
  8
0
  6
CONTINUOUS
 62
               7
100
AcDbLine
 10
11.800000000000011
 20
12.700000000000003
 30
0.0
 11
11.800000000000011
 21
11.0
 31
0.0
  0
LINE
  5
306
100
AcDbEntity
  8
0
  6
CONTINUOUS
 62
               7
100
AcDbLine
 10
8.3000000000000114
 20
13.0
 30
0.0
 11
8.0
 21
12.700000000000003
 31
0.0
  0
LINE
  5
307
100
AcDbEntity
  8
0
  6
CONTINUOUS
 62
               7
100
AcDbLine
 10
11.5
 20
13.0
 30
0.0
 11
11.800000000000011
 21
12.700000000000003
 31
0.0
  0
LINE
  5
308
100
AcDbEntity
  8
0
  6
CONTINUOUS
 62
               7
100
AcDbLine
 10
11.800000000000011
 20
12.700000000000003
 30
0.0
 11
8.0
 21
12.700000000000003
 31
0.0
  0
LINE
  5
309
100
AcDbEntity
  8
0
  6
CONTINUOUS
 62
               7
100
AcDbLine
 10
11.699999999999989
 20
11.0
 30
0.0
 11
11.699999999999989
 21
10.0
 31
0.0
  0
LINE
  5
30A
100
AcDbEntity
  8
0
  6
CONTINUOUS
 62
               7
100
AcDbLine
 10
4.5
 20
4.2000000000000028
 30
0.0
 11
0.8000000000000114
 21
4.2000000000000028
 31
0.0
  0
ARC
  5
30B
100
AcDbEntity
  8
0
  6
CONTINUOUS
 62
               7
100
AcDbCircle
 10
4.5
 20
0.0
 30
0.0
 40
4.2000000000000028
100
AcDbArc
 50
270.0
 51
90.0
  0
LINE
  5
30C
100
AcDbEntity
  8
0
  6
CONTINUOUS
 62
               7
100
AcDbLine
 10
4.5
 20
-4.2000000000000028
 30
0.0
 11
0.8000000000000114
 21
-4.2000000000000028
 31
0.0
  0
LINE
  5
30D
100
AcDbEntity
  8
0
  6
CONTINUOUS
 62
               7
100
AcDbLine
 10
11.699999999999989
 20
10.0
 30
0.0
 11
0.8000000000000114
 21
10.0
 31
0.0
  0
LINE
  5
30E
100
AcDbEntity
  8
0
  6
CONTINUOUS
 62
               2
100
AcDbLine
 10
-2.5000000000000568
 20
7.0
 30
0.0
 11
2.4999999999999432
 21
7.0
 31
0.0
  0
LINE
  5
30F
100
AcDbEntity
  8
0
  6
CONTINUOUS
 62
               2
100
AcDbLine
 10
-2.5000000000000568
 20
-7.0
 30
0.0
 11
2.4999999999999432
 21
-7.0
 31
0.0
  0
ENDBLK
  5
310
100
AcDbEntity
  8
0
100
AcDbBlockEnd
  0
BLOCK
  5
311
100
AcDbEntity
  8
0
100
AcDbBlockBegin
  2
MGAG6-9
 70
               0
 10
0.0
 20
0.0
 30
0.0
  3
MGAG6-9
  1

  0
LINE
  5
312
100
AcDbEntity
  8
0
  6
CONTINUOUS
 62
               7
100
AcDbLine
 10
-11.5
 20
19.500000000000057
 30
0.0
 11
-11.5
 21
15.5
 31
0.0
  0
LINE
  5
313
100
AcDbEntity
  8
0
  6
CONTINUOUS
 62
               7
100
AcDbLine
 10
-11.800000000000011
 20
12.700000000000003
 30
0.0
 11
-11.800000000000011
 21
11.0
 31
0.0
  0
LINE
  5
314
100
AcDbEntity
  8
0
  6
CONTINUOUS
 62
               7
100
AcDbLine
 10
-11.699999999999989
 20
11.0
 30
0.0
 11
-11.699999999999989
 21
10.0
 31
0.0
  0
LINE
  5
315
100
AcDbEntity
  8
0
  6
CONTINUOUS
 62
               7
100
AcDbLine
 10
-8.0999999999999659
 20
11.0
 30
0.0
 11
-8.0999999999999659
 21
10.0
 31
0.0
  0
LINE
  5
316
100
AcDbEntity
  8
0
  6
CONTINUOUS
 62
               7
100
AcDbLine
 10
-5.8999999999999773
 20
13.5
 30
0.0
 11
-5.8999999999999773
 21
10.0
 31
0.0
  0
LINE
  5
317
100
AcDbEntity
  8
0
  6
CONTINUOUS
 62
               7
100
AcDbLine
 10
-0.0999999999999659
 20
19.500000000000071
 30
0.0
 11
-0.0999999999999659
 21
9.5
 31
0.0
  0
LINE
  5
318
100
AcDbEntity
  8
0
  6
CONTINUOUS
 62
               7
100
AcDbLine
 10
-8.0
 20
12.700000000000003
 30
0.0
 11
-5.8999999999999773
 21
12.700000000000003
 31
0.0
  0
LINE
  5
319
100
AcDbEntity
  8
0
  6
CONTINUOUS
 62
               2
100
AcDbLine
 10
-3.1999999999999886
 20
20.421064405906037
 30
0.0
 11
-3.1999999999999886
 21
13.861515364768522
 31
0.0
  0
LINE
  5
31A
100
AcDbEntity
  8
0
  6
CONTINUOUS
 62
               7
100
AcDbLine
 10
-10.0
 20
19.200000000000045
 30
0.0
 11
-10.0
 21
19.000000000000057
 31
0.0
  0
LINE
  5
31B
100
AcDbEntity
  8
0
  6
CONTINUOUS
 62
               7
100
AcDbLine
 10
-10.0
 20
19.000000000000057
 30
0.0
 11
-10.5
 21
18.500000000000057
 31
0.0
  0
ARC
  5
31C
100
AcDbEntity
  8
0
  6
CONTINUOUS
 62
               7
100
AcDbCircle
 10
-10.299523973635416
 20
19.20047602636464
 30
0.0
 40
0.2995243519038812
100
AcDbArc
 50
359.90894124989597
 51
90.091058750103088
  0
LINE
  5
31D
100
AcDbEntity
  8
0
  6
CONTINUOUS
 62
               7
100
AcDbLine
 10
-10.5
 20
18.500000000000057
 30
0.0
 11
-10.5
 21
16.900000000000063
 31
0.0
  0
ARC
  5
31E
100
AcDbEntity
  8
0
  6
CONTINUOUS
 62
               7
100
AcDbCircle
 10
-8.4000000000000341
 20
16.900000000000063
 30
0.0
 40
2.1000000111152071
100
AcDbArc
 50
180.0
 51
0.0
  0
LINE
  5
31F
100
AcDbEntity
  8
0
  6
CONTINUOUS
 62
               2
100
AcDbLine
 10
-8.3999999999999773
 20
20.421064405906037
 30
0.0
 11
-8.3999999999999773
 21
13.861515364768522
 31
0.0
  0
LINE
  5
320
100
AcDbEntity
  8
0
  6
CONTINUOUS
 62
               7
100
AcDbLine
 10
-6.8000000000000114
 20
19.20000000000006
 30
0.0
 11
-6.8000000000000114
 21
19.000000000000057
 31
0.0
  0
LINE
  5
321
100
AcDbEntity
  8
0
  6
CONTINUOUS
 62
               7
100
AcDbLine
 10
-6.3000000000000114
 20
18.500000000000057
 30
0.0
 11
-6.8000000000000114
 21
19.000000000000057
 31
0.0
  0
ARC
  5
322
100
AcDbEntity
  8
0
  6
CONTINUOUS
 62
               7
100
AcDbCircle
 10
-6.4993006134913571
 20
19.199300613491431
 30
0.0
 40
0.3007001998472195
100
AcDbArc
 50
90.133262070800967
 51
179.86673792919819
  0
LINE
  5
323
100
AcDbEntity
  8
0
  6
CONTINUOUS
 62
               7
100
AcDbLine
 10
-6.3000000000000114
 20
18.500000000000057
 30
0.0
 11
-6.3000000000000114
 21
16.900000000000063
 31
0.0
  0
ARC
  5
324
100
AcDbEntity
  8
0
  6
CONTINUOUS
 62
               7
100
AcDbCircle
 10
-1.3004760263646062
 20
19.200476026364655
 30
0.0
 40
0.2995243519038812
100
AcDbArc
 50
89.908941249896955
 51
180.09105875010405
  0
ARC
  5
325
100
AcDbEntity
  8
0
  6
CONTINUOUS
 62
               7
100
AcDbCircle
 10
-5.1006993865086088
 20
19.199300613491431
 30
0.0
 40
0.3007001998472195
100
AcDbArc
 50
0.1332620708018593
 51
89.866737929199076
  0
ARC
  5
326
100
AcDbEntity
  8
0
  6
CONTINUOUS
 62
               7
100
AcDbCircle
 10
-3.1999999999999886
 20
16.900000000000063
 30
0.0
 40
2.1000000111152071
100
AcDbArc
 50
180.00000000000006
 51
0.0000000000000509
  0
LINE
  5
327
100
AcDbEntity
  8
0
  6
CONTINUOUS
 62
               7
100
AcDbLine
 10
-5.3000000000000114
 20
18.500000000000057
 30
0.0
 11
-4.8000000000000114
 21
19.000000000000057
 31
0.0
  0
LINE
  5
328
100
AcDbEntity
  8
0
  6
CONTINUOUS
 62
               7
100
AcDbLine
 10
-1.5999999999999659
 20
19.000000000000057
 30
0.0
 11
-1.0999999999999659
 21
18.500000000000057
 31
0.0
  0
LINE
  5
329
100
AcDbEntity
  8
0
  6
CONTINUOUS
 62
               7
100
AcDbLine
 10
-1.0999999999999659
 20
18.500000000000057
 30
0.0
 11
-1.0999999999999659
 21
16.900000000000063
 31
0.0
  0
LINE
  5
32A
100
AcDbEntity
  8
0
  6
CONTINUOUS
 62
               7
100
AcDbLine
 10
-5.3000000000000114
 20
18.500000000000057
 30
0.0
 11
-5.3000000000000114
 21
16.900000000000063
 31
0.0
  0
LINE
  5
32B
100
AcDbEntity
  8
0
  6
CONTINUOUS
 62
               7
100
AcDbLine
 10
-6.5
 20
19.500000000000057
 30
0.0
 11
-5.1006993865086088
 21
19.500000000000057
 31
0.0
  0
LINE
  5
32C
100
AcDbEntity
  8
0
  6
CONTINUOUS
 62
               7
100
AcDbLine
 10
-4.8000000000000114
 20
19.20000000000006
 30
0.0
 11
-4.8000000000000114
 21
19.000000000000057
 31
0.0
  0
LINE
  5
32D
100
AcDbEntity
  8
0
  6
CONTINUOUS
 62
               7
100
AcDbLine
 10
-1.5999999999999659
 20
19.20000000000006
 30
0.0
 11
-1.5999999999999659
 21
19.000000000000057
 31
0.0
  0
LINE
  5
32E
100
AcDbEntity
  8
0
  6
CONTINUOUS
 62
               7
100
AcDbLine
 10
-1.3000000000000114
 20
19.500000000000057
 30
0.0
 11
-0.0999999999999659
 21
19.500000000000071
 31
0.0
  0
LINE
  5
32F
100
AcDbEntity
  8
0
  6
CONTINUOUS
 62
               7
100
AcDbLine
 10
-9.5
 20
13.5
 30
0.0
 11
-5.8999999999999773
 21
13.5
 31
0.0
  0
LINE
  5
330
100
AcDbEntity
  8
0
  6
CONTINUOUS
 62
               7
100
AcDbLine
 10
-8.0
 20
12.700000000000003
 30
0.0
 11
-8.0
 21
11.0
 31
0.0
  0
LINE
  5
331
100
AcDbEntity
  8
0
  6
CONTINUOUS
 62
               7
100
AcDbLine
 10
-8.3000000000000114
 20
13.0
 30
0.0
 11
-8.0
 21
12.700000000000003
 31
0.0
  0
LINE
  5
332
100
AcDbEntity
  8
0
  6
CONTINUOUS
 62
               7
100
AcDbLine
 10
-11.800000000000011
 20
12.700000000000003
 30
0.0
 11
-8.0
 21
12.700000000000003
 31
0.0
  0
LINE
  5
333
100
AcDbEntity
  8
0
  6
CONTINUOUS
 62
               7
100
AcDbLine
 10
-11.5
 20
13.0
 30
0.0
 11
-8.3000000000000114
 21
13.0
 31
0.0
  0
LINE
  5
334
100
AcDbEntity
  8
0
  6
CONTINUOUS
 62
               7
100
AcDbLine
 10
-11.800000000000011
 20
11.0
 30
0.0
 11
-5.8999999999999773
 21
11.0
 31
0.0
  0
LINE
  5
335
100
AcDbEntity
  8
0
  6
CONTINUOUS
 62
               7
100
AcDbLine
 10
-10.300000000000011
 20
19.500000000000057
 30
0.0
 11
-11.5
 21
19.500000000000057
 31
0.0
  0
ARC
  5
336
100
AcDbEntity
  8
0
  6
CONTINUOUS
 62
               7
100
AcDbCircle
 10
-9.5
 20
15.5
 30
0.0
 40
2.0
100
AcDbArc
 50
180.00000000000006
 51
270.00000000000006
  0
LINE
  5
337
100
AcDbEntity
  8
0
  6
CONTINUOUS
 62
               7
100
AcDbLine
 10
-11.5
 20
13.0
 30
0.0
 11
-11.800000000000011
 21
12.700000000000003
 31
0.0
  0
LINE
  5
338
100
AcDbEntity
  8
0
  6
CONTINUOUS
 62
               7
100
AcDbLine
 10
-0.2999999999999545
 20
2.4000000000000057
 30
0.0
 11
-0.2999999999999545
 21
-2.4000000000000057
 31
0.0
  0
LINE
  5
339
100
AcDbEntity
  8
0
  6
CONTINUOUS
 62
               7
100
AcDbLine
 10
-0.2999999999999545
 20
-2.4000000000000057
 30
0.0
 11
0.0
 21
-2.7000000000000171
 31
0.0
  0
LINE
  5
33A
100
AcDbEntity
  8
0
  6
CONTINUOUS
 62
               7
100
AcDbLine
 10
-0.2999999999999545
 20
2.4000000000000057
 30
0.0
 11
0.0
 21
2.7000000000000171
 31
0.0
  0
LINE
  5
33B
100
AcDbEntity
  8
0
  6
CONTINUOUS
 62
               7
100
AcDbLine
 10
-8.9343145750507347
 20
6.0656854249492369
 30
0.0
 11
-10.065685424949152
 21
4.9343145750507631
 31
0.0
  0
LINE
  5
33C
100
AcDbEntity
  8
0
  6
CONTINUOUS
 62
               7
100
AcDbLine
 10
-8.9343145750507347
 20
4.9343145750507631
 30
0.0
 11
-10.065685424949152
 21
6.0656854249492369
 31
0.0
  0
CIRCLE
  5
33D
100
AcDbEntity
  8
0
  6
CONTINUOUS
 62
               7
100
AcDbCircle
 10
-9.5
 20
5.5
 30
0.0
 40
1.0
  0
ARC
  5
33E
100
AcDbEntity
  8
0
  6
CONTINUOUS
 62
               7
100
AcDbCircle
 10
-9.0
 20
3.1999999999999886
 30
0.0
 40
0.5
100
AcDbArc
 50
191.53695903281493
 51
348.46304096718507
  0
LINE
  5
33F
100
AcDbEntity
  8
0
  6
CONTINUOUS
 62
               7
100
AcDbLine
 10
-9.7999999999999545
 20
3.0
 30
0.0
 11
-9.4658171329847391
 21
3.0
 31
0.0
  0
LINE
  5
340
100
AcDbEntity
  8
0
  6
CONTINUOUS
 62
               7
100
AcDbLine
 10
-8.5341828670152609
 20
3.0
 30
0.0
 11
-7.5
 21
3.0
 31
0.0
  0
LINE
  5
341
100
AcDbEntity
  8
0
  6
CONTINUOUS
 62
               7
100
AcDbLine
 10
-8.9343145750507347
 20
-4.9343145750507631
 30
0.0
 11
-10.065685424949152
 21
-6.0656854249492369
 31
0.0
  0
LINE
  5
342
100
AcDbEntity
  8
0
  6
CONTINUOUS
 62
               7
100
AcDbLine
 10
-8.9343145750507347
 20
-6.0656854249492369
 30
0.0
 11
-10.065685424949152
 21
-4.9343145750507631
 31
0.0
  0
CIRCLE
  5
343
100
AcDbEntity
  8
0
  6
CONTINUOUS
 62
               7
100
AcDbCircle
 10
-9.5
 20
-5.5
 30
0.0
 40
1.0
  0
LINE
  5
344
100
AcDbEntity
  8
0
  6
CONTINUOUS
 62
               7
100
AcDbLine
 10
-9.7999999999999545
 20
-3.0
 30
0.0
 11
-9.7999999999999545
 21
3.0
 31
0.0
  0
LINE
  5
345
100
AcDbEntity
  8
0
  6
CONTINUOUS
 62
               7
100
AcDbLine
 10
0.0
 20
2.7000000000000171
 30
0.0
 11
0.0
 21
9.5
 31
0.0
  0
CIRCLE
  5
346
100
AcDbEntity
  8
0
  6
CONTINUOUS
 62
               7
100
AcDbCircle
 10
-4.5
 20
0.0
 30
0.0
 40
3.3500000000000085
  0
CIRCLE
  5
347
100
AcDbEntity
  8
0
  6
CONTINUOUS
 62
               7
100
AcDbCircle
 10
-4.5
 20
0.0
 30
0.0
 40
3.1499999999999915
  0
CIRCLE
  5
348
100
AcDbEntity
  8
0
  6
CONTINUOUS
 62
               7
100
AcDbCircle
 10
-4.5
 20
0.0
 30
0.0
 40
2.4000000000000057
  0
LINE
  5
349
100
AcDbEntity
  8
0
  6
CONTINUOUS
 62
               7
100
AcDbLine
 10
-12.0
 20
9.5
 30
0.0
 11
-11.5
 21
10.0
 31
0.0
  0
LINE
  5
34A
100
AcDbEntity
  8
0
  6
CONTINUOUS
 62
               7
100
AcDbLine
 10
-12.0
 20
-9.5
 30
0.0
 11
-11.499999999999886
 21
-10.0
 31
0.0
  0
LINE
  5
34B
100
AcDbEntity
  8
0
  6
CONTINUOUS
 62
               7
100
AcDbLine
 10
0.0
 20
-9.499999992019184
 30
0.0
 11
0.0
 21
-2.7000000000000171
 31
0.0
  0
LINE
  5
34C
100
AcDbEntity
  8
0
  6
CONTINUOUS
 62
               2
100
AcDbLine
 10
4.0
 20
0.0
 30
0.0
 11
-16.0
 21
0.0
 31
0.0
  0
LINE
  5
34D
100
AcDbEntity
  8
0
  6
CONTINUOUS
 62
               2
100
AcDbLine
 10
-4.5
 20
4.3500000000000085
 30
0.0
 11
-4.5
 21
-4.3500000000000085
 31
0.0
  0
LINE
  5
34E
100
AcDbEntity
  8
0
  6
CONTINUOUS
 62
               7
100
AcDbLine
 10
-7.5
 20
9.5
 30
0.0
 11
-7.5
 21
3.0
 31
0.0
  0
LINE
  5
34F
100
AcDbEntity
  8
0
  6
CONTINUOUS
 62
               7
100
AcDbLine
 10
-12.0
 20
9.5
 30
0.0
 11
-12.0
 21
-9.5
 31
0.0
  0
LINE
  5
350
100
AcDbEntity
  8
0
  6
CONTINUOUS
 62
               7
100
AcDbLine
 10
-8.0
 20
10.0
 30
0.0
 11
-8.0
 21
3.4000000000000057
 31
0.0
  0
LINE
  5
351
100
AcDbEntity
  8
0
  6
CONTINUOUS
 62
               7
100
AcDbLine
 10
-7.5
 20
9.5
 30
0.0
 11
0.0
 21
9.5
 31
0.0
  0
LINE
  5
352
100
AcDbEntity
  8
0
  6
CONTINUOUS
 62
               7
100
AcDbLine
 10
-11.699999999999989
 20
10.0
 30
0.0
 11
-0.7999999999999545
 21
10.0
 31
0.0
  0
LINE
  5
353
100
AcDbEntity
  8
0
  6
CONTINUOUS
 62
               7
100
AcDbLine
 10
-7.5
 20
-9.5
 30
0.0
 11
0.0
 21
-9.5
 31
0.0
  0
LINE
  5
354
100
AcDbEntity
  8
0
  6
CONTINUOUS
 62
               7
100
AcDbLine
 10
-11.499999999999886
 20
-10.0
 30
0.0
 11
-0.7999999999999545
 21
-10.0
 31
0.0
  0
LINE
  5
355
100
AcDbEntity
  8
0
  6
CONTINUOUS
 62
               7
100
AcDbLine
 10
-9.7999999999999545
 20
-3.0
 30
0.0
 11
-9.4658171329847391
 21
-3.0
 31
0.0
  0
LINE
  5
356
100
AcDbEntity
  8
0
  6
CONTINUOUS
 62
               7
100
AcDbLine
 10
-7.5
 20
-9.5
 30
0.0
 11
-7.5
 21
-3.0
 31
0.0
  0
LINE
  5
357
100
AcDbEntity
  8
0
  6
CONTINUOUS
 62
               7
100
AcDbLine
 10
-8.0
 20
-10.0
 30
0.0
 11
-8.0
 21
-3.4000000000000057
 31
0.0
  0
LINE
  5
358
100
AcDbEntity
  8
0
  6
CONTINUOUS
 62
               7
100
AcDbLine
 10
-8.5341828670152609
 20
-3.0
 30
0.0
 11
-7.5
 21
-3.0
 31
0.0
  0
ARC
  5
359
100
AcDbEntity
  8
0
  6
CONTINUOUS
 62
               7
100
AcDbCircle
 10
-9.0
 20
-3.1999999999999886
 30
0.0
 40
0.5
100
AcDbArc
 50
11.536959032814984
 51
168.46304096718507
  0
LINE
  5
35A
100
AcDbEntity
  8
0
  6
CONTINUOUS
 62
               7
100
AcDbLine
 10
-11.699999999999932
 20
7.3000000000000114
 30
0.0
 11
-11.699999999999932
 21
-7.3000000000000114
 31
0.0
  0
LINE
  5
35B
100
AcDbEntity
  8
0
  6
CONTINUOUS
 62
               7
100
AcDbLine
 10
-8.1999999999999318
 20
7.3000000000000114
 30
0.0
 11
-11.699999999999932
 21
7.3000000000000114
 31
0.0
  0
LINE
  5
35C
100
AcDbEntity
  8
0
  6
CONTINUOUS
 62
               7
100
AcDbLine
 10
-8.1999999999999318
 20
7.3000000000000114
 30
0.0
 11
-8.1999999999999318
 21
3.0999999999999943
 31
0.0
  0
LINE
  5
35D
100
AcDbEntity
  8
0
  6
CONTINUOUS
 62
               7
100
AcDbLine
 10
-8.1999999999999318
 20
3.0999999999999943
 30
0.0
 11
-10.199999999999932
 21
3.0999999999999943
 31
0.0
  0
LINE
  5
35E
100
AcDbEntity
  8
0
  6
CONTINUOUS
 62
               7
100
AcDbLine
 10
-8.1999999999999318
 20
-3.0999999999999943
 30
0.0
 11
-10.199999999999932
 21
-3.0999999999999943
 31
0.0
  0
LINE
  5
35F
100
AcDbEntity
  8
0
  6
CONTINUOUS
 62
               7
100
AcDbLine
 10
-8.1999999999999318
 20
-7.3000000000000114
 30
0.0
 11
-8.1999999999999318
 21
-3.0999999999999943
 31
0.0
  0
LINE
  5
360
100
AcDbEntity
  8
0
  6
CONTINUOUS
 62
               7
100
AcDbLine
 10
-8.1999999999999318
 20
-7.3000000000000114
 30
0.0
 11
-11.699999999999932
 21
-7.3000000000000114
 31
0.0
  0
LINE
  5
361
100
AcDbEntity
  8
0
  6
CONTINUOUS
 62
               7
100
AcDbLine
 10
-10.199999999999932
 20
-3.0999999999999943
 30
0.0
 11
-10.199999999999932
 21
3.0999999999999943
 31
0.0
  0
LINE
  5
362
100
AcDbEntity
  8
0
  6
CONTINUOUS
 62
               7
100
AcDbLine
 10
-8.1999999999999318
 20
-3.4000000000000057
 30
0.0
 11
-8.0
 21
-3.4000000000000057
 31
0.0
  0
LINE
  5
363
100
AcDbEntity
  8
0
  6
CONTINUOUS
 62
               7
100
AcDbLine
 10
-8.1999999999999318
 20
3.4000000000000057
 30
0.0
 11
-8.0
 21
3.4000000000000057
 31
0.0
  0
CIRCLE
  5
364
100
AcDbEntity
  8
0
  6
CONTINUOUS
 62
               2
100
AcDbCircle
 10
-3.0
 20
5.5
 30
0.0
 40
1.25
  0
CIRCLE
  5
365
100
AcDbEntity
  8
0
  6
CONTINUOUS
 62
               7
100
AcDbCircle
 10
-3.0
 20
5.5
 30
0.0
 40
1.05
  0
LINE
  5
366
100
AcDbEntity
  8
0
  6
CONTINUOUS
 62
               2
100
AcDbLine
 10
-3.0
 20
7.5499999999999972
 30
0.0
 11
-3.0
 21
3.4500000000000028
 31
0.0
  0
LINE
  5
367
100
AcDbEntity
  8
0
  6
CONTINUOUS
 62
               2
100
AcDbLine
 10
-0.9499999999999318
 20
5.5
 30
0.0
 11
-5.0499999999999545
 21
5.5
 31
0.0
  0
CIRCLE
  5
368
100
AcDbEntity
  8
0
  6
CONTINUOUS
 62
               2
100
AcDbCircle
 10
-3.0
 20
-5.5
 30
0.0
 40
1.25
  0
CIRCLE
  5
369
100
AcDbEntity
  8
0
  6
CONTINUOUS
 62
               7
100
AcDbCircle
 10
-3.0
 20
-5.5
 30
0.0
 40
1.05
  0
LINE
  5
36A
100
AcDbEntity
  8
0
  6
CONTINUOUS
 62
               2
100
AcDbLine
 10
-0.9499999999999318
 20
-5.5
 30
0.0
 11
-5.0499999999999545
 21
-5.5
 31
0.0
  0
LINE
  5
36B
100
AcDbEntity
  8
0
  6
CONTINUOUS
 62
               2
100
AcDbLine
 10
-3.0
 20
-7.5499999999999972
 30
0.0
 11
-3.0
 21
-3.4500000000000028
 31
0.0
  0
LINE
  5
36C
100
AcDbEntity
  8
0
  6
CONTINUOUS
 62
               7
100
AcDbLine
 10
-0.7999999999999545
 20
10.0
 30
0.0
 11
-0.7999999999999545
 21
9.5
 31
0.0
  0
LINE
  5
36D
100
AcDbEntity
  8
0
  6
CONTINUOUS
 62
               7
100
AcDbLine
 10
-0.7999999999999545
 20
-9.5
 30
0.0
 11
-0.7999999999999545
 21
-10.0
 31
0.0
  0
LINE
  5
36E
100
AcDbEntity
  8
0
  6
CONTINUOUS
 62
               2
100
AcDbLine
 10
-2.4999999999999432
 20
7.0
 30
0.0
 11
2.5000000000000568
 21
7.0
 31
0.0
  0
LINE
  5
36F
100
AcDbEntity
  8
0
  6
CONTINUOUS
 62
               2
100
AcDbLine
 10
-2.4999999999999432
 20
-7.0
 30
0.0
 11
2.5000000000000568
 21
-7.0
 31
0.0
  0
ENDBLK
  5
370
100
AcDbEntity
  8
0
100
AcDbBlockEnd
  0
BLOCK
  5
371
100
AcDbEntity
  8
0
100
AcDbBlockBegin
  2
MGAG6-10
 70
               0
 10
0.0
 20
0.0
 30
0.0
  3
MGAG6-10
  1

  0
LINE
  5
372
100
AcDbEntity
  8
0
  6
CONTINUOUS
 62
               7
100
AcDbLine
 10
15.0
 20
-12.0
 30
0.0
 11
34.391723750933295
 21
-12.0
 31
0.0
  0
LINE
  5
373
100
AcDbEntity
  8
0
  6
CONTINUOUS
 62
               7
100
AcDbLine
 10
54.0
 20
0.0
 30
0.0
 11
54.0
 21
-12.0
 31
0.0
  0
LINE
  5
374
100
AcDbEntity
  8
0
  6
CONTINUOUS
 62
               7
100
AcDbLine
 10
14.999999975855985
 20
-8.0
 30
0.0
 11
19.0
 21
-8.0
 31
0.0
  0
LINE
  5
375
100
AcDbEntity
  8
0
  6
CONTINUOUS
 62
               7
100
AcDbLine
 10
14.999999975855985
 20
-8.0
 30
0.0
 11
14.999999975855985
 21
-11.999999986309376
 31
0.0
  0
LINE
  5
376
100
AcDbEntity
  8
0
  6
CONTINUOUS
 62
               7
100
AcDbLine
 10
0.0
 20
-11.300000000000011
 30
0.0
 11
15.0
 21
-11.300000000000011
 31
0.0
  0
LINE
  5
377
100
AcDbEntity
  8
0
  6
CONTINUOUS
 62
               7
100
AcDbLine
 10
54.000000001754415
 20
-11.699999999999989
 30
0.0
 11
54.500000001754415
 21
-11.699999999999989
 31
0.0
  0
LINE
  5
378
100
AcDbEntity
  8
0
  6
CONTINUOUS
 62
               7
100
AcDbLine
 10
54.000000001754415
 20
-8.1999999999999886
 30
0.0
 11
54.500000001754415
 21
-8.1999999999999886
 31
0.0
  0
LINE
  5
379
100
AcDbEntity
  8
0
  6
CONTINUOUS
 62
               7
100
AcDbLine
 10
55.0
 20
-10.199999999999989
 30
0.0
 11
55.0
 21
-8.8000000000000114
 31
0.0
  0
LINE
  5
37A
100
AcDbEntity
  8
0
  6
CONTINUOUS
 62
               7
100
AcDbLine
 10
54.5
 20
-8.5
 30
0.0
 11
54.699999999999932
 21
-8.5
 31
0.0
  0
LINE
  5
37B
100
AcDbEntity
  8
0
  6
CONTINUOUS
 62
               7
100
AcDbLine
 10
54.5
 20
-10.5
 30
0.0
 11
54.699999999999932
 21
-10.5
 31
0.0
  0
ARC
  5
37C
100
AcDbEntity
  8
0
  6
CONTINUOUS
 62
               7
100
AcDbCircle
 10
54.699999999999932
 20
-8.8000000000000114
 30
0.0
 40
0.3
100
AcDbArc
 50
0.0
 51
90.0
  0
ARC
  5
37D
100
AcDbEntity
  8
0
  6
CONTINUOUS
 62
               7
100
AcDbCircle
 10
54.699999999999932
 20
-10.199999999999989
 30
0.0
 40
0.3
100
AcDbArc
 50
270.0
 51
0.0
  0
LINE
  5
37E
100
AcDbEntity
  8
0
  6
CONTINUOUS
 62
               7
100
AcDbLine
 10
54.5
 20
-11.699999999999989
 30
0.0
 11
54.5
 21
-8.1999999999999886
 31
0.0
  0
LINE
  5
37F
100
AcDbEntity
  8
0
  6
CONTINUOUS
 62
               7
100
AcDbLine
 10
17.5
 20
-3.0
 30
0.0
 11
19.0
 21
-3.0
 31
0.0
  0
LINE
  5
380
100
AcDbEntity
  8
0
  6
CONTINUOUS
 62
               7
100
AcDbLine
 10
17.5
 20
-6.0
 30
0.0
 11
19.0
 21
-6.0
 31
0.0
  0
LINE
  5
381
100
AcDbEntity
  8
0
  6
CONTINUOUS
 62
               7
100
AcDbLine
 10
0.0
 20
-11.800000000000011
 30
0.0
 11
14.999999975855985
 21
-11.800000000000011
 31
0.0
  0
LINE
  5
382
100
AcDbEntity
  8
0
  6
CONTINUOUS
 62
               2
100
AcDbLine
 10
7.6015234846273643
 20
-4.5
 30
0.0
 11
20.159103191063423
 21
-4.5
 31
0.0
  0
LINE
  5
383
100
AcDbEntity
  8
0
  6
CONTINUOUS
 62
               7
100
AcDbLine
 10
11.300000000000068
 20
-6.5
 30
0.0
 11
15.500000000000114
 21
-6.5
 31
0.0
  0
LINE
  5
384
100
AcDbEntity
  8
0
  6
CONTINUOUS
 62
               7
100
AcDbLine
 10
11.300000000000068
 20
-2.5
 30
0.0
 11
15.500000000000114
 21
-2.5
 31
0.0
  0
CIRCLE
  5
385
100
AcDbEntity
  8
0
  6
CONTINUOUS
 62
               7
100
AcDbCircle
 10
9.9500000000000455
 20
-1.6500000000000057
 30
0.0
 40
0.15
  0
LINE
  5
386
100
AcDbEntity
  8
0
  6
CONTINUOUS
 62
               7
100
AcDbLine
 10
11.300000000000068
 20
-2.0
 30
0.0
 11
9.8000000000000682
 21
-2.0
 31
0.0
  0
LINE
  5
387
100
AcDbEntity
  8
0
  6
CONTINUOUS
 62
               7
100
AcDbLine
 10
9.8000000000000682
 20
-0.8000000000000114
 30
0.0
 11
9.8000000000000682
 21
-7.0
 31
0.0
  0
LINE
  5
388
100
AcDbEntity
  8
0
  6
CONTINUOUS
 62
               7
100
AcDbLine
 10
11.300000000000068
 20
-7.0
 30
0.0
 11
11.300000000000068
 21
-2.0
 31
0.0
  0
LINE
  5
389
100
AcDbEntity
  8
0
  6
CONTINUOUS
 62
               7
100
AcDbLine
 10
0.0
 20
-11.800000000000011
 30
0.0
 11
0.0
 21
-0.8000000000000114
 31
0.0
  0
LINE
  5
38A
100
AcDbEntity
  8
0
  6
CONTINUOUS
 62
               7
100
AcDbLine
 10
9.0
 20
-7.0
 30
0.0
 11
9.0
 21
-0.8000000000000114
 31
0.0
  0
LINE
  5
38B
100
AcDbEntity
  8
0
  6
CONTINUOUS
 62
               7
100
AcDbLine
 10
0.0
 20
-0.8000000000000114
 30
0.0
 11
9.8000000000000682
 21
-0.8000000000000114
 31
0.0
  0
LINE
  5
38C
100
AcDbEntity
  8
0
  6
CONTINUOUS
 62
               7
100
AcDbLine
 10
15.999999975855985
 20
-7.0
 30
0.0
 11
15.999999975855985
 21
-8.0
 31
0.0
  0
CIRCLE
  5
38D
100
AcDbEntity
  8
0
  6
CONTINUOUS
 62
               7
100
AcDbCircle
 10
16.649999999999977
 20
-1.6500000000000057
 30
0.0
 40
0.15
  0
CIRCLE
  5
38E
100
AcDbEntity
  8
0
  6
CONTINUOUS
 62
               7
100
AcDbCircle
 10
16.649999999999977
 20
-7.3499999999999943
 30
0.0
 40
0.15
  0
LINE
  5
38F
100
AcDbEntity
  8
0
  6
CONTINUOUS
 62
               7
100
AcDbLine
 10
17.5
 20
-1.3000000000000114
 30
0.0
 11
17.5
 21
-7.6999999999999886
 31
0.0
  0
LINE
  5
390
100
AcDbEntity
  8
0
  6
CONTINUOUS
 62
               7
100
AcDbLine
 10
15.500000000000114
 20
-2.0
 30
0.0
 11
16.800000000000068
 21
-2.0
 31
0.0
  0
LINE
  5
391
100
AcDbEntity
  8
0
  6
CONTINUOUS
 62
               7
100
AcDbLine
 10
15.500000000000114
 20
-7.0
 30
0.0
 11
15.500000000000114
 21
-2.0
 31
0.0
  0
LINE
  5
392
100
AcDbEntity
  8
0
  6
CONTINUOUS
 62
               7
100
AcDbLine
 10
16.800000000000068
 20
-8.0
 30
0.0
 11
16.800000000000068
 21
-0.8000000000000114
 31
0.0
  0
LINE
  5
393
100
AcDbEntity
  8
0
  6
CONTINUOUS
 62
               7
100
AcDbLine
 10
9.0
 20
-7.0
 30
0.0
 11
16.800000000000068
 21
-7.0
 31
0.0
  0
LINE
  5
394
100
AcDbEntity
  8
0
  6
CONTINUOUS
 62
               7
100
AcDbLine
 10
16.800000000000068
 20
-0.8000000000000114
 30
0.0
 11
17.300000000000068
 21
-0.8000000000000114
 31
0.0
  0
LINE
  5
395
100
AcDbEntity
  8
0
  6
CONTINUOUS
 62
               7
100
AcDbLine
 10
17.300000000000068
 20
-0.8000000000000114
 30
0.0
 11
17.300000000000068
 21
-8.0
 31
0.0
  0
LINE
  5
396
100
AcDbEntity
  8
0
  6
CONTINUOUS
 62
               7
100
AcDbLine
 10
17.300000000000068
 20
-7.6999999999999886
 30
0.0
 11
17.5
 21
-7.6999999999999886
 31
0.0
  0
LINE
  5
397
100
AcDbEntity
  8
0
  6
CONTINUOUS
 62
               7
100
AcDbLine
 10
17.300000000000068
 20
-1.3000000000000114
 30
0.0
 11
17.5
 21
-1.3000000000000114
 31
0.0
  0
LINE
  5
398
100
AcDbEntity
  8
0
  6
CONTINUOUS
 62
               7
100
AcDbLine
 10
16.800000000000068
 20
-5.6999999999999886
 30
0.0
 11
17.300000000000068
 21
-5.6999999999999886
 31
0.0
  0
LINE
  5
399
100
AcDbEntity
  8
0
  6
CONTINUOUS
 62
               7
100
AcDbLine
 10
16.800000000000068
 20
-3.3000000000000114
 30
0.0
 11
17.300000000000068
 21
-3.3000000000000114
 31
0.0
  0
LINE
  5
39A
100
AcDbEntity
  8
0
  6
CONTINUOUS
 62
               2
100
AcDbLine
 10
17.300000000000068
 20
-5.6999999999999886
 30
0.0
 11
16.800000000000068
 21
-3.3000000000000114
 31
0.0
  0
LINE
  5
39B
100
AcDbEntity
  8
0
  6
CONTINUOUS
 62
               2
100
AcDbLine
 10
16.800000000000068
 20
-5.6999999999999886
 30
0.0
 11
17.300000000000068
 21
-3.3000000000000114
 31
0.0
  0
LINE
  5
39C
100
AcDbEntity
  8
0
  6
CONTINUOUS
 62
               2
100
AcDbLine
 10
17.5
 20
-5.8000000000000114
 30
0.0
 11
17.846410161513745
 21
-6.0
 31
0.0
  0
LINE
  5
39D
100
AcDbEntity
  8
0
  6
CONTINUOUS
 62
               2
100
AcDbLine
 10
17.5
 20
-3.1999999999999886
 30
0.0
 11
17.846410161513745
 21
-3.0
 31
0.0
  0
LINE
  5
39E
100
AcDbEntity
  8
0
  6
CONTINUOUS
 62
               2
100
AcDbLine
 10
-2.5
 20
-5.0
 30
0.0
 11
2.5
 21
-5.0
 31
0.0
  0
LINE
  5
39F
100
AcDbEntity
  8
0
  6
CONTINUOUS
 62
               2
100
AcDbLine
 10
25.999999997462623
 20
-2.5000000000000284
 30
0.0
 11
25.999999997462623
 21
2.4999999999999716
 31
0.0
  0
LINE
  5
3A0
100
AcDbEntity
  8
0
  6
CONTINUOUS
 62
               2
100
AcDbLine
 10
51.5
 20
-3.0000000000000284
 30
0.0
 11
56.5
 21
-3.0000000000000284
 31
0.0
  0
ARC
  5
3A1
100
AcDbEntity
  8
0
  6
CONTINUOUS
 62
               7
100
AcDbCircle
 10
49.0
 20
-10.199999999999932
 30
0.0
 40
1.899999998731289
100
AcDbArc
 50
223.17355114315473
 51
316.82644885684527
  0
ARC
  5
3A2
100
AcDbEntity
  8
0
  6
CONTINUOUS
 62
               7
100
AcDbCircle
 10
49.0
 20
-10.199999999999932
 30
0.0
 40
1.5999999987313345
100
AcDbArc
 50
234.3409123671824
 51
305.6590876328176
  0
ARC
  5
3A3
100
AcDbEntity
  8
0
  6
CONTINUOUS
 62
               7
100
AcDbCircle
 10
35.0
 20
-10.199999999999932
 30
0.0
 40
1.899999998731289
100
AcDbArc
 50
223.17355114315473
 51
316.82644885684527
  0
ARC
  5
3A4
100
AcDbEntity
  8
0
  6
CONTINUOUS
 62
               7
100
AcDbCircle
 10
35.0
 20
-10.199999999999932
 30
0.0
 40
1.5999999987313345
100
AcDbArc
 50
234.3409123671824
 51
305.6590876328176
  0
LINE
  5
3A5
100
AcDbEntity
  8
0
  6
CONTINUOUS
 62
               7
100
AcDbLine
 10
33.0
 20
-11.5
 30
0.0
 11
33.0
 21
-11.999999999999943
 31
0.0
  0
LINE
  5
3A6
100
AcDbEntity
  8
0
  6
CONTINUOUS
 62
               7
100
AcDbLine
 10
51.0
 20
-11.5
 30
0.0
 11
51.0
 21
-11.999999999999943
 31
0.0
  0
CIRCLE
  5
3A7
100
AcDbEntity
  8
0
  6
CONTINUOUS
 62
               7
100
AcDbCircle
 10
22.0
 20
-3.1999999999999318
 30
0.0
 40
2.0499999999999998
  0
CIRCLE
  5
3A8
100
AcDbEntity
  8
0
  6
CONTINUOUS
 62
               7
100
AcDbCircle
 10
51.0
 20
-3.1999999999999318
 30
0.0
 40
2.0499999999999998
  0
LINE
  5
3A9
100
AcDbEntity
  8
0
  6
CONTINUOUS
 62
               7
100
AcDbLine
 10
18.999999999999886
 20
-1.5999999999999659
 30
0.0
 11
20.718399438202255
 21
-1.5999999999999659
 31
0.0
  0
LINE
  5
3AA
100
AcDbEntity
  8
0
  6
CONTINUOUS
 62
               7
100
AcDbLine
 10
18.999999999999886
 20
-4.7999999999999545
 30
0.0
 11
20.718399438202312
 21
-4.7999999999999545
 31
0.0
  0
LINE
  5
3AB
100
AcDbEntity
  8
0
  6
CONTINUOUS
 62
               7
100
AcDbLine
 10
23.281600561797632
 20
-4.7999999999999545
 30
0.0
 11
49.718399438202425
 21
-4.7999999999999545
 31
0.0
  0
LINE
  5
3AC
100
AcDbEntity
  8
0
  6
CONTINUOUS
 62
               7
100
AcDbLine
 10
23.281600561797688
 20
-1.5999999999999659
 30
0.0
 11
49.718399438202368
 21
-1.5999999999999659
 31
0.0
  0
LINE
  5
3AD
100
AcDbEntity
  8
0
  6
CONTINUOUS
 62
               7
100
AcDbLine
 10
52.281600561797632
 20
-4.7999999999999545
 30
0.0
 11
54.0
 21
-4.7999999999999545
 31
0.0
  0
LINE
  5
3AE
100
AcDbEntity
  8
0
  6
CONTINUOUS
 62
               7
100
AcDbLine
 10
52.281600561797632
 20
-1.5999999999999659
 30
0.0
 11
54.0
 21
-1.5999999999999659
 31
0.0
  0
LINE
  5
3AF
100
AcDbEntity
  8
0
  6
CONTINUOUS
 62
               7
100
AcDbLine
 10
19.0
 20
-10.0
 30
0.0
 11
54.0
 21
-10.0
 31
0.0
  0
LINE
  5
3B0
100
AcDbEntity
  8
0
  6
CONTINUOUS
 62
               7
100
AcDbLine
 10
19.0
 20
-6.8000000000000114
 30
0.0
 11
54.0
 21
-6.8000000000000114
 31
0.0
  0
LINE
  5
3B1
100
AcDbEntity
  8
0
  6
CONTINUOUS
 62
               7
100
AcDbLine
 10
19.000000004378535
 20
-0.0999999999999659
 30
0.0
 11
54.000000004378535
 21
-0.0999999999999659
 31
0.0
  0
CIRCLE
  5
3B2
100
AcDbEntity
  8
0
  6
CONTINUOUS
 62
               7
100
AcDbCircle
 10
22.0
 20
-3.1999999999999318
 30
0.0
 40
1.8999999999999999
  0
LINE
  5
3B3
100
AcDbEntity
  8
0
  6
CONTINUOUS
 62
               7
100
AcDbLine
 10
21.25
 20
-2.7669872916931695
 30
0.0
 11
21.25
 21
-3.6330126799339837
 31
0.0
  0
LINE
  5
3B4
100
AcDbEntity
  8
0
  6
CONTINUOUS
 62
               7
100
AcDbLine
 10
22.75
 20
-2.7669872916931695
 30
0.0
 11
22.75
 21
-3.633012670692608
 31
0.0
  0
LINE
  5
3B5
100
AcDbEntity
  8
0
  6
CONTINUOUS
 62
               7
100
AcDbLine
 10
22.00000001545601
 20
-2.33397456777044
 30
0.0
 11
21.25000001545601
 21
-2.7669872618908471
 31
0.0
  0
LINE
  5
3B6
100
AcDbEntity
  8
0
  6
CONTINUOUS
 62
               7
100
AcDbLine
 10
22.75000001545601
 20
-3.6330126799339837
 30
0.0
 11
21.999999955851365
 21
-4.0660254038567132
 31
0.0
  0
LINE
  5
3B7
100
AcDbEntity
  8
0
  6
CONTINUOUS
 62
               7
100
AcDbLine
 10
22.749999955851365
 20
-2.7669872618908471
 30
0.0
 11
21.999999955851365
 21
-2.33397456777044
 31
0.0
  0
LINE
  5
3B8
100
AcDbEntity
  8
0
  6
CONTINUOUS
 62
               7
100
AcDbLine
 10
21.999999955851365
 20
-4.0660253740543908
 30
0.0
 11
21.250000000000057
 21
-3.6330126976513952
 31
0.0
  0
LINE
  5
3B9
100
AcDbEntity
  8
0
  6
CONTINUOUS
 62
               7
100
AcDbLine
 10
50.999999955851365
 20
-4.0660253740543908
 30
0.0
 11
50.25
 21
-3.6330126976513952
 31
0.0
  0
LINE
  5
3BA
100
AcDbEntity
  8
0
  6
CONTINUOUS
 62
               7
100
AcDbLine
 10
51.749999955851365
 20
-2.7669872618908471
 30
0.0
 11
50.999999955851365
 21
-2.33397456777044
 31
0.0
  0
LINE
  5
3BB
100
AcDbEntity
  8
0
  6
CONTINUOUS
 62
               7
100
AcDbLine
 10
51.75000001545601
 20
-3.6330126799339837
 30
0.0
 11
50.999999955851365
 21
-4.0660254038567132
 31
0.0
  0
LINE
  5
3BC
100
AcDbEntity
  8
0
  6
CONTINUOUS
 62
               7
100
AcDbLine
 10
51.00000001545601
 20
-2.33397456777044
 30
0.0
 11
50.25000001545601
 21
-2.7669872618908471
 31
0.0
  0
LINE
  5
3BD
100
AcDbEntity
  8
0
  6
CONTINUOUS
 62
               7
100
AcDbLine
 10
51.75
 20
-2.7669872916931695
 30
0.0
 11
51.75
 21
-3.633012670692608
 31
0.0
  0
LINE
  5
3BE
100
AcDbEntity
  8
0
  6
CONTINUOUS
 62
               7
100
AcDbLine
 10
50.25
 20
-2.7669872916931695
 30
0.0
 11
50.25
 21
-3.6330126799339837
 31
0.0
  0
CIRCLE
  5
3BF
100
AcDbEntity
  8
0
  6
CONTINUOUS
 62
               7
100
AcDbCircle
 10
51.0
 20
-3.1999999999999318
 30
0.0
 40
1.8999999999999999
  0
LINE
  5
3C0
100
AcDbEntity
  8
0
  6
CONTINUOUS
 62
               7
100
AcDbLine
 10
19.0
 20
0.0
 30
0.0
 11
54.0
 21
0.0
 31
0.0
  0
LINE
  5
3C1
100
AcDbEntity
  8
0
  6
CONTINUOUS
 62
               7
100
AcDbLine
 10
15.0
 20
-11.5
 30
0.0
 11
54.0
 21
-11.5
 31
0.0
  0
LINE
  5
3C2
100
AcDbEntity
  8
0
  6
CONTINUOUS
 62
               2
100
AcDbLine
 10
41.999999997462623
 20
-2.5
 30
0.0
 11
41.999999997462623
 21
2.5
 31
0.0
  0
LINE
  5
3C3
100
AcDbEntity
  8
0
  6
CONTINUOUS
 62
               7
100
AcDbLine
 10
19.0
 20
0.0
 30
0.0
 11
19.0
 21
-11.5
 31
0.0
  0
LINE
  5
3C4
100
AcDbEntity
  8
0
  6
PHANTOM
 62
               2
100
AcDbLine
 10
9.9500000000000455
 20
-1.5
 30
0.0
 11
16.649999999999977
 21
-1.5
 31
0.0
  0
LINE
  5
3C5
100
AcDbEntity
  8
0
  6
PHANTOM
 62
               2
100
AcDbLine
 10
9.9500000000000455
 20
-1.8000000000000114
 30
0.0
 11
16.649999999999977
 21
-1.8000000000000114
 31
0.0
  0
LINE
  5
3C6
100
AcDbEntity
  8
0
  6
PHANTOM
 62
               7
100
AcDbLine
 10
15.999999975855985
 20
-7.1999999999999886
 30
0.0
 11
16.649999999999977
 21
-7.1999999999999886
 31
0.0
  0
LINE
  5
3C7
100
AcDbEntity
  8
0
  6
PHANTOM
 62
               7
100
AcDbLine
 10
15.999999975855985
 20
-7.5
 30
0.0
 11
16.649999999999977
 21
-7.5
 31
0.0
  0
LINE
  5
3C8
100
AcDbEntity
  8
0
  6
CONTINUOUS
 62
               7
100
AcDbLine
 10
49.608276249066705
 20
-12.0
 30
0.0
 11
54.0
 21
-12.0
 31
0.0
  0
LINE
  5
3C9
100
AcDbEntity
  8
0
  6
CONTINUOUS
 62
               7
100
AcDbLine
 10
35.608276249066705
 20
-12.0
 30
0.0
 11
48.391723750933295
 21
-12.0
 31
0.0
  0
LINE
  5
3CA
100
AcDbEntity
  8
0
  6
PHANTOM
 62
               3
100
AcDbLine
 10
32.246375355625361
 20
10.694219796299478
 30
0.0
 11
32.246375355625361
 21
-25.261654142125337
 31
0.0
  0
ENDBLK
  5
3CB
100
AcDbEntity
  8
0
100
AcDbBlockEnd
  0
BLOCK
  5
3CC
100
AcDbEntity
  8
0
100
AcDbBlockBegin
  2
MGAG6-11
 70
               0
 10
0.0
 20
0.0
 30
0.0
  3
MGAG6-11
  1

  0
ARC
  5
3CD
100
AcDbEntity
  8
0
  6
CONTINUOUS
 62
               7
100
AcDbCircle
 10
54.699999999999989
 20
-4.7999999999999972
 30
0.0
 40
0.3
100
AcDbArc
 50
0.0
 51
90.0
  0
ARC
  5
3CE
100
AcDbEntity
  8
0
  6
CONTINUOUS
 62
               7
100
AcDbCircle
 10
54.699999999999989
 20
-6.2000000000000028
 30
0.0
 40
0.3
100
AcDbArc
 50
270.0
 51
0.0
  0
LINE
  5
3CF
100
AcDbEntity
  8
0
  6
CONTINUOUS
 62
               7
100
AcDbLine
 10
54.5
 20
-4.5
 30
0.0
 11
54.699999999999989
 21
-4.5
 31
0.0
  0
LINE
  5
3D0
100
AcDbEntity
  8
0
  6
CONTINUOUS
 62
               7
100
AcDbLine
 10
54.5
 20
-6.5
 30
0.0
 11
54.699999999999989
 21
-6.5
 31
0.0
  0
LINE
  5
3D1
100
AcDbEntity
  8
0
  6
CONTINUOUS
 62
               7
100
AcDbLine
 10
55.0
 20
-4.7999999999999972
 30
0.0
 11
55.0
 21
-6.2000000000000028
 31
0.0
  0
LINE
  5
3D2
100
AcDbEntity
  8
0
  6
CONTINUOUS
 62
               7
100
AcDbLine
 10
54.0
 20
-7.3000000000000114
 30
0.0
 11
54.5
 21
-7.3000000000000114
 31
0.0
  0
LINE
  5
3D3
100
AcDbEntity
  8
0
  6
CONTINUOUS
 62
               7
100
AcDbLine
 10
55.0
 20
4.7999999999999972
 30
0.0
 11
55.0
 21
6.2000000000000028
 31
0.0
  0
ARC
  5
3D4
100
AcDbEntity
  8
0
  6
CONTINUOUS
 62
               7
100
AcDbCircle
 10
54.699999999999989
 20
6.2000000000000028
 30
0.0
 40
0.3
100
AcDbArc
 50
0.0
 51
90.0
  0
ARC
  5
3D5
100
AcDbEntity
  8
0
  6
CONTINUOUS
 62
               7
100
AcDbCircle
 10
54.699999999999989
 20
4.7999999999999972
 30
0.0
 40
0.3
100
AcDbArc
 50
270.0
 51
0.0
  0
LINE
  5
3D6
100
AcDbEntity
  8
0
  6
CONTINUOUS
 62
               7
100
AcDbLine
 10
54.5
 20
4.5
 30
0.0
 11
54.699999999999989
 21
4.5
 31
0.0
  0
LINE
  5
3D7
100
AcDbEntity
  8
0
  6
CONTINUOUS
 62
               7
100
AcDbLine
 10
54.5
 20
6.5
 30
0.0
 11
54.699999999999989
 21
6.5
 31
0.0
  0
LINE
  5
3D8
100
AcDbEntity
  8
0
  6
CONTINUOUS
 62
               7
100
AcDbLine
 10
54.0
 20
7.3000000000000114
 30
0.0
 11
54.5
 21
7.3000000000000114
 31
0.0
  0
LINE
  5
3D9
100
AcDbEntity
  8
0
  6
CONTINUOUS
 62
               7
100
AcDbLine
 10
54.5
 20
7.3000000000000114
 30
0.0
 11
54.5
 21
-7.3000000000000114
 31
0.0
  0
LINE
  5
3DA
100
AcDbEntity
  8
0
  6
CONTINUOUS
 62
               2
100
AcDbLine
 10
-4.0
 20
0.0
 30
0.0
 11
58.5
 21
0.0
 31
0.0
  0
LINE
  5
3DB
100
AcDbEntity
  8
0
  6
CONTINUOUS
 62
               7
100
AcDbLine
 10
0.0
 20
-10.0
 30
0.0
 11
0.0
 21
10.0
 31
0.0
  0
LINE
  5
3DC
100
AcDbEntity
  8
0
  6
CONTINUOUS
 62
               7
100
AcDbLine
 10
19.0
 20
-19.500000000000071
 30
0.0
 11
19.0
 21
-10.0
 31
0.0
  0
LINE
  5
3DD
100
AcDbEntity
  8
0
  6
CONTINUOUS
 62
               7
100
AcDbLine
 10
54.0
 20
-19.500000000000071
 30
0.0
 11
54.0
 21
-10.0
 31
0.0
  0
LINE
  5
3DE
100
AcDbEntity
  8
0
  6
CONTINUOUS
 62
               7
100
AcDbLine
 10
48.0
 20
-13.50000001369061
 30
0.0
 11
48.0
 21
-12.99999998630939
 31
0.0
  0
LINE
  5
3DF
100
AcDbEntity
  8
0
  6
CONTINUOUS
 62
               7
100
AcDbLine
 10
25.0
 20
-13.50000001369061
 30
0.0
 11
25.0
 21
-10.0
 31
0.0
  0
LINE
  5
3E0
100
AcDbEntity
  8
0
  6
CONTINUOUS
 62
               7
100
AcDbLine
 10
19.0
 20
-13.5
 30
0.0
 11
54.0
 21
-13.5
 31
0.0
  0
LINE
  5
3E1
100
AcDbEntity
  8
0
  6
CONTINUOUS
 62
               7
100
AcDbLine
 10
19.000000023539769
 20
-19.500000000000071
 30
0.0
 11
54.0
 21
-19.500000000000071
 31
0.0
  0
LINE
  5
3E2
100
AcDbEntity
  8
0
  6
CONTINUOUS
 62
               7
100
AcDbLine
 10
15.0
 20
-10.0
 30
0.0
 11
15.0
 21
10.0
 31
0.0
  0
LINE
  5
3E3
100
AcDbEntity
  8
0
  6
CONTINUOUS
 62
               7
100
AcDbLine
 10
54.0
 20
-10.0
 30
0.0
 11
54.0
 21
10.0
 31
0.0
  0
LINE
  5
3E4
100
AcDbEntity
  8
0
  6
CONTINUOUS
 62
               7
100
AcDbLine
 10
0.0000000273479941
 20
-10.0
 30
0.0
 11
54.0
 21
-10.0
 31
0.0
  0
LINE
  5
3E5
100
AcDbEntity
  8
0
  6
CONTINUOUS
 62
               7
100
AcDbLine
 10
1.6000000000000227
 20
-4.6000000000000014
 30
0.0
 11
3.3000000000000114
 21
-4.6000000000000014
 31
0.0
  0
LINE
  5
3E6
100
AcDbEntity
  8
0
  6
CONTINUOUS
 62
               7
100
AcDbLine
 10
1.6000000000000227
 20
-8.3999999999999986
 30
0.0
 11
3.3000000000000114
 21
-8.3999999999999986
 31
0.0
  0
LINE
  5
3E7
100
AcDbEntity
  8
0
  6
CONTINUOUS
 62
               7
100
AcDbLine
 10
1.3000000000000114
 20
-4.8999999999999986
 30
0.0
 11
1.6000000000000227
 21
-4.6000000000000014
 31
0.0
  0
LINE
  5
3E8
100
AcDbEntity
  8
0
  6
CONTINUOUS
 62
               7
100
AcDbLine
 10
1.3000000000000114
 20
-8.1000000000000014
 30
0.0
 11
1.6000000000000227
 21
-8.3999999999999986
 31
0.0
  0
LINE
  5
3E9
100
AcDbEntity
  8
0
  6
CONTINUOUS
 62
               7
100
AcDbLine
 10
1.3000000000000114
 20
-8.1000000000000014
 30
0.0
 11
1.3000000000000114
 21
-4.8999999999999986
 31
0.0
  0
LINE
  5
3EA
100
AcDbEntity
  8
0
  6
CONTINUOUS
 62
               7
100
AcDbLine
 10
1.6000000000000227
 20
-8.3999999999999986
 30
0.0
 11
1.6000000000000227
 21
-4.6000000000000014
 31
0.0
  0
CIRCLE
  5
3EB
100
AcDbEntity
  8
0
  6
CONTINUOUS
 62
               7
100
AcDbCircle
 10
27.0
 20
-7.0
 30
0.0
 40
2.3999999999999999
  0
CIRCLE
  5
3EC
100
AcDbEntity
  8
0
  6
CONTINUOUS
 62
               7
100
AcDbCircle
 10
43.0
 20
-7.0
 30
0.0
 40
2.3999999999999999
  0
CIRCLE
  5
3ED
100
AcDbEntity
  8
0
  6
CONTINUOUS
 62
               7
100
AcDbCircle
 10
22.0
 20
0.0
 30
0.0
 40
1.5
  0
LINE
  5
3EE
100
AcDbEntity
  8
0
  6
CONTINUOUS
 62
               7
100
AcDbLine
 10
37.5
 20
-1.5
 30
0.0
 11
38.5
 21
-1.5
 31
0.0
  0
LINE
  5
3EF
100
AcDbEntity
  8
0
  6
CONTINUOUS
 62
               7
100
AcDbLine
 10
37.5
 20
1.5
 30
0.0
 11
38.5
 21
1.5
 31
0.0
  0
ARC
  5
3F0
100
AcDbEntity
  8
0
  6
CONTINUOUS
 62
               7
100
AcDbCircle
 10
38.5
 20
0.0
 30
0.0
 40
1.5
100
AcDbArc
 50
270.0
 51
90.0
  0
ARC
  5
3F1
100
AcDbEntity
  8
0
  6
CONTINUOUS
 62
               7
100
AcDbCircle
 10
37.5
 20
0.0
 30
0.0
 40
1.5
100
AcDbArc
 50
90.0
 51
270.0
  0
CIRCLE
  5
3F2
100
AcDbEntity
  8
0
  6
CONTINUOUS
 62
               7
100
AcDbCircle
 10
22.0
 20
-7.0
 30
0.0
 40
1.25
  0
CIRCLE
  5
3F3
100
AcDbEntity
  8
0
  6
CONTINUOUS
 62
               2
100
AcDbCircle
 10
22.0
 20
-7.0
 30
0.0
 40
1.5
  0
LINE
  5
3F4
100
AcDbEntity
  8
0
  6
CONTINUOUS
 62
               2
100
AcDbLine
 10
22.0
 20
-4.5
 30
0.0
 11
22.0
 21
-9.5
 31
0.0
  0
CIRCLE
  5
3F5
100
AcDbEntity
  8
0
  6
CONTINUOUS
 62
               7
100
AcDbCircle
 10
38.0
 20
-7.0
 30
0.0
 40
1.25
  0
CIRCLE
  5
3F6
100
AcDbEntity
  8
0
  6
CONTINUOUS
 62
               2
100
AcDbCircle
 10
38.0
 20
-7.0
 30
0.0
 40
1.5
  0
LINE
  5
3F7
100
AcDbEntity
  8
0
  6
CONTINUOUS
 62
               2
100
AcDbLine
 10
38.0
 20
-4.5
 30
0.0
 11
38.0
 21
-9.5
 31
0.0
  0
LINE
  5
3F8
100
AcDbEntity
  8
0
  6
CONTINUOUS
 62
               7
100
AcDbLine
 10
1.6000000000000227
 20
8.3999999999999986
 30
0.0
 11
1.6000000000000227
 21
4.6000000000000014
 31
0.0
  0
LINE
  5
3F9
100
AcDbEntity
  8
0
  6
CONTINUOUS
 62
               7
100
AcDbLine
 10
1.3000000000000114
 20
8.1000000000000014
 30
0.0
 11
1.3000000000000114
 21
4.8999999999999986
 31
0.0
  0
LINE
  5
3FA
100
AcDbEntity
  8
0
  6
CONTINUOUS
 62
               7
100
AcDbLine
 10
3.3000000000000114
 20
8.6000000000000014
 30
0.0
 11
3.3000000000000114
 21
4.3999999999999986
 31
0.0
  0
LINE
  5
3FB
100
AcDbEntity
  8
0
  6
CONTINUOUS
 62
               7
100
AcDbLine
 10
1.3000000000000114
 20
8.1000000000000014
 30
0.0
 11
1.6000000000000227
 21
8.3999999999999986
 31
0.0
  0
LINE
  5
3FC
100
AcDbEntity
  8
0
  6
CONTINUOUS
 62
               7
100
AcDbLine
 10
1.3000000000000114
 20
4.8999999999999986
 30
0.0
 11
1.6000000000000227
 21
4.6000000000000014
 31
0.0
  0
LINE
  5
3FD
100
AcDbEntity
  8
0
  6
CONTINUOUS
 62
               7
100
AcDbLine
 10
1.6000000000000227
 20
8.3999999999999986
 30
0.0
 11
3.3000000000000114
 21
8.3999999999999986
 31
0.0
  0
LINE
  5
3FE
100
AcDbEntity
  8
0
  6
CONTINUOUS
 62
               7
100
AcDbLine
 10
1.6000000000000227
 20
4.6000000000000014
 30
0.0
 11
3.3000000000000114
 21
4.6000000000000014
 31
0.0
  0
LINE
  5
3FF
100
AcDbEntity
  8
0
  6
CONTINUOUS
 62
               2
100
AcDbLine
 10
22.0
 20
4.5
 30
0.0
 11
22.0
 21
9.5
 31
0.0
  0
CIRCLE
  5
400
100
AcDbEntity
  8
0
  6
CONTINUOUS
 62
               7
100
AcDbCircle
 10
22.0
 20
7.0
 30
0.0
 40
1.25
  0
CIRCLE
  5
401
100
AcDbEntity
  8
0
  6
CONTINUOUS
 62
               2
100
AcDbCircle
 10
22.0
 20
7.0
 30
0.0
 40
1.5
  0
CIRCLE
  5
402
100
AcDbEntity
  8
0
  6
CONTINUOUS
 62
               7
100
AcDbCircle
 10
27.0
 20
7.0
 30
0.0
 40
2.3999999999999999
  0
CIRCLE
  5
403
100
AcDbEntity
  8
0
  6
CONTINUOUS
 62
               7
100
AcDbCircle
 10
43.0
 20
7.0
 30
0.0
 40
2.3999999999999999
  0
CIRCLE
  5
404
100
AcDbEntity
  8
0
  6
CONTINUOUS
 62
               7
100
AcDbCircle
 10
38.0
 20
7.0
 30
0.0
 40
1.25
  0
CIRCLE
  5
405
100
AcDbEntity
  8
0
  6
CONTINUOUS
 62
               2
100
AcDbCircle
 10
38.0
 20
7.0
 30
0.0
 40
1.5
  0
LINE
  5
406
100
AcDbEntity
  8
0
  6
CONTINUOUS
 62
               2
100
AcDbLine
 10
38.0
 20
4.5
 30
0.0
 11
38.0
 21
9.5
 31
0.0
  0
LINE
  5
407
100
AcDbEntity
  8
0
  6
CONTINUOUS
 62
               7
100
AcDbLine
 10
0.0000000273479941
 20
10.0
 30
0.0
 11
54.0
 21
10.0
 31
0.0
  0
LINE
  5
408
100
AcDbEntity
  8
0
  6
CONTINUOUS
 62
               2
100
AcDbLine
 10
35.5
 20
7.0
 30
0.0
 11
46.400000000000006
 21
7.0
 31
0.0
  0
LINE
  5
409
100
AcDbEntity
  8
0
  6
CONTINUOUS
 62
               7
100
AcDbLine
 10
0.0
 20
8.6000000000000014
 30
0.0
 11
3.3000000000000114
 21
8.6000000000000014
 31
0.0
  0
LINE
  5
40A
100
AcDbEntity
  8
0
  6
CONTINUOUS
 62
               7
100
AcDbLine
 10
0.0
 20
4.3999999999999986
 30
0.0
 11
3.3000000000000114
 21
4.3999999999999986
 31
0.0
  0
LINE
  5
40B
100
AcDbEntity
  8
0
  6
CONTINUOUS
 62
               7
100
AcDbLine
 10
0.0
 20
-8.6000000000000014
 30
0.0
 11
3.3000000000000114
 21
-8.6000000000000014
 31
0.0
  0
LINE
  5
40C
100
AcDbEntity
  8
0
  6
CONTINUOUS
 62
               7
100
AcDbLine
 10
3.3000000000000114
 20
-8.6000000000000014
 30
0.0
 11
3.3000000000000114
 21
-4.3999999999999986
 31
0.0
  0
LINE
  5
40D
100
AcDbEntity
  8
0
  6
CONTINUOUS
 62
               7
100
AcDbLine
 10
0.0
 20
-4.3999999999999986
 30
0.0
 11
3.3000000000000114
 21
-4.3999999999999986
 31
0.0
  0
LINE
  5
40E
100
AcDbEntity
  8
0
  6
CONTINUOUS
 62
               7
100
AcDbLine
 10
33.0
 20
-10.99999998630939
 30
0.0
 11
33.0
 21
-10.0
 31
0.0
  0
LINE
  5
40F
100
AcDbEntity
  8
0
  6
CONTINUOUS
 62
               7
100
AcDbLine
 10
36.900000000000034
 20
-12.699999986309393
 30
0.0
 11
33.100000000000023
 21
-12.699999986309393
 31
0.0
  0
LINE
  5
410
100
AcDbEntity
  8
0
  6
CONTINUOUS
 62
               7
100
AcDbLine
 10
36.600000000000023
 20
-12.99999998630939
 30
0.0
 11
33.400000000000034
 21
-12.99999998630939
 31
0.0
  0
LINE
  5
411
100
AcDbEntity
  8
0
  6
CONTINUOUS
 62
               7
100
AcDbLine
 10
36.600000000000023
 20
-12.99999998630939
 30
0.0
 11
36.900000000000034
 21
-12.699999986309393
 31
0.0
  0
LINE
  5
412
100
AcDbEntity
  8
0
  6
CONTINUOUS
 62
               7
100
AcDbLine
 10
33.400000000000034
 20
-12.99999998630939
 30
0.0
 11
33.100000000000023
 21
-12.699999986309393
 31
0.0
  0
LINE
  5
413
100
AcDbEntity
  8
0
  6
CONTINUOUS
 62
               7
100
AcDbLine
 10
36.900000000000034
 20
-12.699999986309393
 30
0.0
 11
36.900000000000034
 21
-10.99999998630939
 31
0.0
  0
LINE
  5
414
100
AcDbEntity
  8
0
  6
CONTINUOUS
 62
               7
100
AcDbLine
 10
33.100000000000023
 20
-12.699999986309393
 30
0.0
 11
33.100000000000023
 21
-10.99999998630939
 31
0.0
  0
LINE
  5
415
100
AcDbEntity
  8
0
  6
CONTINUOUS
 62
               7
100
AcDbLine
 10
51.0
 20
-10.99999998630939
 30
0.0
 11
51.0
 21
-10.0
 31
0.0
  0
LINE
  5
416
100
AcDbEntity
  8
0
  6
CONTINUOUS
 62
               7
100
AcDbLine
 10
50.900000000000034
 20
-12.699999986309393
 30
0.0
 11
50.900000000000034
 21
-10.99999998630939
 31
0.0
  0
LINE
  5
417
100
AcDbEntity
  8
0
  6
CONTINUOUS
 62
               7
100
AcDbLine
 10
50.600000000000023
 20
-12.99999998630939
 30
0.0
 11
50.900000000000034
 21
-12.699999986309393
 31
0.0
  0
LINE
  5
418
100
AcDbEntity
  8
0
  6
CONTINUOUS
 62
               7
100
AcDbLine
 10
50.900000000000034
 20
-12.699999986309393
 30
0.0
 11
47.100000000000023
 21
-12.699999986309393
 31
0.0
  0
LINE
  5
419
100
AcDbEntity
  8
0
  6
CONTINUOUS
 62
               7
100
AcDbLine
 10
47.100000000000023
 20
-12.699999986309393
 30
0.0
 11
47.100000000000023
 21
-10.99999998630939
 31
0.0
  0
LINE
  5
41A
100
AcDbEntity
  8
0
  6
CONTINUOUS
 62
               7
100
AcDbLine
 10
50.600000000000023
 20
-12.99999998630939
 30
0.0
 11
47.400000000000034
 21
-12.99999998630939
 31
0.0
  0
LINE
  5
41B
100
AcDbEntity
  8
0
  6
CONTINUOUS
 62
               7
100
AcDbLine
 10
47.400000000000034
 20
-12.99999998630939
 30
0.0
 11
47.100000000000023
 21
-12.699999986309393
 31
0.0
  0
LINE
  5
41C
100
AcDbEntity
  8
0
  6
CONTINUOUS
 62
               7
100
AcDbLine
 10
40.0
 20
-12.699999986309393
 30
0.0
 11
40.0
 21
-10.99999998630939
 31
0.0
  0
LINE
  5
41D
100
AcDbEntity
  8
0
  6
CONTINUOUS
 62
               7
100
AcDbLine
 10
44.0
 20
-12.699999986309393
 30
0.0
 11
44.0
 21
-10.99999998630939
 31
0.0
  0
LINE
  5
41E
100
AcDbEntity
  8
0
  6
CONTINUOUS
 62
               7
100
AcDbLine
 10
33.0
 20
-10.99999998630939
 30
0.0
 11
51.0
 21
-10.99999998630939
 31
0.0
  0
LINE
  5
41F
100
AcDbEntity
  8
0
  6
CONTINUOUS
 62
               7
100
AcDbLine
 10
40.0
 20
-12.699999986309393
 30
0.0
 11
44.0
 21
-12.699999986309393
 31
0.0
  0
LINE
  5
420
100
AcDbEntity
  8
0
  6
CONTINUOUS
 62
               7
100
AcDbLine
 10
0.0000000273479941
 20
9.5
 30
0.0
 11
54.0
 21
9.5
 31
0.0
  0
LINE
  5
421
100
AcDbEntity
  8
0
  6
CONTINUOUS
 62
               7
100
AcDbLine
 10
0.0000000273479941
 20
-9.5
 30
0.0
 11
54.0
 21
-9.5
 31
0.0
  0
LINE
  5
422
100
AcDbEntity
  8
0
  6
CONTINUOUS
 62
               2
100
AcDbLine
 10
42.0
 20
-4.5
 30
0.0
 11
42.0
 21
-9.5
 31
0.0
  0
LINE
  5
423
100
AcDbEntity
  8
0
  6
CONTINUOUS
 62
               2
100
AcDbLine
 10
26.0
 20
-4.5
 30
0.0
 11
26.0
 21
-9.5
 31
0.0
  0
LINE
  5
424
100
AcDbEntity
  8
0
  6
CONTINUOUS
 62
               2
100
AcDbLine
 10
42.0
 20
9.5
 30
0.0
 11
42.0
 21
4.5
 31
0.0
  0
LINE
  5
425
100
AcDbEntity
  8
0
  6
CONTINUOUS
 62
               2
100
AcDbLine
 10
26.0
 20
9.5
 30
0.0
 11
26.0
 21
4.5
 31
0.0
  0
LINE
  5
426
100
AcDbEntity
  8
0
  6
CONTINUOUS
 62
               2
100
AcDbLine
 10
-2.5
 20
7.0
 30
0.0
 11
2.5
 21
7.0
 31
0.0
  0
LINE
  5
427
100
AcDbEntity
  8
0
  6
CONTINUOUS
 62
               2
100
AcDbLine
 10
-2.5
 20
-7.0
 30
0.0
 11
2.5
 21
-7.0
 31
0.0
  0
LINE
  5
428
100
AcDbEntity
  8
0
  6
CONTINUOUS
 62
               2
100
AcDbLine
 10
52.0
 20
5.5
 30
0.0
 11
57.0
 21
5.5
 31
0.0
  0
LINE
  5
429
100
AcDbEntity
  8
0
  6
CONTINUOUS
 62
               2
100
AcDbLine
 10
52.0
 20
-5.5
 30
0.0
 11
57.0
 21
-5.5
 31
0.0
  0
CIRCLE
  5
42A
100
AcDbEntity
  8
0
  6
CONTINUOUS
 62
               7
100
AcDbCircle
 10
26.0
 20
7.0
 30
0.0
 40
1.3
  0
CIRCLE
  5
42B
100
AcDbEntity
  8
0
  6
CONTINUOUS
 62
               7
100
AcDbCircle
 10
26.0
 20
-7.0
 30
0.0
 40
1.3
  0
CIRCLE
  5
42C
100
AcDbEntity
  8
0
  6
CONTINUOUS
 62
               7
100
AcDbCircle
 10
42.0
 20
-7.0
 30
0.0
 40
1.3
  0
CIRCLE
  5
42D
100
AcDbEntity
  8
0
  6
CONTINUOUS
 62
               7
100
AcDbCircle
 10
42.0
 20
7.0
 30
0.0
 40
1.3
  0
LINE
  5
42E
100
AcDbEntity
  8
0
  6
CONTINUOUS
 62
               2
100
AcDbLine
 10
19.5
 20
7.0
 30
0.0
 11
30.400000000000006
 21
7.0
 31
0.0
  0
LINE
  5
42F
100
AcDbEntity
  8
0
  6
CONTINUOUS
 62
               2
100
AcDbLine
 10
19.5
 20
-7.0
 30
0.0
 11
30.400000000000006
 21
-7.0
 31
0.0
  0
LINE
  5
430
100
AcDbEntity
  8
0
  6
CONTINUOUS
 62
               2
100
AcDbLine
 10
35.5
 20
-7.0
 30
0.0
 11
46.400000000000006
 21
-7.0
 31
0.0
  0
LINE
  5
431
100
AcDbEntity
  8
0
  6
CONTINUOUS
 62
               2
100
AcDbLine
 10
22.0
 20
-2.5
 30
0.0
 11
22.0
 21
2.5
 31
0.0
  0
LINE
  5
432
100
AcDbEntity
  8
0
  6
CONTINUOUS
 62
               2
100
AcDbLine
 10
38.0
 20
-2.5
 30
0.0
 11
38.0
 21
2.5
 31
0.0
  0
LINE
  5
433
100
AcDbEntity
  8
0
  6
CONTINUOUS
 62
               2
100
AcDbLine
 10
27.0
 20
10.5
 30
0.0
 11
27.0
 21
3.5
 31
0.0
  0
LINE
  5
434
100
AcDbEntity
  8
0
  6
CONTINUOUS
 62
               2
100
AcDbLine
 10
27.0
 20
-3.5
 30
0.0
 11
27.0
 21
-10.5
 31
0.0
  0
LINE
  5
435
100
AcDbEntity
  8
0
  6
CONTINUOUS
 62
               2
100
AcDbLine
 10
43.0
 20
10.5
 30
0.0
 11
43.0
 21
3.5
 31
0.0
  0
LINE
  5
436
100
AcDbEntity
  8
0
  6
CONTINUOUS
 62
               2
100
AcDbLine
 10
43.0
 20
-3.5
 30
0.0
 11
43.0
 21
-10.5
 31
0.0
  0
LINE
  5
437
100
AcDbEntity
  8
0
  6
PHANTOM
 62
               3
100
AcDbLine
 10
31.062911465010956
 20
-26.238345857874663
 30
0.0
 11
31.062911465010956
 21
26.735270990551186
 31
0.0
  0
ENDBLK
  5
438
100
AcDbEntity
  8
0
100
AcDbBlockEnd
  0
BLOCK
  5
439
100
AcDbEntity
  8
0
100
AcDbBlockBegin
  2
MGAG6-12
 70
               0
 10
0.0
 20
0.0
 30
0.0
  3
MGAG6-12
  1

  0
LINE
  5
43A
100
AcDbEntity
  8
0
  6
CONTINUOUS
 62
               7
100
AcDbLine
 10
11.699999999999989
 20
-10.0
 30
0.0
 11
0.8000000000000114
 21
-10.0
 31
0.0
  0
LINE
  5
43B
100
AcDbEntity
  8
0
  6
CONTINUOUS
 62
               7
100
AcDbLine
 10
4.5
 20
4.2000000000000028
 30
0.0
 11
0.8000000000000114
 21
4.2000000000000028
 31
0.0
  0
ARC
  5
43C
100
AcDbEntity
  8
0
  6
CONTINUOUS
 62
               7
100
AcDbCircle
 10
4.5
 20
0.0
 30
0.0
 40
4.2000000000000028
100
AcDbArc
 50
270.0
 51
90.0
  0
LINE
  5
43D
100
AcDbEntity
  8
0
  6
CONTINUOUS
 62
               7
100
AcDbLine
 10
4.5
 20
-4.2000000000000028
 30
0.0
 11
0.8000000000000114
 21
-4.2000000000000028
 31
0.0
  0
LINE
  5
43E
100
AcDbEntity
  8
0
  6
CONTINUOUS
 62
               7
100
AcDbLine
 10
11.699999999999989
 20
-11.000000000000007
 30
0.0
 11
11.699999999999989
 21
-10.0
 31
0.0
  0
LINE
  5
43F
100
AcDbEntity
  8
0
  6
CONTINUOUS
 62
               7
100
AcDbLine
 10
11.800000000000011
 20
-12.700000000000003
 30
0.0
 11
8.0
 21
-12.700000000000003
 31
0.0
  0
LINE
  5
440
100
AcDbEntity
  8
0
  6
CONTINUOUS
 62
               7
100
AcDbLine
 10
11.5
 20
-13.0
 30
0.0
 11
11.800000000000011
 21
-12.700000000000003
 31
0.0
  0
LINE
  5
441
100
AcDbEntity
  8
0
  6
CONTINUOUS
 62
               7
100
AcDbLine
 10
8.3000000000000114
 20
-13.0
 30
0.0
 11
8.0
 21
-12.700000000000003
 31
0.0
  0
LINE
  5
442
100
AcDbEntity
  8
0
  6
CONTINUOUS
 62
               7
100
AcDbLine
 10
11.800000000000011
 20
-12.700000000000003
 30
0.0
 11
11.800000000000011
 21
-11.000000000000007
 31
0.0
  0
LINE
  5
443
100
AcDbEntity
  8
0
  6
CONTINUOUS
 62
               7
100
AcDbLine
 10
8.0
 20
-12.700000000000003
 30
0.0
 11
8.0
 21
-11.000000000000007
 31
0.0
  0
LINE
  5
444
100
AcDbEntity
  8
0
  6
CONTINUOUS
 62
               7
100
AcDbLine
 10
11.5
 20
-13.0
 30
0.0
 11
8.3000000000000114
 21
-13.0
 31
0.0
  0
LINE
  5
445
100
AcDbEntity
  8
0
  6
CONTINUOUS
 62
               7
100
AcDbLine
 10
11.800000000000011
 20
-11.000000000000007
 30
0.0
 11
5.8999999999999773
 21
-11.000000000000007
 31
0.0
  0
LINE
  5
446
100
AcDbEntity
  8
0
  6
CONTINUOUS
 62
               7
100
AcDbLine
 10
11.5
 20
10.0
 30
0.0
 11
0.8000000000000114
 21
10.0
 31
0.0
  0
LINE
  5
447
100
AcDbEntity
  8
0
  6
CONTINUOUS
 62
               7
100
AcDbLine
 10
0.8000000000000114
 20
9.5
 30
0.0
 11
0.0
 21
9.5
 31
0.0
  0
LINE
  5
448
100
AcDbEntity
  8
0
  6
CONTINUOUS
 62
               7
100
AcDbLine
 10
0.8000000000000114
 20
-9.5
 30
0.0
 11
0.0
 21
-9.5
 31
0.0
  0
LINE
  5
449
100
AcDbEntity
  8
0
  6
CONTINUOUS
 62
               7
100
AcDbLine
 10
12.0
 20
-9.5000000000000142
 30
0.0
 11
12.0
 21
9.5
 31
0.0
  0
LINE
  5
44A
100
AcDbEntity
  8
0
  6
CONTINUOUS
 62
               7
100
AcDbLine
 10
0.0
 20
9.499999992019184
 30
0.0
 11
0.0
 21
2.7000000000000171
 31
0.0
  0
LINE
  5
44B
100
AcDbEntity
  8
0
  6
CONTINUOUS
 62
               7
100
AcDbLine
 10
0.8000000000000114
 20
-10.0
 30
0.0
 11
0.8000000000000114
 21
-2.5
 31
0.0
  0
CIRCLE
  5
44C
100
AcDbEntity
  8
0
  6
CONTINUOUS
 62
               7
100
AcDbCircle
 10
9.9000000000000341
 20
-6.5
 30
0.0
 40
1.6000000000000174
  0
CIRCLE
  5
44D
100
AcDbEntity
  8
0
  6
CONTINUOUS
 62
               7
100
AcDbCircle
 10
9.9000000000000341
 20
-6.5
 30
0.0
 40
1.9000000000000148
  0
LINE
  5
44E
100
AcDbEntity
  8
0
  6
CONTINUOUS
 62
               7
100
AcDbLine
 10
10.333012863593069
 20
-5.7499999933676023
 30
0.0
 11
9.4669872641335928
 21
-5.7500000120764554
 31
0.0
  0
LINE
  5
44F
100
AcDbEntity
  8
0
  6
CONTINUOUS
 62
               7
100
AcDbLine
 10
9.4669871364069422
 20
-7.2500000066323977
 30
0.0
 11
10.333012735866362
 21
-7.2499999879235446
 31
0.0
  0
LINE
  5
450
100
AcDbEntity
  8
0
  6
CONTINUOUS
 62
               7
100
AcDbLine
 10
10.33301262678566
 20
-7.2500001433532191
 30
0.0
 11
10.766025410313034
 21
-6.4999999645392847
 31
0.0
  0
LINE
  5
451
100
AcDbEntity
  8
0
  6
CONTINUOUS
 62
               7
100
AcDbLine
 10
9.0339745096213164
 20
-6.4999998632791787
 30
0.0
 11
9.4669873255533616
 21
-7.2500000233842599
 31
0.0
  0
LINE
  5
452
100
AcDbEntity
  8
0
  6
CONTINUOUS
 62
               7
100
AcDbLine
 10
9.4669873732143515
 20
-5.7499998566467809
 30
0.0
 11
9.0339745896869772
 21
-6.5000000354607153
 31
0.0
  0
LINE
  5
453
100
AcDbEntity
  8
0
  6
CONTINUOUS
 62
               7
100
AcDbLine
 10
10.766025490378695
 20
-6.5000001367208213
 30
0.0
 11
10.333012674446593
 21
-5.7499999766157401
 31
0.0
  0
CIRCLE
  5
454
100
AcDbEntity
  8
0
  6
CONTINUOUS
 62
               7
100
AcDbCircle
 10
9.9000000000000341
 20
6.5
 30
0.0
 40
1.6000000000000174
  0
CIRCLE
  5
455
100
AcDbEntity
  8
0
  6
CONTINUOUS
 62
               7
100
AcDbCircle
 10
9.9000000000000341
 20
6.5
 30
0.0
 40
1.9000000000000148
  0
LINE
  5
456
100
AcDbEntity
  8
0
  6
CONTINUOUS
 62
               7
100
AcDbLine
 10
10.333012863593069
 20
7.2500000066324048
 30
0.0
 11
9.4669872641335928
 21
7.2499999879235446
 31
0.0
  0
LINE
  5
457
100
AcDbEntity
  8
0
  6
CONTINUOUS
 62
               7
100
AcDbLine
 10
9.4669871364069422
 20
5.7499999933676094
 30
0.0
 11
10.333012735866362
 21
5.7500000120764554
 31
0.0
  0
LINE
  5
458
100
AcDbEntity
  8
0
  6
CONTINUOUS
 62
               7
100
AcDbLine
 10
10.33301262678566
 20
5.7499998566467809
 30
0.0
 11
10.766025410313034
 21
6.5000000354607153
 31
0.0
  0
LINE
  5
459
100
AcDbEntity
  8
0
  6
CONTINUOUS
 62
               7
100
AcDbLine
 10
9.0339745096213164
 20
6.5000001367208284
 30
0.0
 11
9.4669873255533616
 21
5.7499999766157401
 31
0.0
  0
LINE
  5
45A
100
AcDbEntity
  8
0
  6
CONTINUOUS
 62
               7
100
AcDbLine
 10
9.4669873732143515
 20
7.2500001433532191
 30
0.0
 11
9.0339745896869772
 21
6.4999999645392847
 31
0.0
  0
LINE
  5
45B
100
AcDbEntity
  8
0
  6
CONTINUOUS
 62
               7
100
AcDbLine
 10
10.766025490378695
 20
6.4999998632791716
 30
0.0
 11
10.333012674446593
 21
7.2500000233842599
 31
0.0
  0
LINE
  5
45C
100
AcDbEntity
  8
0
  6
CONTINUOUS
 62
               7
100
AcDbLine
 10
11.800000000000011
 20
-9.5
 30
0.0
 11
11.800000000000011
 21
9.5000000000000142
 31
0.0
  0
LINE
  5
45D
100
AcDbEntity
  8
0
  6
CONTINUOUS
 62
               7
100
AcDbLine
 10
8.0999999999999659
 20
-11.000000000000007
 30
0.0
 11
8.0999999999999659
 21
-10.0
 31
0.0
  0
CIRCLE
  5
45E
100
AcDbEntity
  8
0
  6
CONTINUOUS
 62
               7
100
AcDbCircle
 10
4.5
 20
0.0
 30
0.0
 40
1.2
  0
LINE
  5
45F
100
AcDbEntity
  8
0
  6
CONTINUOUS
 62
               2
100
AcDbLine
 10
4.5
 20
-5.0
 30
0.0
 11
4.5
 21
5.0
 31
0.0
  0
CIRCLE
  5
460
100
AcDbEntity
  8
0
  6
CONTINUOUS
 62
               7
100
AcDbCircle
 10
4.5
 20
2.5
 30
0.0
 40
0.5
  0
CIRCLE
  5
461
100
AcDbEntity
  8
0
  6
CONTINUOUS
 62
               7
100
AcDbCircle
 10
5.0
 20
7.0
 30
0.0
 40
1.25
  0
LINE
  5
462
100
AcDbEntity
  8
0
  6
CONTINUOUS
 62
               2
100
AcDbLine
 10
2.5
 20
7.0
 30
0.0
 11
7.4999999999999432
 21
7.0
 31
0.0
  0
CIRCLE
  5
463
100
AcDbEntity
  8
0
  6
CONTINUOUS
 62
               2
100
AcDbCircle
 10
5.0
 20
7.0
 30
0.0
 40
1.5
  0
LINE
  5
464
100
AcDbEntity
  8
0
  6
CONTINUOUS
 62
               2
100
AcDbLine
 10
5.0
 20
9.5
 30
0.0
 11
5.0
 21
4.5
 31
0.0
  0
CIRCLE
  5
465
100
AcDbEntity
  8
0
  6
CONTINUOUS
 62
               7
100
AcDbCircle
 10
5.0
 20
-7.0
 30
0.0
 40
1.25
  0
LINE
  5
466
100
AcDbEntity
  8
0
  6
CONTINUOUS
 62
               2
100
AcDbLine
 10
2.5
 20
-7.0
 30
0.0
 11
7.4999999999999432
 21
-7.0
 31
0.0
  0
CIRCLE
  5
467
100
AcDbEntity
  8
0
  6
CONTINUOUS
 62
               2
100
AcDbCircle
 10
5.0
 20
-7.0
 30
0.0
 40
1.5
  0
LINE
  5
468
100
AcDbEntity
  8
0
  6
CONTINUOUS
 62
               2
100
AcDbLine
 10
5.0
 20
-4.5
 30
0.0
 11
5.0
 21
-9.5
 31
0.0
  0
LINE
  5
469
100
AcDbEntity
  8
0
  6
CONTINUOUS
 62
               7
100
AcDbLine
 10
11.300000000000011
 20
10.0
 30
0.0
 11
11.800000000000011
 21
9.5000000000000142
 31
0.0
  0
LINE
  5
46A
100
AcDbEntity
  8
0
  6
CONTINUOUS
 62
               7
100
AcDbLine
 10
12.0
 20
9.5
 30
0.0
 11
11.5
 21
10.0
 31
0.0
  0
LINE
  5
46B
100
AcDbEntity
  8
0
  6
CONTINUOUS
 62
               7
100
AcDbLine
 10
11.800000000000011
 20
-9.5
 30
0.0
 11
11.300000000000011
 21
-10.0
 31
0.0
  0
LINE
  5
46C
100
AcDbEntity
  8
0
  6
CONTINUOUS
 62
               7
100
AcDbLine
 10
11.5
 20
-10.0
 30
0.0
 11
12.0
 21
-9.5000000000000142
 31
0.0
  0
ARC
  5
46D
100
AcDbEntity
  8
0
  6
CONTINUOUS
 62
               7
100
AcDbCircle
 10
9.9000000000000341
 20
6.5
 30
0.0
 40
2.1000000000000001
100
AcDbArc
 50
90.0
 51
270.0
  0
LINE
  5
46E
100
AcDbEntity
  8
0
  6
CONTINUOUS
 62
               7
100
AcDbLine
 10
9.9000000000000341
 20
8.6000000000000014
 30
0.0
 11
11.800000000000011
 21
8.6000000000000014
 31
0.0
  0
LINE
  5
46F
100
AcDbEntity
  8
0
  6
CONTINUOUS
 62
               7
100
AcDbLine
 10
9.9000000000000341
 20
4.3999999999999986
 30
0.0
 11
11.800000000000011
 21
4.3999999999999986
 31
0.0
  0
LINE
  5
470
100
AcDbEntity
  8
0
  6
CONTINUOUS
 62
               7
100
AcDbLine
 10
9.9000000000000341
 20
-8.6000000000000014
 30
0.0
 11
11.800000000000011
 21
-8.6000000000000014
 31
0.0
  0
ARC
  5
471
100
AcDbEntity
  8
0
  6
CONTINUOUS
 62
               7
100
AcDbCircle
 10
9.9000000000000341
 20
-6.5
 30
0.0
 40
2.1000000000000001
100
AcDbArc
 50
90.0
 51
270.0
  0
LINE
  5
472
100
AcDbEntity
  8
0
  6
CONTINUOUS
 62
               7
100
AcDbLine
 10
9.9000000000000341
 20
-4.3999999999999986
 30
0.0
 11
11.800000000000011
 21
-4.3999999999999986
 31
0.0
  0
LINE
  5
473
100
AcDbEntity
  8
0
  6
CONTINUOUS
 62
               7
100
AcDbLine
 10
1.7723636606028208
 20
2.5
 30
0.0
 11
0.8000000000000114
 21
2.5
 31
0.0
  0
LINE
  5
474
100
AcDbEntity
  8
0
  6
CONTINUOUS
 62
               7
100
AcDbLine
 10
1.7723636606028208
 20
-2.5
 30
0.0
 11
0.8000000000000114
 21
-2.5
 31
0.0
  0
LINE
  5
475
100
AcDbEntity
  8
0
  6
CONTINUOUS
 62
               7
100
AcDbLine
 10
0.8000000000000114
 20
2.5
 30
0.0
 11
0.8000000000000114
 21
10.0
 31
0.0
  0
CIRCLE
  5
476
100
AcDbEntity
  8
0
  6
CONTINUOUS
 62
               7
100
AcDbCircle
 10
4.5
 20
0.0
 30
0.0
 40
3.7000000000000002
  0
CIRCLE
  5
477
100
AcDbEntity
  8
0
  6
CONTINUOUS
 62
               7
100
AcDbCircle
 10
4.5
 20
-2.5
 30
0.0
 40
0.5
  0
LINE
  5
478
100
AcDbEntity
  8
0
  6
CONTINUOUS
 62
               7
100
AcDbLine
 10
0.0
 20
-2.7000000000000171
 30
0.0
 11
0.0
 21
-9.5
 31
0.0
  0
LINE
  5
479
100
AcDbEntity
  8
0
  6
CONTINUOUS
 62
               7
100
AcDbLine
 10
0.3000000000000114
 20
2.4000000000000057
 30
0.0
 11
0.0
 21
2.7000000000000171
 31
0.0
  0
LINE
  5
47A
100
AcDbEntity
  8
0
  6
CONTINUOUS
 62
               7
100
AcDbLine
 10
0.3000000000000114
 20
-2.4000000000000057
 30
0.0
 11
0.0
 21
-2.7000000000000171
 31
0.0
  0
LINE
  5
47B
100
AcDbEntity
  8
0
  6
CONTINUOUS
 62
               7
100
AcDbLine
 10
0.3000000000000114
 20
2.4000000000000057
 30
0.0
 11
0.3000000000000114
 21
-2.4000000000000057
 31
0.0
  0
LINE
  5
47C
100
AcDbEntity
  8
0
  6
CONTINUOUS
 62
               7
100
AcDbLine
 10
9.5
 20
-13.5
 30
0.0
 11
5.8999999999999773
 21
-13.5
 31
0.0
  0
LINE
  5
47D
100
AcDbEntity
  8
0
  6
CONTINUOUS
 62
               7
100
AcDbLine
 10
1.3000000000000114
 20
-19.500000000000057
 30
0.0
 11
0.0999999999999659
 21
-19.500000000000071
 31
0.0
  0
LINE
  5
47E
100
AcDbEntity
  8
0
  6
CONTINUOUS
 62
               7
100
AcDbLine
 10
1.5999999999999659
 20
-19.20000000000006
 30
0.0
 11
1.5999999999999659
 21
-19.000000000000057
 31
0.0
  0
LINE
  5
47F
100
AcDbEntity
  8
0
  6
CONTINUOUS
 62
               7
100
AcDbLine
 10
4.8000000000000114
 20
-19.20000000000006
 30
0.0
 11
4.8000000000000114
 21
-19.000000000000057
 31
0.0
  0
LINE
  5
480
100
AcDbEntity
  8
0
  6
CONTINUOUS
 62
               7
100
AcDbLine
 10
6.5
 20
-19.500000000000057
 30
0.0
 11
5.1006993865086088
 21
-19.500000000000057
 31
0.0
  0
LINE
  5
481
100
AcDbEntity
  8
0
  6
CONTINUOUS
 62
               7
100
AcDbLine
 10
5.3000000000000114
 20
-18.500000000000057
 30
0.0
 11
5.3000000000000114
 21
-16.900000000000063
 31
0.0
  0
LINE
  5
482
100
AcDbEntity
  8
0
  6
CONTINUOUS
 62
               7
100
AcDbLine
 10
1.0999999999999659
 20
-18.500000000000057
 30
0.0
 11
1.0999999999999659
 21
-16.900000000000063
 31
0.0
  0
LINE
  5
483
100
AcDbEntity
  8
0
  6
CONTINUOUS
 62
               7
100
AcDbLine
 10
1.5999999999999659
 20
-19.000000000000057
 30
0.0
 11
1.0999999999999659
 21
-18.500000000000057
 31
0.0
  0
LINE
  5
484
100
AcDbEntity
  8
0
  6
CONTINUOUS
 62
               7
100
AcDbLine
 10
5.3000000000000114
 20
-18.500000000000057
 30
0.0
 11
4.8000000000000114
 21
-19.000000000000057
 31
0.0
  0
ARC
  5
485
100
AcDbEntity
  8
0
  6
CONTINUOUS
 62
               7
100
AcDbCircle
 10
3.1999999999999886
 20
-16.900000000000063
 30
0.0
 40
2.1000000111152071
100
AcDbArc
 50
0.0000000000000509
 51
180.00000000000006
  0
ARC
  5
486
100
AcDbEntity
  8
0
  6
CONTINUOUS
 62
               7
100
AcDbCircle
 10
5.1006993865086088
 20
-19.199300613491431
 30
0.0
 40
0.3007001998472195
100
AcDbArc
 50
180.13326207080186
 51
269.86673792919908
  0
ARC
  5
487
100
AcDbEntity
  8
0
  6
CONTINUOUS
 62
               7
100
AcDbCircle
 10
1.3004760263646062
 20
-19.200476026364655
 30
0.0
 40
0.2995243519038812
100
AcDbArc
 50
269.90894124989694
 51
0.0910587501040565
  0
LINE
  5
488
100
AcDbEntity
  8
0
  6
CONTINUOUS
 62
               7
100
AcDbLine
 10
6.3000000000000114
 20
-18.500000000000057
 30
0.0
 11
6.3000000000000114
 21
-16.900000000000063
 31
0.0
  0
ARC
  5
489
100
AcDbEntity
  8
0
  6
CONTINUOUS
 62
               7
100
AcDbCircle
 10
6.4993006134913571
 20
-19.199300613491431
 30
0.0
 40
0.3007001998472195
100
AcDbArc
 50
270.13326207080092
 51
359.86673792919817
  0
LINE
  5
48A
100
AcDbEntity
  8
0
  6
CONTINUOUS
 62
               7
100
AcDbLine
 10
6.3000000000000114
 20
-18.500000000000057
 30
0.0
 11
6.8000000000000114
 21
-19.000000000000057
 31
0.0
  0
LINE
  5
48B
100
AcDbEntity
  8
0
  6
CONTINUOUS
 62
               7
100
AcDbLine
 10
6.8000000000000114
 20
-19.20000000000006
 30
0.0
 11
6.8000000000000114
 21
-19.000000000000057
 31
0.0
  0
LINE
  5
48C
100
AcDbEntity
  8
0
  6
CONTINUOUS
 62
               2
100
AcDbLine
 10
8.3999999999999773
 20
-20.421064405906037
 30
0.0
 11
8.3999999999999773
 21
-13.861515364768522
 31
0.0
  0
ARC
  5
48D
100
AcDbEntity
  8
0
  6
CONTINUOUS
 62
               7
100
AcDbCircle
 10
8.4000000000000341
 20
-16.900000000000063
 30
0.0
 40
2.1000000111152071
100
AcDbArc
 50
0.0
 51
180.0
  0
LINE
  5
48E
100
AcDbEntity
  8
0
  6
CONTINUOUS
 62
               7
100
AcDbLine
 10
10.300000000000011
 20
-19.50000000000005
 30
0.0
 11
11.5
 21
-19.500000000000064
 31
0.0
  0
LINE
  5
48F
100
AcDbEntity
  8
0
  6
CONTINUOUS
 62
               7
100
AcDbLine
 10
10.5
 20
-18.50000000000005
 30
0.0
 11
10.5
 21
-16.900000000000055
 31
0.0
  0
ARC
  5
490
100
AcDbEntity
  8
0
  6
CONTINUOUS
 62
               7
100
AcDbCircle
 10
10.299523973635416
 20
-19.200476026364647
 30
0.0
 40
0.2995243519038812
100
AcDbArc
 50
179.908941249896
 51
270.09105875010312
  0
LINE
  5
491
100
AcDbEntity
  8
0
  6
CONTINUOUS
 62
               7
100
AcDbLine
 10
10.0
 20
-19.00000000000005
 30
0.0
 11
10.5
 21
-18.50000000000005
 31
0.0
  0
LINE
  5
492
100
AcDbEntity
  8
0
  6
CONTINUOUS
 62
               7
100
AcDbLine
 10
10.0
 20
-19.200000000000053
 30
0.0
 11
10.0
 21
-19.00000000000005
 31
0.0
  0
LINE
  5
493
100
AcDbEntity
  8
0
  6
CONTINUOUS
 62
               7
100
AcDbLine
 10
11.5
 20
-19.500000000000064
 30
0.0
 11
11.5
 21
-15.499999999999993
 31
0.0
  0
ARC
  5
494
100
AcDbEntity
  8
0
  6
CONTINUOUS
 62
               7
100
AcDbCircle
 10
9.5
 20
-15.5
 30
0.0
 40
2.0
100
AcDbArc
 50
0.0000000000000509
 51
90.000000000000057
  0
LINE
  5
495
100
AcDbEntity
  8
0
  6
CONTINUOUS
 62
               7
100
AcDbLine
 10
5.8999999999999773
 20
-13.5
 30
0.0
 11
5.8999999999999773
 21
-10.0
 31
0.0
  0
LINE
  5
496
100
AcDbEntity
  8
0
  6
CONTINUOUS
 62
               2
100
AcDbLine
 10
3.1999999999999886
 20
-20.421064405906044
 30
0.0
 11
3.1999999999999886
 21
-13.861515364768522
 31
0.0
  0
LINE
  5
497
100
AcDbEntity
  8
0
  6
CONTINUOUS
 62
               7
100
AcDbLine
 10
0.0999999999999659
 20
-19.500000000000071
 30
0.0
 11
0.0999999999999659
 21
-9.5
 31
0.0
  0
LINE
  5
498
100
AcDbEntity
  8
0
  6
CONTINUOUS
 62
               7
100
AcDbLine
 10
8.0
 20
-12.700000000000003
 30
0.0
 11
5.8999999999999773
 21
-12.700000000000003
 31
0.0
  0
LINE
  5
499
100
AcDbEntity
  8
0
  6
CONTINUOUS
 62
               2
100
AcDbLine
 10
-2.5000000000000568
 20
7.0
 30
0.0
 11
2.4999999999999432
 21
7.0
 31
0.0
  0
LINE
  5
49A
100
AcDbEntity
  8
0
  6
CONTINUOUS
 62
               2
100
AcDbLine
 10
-2.5000000000000568
 20
-7.0
 30
0.0
 11
2.4999999999999432
 21
-7.0
 31
0.0
  0
LINE
  5
49B
100
AcDbEntity
  8
0
  6
CONTINUOUS
 62
               2
100
AcDbLine
 10
-4.0
 20
0.0
 30
0.0
 11
16.0
 21
0.0
 31
0.0
  0
ENDBLK
  5
49C
100
AcDbEntity
  8
0
100
AcDbBlockEnd
  0
BLOCK
  5
49D
100
AcDbEntity
  8
0
100
AcDbBlockBegin
  2
MGAG6-13
 70
               0
 10
0.0
 20
0.0
 30
0.0
  3
MGAG6-13
  1

  0
LINE
  5
49E
100
AcDbEntity
  8
0
  6
CONTINUOUS
 62
               7
100
AcDbLine
 10
-0.7999999999999545
 20
9.5
 30
0.0
 11
-0.7999999999999545
 21
10.0
 31
0.0
  0
LINE
  5
49F
100
AcDbEntity
  8
0
  6
CONTINUOUS
 62
               7
100
AcDbLine
 10
-0.7999999999999545
 20
-10.0
 30
0.0
 11
-0.7999999999999545
 21
-9.5
 31
0.0
  0
LINE
  5
4A0
100
AcDbEntity
  8
0
  6
CONTINUOUS
 62
               2
100
AcDbLine
 10
-3.0
 20
7.5499999999999972
 30
0.0
 11
-3.0
 21
3.4500000000000028
 31
0.0
  0
LINE
  5
4A1
100
AcDbEntity
  8
0
  6
CONTINUOUS
 62
               2
100
AcDbLine
 10
-0.9499999999999318
 20
5.5
 30
0.0
 11
-5.0499999999999545
 21
5.5
 31
0.0
  0
CIRCLE
  5
4A2
100
AcDbEntity
  8
0
  6
CONTINUOUS
 62
               7
100
AcDbCircle
 10
-3.0
 20
5.5
 30
0.0
 40
1.05
  0
CIRCLE
  5
4A3
100
AcDbEntity
  8
0
  6
CONTINUOUS
 62
               2
100
AcDbCircle
 10
-3.0
 20
5.5
 30
0.0
 40
1.25
  0
LINE
  5
4A4
100
AcDbEntity
  8
0
  6
CONTINUOUS
 62
               2
100
AcDbLine
 10
-0.9499999999999318
 20
-5.5
 30
0.0
 11
-5.0499999999999545
 21
-5.5
 31
0.0
  0
LINE
  5
4A5
100
AcDbEntity
  8
0
  6
CONTINUOUS
 62
               2
100
AcDbLine
 10
-3.0
 20
-7.5499999999999972
 30
0.0
 11
-3.0
 21
-3.4500000000000028
 31
0.0
  0
CIRCLE
  5
4A6
100
AcDbEntity
  8
0
  6
CONTINUOUS
 62
               7
100
AcDbCircle
 10
-3.0
 20
-5.5
 30
0.0
 40
1.05
  0
CIRCLE
  5
4A7
100
AcDbEntity
  8
0
  6
CONTINUOUS
 62
               2
100
AcDbCircle
 10
-3.0
 20
-5.5
 30
0.0
 40
1.25
  0
LINE
  5
4A8
100
AcDbEntity
  8
0
  6
CONTINUOUS
 62
               7
100
AcDbLine
 10
-8.1999999999999318
 20
-3.4000000000000057
 30
0.0
 11
-8.0
 21
-3.4000000000000057
 31
0.0
  0
LINE
  5
4A9
100
AcDbEntity
  8
0
  6
CONTINUOUS
 62
               7
100
AcDbLine
 10
-8.1999999999999318
 20
3.4000000000000057
 30
0.0
 11
-8.0
 21
3.4000000000000057
 31
0.0
  0
LINE
  5
4AA
100
AcDbEntity
  8
0
  6
CONTINUOUS
 62
               7
100
AcDbLine
 10
-10.199999999999932
 20
3.0999999999999943
 30
0.0
 11
-10.199999999999932
 21
-3.0999999999999943
 31
0.0
  0
LINE
  5
4AB
100
AcDbEntity
  8
0
  6
CONTINUOUS
 62
               7
100
AcDbLine
 10
-8.1999999999999318
 20
7.3000000000000114
 30
0.0
 11
-11.699999999999932
 21
7.3000000000000114
 31
0.0
  0
LINE
  5
4AC
100
AcDbEntity
  8
0
  6
CONTINUOUS
 62
               7
100
AcDbLine
 10
-8.1999999999999318
 20
7.3000000000000114
 30
0.0
 11
-8.1999999999999318
 21
3.0999999999999943
 31
0.0
  0
LINE
  5
4AD
100
AcDbEntity
  8
0
  6
CONTINUOUS
 62
               7
100
AcDbLine
 10
-8.1999999999999318
 20
3.0999999999999943
 30
0.0
 11
-10.199999999999932
 21
3.0999999999999943
 31
0.0
  0
LINE
  5
4AE
100
AcDbEntity
  8
0
  6
CONTINUOUS
 62
               7
100
AcDbLine
 10
-8.1999999999999318
 20
-3.0999999999999943
 30
0.0
 11
-10.199999999999932
 21
-3.0999999999999943
 31
0.0
  0
LINE
  5
4AF
100
AcDbEntity
  8
0
  6
CONTINUOUS
 62
               7
100
AcDbLine
 10
-8.1999999999999318
 20
-7.3000000000000114
 30
0.0
 11
-8.1999999999999318
 21
-3.0999999999999943
 31
0.0
  0
LINE
  5
4B0
100
AcDbEntity
  8
0
  6
CONTINUOUS
 62
               7
100
AcDbLine
 10
-8.1999999999999318
 20
-7.3000000000000114
 30
0.0
 11
-11.699999999999932
 21
-7.3000000000000114
 31
0.0
  0
LINE
  5
4B1
100
AcDbEntity
  8
0
  6
CONTINUOUS
 62
               7
100
AcDbLine
 10
-11.699999999999932
 20
-7.3000000000000114
 30
0.0
 11
-11.699999999999932
 21
7.3000000000000114
 31
0.0
  0
ARC
  5
4B2
100
AcDbEntity
  8
0
  6
CONTINUOUS
 62
               7
100
AcDbCircle
 10
-9.0
 20
3.1999999999999886
 30
0.0
 40
0.5
100
AcDbArc
 50
191.53695903281493
 51
348.46304096718501
  0
LINE
  5
4B3
100
AcDbEntity
  8
0
  6
CONTINUOUS
 62
               7
100
AcDbLine
 10
-8.5341828670152609
 20
3.0
 30
0.0
 11
-7.5
 21
3.0
 31
0.0
  0
LINE
  5
4B4
100
AcDbEntity
  8
0
  6
CONTINUOUS
 62
               7
100
AcDbLine
 10
-8.0
 20
10.0
 30
0.0
 11
-8.0
 21
3.4000000000000057
 31
0.0
  0
LINE
  5
4B5
100
AcDbEntity
  8
0
  6
CONTINUOUS
 62
               7
100
AcDbLine
 10
-7.5
 20
9.5
 30
0.0
 11
-7.5
 21
3.0
 31
0.0
  0
LINE
  5
4B6
100
AcDbEntity
  8
0
  6
CONTINUOUS
 62
               7
100
AcDbLine
 10
-9.7999999999999545
 20
3.0
 30
0.0
 11
-9.4658171329847391
 21
3.0
 31
0.0
  0
LINE
  5
4B7
100
AcDbEntity
  8
0
  6
CONTINUOUS
 62
               7
100
AcDbLine
 10
-11.499999999999886
 20
10.0
 30
0.0
 11
-0.7999999999999545
 21
10.0
 31
0.0
  0
LINE
  5
4B8
100
AcDbEntity
  8
0
  6
CONTINUOUS
 62
               7
100
AcDbLine
 10
-7.5
 20
9.5
 30
0.0
 11
0.0
 21
9.5
 31
0.0
  0
LINE
  5
4B9
100
AcDbEntity
  8
0
  6
CONTINUOUS
 62
               7
100
AcDbLine
 10
-11.699999999999989
 20
-10.0
 30
0.0
 11
-0.7999999999999545
 21
-10.0
 31
0.0
  0
LINE
  5
4BA
100
AcDbEntity
  8
0
  6
CONTINUOUS
 62
               7
100
AcDbLine
 10
-7.5
 20
-9.5
 30
0.0
 11
0.0
 21
-9.5
 31
0.0
  0
LINE
  5
4BB
100
AcDbEntity
  8
0
  6
CONTINUOUS
 62
               7
100
AcDbLine
 10
-8.0
 20
-10.0
 30
0.0
 11
-8.0
 21
-3.4000000000000057
 31
0.0
  0
LINE
  5
4BC
100
AcDbEntity
  8
0
  6
CONTINUOUS
 62
               7
100
AcDbLine
 10
-12.0
 20
-9.5
 30
0.0
 11
-12.0
 21
9.5
 31
0.0
  0
LINE
  5
4BD
100
AcDbEntity
  8
0
  6
CONTINUOUS
 62
               7
100
AcDbLine
 10
-7.5
 20
-9.5
 30
0.0
 11
-7.5
 21
-3.0
 31
0.0
  0
LINE
  5
4BE
100
AcDbEntity
  8
0
  6
CONTINUOUS
 62
               2
100
AcDbLine
 10
-4.5
 20
-4.3500000000000085
 30
0.0
 11
-4.5
 21
4.3500000000000085
 31
0.0
  0
LINE
  5
4BF
100
AcDbEntity
  8
0
  6
CONTINUOUS
 62
               2
100
AcDbLine
 10
4.0
 20
0.0
 30
0.0
 11
-16.0
 21
0.0
 31
0.0
  0
LINE
  5
4C0
100
AcDbEntity
  8
0
  6
CONTINUOUS
 62
               7
100
AcDbLine
 10
0.0
 20
9.499999992019184
 30
0.0
 11
0.0
 21
2.7000000000000171
 31
0.0
  0
LINE
  5
4C1
100
AcDbEntity
  8
0
  6
CONTINUOUS
 62
               7
100
AcDbLine
 10
-12.0
 20
9.5
 30
0.0
 11
-11.499999999999886
 21
10.0
 31
0.0
  0
LINE
  5
4C2
100
AcDbEntity
  8
0
  6
CONTINUOUS
 62
               7
100
AcDbLine
 10
-12.0
 20
-9.5
 30
0.0
 11
-11.5
 21
-10.0
 31
0.0
  0
CIRCLE
  5
4C3
100
AcDbEntity
  8
0
  6
CONTINUOUS
 62
               7
100
AcDbCircle
 10
-4.5
 20
0.0
 30
0.0
 40
2.4000000000000057
  0
CIRCLE
  5
4C4
100
AcDbEntity
  8
0
  6
CONTINUOUS
 62
               7
100
AcDbCircle
 10
-4.5
 20
0.0
 30
0.0
 40
3.1499999999999915
  0
CIRCLE
  5
4C5
100
AcDbEntity
  8
0
  6
CONTINUOUS
 62
               7
100
AcDbCircle
 10
-4.5
 20
0.0
 30
0.0
 40
3.3500000000000085
  0
LINE
  5
4C6
100
AcDbEntity
  8
0
  6
CONTINUOUS
 62
               7
100
AcDbLine
 10
0.0
 20
-2.7000000000000171
 30
0.0
 11
0.0
 21
-9.5
 31
0.0
  0
LINE
  5
4C7
100
AcDbEntity
  8
0
  6
CONTINUOUS
 62
               7
100
AcDbLine
 10
-9.7999999999999545
 20
3.0
 30
0.0
 11
-9.7999999999999545
 21
-3.0
 31
0.0
  0
CIRCLE
  5
4C8
100
AcDbEntity
  8
0
  6
CONTINUOUS
 62
               7
100
AcDbCircle
 10
-9.5
 20
5.5
 30
0.0
 40
1.0
  0
LINE
  5
4C9
100
AcDbEntity
  8
0
  6
CONTINUOUS
 62
               7
100
AcDbLine
 10
-8.9343145750507347
 20
6.0656854249492369
 30
0.0
 11
-10.065685424949152
 21
4.9343145750507631
 31
0.0
  0
LINE
  5
4CA
100
AcDbEntity
  8
0
  6
CONTINUOUS
 62
               7
100
AcDbLine
 10
-8.9343145750507347
 20
4.9343145750507631
 30
0.0
 11
-10.065685424949152
 21
6.0656854249492369
 31
0.0
  0
LINE
  5
4CB
100
AcDbEntity
  8
0
  6
CONTINUOUS
 62
               7
100
AcDbLine
 10
-8.5341828670152609
 20
-3.0
 30
0.0
 11
-7.5
 21
-3.0
 31
0.0
  0
LINE
  5
4CC
100
AcDbEntity
  8
0
  6
CONTINUOUS
 62
               7
100
AcDbLine
 10
-9.7999999999999545
 20
-3.0
 30
0.0
 11
-9.4658171329847391
 21
-3.0
 31
0.0
  0
ARC
  5
4CD
100
AcDbEntity
  8
0
  6
CONTINUOUS
 62
               7
100
AcDbCircle
 10
-9.0
 20
-3.1999999999999886
 30
0.0
 40
0.5
100
AcDbArc
 50
11.536959032814943
 51
168.46304096718507
  0
CIRCLE
  5
4CE
100
AcDbEntity
  8
0
  6
CONTINUOUS
 62
               7
100
AcDbCircle
 10
-9.5
 20
-5.5
 30
0.0
 40
1.0
  0
LINE
  5
4CF
100
AcDbEntity
  8
0
  6
CONTINUOUS
 62
               7
100
AcDbLine
 10
-8.9343145750507347
 20
-4.9343145750507631
 30
0.0
 11
-10.065685424949152
 21
-6.0656854249492369
 31
0.0
  0
LINE
  5
4D0
100
AcDbEntity
  8
0
  6
CONTINUOUS
 62
               7
100
AcDbLine
 10
-8.9343145750507347
 20
-6.0656854249492369
 30
0.0
 11
-10.065685424949152
 21
-4.9343145750507631
 31
0.0
  0
LINE
  5
4D1
100
AcDbEntity
  8
0
  6
CONTINUOUS
 62
               7
100
AcDbLine
 10
-0.2999999999999545
 20
-2.4000000000000057
 30
0.0
 11
0.0
 21
-2.7000000000000171
 31
0.0
  0
LINE
  5
4D2
100
AcDbEntity
  8
0
  6
CONTINUOUS
 62
               7
100
AcDbLine
 10
-0.2999999999999545
 20
2.4000000000000057
 30
0.0
 11
0.0
 21
2.7000000000000171
 31
0.0
  0
LINE
  5
4D3
100
AcDbEntity
  8
0
  6
CONTINUOUS
 62
               7
100
AcDbLine
 10
-0.2999999999999545
 20
-2.4000000000000057
 30
0.0
 11
-0.2999999999999545
 21
2.4000000000000057
 31
0.0
  0
LINE
  5
4D4
100
AcDbEntity
  8
0
  6
CONTINUOUS
 62
               7
100
AcDbLine
 10
-11.5
 20
-13.0
 30
0.0
 11
-11.800000000000011
 21
-12.700000000000003
 31
0.0
  0
ARC
  5
4D5
100
AcDbEntity
  8
0
  6
CONTINUOUS
 62
               7
100
AcDbCircle
 10
-9.5
 20
-15.5
 30
0.0
 40
2.0
100
AcDbArc
 50
89.999999999999943
 51
179.99999999999994
  0
LINE
  5
4D6
100
AcDbEntity
  8
0
  6
CONTINUOUS
 62
               7
100
AcDbLine
 10
-10.300000000000011
 20
-19.50000000000005
 30
0.0
 11
-11.5
 21
-19.500000000000064
 31
0.0
  0
LINE
  5
4D7
100
AcDbEntity
  8
0
  6
CONTINUOUS
 62
               7
100
AcDbLine
 10
-11.800000000000011
 20
-11.000000000000007
 30
0.0
 11
-5.8999999999999773
 21
-11.000000000000007
 31
0.0
  0
LINE
  5
4D8
100
AcDbEntity
  8
0
  6
CONTINUOUS
 62
               7
100
AcDbLine
 10
-11.5
 20
-13.0
 30
0.0
 11
-8.3000000000000114
 21
-13.0
 31
0.0
  0
LINE
  5
4D9
100
AcDbEntity
  8
0
  6
CONTINUOUS
 62
               7
100
AcDbLine
 10
-11.800000000000011
 20
-12.700000000000003
 30
0.0
 11
-8.0
 21
-12.700000000000003
 31
0.0
  0
LINE
  5
4DA
100
AcDbEntity
  8
0
  6
CONTINUOUS
 62
               7
100
AcDbLine
 10
-8.3000000000000114
 20
-13.0
 30
0.0
 11
-8.0
 21
-12.700000000000003
 31
0.0
  0
LINE
  5
4DB
100
AcDbEntity
  8
0
  6
CONTINUOUS
 62
               7
100
AcDbLine
 10
-8.0
 20
-12.700000000000003
 30
0.0
 11
-8.0
 21
-11.000000000000007
 31
0.0
  0
LINE
  5
4DC
100
AcDbEntity
  8
0
  6
CONTINUOUS
 62
               7
100
AcDbLine
 10
-9.5
 20
-13.5
 30
0.0
 11
-5.8999999999999773
 21
-13.5
 31
0.0
  0
LINE
  5
4DD
100
AcDbEntity
  8
0
  6
CONTINUOUS
 62
               7
100
AcDbLine
 10
-1.3000000000000114
 20
-19.500000000000057
 30
0.0
 11
-0.0999999999999659
 21
-19.500000000000071
 31
0.0
  0
LINE
  5
4DE
100
AcDbEntity
  8
0
  6
CONTINUOUS
 62
               7
100
AcDbLine
 10
-1.5999999999999659
 20
-19.20000000000006
 30
0.0
 11
-1.5999999999999659
 21
-19.000000000000057
 31
0.0
  0
LINE
  5
4DF
100
AcDbEntity
  8
0
  6
CONTINUOUS
 62
               7
100
AcDbLine
 10
-4.8000000000000114
 20
-19.20000000000006
 30
0.0
 11
-4.8000000000000114
 21
-19.000000000000057
 31
0.0
  0
LINE
  5
4E0
100
AcDbEntity
  8
0
  6
CONTINUOUS
 62
               7
100
AcDbLine
 10
-6.5
 20
-19.500000000000057
 30
0.0
 11
-5.1006993865086088
 21
-19.500000000000057
 31
0.0
  0
LINE
  5
4E1
100
AcDbEntity
  8
0
  6
CONTINUOUS
 62
               7
100
AcDbLine
 10
-5.3000000000000114
 20
-18.500000000000057
 30
0.0
 11
-5.3000000000000114
 21
-16.900000000000063
 31
0.0
  0
LINE
  5
4E2
100
AcDbEntity
  8
0
  6
CONTINUOUS
 62
               7
100
AcDbLine
 10
-1.0999999999999659
 20
-18.500000000000057
 30
0.0
 11
-1.0999999999999659
 21
-16.900000000000063
 31
0.0
  0
LINE
  5
4E3
100
AcDbEntity
  8
0
  6
CONTINUOUS
 62
               7
100
AcDbLine
 10
-1.5999999999999659
 20
-19.000000000000057
 30
0.0
 11
-1.0999999999999659
 21
-18.500000000000057
 31
0.0
  0
LINE
  5
4E4
100
AcDbEntity
  8
0
  6
CONTINUOUS
 62
               7
100
AcDbLine
 10
-5.3000000000000114
 20
-18.500000000000057
 30
0.0
 11
-4.8000000000000114
 21
-19.000000000000057
 31
0.0
  0
ARC
  5
4E5
100
AcDbEntity
  8
0
  6
CONTINUOUS
 62
               7
100
AcDbCircle
 10
-3.1999999999999886
 20
-16.900000000000063
 30
0.0
 40
2.1000000111152071
100
AcDbArc
 50
359.99999999999994
 51
179.99999999999994
  0
ARC
  5
4E6
100
AcDbEntity
  8
0
  6
CONTINUOUS
 62
               7
100
AcDbCircle
 10
-5.1006993865086088
 20
-19.199300613491431
 30
0.0
 40
0.3007001998472195
100
AcDbArc
 50
270.13326207080092
 51
359.86673792919817
  0
ARC
  5
4E7
100
AcDbEntity
  8
0
  6
CONTINUOUS
 62
               7
100
AcDbCircle
 10
-1.3004760263646062
 20
-19.200476026364655
 30
0.0
 40
0.2995243519038812
100
AcDbArc
 50
179.90894124989595
 51
270.09105875010306
  0
LINE
  5
4E8
100
AcDbEntity
  8
0
  6
CONTINUOUS
 62
               7
100
AcDbLine
 10
-6.3000000000000114
 20
-18.500000000000057
 30
0.0
 11
-6.3000000000000114
 21
-16.900000000000063
 31
0.0
  0
ARC
  5
4E9
100
AcDbEntity
  8
0
  6
CONTINUOUS
 62
               7
100
AcDbCircle
 10
-6.4993006134913571
 20
-19.199300613491431
 30
0.0
 40
0.3007001998472195
100
AcDbArc
 50
180.13326207080181
 51
269.86673792919908
  0
LINE
  5
4EA
100
AcDbEntity
  8
0
  6
CONTINUOUS
 62
               7
100
AcDbLine
 10
-6.3000000000000114
 20
-18.500000000000057
 30
0.0
 11
-6.8000000000000114
 21
-19.000000000000057
 31
0.0
  0
LINE
  5
4EB
100
AcDbEntity
  8
0
  6
CONTINUOUS
 62
               7
100
AcDbLine
 10
-6.8000000000000114
 20
-19.20000000000006
 30
0.0
 11
-6.8000000000000114
 21
-19.000000000000057
 31
0.0
  0
LINE
  5
4EC
100
AcDbEntity
  8
0
  6
CONTINUOUS
 62
               2
100
AcDbLine
 10
-8.3999999999999773
 20
-20.421064405906037
 30
0.0
 11
-8.3999999999999773
 21
-13.861515364768522
 31
0.0
  0
ARC
  5
4ED
100
AcDbEntity
  8
0
  6
CONTINUOUS
 62
               7
100
AcDbCircle
 10
-8.4000000000000341
 20
-16.900000000000063
 30
0.0
 40
2.1000000111152071
100
AcDbArc
 50
0.0
 51
180.0
  0
LINE
  5
4EE
100
AcDbEntity
  8
0
  6
CONTINUOUS
 62
               7
100
AcDbLine
 10
-10.5
 20
-18.50000000000005
 30
0.0
 11
-10.5
 21
-16.900000000000055
 31
0.0
  0
ARC
  5
4EF
100
AcDbEntity
  8
0
  6
CONTINUOUS
 62
               7
100
AcDbCircle
 10
-10.299523973635416
 20
-19.200476026364647
 30
0.0
 40
0.2995243519038812
100
AcDbArc
 50
269.90894124989688
 51
0.0910587501040056
  0
LINE
  5
4F0
100
AcDbEntity
  8
0
  6
CONTINUOUS
 62
               7
100
AcDbLine
 10
-10.0
 20
-19.00000000000005
 30
0.0
 11
-10.5
 21
-18.50000000000005
 31
0.0
  0
LINE
  5
4F1
100
AcDbEntity
  8
0
  6
CONTINUOUS
 62
               7
100
AcDbLine
 10
-10.0
 20
-19.200000000000053
 30
0.0
 11
-10.0
 21
-19.00000000000005
 31
0.0
  0
LINE
  5
4F2
100
AcDbEntity
  8
0
  6
CONTINUOUS
 62
               2
100
AcDbLine
 10
-3.1999999999999886
 20
-20.421064405906044
 30
0.0
 11
-3.1999999999999886
 21
-13.861515364768522
 31
0.0
  0
LINE
  5
4F3
100
AcDbEntity
  8
0
  6
CONTINUOUS
 62
               7
100
AcDbLine
 10
-8.0
 20
-12.700000000000003
 30
0.0
 11
-5.8999999999999773
 21
-12.700000000000003
 31
0.0
  0
LINE
  5
4F4
100
AcDbEntity
  8
0
  6
CONTINUOUS
 62
               7
100
AcDbLine
 10
-0.0999999999999659
 20
-19.500000000000071
 30
0.0
 11
-0.0999999999999659
 21
-9.5
 31
0.0
  0
LINE
  5
4F5
100
AcDbEntity
  8
0
  6
CONTINUOUS
 62
               7
100
AcDbLine
 10
-5.8999999999999773
 20
-13.5
 30
0.0
 11
-5.8999999999999773
 21
-10.0
 31
0.0
  0
LINE
  5
4F6
100
AcDbEntity
  8
0
  6
CONTINUOUS
 62
               7
100
AcDbLine
 10
-8.0999999999999659
 20
-11.000000000000007
 30
0.0
 11
-8.0999999999999659
 21
-10.0
 31
0.0
  0
LINE
  5
4F7
100
AcDbEntity
  8
0
  6
CONTINUOUS
 62
               7
100
AcDbLine
 10
-11.699999999999989
 20
-11.000000000000007
 30
0.0
 11
-11.699999999999989
 21
-10.0
 31
0.0
  0
LINE
  5
4F8
100
AcDbEntity
  8
0
  6
CONTINUOUS
 62
               7
100
AcDbLine
 10
-11.800000000000011
 20
-12.700000000000003
 30
0.0
 11
-11.800000000000011
 21
-11.000000000000007
 31
0.0
  0
LINE
  5
4F9
100
AcDbEntity
  8
0
  6
CONTINUOUS
 62
               7
100
AcDbLine
 10
-11.5
 20
-19.500000000000064
 30
0.0
 11
-11.5
 21
-15.499999999999993
 31
0.0
  0
LINE
  5
4FA
100
AcDbEntity
  8
0
  6
CONTINUOUS
 62
               2
100
AcDbLine
 10
-2.5
 20
7.0
 30
0.0
 11
2.5
 21
7.0
 31
0.0
  0
LINE
  5
4FB
100
AcDbEntity
  8
0
  6
CONTINUOUS
 62
               2
100
AcDbLine
 10
-2.5
 20
-7.0
 30
0.0
 11
2.5
 21
-7.0
 31
0.0
  0
ENDBLK
  5
4FC
100
AcDbEntity
  8
0
100
AcDbBlockEnd
  0
BLOCK
  5
4FD
100
AcDbEntity
  8
0
100
AcDbBlockBegin
  2
MGAG6-14
 70
               0
 10
0.0
 20
0.0
 30
0.0
  3
MGAG6-14
  1

  0
LINE
  5
4FE
100
AcDbEntity
  8
0
  6
PHANTOM
 62
               3
100
AcDbLine
 10
32.246375355625361
 20
-10.626614193015087
 30
0.0
 11
32.246375355625361
 21
20.261654142125337
 31
0.0
  0
LINE
  5
4FF
100
AcDbEntity
  8
0
  6
CONTINUOUS
 62
               7
100
AcDbLine
 10
15.0
 20
11.5
 30
0.0
 11
54.0
 21
11.5
 31
0.0
  0
LINE
  5
500
100
AcDbEntity
  8
0
  6
CONTINUOUS
 62
               7
100
AcDbLine
 10
19.0
 20
0.0
 30
0.0
 11
54.0
 21
0.0
 31
0.0
  0
CIRCLE
  5
501
100
AcDbEntity
  8
0
  6
CONTINUOUS
 62
               7
100
AcDbCircle
 10
51.0
 20
3.1999999999999318
 30
0.0
 40
1.8999999999999999
  0
LINE
  5
502
100
AcDbEntity
  8
0
  6
CONTINUOUS
 62
               7
100
AcDbLine
 10
50.25
 20
2.7669872916931695
 30
0.0
 11
50.25
 21
3.6330126799339837
 31
0.0
  0
LINE
  5
503
100
AcDbEntity
  8
0
  6
CONTINUOUS
 62
               7
100
AcDbLine
 10
51.75
 20
2.7669872916931695
 30
0.0
 11
51.75
 21
3.633012670692608
 31
0.0
  0
LINE
  5
504
100
AcDbEntity
  8
0
  6
CONTINUOUS
 62
               7
100
AcDbLine
 10
51.00000001545601
 20
2.33397456777044
 30
0.0
 11
50.25000001545601
 21
2.7669872618908471
 31
0.0
  0
LINE
  5
505
100
AcDbEntity
  8
0
  6
CONTINUOUS
 62
               7
100
AcDbLine
 10
51.75000001545601
 20
3.6330126799339837
 30
0.0
 11
50.999999955851365
 21
4.0660254038567132
 31
0.0
  0
LINE
  5
506
100
AcDbEntity
  8
0
  6
CONTINUOUS
 62
               7
100
AcDbLine
 10
51.749999955851365
 20
2.7669872618908471
 30
0.0
 11
50.999999955851365
 21
2.33397456777044
 31
0.0
  0
LINE
  5
507
100
AcDbEntity
  8
0
  6
CONTINUOUS
 62
               7
100
AcDbLine
 10
50.999999955851365
 20
4.0660253740543908
 30
0.0
 11
50.25
 21
3.6330126976513952
 31
0.0
  0
LINE
  5
508
100
AcDbEntity
  8
0
  6
CONTINUOUS
 62
               7
100
AcDbLine
 10
21.999999955851365
 20
4.0660253740543908
 30
0.0
 11
21.250000000000057
 21
3.6330126976513952
 31
0.0
  0
LINE
  5
509
100
AcDbEntity
  8
0
  6
CONTINUOUS
 62
               7
100
AcDbLine
 10
22.749999955851365
 20
2.7669872618908471
 30
0.0
 11
21.999999955851365
 21
2.33397456777044
 31
0.0
  0
LINE
  5
50A
100
AcDbEntity
  8
0
  6
CONTINUOUS
 62
               7
100
AcDbLine
 10
22.75000001545601
 20
3.6330126799339837
 30
0.0
 11
21.999999955851365
 21
4.0660254038567132
 31
0.0
  0
LINE
  5
50B
100
AcDbEntity
  8
0
  6
CONTINUOUS
 62
               7
100
AcDbLine
 10
22.00000001545601
 20
2.33397456777044
 30
0.0
 11
21.25000001545601
 21
2.7669872618908471
 31
0.0
  0
LINE
  5
50C
100
AcDbEntity
  8
0
  6
CONTINUOUS
 62
               7
100
AcDbLine
 10
22.75
 20
2.7669872916931695
 30
0.0
 11
22.75
 21
3.633012670692608
 31
0.0
  0
LINE
  5
50D
100
AcDbEntity
  8
0
  6
CONTINUOUS
 62
               7
100
AcDbLine
 10
21.25
 20
2.7669872916931695
 30
0.0
 11
21.25
 21
3.6330126799339837
 31
0.0
  0
CIRCLE
  5
50E
100
AcDbEntity
  8
0
  6
CONTINUOUS
 62
               7
100
AcDbCircle
 10
22.0
 20
3.1999999999999318
 30
0.0
 40
1.8999999999999999
  0
LINE
  5
50F
100
AcDbEntity
  8
0
  6
CONTINUOUS
 62
               7
100
AcDbLine
 10
19.000000004378535
 20
0.0999999999999659
 30
0.0
 11
54.000000004378535
 21
0.0999999999999659
 31
0.0
  0
LINE
  5
510
100
AcDbEntity
  8
0
  6
CONTINUOUS
 62
               7
100
AcDbLine
 10
19.0
 20
6.8000000000000114
 30
0.0
 11
54.0
 21
6.8000000000000114
 31
0.0
  0
LINE
  5
511
100
AcDbEntity
  8
0
  6
CONTINUOUS
 62
               7
100
AcDbLine
 10
19.0
 20
10.0
 30
0.0
 11
54.0
 21
10.0
 31
0.0
  0
LINE
  5
512
100
AcDbEntity
  8
0
  6
CONTINUOUS
 62
               7
100
AcDbLine
 10
52.281600561797632
 20
1.5999999999999659
 30
0.0
 11
54.0
 21
1.5999999999999659
 31
0.0
  0
LINE
  5
513
100
AcDbEntity
  8
0
  6
CONTINUOUS
 62
               7
100
AcDbLine
 10
52.281600561797632
 20
4.7999999999999545
 30
0.0
 11
54.0
 21
4.7999999999999545
 31
0.0
  0
LINE
  5
514
100
AcDbEntity
  8
0
  6
CONTINUOUS
 62
               7
100
AcDbLine
 10
23.281600561797688
 20
1.5999999999999659
 30
0.0
 11
49.718399438202368
 21
1.5999999999999659
 31
0.0
  0
LINE
  5
515
100
AcDbEntity
  8
0
  6
CONTINUOUS
 62
               7
100
AcDbLine
 10
23.281600561797632
 20
4.7999999999999545
 30
0.0
 11
49.718399438202425
 21
4.7999999999999545
 31
0.0
  0
LINE
  5
516
100
AcDbEntity
  8
0
  6
CONTINUOUS
 62
               7
100
AcDbLine
 10
18.999999999999886
 20
4.7999999999999545
 30
0.0
 11
20.718399438202312
 21
4.7999999999999545
 31
0.0
  0
LINE
  5
517
100
AcDbEntity
  8
0
  6
CONTINUOUS
 62
               7
100
AcDbLine
 10
18.999999999999886
 20
1.5999999999999659
 30
0.0
 11
20.718399438202255
 21
1.5999999999999659
 31
0.0
  0
CIRCLE
  5
518
100
AcDbEntity
  8
0
  6
CONTINUOUS
 62
               7
100
AcDbCircle
 10
51.0
 20
3.1999999999999318
 30
0.0
 40
2.0499999999999998
  0
CIRCLE
  5
519
100
AcDbEntity
  8
0
  6
CONTINUOUS
 62
               7
100
AcDbCircle
 10
22.0
 20
3.1999999999999318
 30
0.0
 40
2.0499999999999998
  0
LINE
  5
51A
100
AcDbEntity
  8
0
  6
CONTINUOUS
 62
               7
100
AcDbLine
 10
51.0
 20
11.5
 30
0.0
 11
51.0
 21
11.999999999999943
 31
0.0
  0
LINE
  5
51B
100
AcDbEntity
  8
0
  6
CONTINUOUS
 62
               7
100
AcDbLine
 10
33.0
 20
11.5
 30
0.0
 11
33.0
 21
11.999999999999943
 31
0.0
  0
ARC
  5
51C
100
AcDbEntity
  8
0
  6
CONTINUOUS
 62
               7
100
AcDbCircle
 10
35.0
 20
10.199999999999932
 30
0.0
 40
1.5999999987313345
100
AcDbArc
 50
54.340912367182391
 51
125.65908763281762
  0
ARC
  5
51D
100
AcDbEntity
  8
0
  6
CONTINUOUS
 62
               7
100
AcDbCircle
 10
35.0
 20
10.199999999999932
 30
0.0
 40
1.899999998731289
100
AcDbArc
 50
43.173551143154711
 51
136.82644885684527
  0
ARC
  5
51E
100
AcDbEntity
  8
0
  6
CONTINUOUS
 62
               7
100
AcDbCircle
 10
49.0
 20
10.199999999999932
 30
0.0
 40
1.5999999987313345
100
AcDbArc
 50
54.340912367182391
 51
125.65908763281762
  0
ARC
  5
51F
100
AcDbEntity
  8
0
  6
CONTINUOUS
 62
               7
100
AcDbCircle
 10
49.0
 20
10.199999999999932
 30
0.0
 40
1.899999998731289
100
AcDbArc
 50
43.173551143154711
 51
136.82644885684527
  0
LINE
  5
520
100
AcDbEntity
  8
0
  6
CONTINUOUS
 62
               2
100
AcDbLine
 10
51.5
 20
3.0000000000000284
 30
0.0
 11
56.5
 21
3.0000000000000284
 31
0.0
  0
LINE
  5
521
100
AcDbEntity
  8
0
  6
CONTINUOUS
 62
               2
100
AcDbLine
 10
25.999999997462623
 20
2.5000000000000284
 30
0.0
 11
25.999999997462623
 21
-2.4999999999999716
 31
0.0
  0
LINE
  5
522
100
AcDbEntity
  8
0
  6
CONTINUOUS
 62
               2
100
AcDbLine
 10
-2.5
 20
5.0
 30
0.0
 11
2.5
 21
5.0
 31
0.0
  0
LINE
  5
523
100
AcDbEntity
  8
0
  6
CONTINUOUS
 62
               2
100
AcDbLine
 10
17.5
 20
3.1999999999999886
 30
0.0
 11
17.846410161513745
 21
3.0
 31
0.0
  0
LINE
  5
524
100
AcDbEntity
  8
0
  6
CONTINUOUS
 62
               2
100
AcDbLine
 10
17.5
 20
5.8000000000000114
 30
0.0
 11
17.846410161513745
 21
6.0
 31
0.0
  0
LINE
  5
525
100
AcDbEntity
  8
0
  6
CONTINUOUS
 62
               2
100
AcDbLine
 10
16.800000000000068
 20
5.6999999999999886
 30
0.0
 11
17.300000000000068
 21
3.3000000000000114
 31
0.0
  0
LINE
  5
526
100
AcDbEntity
  8
0
  6
CONTINUOUS
 62
               2
100
AcDbLine
 10
17.300000000000068
 20
5.6999999999999886
 30
0.0
 11
16.800000000000068
 21
3.3000000000000114
 31
0.0
  0
LINE
  5
527
100
AcDbEntity
  8
0
  6
CONTINUOUS
 62
               7
100
AcDbLine
 10
16.800000000000068
 20
3.3000000000000114
 30
0.0
 11
17.300000000000068
 21
3.3000000000000114
 31
0.0
  0
LINE
  5
528
100
AcDbEntity
  8
0
  6
CONTINUOUS
 62
               7
100
AcDbLine
 10
16.800000000000068
 20
5.6999999999999886
 30
0.0
 11
17.300000000000068
 21
5.6999999999999886
 31
0.0
  0
LINE
  5
529
100
AcDbEntity
  8
0
  6
CONTINUOUS
 62
               7
100
AcDbLine
 10
17.300000000000068
 20
1.3000000000000114
 30
0.0
 11
17.5
 21
1.3000000000000114
 31
0.0
  0
LINE
  5
52A
100
AcDbEntity
  8
0
  6
CONTINUOUS
 62
               7
100
AcDbLine
 10
17.300000000000068
 20
7.6999999999999886
 30
0.0
 11
17.5
 21
7.6999999999999886
 31
0.0
  0
LINE
  5
52B
100
AcDbEntity
  8
0
  6
CONTINUOUS
 62
               7
100
AcDbLine
 10
17.300000000000068
 20
0.8000000000000114
 30
0.0
 11
17.300000000000068
 21
8.0
 31
0.0
  0
LINE
  5
52C
100
AcDbEntity
  8
0
  6
CONTINUOUS
 62
               7
100
AcDbLine
 10
16.800000000000068
 20
0.8000000000000114
 30
0.0
 11
17.300000000000068
 21
0.8000000000000114
 31
0.0
  0
LINE
  5
52D
100
AcDbEntity
  8
0
  6
CONTINUOUS
 62
               7
100
AcDbLine
 10
9.0
 20
7.0
 30
0.0
 11
16.800000000000068
 21
7.0
 31
0.0
  0
LINE
  5
52E
100
AcDbEntity
  8
0
  6
CONTINUOUS
 62
               7
100
AcDbLine
 10
16.800000000000068
 20
8.0
 30
0.0
 11
16.800000000000068
 21
0.8000000000000114
 31
0.0
  0
LINE
  5
52F
100
AcDbEntity
  8
0
  6
CONTINUOUS
 62
               7
100
AcDbLine
 10
15.500000000000114
 20
7.0
 30
0.0
 11
15.500000000000114
 21
2.0
 31
0.0
  0
LINE
  5
530
100
AcDbEntity
  8
0
  6
CONTINUOUS
 62
               7
100
AcDbLine
 10
15.500000000000114
 20
2.0
 30
0.0
 11
16.800000000000068
 21
2.0
 31
0.0
  0
LINE
  5
531
100
AcDbEntity
  8
0
  6
CONTINUOUS
 62
               7
100
AcDbLine
 10
17.5
 20
1.3000000000000114
 30
0.0
 11
17.5
 21
7.6999999999999886
 31
0.0
  0
CIRCLE
  5
532
100
AcDbEntity
  8
0
  6
CONTINUOUS
 62
               7
100
AcDbCircle
 10
16.649999999999977
 20
7.3499999999999943
 30
0.0
 40
0.15
  0
CIRCLE
  5
533
100
AcDbEntity
  8
0
  6
CONTINUOUS
 62
               7
100
AcDbCircle
 10
16.649999999999977
 20
1.6500000000000057
 30
0.0
 40
0.15
  0
LINE
  5
534
100
AcDbEntity
  8
0
  6
CONTINUOUS
 62
               7
100
AcDbLine
 10
15.999999975855985
 20
7.0
 30
0.0
 11
15.999999975855985
 21
8.0
 31
0.0
  0
LINE
  5
535
100
AcDbEntity
  8
0
  6
CONTINUOUS
 62
               7
100
AcDbLine
 10
0.0
 20
0.8000000000000114
 30
0.0
 11
9.8000000000000682
 21
0.8000000000000114
 31
0.0
  0
LINE
  5
536
100
AcDbEntity
  8
0
  6
CONTINUOUS
 62
               7
100
AcDbLine
 10
9.0
 20
7.0
 30
0.0
 11
9.0
 21
0.8000000000000114
 31
0.0
  0
LINE
  5
537
100
AcDbEntity
  8
0
  6
CONTINUOUS
 62
               7
100
AcDbLine
 10
0.0
 20
11.800000000000011
 30
0.0
 11
0.0
 21
0.8000000000000114
 31
0.0
  0
LINE
  5
538
100
AcDbEntity
  8
0
  6
CONTINUOUS
 62
               7
100
AcDbLine
 10
11.300000000000068
 20
7.0
 30
0.0
 11
11.300000000000068
 21
2.0
 31
0.0
  0
LINE
  5
539
100
AcDbEntity
  8
0
  6
CONTINUOUS
 62
               7
100
AcDbLine
 10
9.8000000000000682
 20
0.8000000000000114
 30
0.0
 11
9.8000000000000682
 21
7.0
 31
0.0
  0
LINE
  5
53A
100
AcDbEntity
  8
0
  6
CONTINUOUS
 62
               7
100
AcDbLine
 10
11.300000000000068
 20
2.0
 30
0.0
 11
9.8000000000000682
 21
2.0
 31
0.0
  0
CIRCLE
  5
53B
100
AcDbEntity
  8
0
  6
CONTINUOUS
 62
               7
100
AcDbCircle
 10
9.9500000000000455
 20
1.6500000000000057
 30
0.0
 40
0.15
  0
LINE
  5
53C
100
AcDbEntity
  8
0
  6
CONTINUOUS
 62
               7
100
AcDbLine
 10
11.300000000000068
 20
2.5
 30
0.0
 11
15.500000000000114
 21
2.5
 31
0.0
  0
LINE
  5
53D
100
AcDbEntity
  8
0
  6
CONTINUOUS
 62
               7
100
AcDbLine
 10
11.300000000000068
 20
6.5
 30
0.0
 11
15.500000000000114
 21
6.5
 31
0.0
  0
LINE
  5
53E
100
AcDbEntity
  8
0
  6
CONTINUOUS
 62
               2
100
AcDbLine
 10
7.6015234846273643
 20
4.5
 30
0.0
 11
20.159103191063423
 21
4.5
 31
0.0
  0
LINE
  5
53F
100
AcDbEntity
  8
0
  6
CONTINUOUS
 62
               7
100
AcDbLine
 10
0.0
 20
11.800000000000011
 30
0.0
 11
14.999999975855985
 21
11.800000000000011
 31
0.0
  0
LINE
  5
540
100
AcDbEntity
  8
0
  6
CONTINUOUS
 62
               7
100
AcDbLine
 10
17.5
 20
6.0
 30
0.0
 11
19.0
 21
6.0
 31
0.0
  0
LINE
  5
541
100
AcDbEntity
  8
0
  6
CONTINUOUS
 62
               7
100
AcDbLine
 10
17.5
 20
3.0
 30
0.0
 11
19.0
 21
3.0
 31
0.0
  0
LINE
  5
542
100
AcDbEntity
  8
0
  6
CONTINUOUS
 62
               7
100
AcDbLine
 10
54.5
 20
11.699999999999989
 30
0.0
 11
54.5
 21
8.1999999999999886
 31
0.0
  0
ARC
  5
543
100
AcDbEntity
  8
0
  6
CONTINUOUS
 62
               7
100
AcDbCircle
 10
54.699999999999932
 20
10.199999999999989
 30
0.0
 40
0.3
100
AcDbArc
 50
0.0
 51
90.0
  0
ARC
  5
544
100
AcDbEntity
  8
0
  6
CONTINUOUS
 62
               7
100
AcDbCircle
 10
54.699999999999932
 20
8.8000000000000114
 30
0.0
 40
0.3
100
AcDbArc
 50
270.0
 51
0.0
  0
LINE
  5
545
100
AcDbEntity
  8
0
  6
CONTINUOUS
 62
               7
100
AcDbLine
 10
54.5
 20
10.5
 30
0.0
 11
54.699999999999932
 21
10.5
 31
0.0
  0
LINE
  5
546
100
AcDbEntity
  8
0
  6
CONTINUOUS
 62
               7
100
AcDbLine
 10
54.5
 20
8.5
 30
0.0
 11
54.699999999999932
 21
8.5
 31
0.0
  0
LINE
  5
547
100
AcDbEntity
  8
0
  6
CONTINUOUS
 62
               7
100
AcDbLine
 10
55.0
 20
10.199999999999989
 30
0.0
 11
55.0
 21
8.8000000000000114
 31
0.0
  0
LINE
  5
548
100
AcDbEntity
  8
0
  6
CONTINUOUS
 62
               7
100
AcDbLine
 10
54.000000001754415
 20
8.1999999999999886
 30
0.0
 11
54.500000001754415
 21
8.1999999999999886
 31
0.0
  0
LINE
  5
549
100
AcDbEntity
  8
0
  6
CONTINUOUS
 62
               7
100
AcDbLine
 10
54.000000001754415
 20
11.699999999999989
 30
0.0
 11
54.500000001754415
 21
11.699999999999989
 31
0.0
  0
LINE
  5
54A
100
AcDbEntity
  8
0
  6
CONTINUOUS
 62
               7
100
AcDbLine
 10
0.0
 20
11.300000000000011
 30
0.0
 11
15.0
 21
11.300000000000011
 31
0.0
  0
LINE
  5
54B
100
AcDbEntity
  8
0
  6
CONTINUOUS
 62
               7
100
AcDbLine
 10
14.999999975855985
 20
8.0
 30
0.0
 11
14.999999975855985
 21
11.999999986309376
 31
0.0
  0
LINE
  5
54C
100
AcDbEntity
  8
0
  6
CONTINUOUS
 62
               7
100
AcDbLine
 10
14.999999975855985
 20
8.0
 30
0.0
 11
19.0
 21
8.0
 31
0.0
  0
LINE
  5
54D
100
AcDbEntity
  8
0
  6
CONTINUOUS
 62
               7
100
AcDbLine
 10
54.0
 20
0.0
 30
0.0
 11
54.0
 21
12.0
 31
0.0
  0
LINE
  5
54E
100
AcDbEntity
  8
0
  6
CONTINUOUS
 62
               7
100
AcDbLine
 10
15.0
 20
12.0
 30
0.0
 11
34.391723750933295
 21
12.0
 31
0.0
  0
LINE
  5
54F
100
AcDbEntity
  8
0
  6
CONTINUOUS
 62
               2
100
AcDbLine
 10
41.999999997462623
 20
-2.5
 30
0.0
 11
41.999999997462623
 21
2.5
 31
0.0
  0
LINE
  5
550
100
AcDbEntity
  8
0
  6
CONTINUOUS
 62
               7
100
AcDbLine
 10
19.0
 20
0.0
 30
0.0
 11
19.0
 21
11.5
 31
0.0
  0
LINE
  5
551
100
AcDbEntity
  8
0
  6
PHANTOM
 62
               7
100
AcDbLine
 10
15.999999975855985
 20
7.5
 30
0.0
 11
16.649999999999977
 21
7.5
 31
0.0
  0
LINE
  5
552
100
AcDbEntity
  8
0
  6
PHANTOM
 62
               7
100
AcDbLine
 10
15.999999975855985
 20
7.1999999999999886
 30
0.0
 11
16.649999999999977
 21
7.1999999999999886
 31
0.0
  0
LINE
  5
553
100
AcDbEntity
  8
0
  6
PHANTOM
 62
               2
100
AcDbLine
 10
9.9500000000000455
 20
1.8000000000000114
 30
0.0
 11
16.649999999999977
 21
1.8000000000000114
 31
0.0
  0
LINE
  5
554
100
AcDbEntity
  8
0
  6
PHANTOM
 62
               2
100
AcDbLine
 10
9.9500000000000455
 20
1.5
 30
0.0
 11
16.649999999999977
 21
1.5
 31
0.0
  0
LINE
  5
555
100
AcDbEntity
  8
0
  6
CONTINUOUS
 62
               7
100
AcDbLine
 10
49.608276249066705
 20
12.0
 30
0.0
 11
54.0
 21
12.0
 31
0.0
  0
LINE
  5
556
100
AcDbEntity
  8
0
  6
CONTINUOUS
 62
               7
100
AcDbLine
 10
35.608276249066705
 20
12.0
 30
0.0
 11
48.391723750933295
 21
12.0
 31
0.0
  0
ENDBLK
  5
557
100
AcDbEntity
  8
0
100
AcDbBlockEnd
  0
BLOCK
  5
558
100
AcDbEntity
  8
0
100
AcDbBlockBegin
  2
MGAG6-15
 70
               0
 10
0.0
 20
0.0
 30
0.0
  3
MGAG6-15
  1

  0
LINE
  5
559
100
AcDbEntity
  8
0
  6
CONTINUOUS
 62
               4
100
AcDbLine
 10
27.25
 20
-3.6000000000000227
 30
0.0
 11
30.5
 21
-3.6000000000000227
 31
0.0
  0
LINE
  5
55A
100
AcDbEntity
  8
0
  6
CONTINUOUS
 62
               4
100
AcDbLine
 10
25.75
 20
-1.0
 30
0.0
 11
30.5
 21
-1.0
 31
0.0
  0
LINE
  5
55B
100
AcDbEntity
  8
0
  6
CONTINUOUS
 62
               4
100
AcDbLine
 10
22.0
 20
-3.6000000000000227
 30
0.0
 11
25.75
 21
-3.6000000000000227
 31
0.0
  0
LINE
  5
55C
100
AcDbEntity
  8
0
  6
CONTINUOUS
 62
               4
100
AcDbLine
 10
22.0
 20
-1.0
 30
0.0
 11
24.25
 21
-1.0
 31
0.0
  0
LINE
  5
55D
100
AcDbEntity
  8
0
  6
CONTINUOUS
 62
               4
100
AcDbLine
 10
0.0
 20
-0.4499999999999318
 30
0.0
 11
22.0
 21
-0.4499999999999318
 31
0.0
  0
LINE
  5
55E
100
AcDbEntity
  8
0
  6
CONTINUOUS
 62
               4
100
AcDbLine
 10
0.0
 20
-1.0
 30
0.0
 11
22.0
 21
-1.0
 31
0.0
  0
LINE
  5
55F
100
AcDbEntity
  8
0
  6
CONTINUOUS
 62
               4
100
AcDbLine
 10
0.75
 20
0.5
 30
0.0
 11
3.25
 21
0.5
 31
0.0
  0
LINE
  5
560
100
AcDbEntity
  8
0
  6
CONTINUOUS
 62
               4
100
AcDbLine
 10
3.25
 20
0.5
 30
0.0
 11
3.25
 21
0.0
 31
0.0
  0
LINE
  5
561
100
AcDbEntity
  8
0
  6
CONTINUOUS
 62
               2
100
AcDbLine
 10
3.0199999999999818
 20
0.5
 30
0.0
 11
3.0199999999999818
 21
0.0
 31
0.0
  0
LINE
  5
562
100
AcDbEntity
  8
0
  6
CONTINUOUS
 62
               2
100
AcDbLine
 10
0.9700000000000273
 20
0.5
 30
0.0
 11
0.9700000000000273
 21
0.0
 31
0.0
  0
LINE
  5
563
100
AcDbEntity
  8
0
  6
CONTINUOUS
 62
               4
100
AcDbLine
 10
0.75
 20
0.5
 30
0.0
 11
0.75
 21
0.0
 31
0.0
  0
LINE
  5
564
100
AcDbEntity
  8
0
  6
CONTINUOUS
 62
               4
100
AcDbLine
 10
0.75
 20
-3.7699999999999818
 30
0.0
 11
3.25
 21
-3.7699999999999818
 31
0.0
  0
LINE
  5
565
100
AcDbEntity
  8
0
  6
CONTINUOUS
 62
               4
100
AcDbLine
 10
3.25
 20
-2.5900000000000318
 30
0.0
 11
3.25
 21
-3.7699999999999818
 31
0.0
  0
LINE
  5
566
100
AcDbEntity
  8
0
  6
CONTINUOUS
 62
               2
100
AcDbLine
 10
3.0199999999999818
 20
-2.5900000000000318
 30
0.0
 11
3.0199999999999818
 21
-4.0
 31
0.0
  0
LINE
  5
567
100
AcDbEntity
  8
0
  6
CONTINUOUS
 62
               2
100
AcDbLine
 10
0.9700000000000273
 20
-2.5900000000000318
 30
0.0
 11
0.9700000000000273
 21
-4.0
 31
0.0
  0
LINE
  5
568
100
AcDbEntity
  8
0
  6
CONTINUOUS
 62
               4
100
AcDbLine
 10
0.75
 20
-2.5900000000000318
 30
0.0
 11
0.75
 21
-3.7699999999999818
 31
0.0
  0
LINE
  5
569
100
AcDbEntity
  8
0
  6
CONTINUOUS
 62
               4
100
AcDbLine
 10
0.9700000000000273
 20
-4.0
 30
0.0
 11
0.75
 21
-3.7699999999999818
 31
0.0
  0
LINE
  5
56A
100
AcDbEntity
  8
0
  6
CONTINUOUS
 62
               4
100
AcDbLine
 10
3.0199999999999818
 20
-4.0
 30
0.0
 11
3.25
 21
-3.7699999999999818
 31
0.0
  0
LINE
  5
56B
100
AcDbEntity
  8
0
  6
CONTINUOUS
 62
               4
100
AcDbLine
 10
0.9700000000000273
 20
-4.0
 30
0.0
 11
3.0199999999999818
 21
-4.0
 31
0.0
  0
LINE
  5
56C
100
AcDbEntity
  8
0
  6
CONTINUOUS
 62
               2
100
AcDbLine
 10
23.75
 20
-0.1299999999999955
 30
0.0
 11
26.25
 21
-4.4599999999999227
 31
0.0
  0
LINE
  5
56D
100
AcDbEntity
  8
0
  6
CONTINUOUS
 62
               2
100
AcDbLine
 10
25.25
 20
-0.1299999999999955
 30
0.0
 11
27.75
 21
-4.4599999999999227
 31
0.0
  0
LINE
  5
56E
100
AcDbEntity
  8
0
  6
CONTINUOUS
 62
               2
100
AcDbLine
 10
32.730000000000018
 20
-0.1299999999999955
 30
0.0
 11
35.230000000000018
 21
-4.4599999999999227
 31
0.0
  0
LINE
  5
570
100
AcDbEntity
  8
0
  6
CENTER
 62
               2
100
AcDbLine
 10
20.67999999999995
 20
-2.3000000000000682
 30
0.0
 11
30.5
 21
-2.3000000000000682
 31
0.0
  0
LINE
  5
571
100
AcDbEntity
  8
0
  6
CONTINUOUS
 62
               2
100
AcDbLine
 10
34.230000000000018
 20
-0.1299999999999955
 30
0.0
 11
36.730000000000018
 21
-4.4599999999999227
 31
0.0
  0
LINE
  5
572
100
AcDbEntity
  8
0
  6
CONTINUOUS
 62
               4
100
AcDbLine
 10
37.5
 20
-3.0
 30
0.0
 11
40.5
 21
-3.0
 31
0.0
  0
LINE
  5
573
100
AcDbEntity
  8
0
  6
CONTINUOUS
 62
               4
100
AcDbLine
 10
37.5
 20
-2.5
 30
0.0
 11
40.5
 21
-2.5
 31
0.0
  0
LINE
  5
574
100
AcDbEntity
  8
0
  6
CONTINUOUS
 62
               4
100
AcDbLine
 10
37.5
 20
-2.1000000000000227
 30
0.0
 11
40.5
 21
-2.1000000000000227
 31
0.0
  0
LINE
  5
575
100
AcDbEntity
  8
0
  6
CONTINUOUS
 62
               4
100
AcDbLine
 10
37.5
 20
-1.6000000000000227
 30
0.0
 11
40.5
 21
-1.6000000000000227
 31
0.0
  0
LINE
  5
576
100
AcDbEntity
  8
0
  6
CONTINUOUS
 62
               4
100
AcDbLine
 10
34.959999999999923
 20
-1.3999999999999773
 30
0.0
 11
37.5
 21
-1.3999999999999773
 31
0.0
  0
LINE
  5
577
100
AcDbEntity
  8
0
  6
CONTINUOUS
 62
               4
100
AcDbLine
 10
30.5
 20
-1.3999999999999773
 30
0.0
 11
33.459999999999923
 21
-1.3999999999999773
 31
0.0
  0
LINE
  5
578
100
AcDbEntity
  8
0
  6
CONTINUOUS
 62
               4
100
AcDbLine
 10
36.0
 20
-3.1999999999999318
 30
0.0
 11
37.5
 21
-3.1999999999999318
 31
0.0
  0
LINE
  5
579
100
AcDbEntity
  8
0
  6
CONTINUOUS
 62
               4
100
AcDbLine
 10
35.480000000000018
 20
-2.3000000000000682
 30
0.0
 11
37.5
 21
-2.3000000000000682
 31
0.0
  0
LINE
  5
57A
100
AcDbEntity
  8
0
  6
CONTINUOUS
 62
               4
100
AcDbLine
 10
30.5
 20
-2.3000000000000682
 30
0.0
 11
33.980000000000018
 21
-2.3000000000000682
 31
0.0
  0
LINE
  5
57B
100
AcDbEntity
  8
0
  6
CONTINUOUS
 62
               4
100
AcDbLine
 10
30.5
 20
-3.1999999999999318
 30
0.0
 11
34.5
 21
-3.1999999999999318
 31
0.0
  0
LINE
  5
57C
100
AcDbEntity
  8
0
  6
CONTINUOUS
 62
               4
100
AcDbLine
 10
37.5
 20
-1.3999999999999773
 30
0.0
 11
37.5
 21
-3.1999999999999318
 31
0.0
  0
LINE
  5
57D
100
AcDbEntity
  8
0
  6
CONTINUOUS
 62
               4
100
AcDbLine
 10
40.5
 20
-2.5
 30
0.0
 11
40.5
 21
-3.0
 31
0.0
  0
LINE
  5
57E
100
AcDbEntity
  8
0
  6
CONTINUOUS
 62
               4
100
AcDbLine
 10
40.5
 20
-1.6000000000000227
 30
0.0
 11
40.5
 21
-2.1000000000000227
 31
0.0
  0
LINE
  5
57F
100
AcDbEntity
  8
0
  6
CENTER
 62
               2
100
AcDbLine
 10
28.819999999999936
 20
-2.75
 30
0.0
 11
40.75
 21
-2.75
 31
0.0
  0
LINE
  5
580
100
AcDbEntity
  8
0
  6
CENTER
 62
               2
100
AcDbLine
 10
28.769999999999982
 20
-1.8500000000000227
 30
0.0
 11
40.699999999999932
 21
-1.8500000000000227
 31
0.0
  0
LINE
  5
581
100
AcDbEntity
  8
0
  6
CONTINUOUS
 62
               4
100
AcDbLine
 10
30.5
 20
-1.0
 30
0.0
 11
30.5
 21
-3.6000000000000227
 31
0.0
  0
LINE
  5
582
100
AcDbEntity
  8
0
  6
CONTINUOUS
 62
               4
100
AcDbLine
 10
4.25
 20
-3.0400000000000773
 30
0.0
 11
4.6999999999999318
 21
-3.0400000000000773
 31
0.0
  0
LINE
  5
583
100
AcDbEntity
  8
0
  6
CONTINUOUS
 62
               4
100
AcDbLine
 10
4.1999999999999318
 20
-3.8000000000000682
 30
0.0
 11
4.6999999999999318
 21
-3.8000000000000682
 31
0.0
  0
LINE
  5
584
100
AcDbEntity
  8
0
  6
CONTINUOUS
 62
               4
100
AcDbLine
 10
4.1999999999999318
 20
-1.8000000000000682
 30
0.0
 11
4.1999999999999318
 21
-3.8000000000000682
 31
0.0
  0
LINE
  5
585
100
AcDbEntity
  8
0
  6
CONTINUOUS
 62
               4
100
AcDbLine
 10
0.0
 20
-2.6000000000000227
 30
0.0
 11
4.0
 21
-2.6000000000000227
 31
0.0
  0
LINE
  5
586
100
AcDbEntity
  8
0
  6
CONTINUOUS
 62
               4
100
AcDbLine
 10
0.0
 20
-1.8000000000000682
 30
0.0
 11
0.0
 21
-2.6000000000000227
 31
0.0
  0
LINE
  5
587
100
AcDbEntity
  8
0
  6
CONTINUOUS
 62
               4
100
AcDbLine
 10
4.0
 20
-1.8000000000000682
 30
0.0
 11
4.0
 21
-2.6000000000000227
 31
0.0
  0
LINE
  5
588
100
AcDbEntity
  8
0
  6
CONTINUOUS
 62
               4
100
AcDbLine
 10
4.25
 20
-1.8000000000000682
 30
0.0
 11
4.25
 21
-3.0400000000000773
 31
0.0
  0
LINE
  5
589
100
AcDbEntity
  8
0
  6
CENTER
 62
               2
100
AcDbLine
 10
2.0
 20
0.8000000000000682
 30
0.0
 11
2.0
 21
-5.42999999999995
 31
0.0
  0
LINE
  5
58A
100
AcDbEntity
  8
0
  6
CONTINUOUS
 62
               4
100
AcDbLine
 10
0.0
 20
-1.8000000000000682
 30
0.0
 11
4.25
 21
-1.8000000000000682
 31
0.0
  0
LINE
  5
58B
100
AcDbEntity
  8
0
  6
CONTINUOUS
 62
               4
100
AcDbLine
 10
4.6999999999999318
 20
-3.0400000000000773
 30
0.0
 11
4.6999999999999318
 21
-4.6000000000000227
 31
0.0
  0
LINE
  5
58C
100
AcDbEntity
  8
0
  6
CONTINUOUS
 62
               4
100
AcDbLine
 10
0.0
 20
-1.8000000000000682
 30
0.0
 11
0.0
 21
0.0
 31
0.0
  0
LINE
  5
58D
100
AcDbEntity
  8
0
  6
CONTINUOUS
 62
               4
100
AcDbLine
 10
22.0
 20
0.0
 30
0.0
 11
22.0
 21
-4.6000000000000227
 31
0.0
  0
LINE
  5
58E
100
AcDbEntity
  8
0
  6
CONTINUOUS
 62
               4
100
AcDbLine
 10
4.6999999999999318
 20
-4.6000000000000227
 30
0.0
 11
22.0
 21
-4.6000000000000227
 31
0.0
  0
LINE
  5
58F
100
AcDbEntity
  8
0
  6
CONTINUOUS
 62
               4
100
AcDbLine
 10
0.0
 20
0.0
 30
0.0
 11
22.0
 21
0.0
 31
0.0
  0
ENDBLK
  5
590
100
AcDbEntity
  8
0
100
AcDbBlockEnd
  0
BLOCK
  5
591
100
AcDbEntity
  8
0
100
AcDbBlockBegin
  2
MGAG6-16
 70
               0
 10
0.0
 20
0.0
 30
0.0
  3
MGAG6-16
  1

  0
ARC
  5
592
100
AcDbEntity
  8
0
  6
CONTINUOUS
 62
               4
100
AcDbCircle
 10
-0.0000022888195872
 20
-2.5499977111803673
 30
0.0
 40
2.0500022888209148
100
AcDbArc
 50
270.00006397051652
 51
359.99993602948348
  0
ARC
  5
593
100
AcDbEntity
  8
0
  6
CONTINUOUS
 62
               4
100
AcDbCircle
 10
0.0000022888195872
 20
-2.5499977111803673
 30
0.0
 40
2.0500022888209148
100
AcDbArc
 50
180.00006397051652
 51
269.99993602948348
  0
LINE
  5
594
100
AcDbEntity
  8
0
  6
CONTINUOUS
 62
               4
100
AcDbLine
 10
-1.25
 20
0.5
 30
0.0
 11
1.25
 21
0.5
 31
0.0
  0
LINE
  5
595
100
AcDbEntity
  8
0
  6
CONTINUOUS
 62
               4
100
AcDbLine
 10
1.25
 20
0.5
 30
0.0
 11
1.25
 21
0.0
 31
0.0
  0
LINE
  5
596
100
AcDbEntity
  8
0
  6
CONTINUOUS
 62
               2
100
AcDbLine
 10
1.0199999999999818
 20
0.5
 30
0.0
 11
1.0199999999999818
 21
0.0
 31
0.0
  0
LINE
  5
597
100
AcDbEntity
  8
0
  6
CONTINUOUS
 62
               2
100
AcDbLine
 10
-1.0199999999999818
 20
0.5
 30
0.0
 11
-1.0199999999999818
 21
0.0
 31
0.0
  0
LINE
  5
598
100
AcDbEntity
  8
0
  6
CONTINUOUS
 62
               4
100
AcDbLine
 10
-1.25
 20
0.5
 30
0.0
 11
-1.25
 21
0.0
 31
0.0
  0
LINE
  5
599
100
AcDbEntity
  8
0
  6
CONTINUOUS
 62
               4
100
AcDbLine
 10
-1.25
 20
-3.7699999999999818
 30
0.0
 11
1.25
 21
-3.7699999999999818
 31
0.0
  0
LINE
  5
59A
100
AcDbEntity
  8
0
  6
CONTINUOUS
 62
               4
100
AcDbLine
 10
1.25
 20
-2.5900000000000318
 30
0.0
 11
1.25
 21
-3.7699999999999818
 31
0.0
  0
LINE
  5
59B
100
AcDbEntity
  8
0
  6
CONTINUOUS
 62
               2
100
AcDbLine
 10
1.0199999999999818
 20
-2.5900000000000318
 30
0.0
 11
1.0199999999999818
 21
-4.0
 31
0.0
  0
LINE
  5
59C
100
AcDbEntity
  8
0
  6
CONTINUOUS
 62
               2
100
AcDbLine
 10
-1.0199999999999818
 20
-2.5900000000000318
 30
0.0
 11
-1.0199999999999818
 21
-4.0
 31
0.0
  0
LINE
  5
59D
100
AcDbEntity
  8
0
  6
CONTINUOUS
 62
               4
100
AcDbLine
 10
-1.25
 20
-2.5900000000000318
 30
0.0
 11
-1.25
 21
-3.7699999999999818
 31
0.0
  0
LINE
  5
59E
100
AcDbEntity
  8
0
  6
CONTINUOUS
 62
               4
100
AcDbLine
 10
-1.0199999999999818
 20
-4.0
 30
0.0
 11
-1.25
 21
-3.7699999999999818
 31
0.0
  0
LINE
  5
59F
100
AcDbEntity
  8
0
  6
CONTINUOUS
 62
               4
100
AcDbLine
 10
1.0199999999999818
 20
-4.0
 30
0.0
 11
1.25
 21
-3.7699999999999818
 31
0.0
  0
LINE
  5
5A0
100
AcDbEntity
  8
0
  6
CONTINUOUS
 62
               4
100
AcDbLine
 10
-1.0199999999999818
 20
-4.0
 30
0.0
 11
1.0199999999999818
 21
-4.0
 31
0.0
  0
LINE
  5
5A1
100
AcDbEntity
  8
0
  6
CONTINUOUS
 62
               4
100
AcDbLine
 10
-2.0499999999999545
 20
-2.5900000000000318
 30
0.0
 11
2.0499999999999545
 21
-2.5900000000000318
 31
0.0
  0
LINE
  5
5A2
100
AcDbEntity
  8
0
  6
CONTINUOUS
 62
               4
100
AcDbLine
 10
-2.0499999999999545
 20
-1.8000000000000682
 30
0.0
 11
2.0499999999999545
 21
-1.8000000000000682
 31
0.0
  0
LINE
  5
5A3
100
AcDbEntity
  8
0
  6
CONTINUOUS
 62
               4
100
AcDbLine
 10
2.0499999999999545
 20
-1.0
 30
0.0
 11
2.0499999999999545
 21
-2.5500000000000682
 31
0.0
  0
LINE
  5
5A4
100
AcDbEntity
  8
0
  6
CONTINUOUS
 62
               4
100
AcDbLine
 10
2.0499999999999545
 20
-1.0
 30
0.0
 11
1.5
 21
-0.4499999999999318
 31
0.0
  0
LINE
  5
5A5
100
AcDbEntity
  8
0
  6
CONTINUOUS
 62
               4
100
AcDbLine
 10
1.5
 20
0.0
 30
0.0
 11
1.5
 21
-0.4499999999999318
 31
0.0
  0
LINE
  5
5A6
100
AcDbEntity
  8
0
  6
CONTINUOUS
 62
               4
100
AcDbLine
 10
-1.5
 20
0.0
 30
0.0
 11
1.5
 21
0.0
 31
0.0
  0
LINE
  5
5A7
100
AcDbEntity
  8
0
  6
CONTINUOUS
 62
               4
100
AcDbLine
 10
-1.5
 20
0.0
 30
0.0
 11
-1.5
 21
-0.4499999999999318
 31
0.0
  0
LINE
  5
5A8
100
AcDbEntity
  8
0
  6
CONTINUOUS
 62
               4
100
AcDbLine
 10
-2.0499999999999545
 20
-1.0
 30
0.0
 11
-1.5
 21
-0.4499999999999318
 31
0.0
  0
LINE
  5
5A9
100
AcDbEntity
  8
0
  6
CONTINUOUS
 62
               4
100
AcDbLine
 10
-2.0499999999999545
 20
-1.0
 30
0.0
 11
-2.0499999999999545
 21
-2.5500000000000682
 31
0.0
  0
LINE
  5
5AA
100
AcDbEntity
  8
0
  6
CENTER
 62
               2
100
AcDbLine
 10
0.0
 20
2.0500000000000682
 30
0.0
 11
0.0
 21
-6.6599999999999682
 31
0.0
  0
ENDBLK
  5
5AB
100
AcDbEntity
  8
0
100
AcDbBlockEnd
  0
BLOCK
  5
5AC
100
AcDbEntity
  8
0
100
AcDbBlockBegin
  2
MGAG6-17
 70
               0
 10
0.0
 20
0.0
 30
0.0
  3
MGAG6-17
  1

  0
CIRCLE
  5
5AD
100
AcDbEntity
  8
0
  6
CONTINUOUS
 62
               4
100
AcDbCircle
 10
2.0000152587890625
 20
0.0
 30
0.0
 40
1.3999996185302734
  0
CIRCLE
  5
5AE
100
AcDbEntity
  8
0
  6
CONTINUOUS
 62
               4
100
AcDbCircle
 10
2.0000152587890625
 20
0.0
 30
0.0
 40
1.25
  0
LINE
  5
5AF
100
AcDbEntity
  8
0
  6
CONTINUOUS
 62
               4
100
AcDbLine
 10
22.0
 20
-1.3000000000000114
 30
0.0
 11
25.090000000000032
 21
-1.3000000000000114
 31
0.0
  0
LINE
  5
5B0
100
AcDbEntity
  8
0
  6
CONTINUOUS
 62
               4
100
AcDbLine
 10
22.0
 20
1.3000000000000114
 30
0.0
 11
23.580000000000041
 21
1.3000000000000114
 31
0.0
  0
LINE
  5
5B1
100
AcDbEntity
  8
0
  6
CONTINUOUS
 62
               2
100
AcDbLine
 10
23.080000000000041
 20
2.1599999999999682
 30
0.0
 11
25.580000000000041
 21
-2.1599999999999682
 31
0.0
  0
LINE
  5
5B2
100
AcDbEntity
  8
0
  6
CONTINUOUS
 62
               4
100
AcDbLine
 10
1.3000000000000682
 20
-1.0600000000000023
 30
0.0
 11
2.9399999999999409
 21
0.5600000000000023
 31
0.0
  0
LINE
  5
5B3
100
AcDbEntity
  8
0
  6
CONTINUOUS
 62
               4
100
AcDbLine
 10
0.9499999999999318
 20
-0.7100000000000364
 30
0.0
 11
2.67999999999995
 21
1.0199999999999818
 31
0.0
  0
LINE
  5
5B4
100
AcDbEntity
  8
0
  6
CENTER
 62
               2
100
AcDbLine
 10
2.0
 20
2.8300000000000409
 30
0.0
 11
2.0
 21
-2.75
 31
0.0
  0
LINE
  5
5B5
100
AcDbEntity
  8
0
  6
CONTINUOUS
 62
               4
100
AcDbLine
 10
22.0
 20
2.0500000000000114
 30
0.0
 11
22.0
 21
-2.0500000000000114
 31
0.0
  0
LINE
  5
5B6
100
AcDbEntity
  8
0
  6
CONTINUOUS
 62
               4
100
AcDbLine
 10
0.0
 20
2.0500000000000114
 30
0.0
 11
0.0
 21
-2.0500000000000114
 31
0.0
  0
LINE
  5
5B7
100
AcDbEntity
  8
0
  6
CONTINUOUS
 62
               4
100
AcDbLine
 10
0.0
 20
2.0500000000000114
 30
0.0
 11
22.0
 21
2.0500000000000114
 31
0.0
  0
LINE
  5
5B8
100
AcDbEntity
  8
0
  6
CONTINUOUS
 62
               4
100
AcDbLine
 10
0.0
 20
-2.0500000000000114
 30
0.0
 11
22.0
 21
-2.0500000000000114
 31
0.0
  0
LINE
  5
5B9
100
AcDbEntity
  8
0
  6
CONTINUOUS
 62
               4
100
AcDbLine
 10
0.0
 20
1.5
 30
0.0
 11
22.0
 21
1.5
 31
0.0
  0
LINE
  5
5BA
100
AcDbEntity
  8
0
  6
CONTINUOUS
 62
               4
100
AcDbLine
 10
0.0
 20
-1.5
 30
0.0
 11
22.0
 21
-1.5
 31
0.0
  0
LINE
  5
5BB
100
AcDbEntity
  8
0
  6
CENTER
 62
               2
100
AcDbLine
 10
-2.8000000000000682
 20
0.0
 30
0.0
 11
27.399999999999977
 21
0.0
 31
0.0
  0
ENDBLK
  5
5BC
100
AcDbEntity
  8
0
100
AcDbBlockEnd
  0
BLOCK
  5
5BD
100
AcDbEntity
  8
0
100
AcDbBlockBegin
  2
MGAG6-18
 70
               0
 10
0.0
 20
0.0
 30
0.0
  3
MGAG6-18
  1

  0
LINE
  5
5BE
100
AcDbEntity
  8
0
  6
CONTINUOUS
 62
               4
100
AcDbLine
 10
0.0
 20
0.0
 30
0.0
 11
16.099999999999909
 21
-0.000000000000004
 31
0.0
  0
LINE
  5
5BF
100
AcDbEntity
  8
0
  6
CONTINUOUS
 62
               4
100
AcDbLine
 10
4.6999999999998181
 20
-4.6000000000000236
 30
0.0
 11
22.0
 21
-4.6000000000000281
 31
0.0
  0
LINE
  5
5C0
100
AcDbEntity
  8
0
  6
CONTINUOUS
 62
               4
100
AcDbLine
 10
22.0
 20
6.8999999999999719
 30
0.0
 11
22.0
 21
-4.6000000000000281
 31
0.0
  0
LINE
  5
5C1
100
AcDbEntity
  8
0
  6
CONTINUOUS
 62
               4
100
AcDbLine
 10
0.0
 20
-2.6000000000000227
 30
0.0
 11
0.0
 21
0.0
 31
0.0
  0
LINE
  5
5C2
100
AcDbEntity
  8
0
  6
CONTINUOUS
 62
               4
100
AcDbLine
 10
4.6999999999998181
 20
-2.98000000000002
 30
0.0
 11
4.6999999999998181
 21
-4.6000000000000236
 31
0.0
  0
LINE
  5
5C3
100
AcDbEntity
  8
0
  6
CENTER
 62
               2
100
AcDbLine
 10
2.0
 20
0.7300000000000178
 30
0.0
 11
2.0
 21
-5.16999999999996
 31
0.0
  0
LINE
  5
5C4
100
AcDbEntity
  8
0
  6
CONTINUOUS
 62
               4
100
AcDbLine
 10
16.099999999999909
 20
6.8999999999999737
 30
0.0
 11
16.099999999999909
 21
-0.000000000000004
 31
0.0
  0
LINE
  5
5C5
100
AcDbEntity
  8
0
  6
CONTINUOUS
 62
               4
100
AcDbLine
 10
0.0
 20
-1.8000000000000682
 30
0.0
 11
4.2699999999999818
 21
-1.8000000000000691
 31
0.0
  0
LINE
  5
5C6
100
AcDbEntity
  8
0
  6
CONTINUOUS
 62
               4
100
AcDbLine
 10
0.0
 20
-2.6000000000000227
 30
0.0
 11
4.0
 21
-2.6000000000000236
 31
0.0
  0
LINE
  5
5C7
100
AcDbEntity
  8
0
  6
CONTINUOUS
 62
               4
100
AcDbLine
 10
4.0
 20
-1.8000000000000691
 30
0.0
 11
4.0
 21
-2.6000000000000236
 31
0.0
  0
LINE
  5
5C8
100
AcDbEntity
  8
0
  6
CONTINUOUS
 62
               4
100
AcDbLine
 10
16.099999999999909
 20
6.8999999999999737
 30
0.0
 11
22.0
 21
6.8999999999999719
 31
0.0
  0
LINE
  5
5C9
100
AcDbEntity
  8
0
  6
CONTINUOUS
 62
               4
100
AcDbLine
 10
4.1999999999998181
 20
-3.8000000000000691
 30
0.0
 11
4.6999999999998181
 21
-3.80000000000007
 31
0.0
  0
LINE
  5
5CA
100
AcDbEntity
  8
0
  6
CONTINUOUS
 62
               4
100
AcDbLine
 10
4.1999999999998181
 20
-1.8000000000000691
 30
0.0
 11
4.1999999999998181
 21
-3.8000000000000691
 31
0.0
  0
LINE
  5
5CB
100
AcDbEntity
  8
0
  6
CONTINUOUS
 62
               4
100
AcDbLine
 10
4.2699999999999818
 20
-2.9800000000000191
 30
0.0
 11
4.6999999999998181
 21
-2.98000000000002
 31
0.0
  0
LINE
  5
5CC
100
AcDbEntity
  8
0
  6
CONTINUOUS
 62
               4
100
AcDbLine
 10
4.2699999999999818
 20
-1.8000000000000691
 30
0.0
 11
4.2699999999999818
 21
-2.9800000000000191
 31
0.0
  0
LINE
  5
5CD
100
AcDbEntity
  8
0
  6
CONTINUOUS
 62
               4
100
AcDbLine
 10
0.0
 20
-1.0
 30
0.0
 11
22.0
 21
-1.0000000000000053
 31
0.0
  0
LINE
  5
5CE
100
AcDbEntity
  8
0
  6
CONTINUOUS
 62
               4
100
AcDbLine
 10
0.0
 20
-0.4499999999999318
 30
0.0
 11
22.0
 21
-0.4499999999999371
 31
0.0
  0
LINE
  5
5CF
100
AcDbEntity
  8
0
  6
CONTINUOUS
 62
               4
100
AcDbLine
 10
16.099999999999909
 20
1.1499999999999733
 30
0.0
 11
22.0
 21
1.1499999999999719
 31
0.0
  0
LINE
  5
5D0
100
AcDbEntity
  8
0
  6
CONTINUOUS
 62
               4
100
AcDbLine
 10
16.099999999999909
 20
0.3999999999999733
 30
0.0
 11
22.0
 21
0.3999999999999719
 31
0.0
  0
LINE
  5
5D1
100
AcDbEntity
  8
0
  6
CONTINUOUS
 62
               4
100
AcDbLine
 10
16.099999999999909
 20
5.3999999999999737
 30
0.0
 11
22.0
 21
5.3999999999999719
 31
0.0
  0
LINE
  5
5D2
100
AcDbEntity
  8
0
  6
CONTINUOUS
 62
               4
100
AcDbLine
 10
18.099999999999913
 20
15.399999999999974
 30
0.0
 11
20.699999999999822
 21
15.399999999999972
 31
0.0
  0
LINE
  5
5D3
100
AcDbEntity
  8
0
  6
CENTER
 62
               2
100
AcDbLine
 10
18.949999999999822
 20
13.669999999999954
 30
0.0
 11
18.949999999999825
 21
25.600000000000019
 31
0.0
  0
LINE
  5
5D4
100
AcDbEntity
  8
0
  6
CENTER
 62
               2
100
AcDbLine
 10
19.849999999999913
 20
13.720000000000022
 30
0.0
 11
19.849999999999916
 21
25.649999999999974
 31
0.0
  0
LINE
  5
5D5
100
AcDbEntity
  8
0
  6
CONTINUOUS
 62
               4
100
AcDbLine
 10
18.699999999999825
 20
25.399999999999974
 30
0.0
 11
19.199999999999825
 21
25.399999999999974
 31
0.0
  0
LINE
  5
5D6
100
AcDbEntity
  8
0
  6
CONTINUOUS
 62
               4
100
AcDbLine
 10
19.599999999999916
 20
25.399999999999974
 30
0.0
 11
20.099999999999916
 21
25.399999999999974
 31
0.0
  0
LINE
  5
5D7
100
AcDbEntity
  8
0
  6
CONTINUOUS
 62
               4
100
AcDbLine
 10
18.500000000000007
 20
22.399999999999974
 30
0.0
 11
20.299999999999962
 21
22.399999999999974
 31
0.0
  0
LINE
  5
5D8
100
AcDbEntity
  8
0
  6
CONTINUOUS
 62
               4
100
AcDbLine
 10
20.299999999999958
 20
15.399999999999972
 30
0.0
 11
20.299999999999958
 21
19.399999999999974
 31
0.0
  0
LINE
  5
5D9
100
AcDbEntity
  8
0
  6
CONTINUOUS
 62
               4
100
AcDbLine
 10
19.399999999999867
 20
15.399999999999972
 30
0.0
 11
19.399999999999867
 21
18.879999999999992
 31
0.0
  0
LINE
  5
5DA
100
AcDbEntity
  8
0
  6
CONTINUOUS
 62
               4
100
AcDbLine
 10
19.399999999999867
 20
20.379999999999992
 30
0.0
 11
19.399999999999871
 21
22.399999999999974
 31
0.0
  0
LINE
  5
5DB
100
AcDbEntity
  8
0
  6
CONTINUOUS
 62
               4
100
AcDbLine
 10
20.299999999999958
 20
20.899999999999974
 30
0.0
 11
20.299999999999962
 21
22.399999999999974
 31
0.0
  0
LINE
  5
5DC
100
AcDbEntity
  8
0
  6
CONTINUOUS
 62
               4
100
AcDbLine
 10
18.500000000000004
 20
15.399999999999972
 30
0.0
 11
18.500000000000004
 21
18.36000000000001
 31
0.0
  0
LINE
  5
5DD
100
AcDbEntity
  8
0
  6
CONTINUOUS
 62
               4
100
AcDbLine
 10
18.500000000000004
 20
19.86000000000001
 30
0.0
 11
18.500000000000007
 21
22.399999999999974
 31
0.0
  0
LINE
  5
5DE
100
AcDbEntity
  8
0
  6
CONTINUOUS
 62
               4
100
AcDbLine
 10
18.699999999999825
 20
22.399999999999974
 30
0.0
 11
18.699999999999825
 21
25.399999999999974
 31
0.0
  0
LINE
  5
5DF
100
AcDbEntity
  8
0
  6
CONTINUOUS
 62
               4
100
AcDbLine
 10
19.199999999999825
 20
22.399999999999974
 30
0.0
 11
19.199999999999825
 21
25.399999999999974
 31
0.0
  0
LINE
  5
5E0
100
AcDbEntity
  8
0
  6
CONTINUOUS
 62
               4
100
AcDbLine
 10
19.599999999999916
 20
22.399999999999974
 30
0.0
 11
19.599999999999916
 21
25.399999999999974
 31
0.0
  0
LINE
  5
5E1
100
AcDbEntity
  8
0
  6
CONTINUOUS
 62
               4
100
AcDbLine
 10
20.099999999999916
 20
22.399999999999974
 30
0.0
 11
20.099999999999916
 21
25.399999999999974
 31
0.0
  0
LINE
  5
5E2
100
AcDbEntity
  8
0
  6
CONTINUOUS
 62
               2
100
AcDbLine
 10
17.240000000000013
 20
19.129999999999992
 30
0.0
 11
21.56999999999994
 21
21.629999999999992
 31
0.0
  0
LINE
  5
5E3
100
AcDbEntity
  8
0
  6
CENTER
 62
               2
100
AcDbLine
 10
19.399999999999864
 20
5.5800000000000365
 30
0.0
 11
19.399999999999867
 21
15.399999999999972
 31
0.0
  0
LINE
  5
5E4
100
AcDbEntity
  8
0
  6
CONTINUOUS
 62
               2
100
AcDbLine
 10
17.240000000000013
 20
17.629999999999992
 30
0.0
 11
21.56999999999994
 21
20.129999999999992
 31
0.0
  0
LINE
  5
5E5
100
AcDbEntity
  8
0
  6
CONTINUOUS
 62
               2
100
AcDbLine
 10
17.240000000000013
 20
10.149999999999974
 30
0.0
 11
21.56999999999994
 21
12.649999999999972
 31
0.0
  0
LINE
  5
5E6
100
AcDbEntity
  8
0
  6
CONTINUOUS
 62
               2
100
AcDbLine
 10
17.240000000000013
 20
8.6499999999999737
 30
0.0
 11
21.56999999999994
 21
11.149999999999972
 31
0.0
  0
LINE
  5
5E7
100
AcDbEntity
  8
0
  6
CONTINUOUS
 62
               4
100
AcDbLine
 10
0.9700000000000273
 20
-4.0
 30
0.0
 11
3.0199999999999818
 21
-4.0000000000000009
 31
0.0
  0
LINE
  5
5E8
100
AcDbEntity
  8
0
  6
CONTINUOUS
 62
               4
100
AcDbLine
 10
3.0199999999999818
 20
-4.0000000000000009
 30
0.0
 11
3.25
 21
-3.7699999999999827
 31
0.0
  0
LINE
  5
5E9
100
AcDbEntity
  8
0
  6
CONTINUOUS
 62
               4
100
AcDbLine
 10
0.9700000000000273
 20
-4.0
 30
0.0
 11
0.75
 21
-3.7699999999999818
 31
0.0
  0
LINE
  5
5EA
100
AcDbEntity
  8
0
  6
CONTINUOUS
 62
               4
100
AcDbLine
 10
0.75
 20
-2.6000000000000227
 30
0.0
 11
0.75
 21
-3.7699999999999818
 31
0.0
  0
LINE
  5
5EB
100
AcDbEntity
  8
0
  6
CONTINUOUS
 62
               2
100
AcDbLine
 10
0.9700000000000273
 20
-2.6000000000000227
 30
0.0
 11
0.9700000000000273
 21
-4.0
 31
0.0
  0
LINE
  5
5EC
100
AcDbEntity
  8
0
  6
CONTINUOUS
 62
               2
100
AcDbLine
 10
3.0199999999999818
 20
-2.6000000000000236
 30
0.0
 11
3.0199999999999818
 21
-4.0000000000000009
 31
0.0
  0
LINE
  5
5ED
100
AcDbEntity
  8
0
  6
CONTINUOUS
 62
               4
100
AcDbLine
 10
3.25
 20
-2.6000000000000236
 30
0.0
 11
3.25
 21
-3.7699999999999827
 31
0.0
  0
LINE
  5
5EE
100
AcDbEntity
  8
0
  6
CONTINUOUS
 62
               4
100
AcDbLine
 10
0.75
 20
-3.7699999999999818
 30
0.0
 11
3.25
 21
-3.7699999999999827
 31
0.0
  0
LINE
  5
5EF
100
AcDbEntity
  8
0
  6
CONTINUOUS
 62
               4
100
AcDbLine
 10
0.75
 20
0.4999999999999998
 30
0.0
 11
0.75
 21
-0.0000000000000002
 31
0.0
  0
LINE
  5
5F0
100
AcDbEntity
  8
0
  6
CONTINUOUS
 62
               2
100
AcDbLine
 10
0.9700000000000273
 20
0.4999999999999998
 30
0.0
 11
0.9700000000000273
 21
-0.0000000000000002
 31
0.0
  0
LINE
  5
5F1
100
AcDbEntity
  8
0
  6
CONTINUOUS
 62
               2
100
AcDbLine
 10
3.0199999999999818
 20
0.4999999999999993
 30
0.0
 11
3.0199999999999818
 21
-0.0000000000000007
 31
0.0
  0
LINE
  5
5F2
100
AcDbEntity
  8
0
  6
CONTINUOUS
 62
               4
100
AcDbLine
 10
3.25
 20
0.4999999999999991
 30
0.0
 11
3.25
 21
-0.0000000000000009
 31
0.0
  0
LINE
  5
5F3
100
AcDbEntity
  8
0
  6
CONTINUOUS
 62
               4
100
AcDbLine
 10
0.75
 20
0.4999999999999998
 30
0.0
 11
3.25
 21
0.4999999999999991
 31
0.0
  0
LINE
  5
5F4
100
AcDbEntity
  8
0
  6
CONTINUOUS
 62
               4
100
AcDbLine
 10
20.699999999999818
 20
6.8999999999999719
 30
0.0
 11
20.699999999999822
 21
10.649999999999972
 31
0.0
  0
LINE
  5
5F5
100
AcDbEntity
  8
0
  6
CONTINUOUS
 62
               4
100
AcDbLine
 10
18.099999999999909
 20
6.8999999999999728
 30
0.0
 11
18.099999999999913
 21
9.1499999999999737
 31
0.0
  0
LINE
  5
5F6
100
AcDbEntity
  8
0
  6
CONTINUOUS
 62
               4
100
AcDbLine
 10
18.099999999999913
 20
10.649999999999974
 30
0.0
 11
18.099999999999913
 21
15.399999999999974
 31
0.0
  0
LINE
  5
5F7
100
AcDbEntity
  8
0
  6
CONTINUOUS
 62
               4
100
AcDbLine
 10
20.699999999999822
 20
12.149999999999972
 30
0.0
 11
20.699999999999822
 21
15.399999999999972
 31
0.0
  0
ENDBLK
  5
5F8
100
AcDbEntity
  8
0
100
AcDbBlockEnd
  0
BLOCK
  5
5F9
100
AcDbEntity
  8
0
100
AcDbBlockBegin
  2
MGAG6-19
 70
               0
 10
0.0
 20
0.0
 30
0.0
  3
MGAG6-19
  1

  0
LINE
  5
5FA
100
AcDbEntity
  8
0
  6
CONTINUOUS
 62
               4
100
AcDbLine
 10
-2.25
 20
5.3999999999999773
 30
0.0
 11
2.25
 21
5.3999999999999773
 31
0.0
  0
LINE
  5
5FB
100
AcDbEntity
  8
0
  6
CONTINUOUS
 62
               4
100
AcDbLine
 10
-2.25
 20
6.8999999999999773
 30
0.0
 11
-2.25
 21
1.1499999999999773
 31
0.0
  0
LINE
  5
5FC
100
AcDbEntity
  8
0
  6
CONTINUOUS
 62
               4
100
AcDbLine
 10
-1.5
 20
0.3999999999999773
 30
0.0
 11
-2.25
 21
1.1499999999999773
 31
0.0
  0
LINE
  5
5FD
100
AcDbEntity
  8
0
  6
CONTINUOUS
 62
               4
100
AcDbLine
 10
-1.5
 20
-0.4500000000000455
 30
0.0
 11
-1.5
 21
0.3999999999999773
 31
0.0
  0
LINE
  5
5FE
100
AcDbEntity
  8
0
  6
CONTINUOUS
 62
               4
100
AcDbLine
 10
-2.0500000000001819
 20
-1.0
 30
0.0
 11
-1.5
 21
-0.4500000000000455
 31
0.0
  0
LINE
  5
5FF
100
AcDbEntity
  8
0
  6
CONTINUOUS
 62
               4
100
AcDbLine
 10
-2.0500000000001819
 20
-1.0
 30
0.0
 11
-2.0500000000001819
 21
-2.5499999999999545
 31
0.0
  0
LINE
  5
600
100
AcDbEntity
  8
0
  6
CONTINUOUS
 62
               4
100
AcDbLine
 10
2.0499999999999545
 20
-1.0
 30
0.0
 11
2.0499999999999545
 21
-2.5499999999999545
 31
0.0
  0
LINE
  5
601
100
AcDbEntity
  8
0
  6
CONTINUOUS
 62
               4
100
AcDbLine
 10
2.0499999999999545
 20
-1.0
 30
0.0
 11
1.5
 21
-0.4500000000000455
 31
0.0
  0
LINE
  5
602
100
AcDbEntity
  8
0
  6
CONTINUOUS
 62
               4
100
AcDbLine
 10
1.5
 20
-0.4500000000000455
 30
0.0
 11
1.5
 21
0.3999999999999773
 31
0.0
  0
LINE
  5
603
100
AcDbEntity
  8
0
  6
CONTINUOUS
 62
               4
100
AcDbLine
 10
1.5
 20
0.3999999999999773
 30
0.0
 11
2.25
 21
1.1499999999999773
 31
0.0
  0
LINE
  5
604
100
AcDbEntity
  8
0
  6
CONTINUOUS
 62
               4
100
AcDbLine
 10
2.25
 20
6.8999999999999773
 30
0.0
 11
2.25
 21
1.1499999999999773
 31
0.0
  0
LINE
  5
605
100
AcDbEntity
  8
0
  6
CENTER
 62
               2
100
AcDbLine
 10
0.0
 20
12.559999999999945
 30
0.0
 11
0.0
 21
-6.0599999999999454
 31
0.0
  0
LINE
  5
606
100
AcDbEntity
  8
0
  6
CONTINUOUS
 62
               4
100
AcDbLine
 10
-1.5
 20
0.0
 30
0.0
 11
1.5
 21
0.0
 31
0.0
  0
LINE
  5
607
100
AcDbEntity
  8
0
  6
CONTINUOUS
 62
               4
100
AcDbLine
 10
-2.0500000000001819
 20
-1.7999999999999545
 30
0.0
 11
2.0499999999999545
 21
-1.7999999999999545
 31
0.0
  0
LINE
  5
608
100
AcDbEntity
  8
0
  6
CONTINUOUS
 62
               4
100
AcDbLine
 10
-2.0500000000001819
 20
-2.6000000000000227
 30
0.0
 11
2.0499999999999545
 21
-2.6000000000000227
 31
0.0
  0
LINE
  5
609
100
AcDbEntity
  8
0
  6
CONTINUOUS
 62
               4
100
AcDbLine
 10
-2.25
 20
6.8999999999999773
 30
0.0
 11
2.25
 21
6.8999999999999773
 31
0.0
  0
LINE
  5
60A
100
AcDbEntity
  8
0
  6
CONTINUOUS
 62
               2
100
AcDbLine
 10
-2.1600000000000819
 20
8.6499999999999773
 30
0.0
 11
2.1599999999998545
 21
11.149999999999977
 31
0.0
  0
LINE
  5
60B
100
AcDbEntity
  8
0
  6
CONTINUOUS
 62
               4
100
AcDbLine
 10
-1.0199999999999818
 20
-4.0
 30
0.0
 11
1.0199999999999818
 21
-4.0
 31
0.0
  0
LINE
  5
60C
100
AcDbEntity
  8
0
  6
CONTINUOUS
 62
               4
100
AcDbLine
 10
1.0199999999999818
 20
-4.0
 30
0.0
 11
1.25
 21
-3.7699999999999818
 31
0.0
  0
LINE
  5
60D
100
AcDbEntity
  8
0
  6
CONTINUOUS
 62
               4
100
AcDbLine
 10
-1.0199999999999818
 20
-4.0
 30
0.0
 11
-1.25
 21
-3.7699999999999818
 31
0.0
  0
LINE
  5
60E
100
AcDbEntity
  8
0
  6
CONTINUOUS
 62
               4
100
AcDbLine
 10
-1.25
 20
-2.6000000000000227
 30
0.0
 11
-1.25
 21
-3.7699999999999818
 31
0.0
  0
LINE
  5
60F
100
AcDbEntity
  8
0
  6
CONTINUOUS
 62
               2
100
AcDbLine
 10
-1.0199999999999818
 20
-2.6000000000000227
 30
0.0
 11
-1.0199999999999818
 21
-4.0
 31
0.0
  0
LINE
  5
610
100
AcDbEntity
  8
0
  6
CONTINUOUS
 62
               2
100
AcDbLine
 10
1.0199999999999818
 20
-2.6000000000000227
 30
0.0
 11
1.0199999999999818
 21
-4.0
 31
0.0
  0
LINE
  5
611
100
AcDbEntity
  8
0
  6
CONTINUOUS
 62
               4
100
AcDbLine
 10
1.25
 20
-2.6000000000000227
 30
0.0
 11
1.25
 21
-3.7699999999999818
 31
0.0
  0
LINE
  5
612
100
AcDbEntity
  8
0
  6
CONTINUOUS
 62
               4
100
AcDbLine
 10
-1.25
 20
-3.7699999999999818
 30
0.0
 11
1.25
 21
-3.7699999999999818
 31
0.0
  0
LINE
  5
613
100
AcDbEntity
  8
0
  6
CONTINUOUS
 62
               4
100
AcDbLine
 10
-1.25
 20
0.5
 30
0.0
 11
-1.25
 21
0.0
 31
0.0
  0
LINE
  5
614
100
AcDbEntity
  8
0
  6
CONTINUOUS
 62
               2
100
AcDbLine
 10
-1.0199999999999818
 20
0.5
 30
0.0
 11
-1.0199999999999818
 21
0.0
 31
0.0
  0
LINE
  5
615
100
AcDbEntity
  8
0
  6
CONTINUOUS
 62
               2
100
AcDbLine
 10
1.0199999999999818
 20
0.5
 30
0.0
 11
1.0199999999999818
 21
0.0
 31
0.0
  0
LINE
  5
616
100
AcDbEntity
  8
0
  6
CONTINUOUS
 62
               4
100
AcDbLine
 10
1.25
 20
0.5
 30
0.0
 11
1.25
 21
0.0
 31
0.0
  0
LINE
  5
617
100
AcDbEntity
  8
0
  6
CONTINUOUS
 62
               4
100
AcDbLine
 10
-1.25
 20
0.5
 30
0.0
 11
1.25
 21
0.5
 31
0.0
  0
LINE
  5
618
100
AcDbEntity
  8
0
  6
CONTINUOUS
 62
               4
100
AcDbLine
 10
-1.3000000000001819
 20
9.1499999999999773
 30
0.0
 11
-1.3000000000001819
 21
6.8999999999999773
 31
0.0
  0
LINE
  5
619
100
AcDbEntity
  8
0
  6
CONTINUOUS
 62
               4
100
AcDbLine
 10
1.2999999999999545
 20
10.649999999999977
 30
0.0
 11
1.2999999999999545
 21
6.8999999999999773
 31
0.0
  0
ARC
  5
61A
100
AcDbEntity
  8
0
  6
CONTINUOUS
 62
               4
100
AcDbCircle
 10
0.0000022888195872
 20
-2.5499977111803673
 30
0.0
 40
2.0500022888209148
100
AcDbArc
 50
180.00006397051652
 51
269.99993602948348
  0
ARC
  5
61B
100
AcDbEntity
  8
0
  6
CONTINUOUS
 62
               4
100
AcDbCircle
 10
-0.0000022888198146
 20
-2.5499977111803673
 30
0.0
 40
2.0500022888209148
100
AcDbArc
 50
270.00006397051652
 51
359.99993602948348
  0
ENDBLK
  5
61C
100
AcDbEntity
  8
0
100
AcDbBlockEnd
  0
BLOCK
  5
61D
100
AcDbEntity
  8
0
100
AcDbBlockBegin
  2
MGAG6-20
 70
               0
 10
0.0
 20
0.0
 30
0.0
  3
MGAG6-20
  1

  0
LINE
  5
61E
100
AcDbEntity
  8
0
  6
CENTER
 62
               2
100
AcDbLine
 10
-1.3199999999999363
 20
0.0
 30
0.0
 11
23.579999999999927
 21
0.0
 31
0.0
  0
LINE
  5
61F
100
AcDbEntity
  8
0
  6
CONTINUOUS
 62
               4
100
AcDbLine
 10
0.0
 20
-1.5
 30
0.0
 11
16.559999999999945
 21
-1.5
 31
0.0
  0
LINE
  5
620
100
AcDbEntity
  8
0
  6
CONTINUOUS
 62
               4
100
AcDbLine
 10
0.0
 20
1.5
 30
0.0
 11
16.559999999999945
 21
1.5
 31
0.0
  0
LINE
  5
621
100
AcDbEntity
  8
0
  6
CONTINUOUS
 62
               4
100
AcDbLine
 10
0.0
 20
-2.0500000000000114
 30
0.0
 11
16.910000000000082
 21
-2.0500000000000114
 31
0.0
  0
LINE
  5
622
100
AcDbEntity
  8
0
  6
CONTINUOUS
 62
               4
100
AcDbLine
 10
0.0
 20
2.0500000000000114
 30
0.0
 11
16.910000000000082
 21
2.0500000000000114
 31
0.0
  0
LINE
  5
623
100
AcDbEntity
  8
0
  6
CONTINUOUS
 62
               4
100
AcDbLine
 10
0.0
 20
2.0500000000000114
 30
0.0
 11
0.0
 21
-2.0500000000000114
 31
0.0
  0
LINE
  5
624
100
AcDbEntity
  8
0
  6
CENTER
 62
               2
100
AcDbLine
 10
2.0
 20
2.8300000000000409
 30
0.0
 11
2.0
 21
-2.75
 31
0.0
  0
LINE
  5
625
100
AcDbEntity
  8
0
  6
CONTINUOUS
 62
               4
100
AcDbLine
 10
17.079999999999927
 20
2.25
 30
0.0
 11
22.0
 21
2.25
 31
0.0
  0
LINE
  5
626
100
AcDbEntity
  8
0
  6
CONTINUOUS
 62
               4
100
AcDbLine
 10
17.079999999999927
 20
-2.25
 30
0.0
 11
22.0
 21
-2.25
 31
0.0
  0
LINE
  5
627
100
AcDbEntity
  8
0
  6
CONTINUOUS
 62
               4
100
AcDbLine
 10
22.0
 20
2.25
 30
0.0
 11
22.0
 21
-2.25
 31
0.0
  0
LINE
  5
628
100
AcDbEntity
  8
0
  6
CONTINUOUS
 62
               4
100
AcDbLine
 10
1.3500000000001364
 20
-1.0699999999999932
 30
0.0
 11
3.0700000000001637
 21
0.6399999999999864
 31
0.0
  0
LINE
  5
629
100
AcDbEntity
  8
0
  6
CONTINUOUS
 62
               4
100
AcDbLine
 10
0.9300000000000637
 20
-0.6399999999999864
 30
0.0
 11
2.6400000000001
 21
1.0699999999999932
 31
0.0
  0
ARC
  5
62A
100
AcDbEntity
  8
0
  6
CONTINUOUS
 62
               4
100
AcDbCircle
 10
19.5
 20
0.0
 30
0.0
 40
3.3043758866085451
100
AcDbArc
 50
137.08479304051025
 51
222.91520695948975
  0
CIRCLE
  5
62B
100
AcDbEntity
  8
0
  6
CONTINUOUS
 62
               4
100
AcDbCircle
 10
2.0
 20
0.0
 30
0.0
 40
1.25
  0
CIRCLE
  5
62C
100
AcDbEntity
  8
0
  6
CONTINUOUS
 62
               4
100
AcDbCircle
 10
2.0
 20
0.0
 30
0.0
 40
1.3999996185302734
  0
CIRCLE
  5
62D
100
AcDbEntity
  8
0
  6
CONTINUOUS
 62
               4
100
AcDbCircle
 10
19.4073486328125
 20
0.0
 30
0.0
 40
1.2999992370605469
  0
CIRCLE
  5
62E
100
AcDbEntity
  8
0
  6
CONTINUOUS
 62
               4
100
AcDbCircle
 10
19.729156494140625
 20
-0.34100341796875
 30
0.0
 40
0.449999988079071
  0
CIRCLE
  5
62F
100
AcDbEntity
  8
0
  6
CONTINUOUS
 62
               4
100
AcDbCircle
 10
19.117279052734375
 20
0.3181533813476563
 30
0.0
 40
0.449999988079071
  0
CIRCLE
  5
630
100
AcDbEntity
  8
0
  6
CONTINUOUS
 62
               4
100
AcDbCircle
 10
19.729156494140625
 20
-0.34100341796875
 30
0.0
 40
0.25
  0
CIRCLE
  5
631
100
AcDbEntity
  8
0
  6
CONTINUOUS
 62
               4
100
AcDbCircle
 10
19.117279052734375
 20
0.3181533813476563
 30
0.0
 40
0.25
  0
ENDBLK
  5
632
100
AcDbEntity
  8
0
100
AcDbBlockEnd
  0
BLOCK
  5
633
100
AcDbEntity
  8
0
100
AcDbBlockBegin
  2
MGAG6-21
 70
               0
 10
0.0
 20
0.0
 30
0.0
  3
MGAG6-21
  1

  0
LINE
  5
634
100
AcDbEntity
  8
0
  6
CONTINUOUS
 62
               2
100
AcDbLine
 10
0.9500000000000455
 20
0.600135997275288
 30
0.0
 11
0.9500000000000455
 21
0.0
 31
0.0
  0
LINE
  5
635
100
AcDbEntity
  8
0
  6
CONTINUOUS
 62
               4
100
AcDbLine
 10
0.7514285714287325
 20
0.4001359972752425
 30
0.0
 11
0.9514285714285506
 21
0.600135997275288
 31
0.0
  0
LINE
  5
636
100
AcDbEntity
  8
0
  6
CONTINUOUS
 62
               4
100
AcDbLine
 10
0.7514285714287325
 20
0.0
 30
0.0
 11
0.7514285714287325
 21
0.4001359972752425
 31
0.0
  0
LINE
  5
637
100
AcDbEntity
  8
0
  6
CONTINUOUS
 62
               2
100
AcDbLine
 10
0.9500000000000455
 20
-2.5998640027247575
 30
0.0
 11
0.9500000000000455
 21
-4.0984354312961386
 31
0.0
  0
LINE
  5
638
100
AcDbEntity
  8
0
  6
CONTINUOUS
 62
               4
100
AcDbLine
 10
0.0
 20
-1.7998640027246893
 30
0.0
 11
0.0
 21
0.0
 31
0.0
  0
LINE
  5
639
100
AcDbEntity
  8
0
  6
CONTINUOUS
 62
               4
100
AcDbLine
 10
0.0
 20
-1.7998640027246893
 30
0.0
 11
0.0
 21
-2.6000000027247552
 31
0.0
  0
LINE
  5
63A
100
AcDbEntity
  8
0
  6
CONTINUOUS
 62
               4
100
AcDbLine
 10
0.7514285714287325
 20
-2.5998640027247575
 30
0.0
 11
0.7514285714287325
 21
-3.899864002724712
 31
0.0
  0
LINE
  5
63B
100
AcDbEntity
  8
0
  6
CONTINUOUS
 62
               4
100
AcDbLine
 10
1.2514285714287325
 20
-4.399864002724712
 30
0.0
 11
0.7514285714287325
 21
-3.899864002724712
 31
0.0
  0
LINE
  5
63C
100
AcDbEntity
  8
0
  6
CONTINUOUS
 62
               2
100
AcDbLine
 10
27.730000000000018
 20
-0.3299995223463839
 30
0.0
 11
30.230000000000018
 21
-4.6599995223464248
 31
0.0
  0
LINE
  5
63D
100
AcDbEntity
  8
0
  6
CONTINUOUS
 62
               2
100
AcDbLine
 10
26.230000000000018
 20
-0.3299995223463839
 30
0.0
 11
28.730000000000018
 21
-4.6599995223464248
 31
0.0
  0
LINE
  5
63E
100
AcDbEntity
  8
0
  6
CONTINUOUS
 62
               2
100
AcDbLine
 10
18.75
 20
-0.3299995223463839
 30
0.0
 11
21.25
 21
-4.6599995223464248
 31
0.0
  0
LINE
  5
63F
100
AcDbEntity
  8
0
  6
CONTINUOUS
 62
               2
100
AcDbLine
 10
17.25
 20
-0.3299995223463839
 30
0.0
 11
19.75
 21
-4.6599995223464248
 31
0.0
  0
LINE
  5
640
100
AcDbEntity
  8
0
  6
CENTER
 62
               2
100
AcDbLine
 10
22.269999995231728
 20
-1.8499995223463657
 30
0.0
 11
34.199999995231792
 21
-1.8499995223463657
 31
0.0
  0
LINE
  5
641
100
AcDbEntity
  8
0
  6
CENTER
 62
               2
100
AcDbLine
 10
22.319999995231683
 20
-3.1499995223464339
 30
0.0
 11
34.199999995231792
 21
-3.1499995223464339
 31
0.0
  0
LINE
  5
642
100
AcDbEntity
  8
0
  6
CONTINUOUS
 62
               4
100
AcDbLine
 10
33.999999995231747
 20
-1.5599995146297942
 30
0.0
 11
33.999999995231747
 21
-2.1399995234853577
 31
0.0
  0
LINE
  5
643
100
AcDbEntity
  8
0
  6
CONTINUOUS
 62
               4
100
AcDbLine
 10
30.999999995231747
 20
-1.559999522346402
 30
0.0
 11
34.000000000212594
 21
-1.559999522346402
 31
0.0
  0
LINE
  5
644
100
AcDbEntity
  8
0
  6
CONTINUOUS
 62
               4
100
AcDbLine
 10
30.999999995231747
 20
-2.139999522346443
 30
0.0
 11
34.000000000212594
 21
-2.139999522346443
 31
0.0
  0
LINE
  5
645
100
AcDbEntity
  8
0
  6
CONTINUOUS
 62
               4
100
AcDbLine
 10
30.999999995231747
 20
-2.3499995223463657
 30
0.0
 11
30.999999995231747
 21
-1.3499995223463657
 31
0.0
  0
LINE
  5
646
100
AcDbEntity
  8
0
  6
CONTINUOUS
 62
               4
100
AcDbLine
 10
28.896281755196469
 20
-2.3499995223463657
 30
0.0
 11
30.999999995231747
 21
-2.3499995223463657
 31
0.0
  0
LINE
  5
647
100
AcDbEntity
  8
0
  6
CONTINUOUS
 62
               4
100
AcDbLine
 10
28.318914549653755
 20
-1.3499995223463657
 30
0.0
 11
30.999999995231747
 21
-1.3499995223463657
 31
0.0
  0
LINE
  5
648
100
AcDbEntity
  8
0
  6
CONTINUOUS
 62
               4
100
AcDbLine
 10
23.999999995231747
 20
-2.3499995223463657
 30
0.0
 11
27.396281755196469
 21
-2.3499995223463657
 31
0.0
  0
LINE
  5
649
100
AcDbEntity
  8
0
  6
CONTINUOUS
 62
               4
100
AcDbLine
 10
23.999999995231747
 20
-1.3499995223463657
 30
0.0
 11
26.818914549653528
 21
-1.3499995223463657
 31
0.0
  0
LINE
  5
64A
100
AcDbEntity
  8
0
  6
CONTINUOUS
 62
               4
100
AcDbLine
 10
30.999999995231747
 20
-3.4399995223463975
 30
0.0
 11
34.000000000212594
 21
-3.4399995223463975
 31
0.0
  0
LINE
  5
64B
100
AcDbEntity
  8
0
  6
CONTINUOUS
 62
               4
100
AcDbLine
 10
30.999999995231747
 20
-2.8599995223464703
 30
0.0
 11
34.000000000212594
 21
-2.8599995223464703
 31
0.0
  0
LINE
  5
64C
100
AcDbEntity
  8
0
  6
CONTINUOUS
 62
               4
100
AcDbLine
 10
33.999999995231747
 20
-3.4399995300630053
 30
0.0
 11
33.999999995231747
 21
-2.8599995212074418
 31
0.0
  0
LINE
  5
64D
100
AcDbEntity
  8
0
  6
CONTINUOUS
 62
               4
100
AcDbLine
 10
29.069491916859079
 20
-2.6499995223464339
 30
0.0
 11
30.999999995231747
 21
-2.6499995223464339
 31
0.0
  0
LINE
  5
64E
100
AcDbEntity
  8
0
  6
CONTINUOUS
 62
               4
100
AcDbLine
 10
29.64685912240202
 20
-3.6499995223464339
 30
0.0
 11
30.999999995231747
 21
-3.6499995223464339
 31
0.0
  0
LINE
  5
64F
100
AcDbEntity
  8
0
  6
CONTINUOUS
 62
               4
100
AcDbLine
 10
30.999999995231747
 20
-2.6499995223464339
 30
0.0
 11
30.999999995231747
 21
-3.6499995223464339
 31
0.0
  0
LINE
  5
650
100
AcDbEntity
  8
0
  6
CONTINUOUS
 62
               4
100
AcDbLine
 10
23.999999995231747
 20
-2.6499995223464339
 30
0.0
 11
27.569491916859079
 21
-2.6499995223464339
 31
0.0
  0
LINE
  5
651
100
AcDbEntity
  8
0
  6
CONTINUOUS
 62
               4
100
AcDbLine
 10
23.999999995231747
 20
-3.6499995223464339
 30
0.0
 11
28.146859122401793
 21
-3.6499995223464339
 31
0.0
  0
LINE
  5
652
100
AcDbEntity
  8
0
  6
CONTINUOUS
 62
               2
100
AcDbLine
 10
3.0500000000001819
 20
0.600135997275288
 30
0.0
 11
3.0500000000001819
 21
0.0
 31
0.0
  0
LINE
  5
653
100
AcDbEntity
  8
0
  6
CONTINUOUS
 62
               4
100
AcDbLine
 10
3.0514285714286871
 20
0.600135997275288
 30
0.0
 11
3.2514285714287325
 21
0.4001359972752425
 31
0.0
  0
LINE
  5
654
100
AcDbEntity
  8
0
  6
CONTINUOUS
 62
               4
100
AcDbLine
 10
3.2514285714287325
 20
0.4001359972752425
 30
0.0
 11
3.2514285714287325
 21
0.0
 31
0.0
  0
LINE
  5
655
100
AcDbEntity
  8
0
  6
CONTINUOUS
 62
               2
100
AcDbLine
 10
3.0500000000001819
 20
-2.5998640027247575
 30
0.0
 11
3.0500000000001819
 21
-4.1012925741532626
 31
0.0
  0
LINE
  5
656
100
AcDbEntity
  8
0
  6
CENTER
 62
               2
100
AcDbLine
 10
6.0
 20
-6.0904161991768433
 30
0.0
 11
6.0
 21
-3.6810090657418186
 31
0.0
  0
LINE
  5
657
100
AcDbEntity
  8
0
  6
CENTER
 62
               2
100
AcDbLine
 10
2.0
 20
1.2864823084402133
 30
0.0
 11
2.0
 21
-5.0670362493540324
 31
0.0
  0
LINE
  5
658
100
AcDbEntity
  8
0
  6
CONTINUOUS
 62
               4
100
AcDbLine
 10
4.0
 20
-1.800000002724687
 30
0.0
 11
4.0
 21
-2.6000000027247552
 31
0.0
  0
LINE
  5
659
100
AcDbEntity
  8
0
  6
CONTINUOUS
 62
               4
100
AcDbLine
 10
3.2514285714287325
 20
-3.899864002724712
 30
0.0
 11
2.7514285714287325
 21
-4.399864002724712
 31
0.0
  0
LINE
  5
65A
100
AcDbEntity
  8
0
  6
CONTINUOUS
 62
               4
100
AcDbLine
 10
3.2514285714287325
 20
-2.5998640027247575
 30
0.0
 11
3.2514285714287325
 21
-3.899864002724712
 31
0.0
  0
LINE
  5
65B
100
AcDbEntity
  8
0
  6
CONTINUOUS
 62
               4
100
AcDbLine
 10
4.3000000000001819
 20
-1.800000002724687
 30
0.0
 11
4.3000000000001819
 21
-4.5999995223463657
 31
0.0
  0
LINE
  5
65C
100
AcDbEntity
  8
0
  6
CONTINUOUS
 62
               4
100
AcDbLine
 10
15.5
 20
-4.5999995223463657
 30
0.0
 11
15.5
 21
0.0
 31
0.0
  0
LINE
  5
65D
100
AcDbEntity
  8
0
  6
CONTINUOUS
 62
               4
100
AcDbLine
 10
23.999999995231747
 20
-1.1999995223463884
 30
0.0
 11
23.999999995231747
 21
-3.7999995223464111
 31
0.0
  0
LINE
  5
65E
100
AcDbEntity
  8
0
  6
CONTINUOUS
 62
               4
100
AcDbLine
 10
4.2999999986377588
 20
-4.5999995223463657
 30
0.0
 11
15.499999995231747
 21
-4.5999995223463657
 31
0.0
  0
LINE
  5
65F
100
AcDbEntity
  8
0
  6
CONTINUOUS
 62
               4
100
AcDbLine
 10
15.5
 20
-1.1999995223463884
 30
0.0
 11
17.752309468822205
 21
-1.1999995223463884
 31
0.0
  0
LINE
  5
660
100
AcDbEntity
  8
0
  6
CONTINUOUS
 62
               4
100
AcDbLine
 10
15.5
 20
-3.7999995223464111
 30
0.0
 11
19.253464203233307
 21
-3.7999995223464111
 31
0.0
  0
LINE
  5
661
100
AcDbEntity
  8
0
  6
CONTINUOUS
 62
               4
100
AcDbLine
 10
19.252309468822205
 20
-1.1999995223463884
 30
0.0
 11
23.999999995231747
 21
-1.1999995223463884
 31
0.0
  0
LINE
  5
662
100
AcDbEntity
  8
0
  6
CONTINUOUS
 62
               4
100
AcDbLine
 10
20.753464203233307
 20
-3.7999995223464111
 30
0.0
 11
23.999999995231747
 21
-3.7999995223464111
 31
0.0
  0
LINE
  5
663
100
AcDbEntity
  8
0
  6
CENTER
 62
               2
100
AcDbLine
 10
14.651603608812593
 20
-2.4999995223463429
 30
0.0
 11
33.252631006551155
 21
-2.4999995223463429
 31
0.0
  0
LINE
  5
664
100
AcDbEntity
  8
0
  6
CONTINUOUS
 62
               4
100
AcDbLine
 10
-0.0000000047682533
 20
0.0
 30
0.0
 11
15.5
 21
0.0
 31
0.0
  0
LINE
  5
665
100
AcDbEntity
  8
0
  6
CONTINUOUS
 62
               4
100
AcDbLine
 10
-0.0000000047682533
 20
-0.5499999965938969
 30
0.0
 11
15.5
 21
-0.5499999965938969
 31
0.0
  0
LINE
  5
666
100
AcDbEntity
  8
0
  6
CONTINUOUS
 62
               4
100
AcDbLine
 10
-0.0000000047682533
 20
-1.1000000027247552
 30
0.0
 11
15.5
 21
-1.1000000027247552
 31
0.0
  0
LINE
  5
667
100
AcDbEntity
  8
0
  6
CONTINUOUS
 62
               4
100
AcDbLine
 10
-0.0000000047682533
 20
-2.6000000027247552
 30
0.0
 11
3.9999999952317467
 21
-2.6000000027247552
 31
0.0
  0
LINE
  5
668
100
AcDbEntity
  8
0
  6
CONTINUOUS
 62
               4
100
AcDbLine
 10
-0.0000000047682533
 20
-1.800000002724687
 30
0.0
 11
4.2999999986377588
 21
-1.800000002724687
 31
0.0
  0
LINE
  5
669
100
AcDbEntity
  8
0
  6
CONTINUOUS
 62
               4
100
AcDbLine
 10
1.2514285714287325
 20
-4.399864002724712
 30
0.0
 11
2.7514285714287325
 21
-4.399864002724712
 31
0.0
  0
LINE
  5
66A
100
AcDbEntity
  8
0
  6
CONTINUOUS
 62
               2
100
AcDbLine
 10
0.7514285714287325
 20
-3.899864002724712
 30
0.0
 11
3.2514285714287325
 21
-3.899864002724712
 31
0.0
  0
LINE
  5
66B
100
AcDbEntity
  8
0
  6
CONTINUOUS
 62
               4
100
AcDbLine
 10
0.9514285714285506
 20
0.600135997275288
 30
0.0
 11
3.0514285714286871
 21
0.600135997275288
 31
0.0
  0
LINE
  5
66C
100
AcDbEntity
  8
0
  6
CONTINUOUS
 62
               4
100
AcDbLine
 10
0.7514285714287325
 20
0.4001359972752425
 30
0.0
 11
3.2514285714287325
 21
0.4001359972752425
 31
0.0
  0
ENDBLK
  5
66D
100
AcDbEntity
  8
0
100
AcDbBlockEnd
  0
BLOCK
  5
66E
100
AcDbEntity
  8
0
100
AcDbBlockBegin
  2
MGAG6-22
 70
               0
 10
0.0
 20
0.0
 30
0.0
  3
MGAG6-22
  1

  0
LINE
  5
66F
100
AcDbEntity
  8
0
  6
CONTINUOUS
 62
               2
100
AcDbLine
 10
-1.0499999999999545
 20
0.0000000019073922
 30
0.0
 11
-1.0499999989097688
 21
0.6001360019074127
 31
0.0
  0
LINE
  5
670
100
AcDbEntity
  8
0
  6
CONTINUOUS
 62
               2
100
AcDbLine
 10
-1.0500000074424314
 20
-4.0970068552353949
 30
0.0
 11
-1.0500000047230209
 21
-2.599999998092517
 31
0.0
  0
LINE
  5
671
100
AcDbEntity
  8
0
  6
CONTINUOUS
 62
               4
100
AcDbLine
 10
-1.249999999273129
 20
0.40013600227068
 30
0.0
 11
-1.0499999989097688
 21
0.6001360019074127
 31
0.0
  0
LINE
  5
672
100
AcDbEntity
  8
0
  6
CONTINUOUS
 62
               4
100
AcDbLine
 10
-1.25
 20
0.0000000022707051
 30
0.0
 11
-1.249999999273129
 21
0.40013600227068
 31
0.0
  0
LINE
  5
673
100
AcDbEntity
  8
0
  6
CONTINUOUS
 62
               4
100
AcDbLine
 10
-2.0500000019981748
 20
-1.0999999962759528
 30
0.0
 11
-2.0500000046293501
 21
-2.5484354248473817
 31
0.0
  0
LINE
  5
674
100
AcDbEntity
  8
0
  6
CONTINUOUS
 62
               4
100
AcDbLine
 10
-2.0500000019981748
 20
-1.0999999962759528
 30
0.0
 11
-1.50142857242502
 21
-0.5485714258440082
 31
0.0
  0
LINE
  5
675
100
AcDbEntity
  8
0
  6
CONTINUOUS
 62
               4
100
AcDbLine
 10
-1.2500000047230664
 20
-2.5999999977292041
 30
0.0
 11
-1.2500000070791621
 21
-3.8970068548720374
 31
0.0
  0
LINE
  5
676
100
AcDbEntity
  8
0
  6
CONTINUOUS
 62
               4
100
AcDbLine
 10
-1.5000000009939072
 20
-0.5471354139417599
 30
0.0
 11
-1.5
 21
0.0000000054496921
 31
0.0
  0
LINE
  5
677
100
AcDbEntity
  8
0
  6
CONTINUOUS
 62
               2
100
AcDbLine
 10
1.0500000000001819
 20
-0.0000000019073922
 30
0.0
 11
1.0500000010903676
 21
0.6001359980926282
 31
0.0
  0
LINE
  5
678
100
AcDbEntity
  8
0
  6
CONTINUOUS
 62
               2
100
AcDbLine
 10
1.049999992557705
 20
-4.0970068590501798
 30
0.0
 11
1.0499999952771155
 21
-2.6000000019073011
 31
0.0
  0
LINE
  5
679
100
AcDbEntity
  8
0
  6
CONTINUOUS
 62
               4
100
AcDbLine
 10
-0.7471428651353982
 20
-4.399863998642747
 30
0.0
 11
0.7471428491503538
 21
-4.3998640013572121
 31
0.0
  0
LINE
  5
67A
100
AcDbEntity
  8
0
  6
CENTER
 62
               2
100
AcDbLine
 10
-0.0000000092045944
 20
-5.0670362466291863
 30
0.0
 11
0.0000000023369786
 21
1.2864823111649457
 31
0.0
  0
LINE
  5
67B
100
AcDbEntity
  8
0
  6
CONTINUOUS
 62
               4
100
AcDbLine
 10
1.0500000010903676
 20
0.6001359980926282
 30
0.0
 11
1.250000000726871
 21
0.4001359977292699
 31
0.0
  0
LINE
  5
67C
100
AcDbEntity
  8
0
  6
CONTINUOUS
 62
               4
100
AcDbLine
 10
1.250000000726871
 20
0.4001359977292699
 30
0.0
 11
1.25
 21
-0.0000000022707051
 31
0.0
  0
LINE
  5
67D
100
AcDbEntity
  8
0
  6
CONTINUOUS
 62
               4
100
AcDbLine
 10
2.0499999980019616
 20
-1.1000000037238653
 30
0.0
 11
2.0499999953707864
 21
-2.5484354322952942
 31
0.0
  0
LINE
  5
67E
100
AcDbEntity
  8
0
  6
CONTINUOUS
 62
               4
100
AcDbLine
 10
1.2499999952771788
 20
-2.59986400227073
 30
0.0
 11
1.2499999929208379
 21
-3.8970068594134464
 31
0.0
  0
LINE
  5
67F
100
AcDbEntity
  8
0
  6
CONTINUOUS
 62
               4
100
AcDbLine
 10
1.4999999990008916
 20
-0.5500000027248007
 30
0.0
 11
1.5
 21
0.0000000000000001
 31
0.0
  0
LINE
  5
680
100
AcDbEntity
  8
0
  6
CONTINUOUS
 62
               4
100
AcDbLine
 10
1.4999999928702152
 20
-0.5499999965940106
 30
0.0
 11
2.0499999980019616
 21
-1.1000000037238653
 31
0.0
  0
LINE
  5
681
100
AcDbEntity
  8
0
  6
CONTINUOUS
 62
               4
100
AcDbLine
 10
1.2499999929208379
 20
-3.8970068594134464
 30
0.0
 11
0.7471428491503538
 21
-4.3998640013572121
 31
0.0
  0
LINE
  5
682
100
AcDbEntity
  8
0
  6
CONTINUOUS
 62
               4
100
AcDbLine
 10
-1.0499999989097688
 20
0.6001360019074127
 30
0.0
 11
1.0500000010903676
 21
0.6001359980926282
 31
0.0
  0
LINE
  5
683
100
AcDbEntity
  8
0
  6
CONTINUOUS
 62
               4
100
AcDbLine
 10
-1.249999999273129
 20
0.40013600227068
 30
0.0
 11
1.250000000726871
 21
0.4001359977292699
 31
0.0
  0
LINE
  5
684
100
AcDbEntity
  8
0
  6
CONTINUOUS
 62
               4
100
AcDbLine
 10
-1.5014285714285052
 20
0.0000000027274412
 30
0.0
 11
1.5
 21
-0.000000002724846
 31
0.0
  0
LINE
  5
685
100
AcDbEntity
  8
0
  6
CONTINUOUS
 62
               4
100
AcDbLine
 10
-1.2500000070791621
 20
-3.8970068548720374
 30
0.0
 11
1.2499999929208379
 21
-3.8970068594134464
 31
0.0
  0
ARC
  5
686
100
AcDbEntity
  8
0
  6
CONTINUOUS
 62
               4
100
AcDbCircle
 10
-0.0000000046322377
 20
-2.5499989233983342
 30
0.0
 40
2.050000596223347
100
AcDbArc
 50
179.95630153623205
 51
359.99999989591851
  0
LINE
  5
687
100
AcDbEntity
  8
0
  6
CONTINUOUS
 62
               4
100
AcDbLine
 10
-2.0500000032697692
 20
-1.7999999962759983
 30
0.0
 11
2.0499999967303673
 21
-1.8000000037239108
 31
0.0
  0
LINE
  5
688
100
AcDbEntity
  8
0
  6
CONTINUOUS
 62
               4
100
AcDbLine
 10
-2.0500000047230209
 20
-2.5999999962759528
 30
0.0
 11
2.0493907186029752
 21
-2.6000000037227586
 31
0.0
  0
LINE
  5
689
100
AcDbEntity
  8
0
  6
CONTINUOUS
 62
               4
100
AcDbLine
 10
-0.7471428651353982
 20
-4.399863998642747
 30
0.0
 11
-1.2500000070791621
 21
-3.8970068548720374
 31
0.0
  0
ENDBLK
  5
68A
100
AcDbEntity
  8
0
100
AcDbBlockEnd
  0
BLOCK
  5
68B
100
AcDbEntity
  8
0
100
AcDbBlockBegin
  2
MGAG6-23
 70
               0
 10
0.0
 20
0.0
 30
0.0
  3
MGAG6-23
  1

  0
LINE
  5
68C
100
AcDbEntity
  8
0
  6
CENTER
 62
               2
100
AcDbLine
 10
-1.4104017530169131
 20
0.0
 30
0.0
 11
21.502886840796009
 21
0.0
 31
0.0
  0
LINE
  5
68D
100
AcDbEntity
  8
0
  6
CONTINUOUS
 62
               2
100
AcDbLine
 10
17.250000004768253
 20
2.1700000000000159
 30
0.0
 11
19.750000004768253
 21
-2.1599999999999682
 31
0.0
  0
LINE
  5
68E
100
AcDbEntity
  8
0
  6
CONTINUOUS
 62
               4
100
AcDbLine
 10
15.500000004768253
 20
-1.3000000000000114
 30
0.0
 11
19.25346420800156
 21
-1.3000000000000114
 31
0.0
  0
LINE
  5
68F
100
AcDbEntity
  8
0
  6
CONTINUOUS
 62
               4
100
AcDbLine
 10
15.500000004768253
 20
1.3000000000000114
 30
0.0
 11
17.752309473590458
 21
1.3000000000000114
 31
0.0
  0
LINE
  5
690
100
AcDbEntity
  8
0
  6
CENTER
 62
               2
100
AcDbLine
 10
2.0000000047682533
 20
2.9428571428571786
 30
0.0
 11
2.0000000047682533
 21
-3.2999846734234666
 31
0.0
  0
LINE
  5
691
100
AcDbEntity
  8
0
  6
CONTINUOUS
 62
               4
100
AcDbLine
 10
3.9000000047683443
 20
-1.5
 30
0.0
 11
3.9000000047683443
 21
1.5
 31
0.0
  0
LINE
  5
692
100
AcDbEntity
  8
0
  6
CONTINUOUS
 62
               4
100
AcDbLine
 10
10.400000004768344
 20
-1.5
 30
0.0
 11
10.400000004768344
 21
1.5
 31
0.0
  0
LINE
  5
693
100
AcDbEntity
  8
0
  6
CONTINUOUS
 62
               4
100
AcDbLine
 10
8.0000000047682533
 20
-0.6000000000000227
 30
0.0
 11
8.0000000047682533
 21
0.8999999999999773
 31
0.0
  0
LINE
  5
694
100
AcDbEntity
  8
0
  6
CONTINUOUS
 62
               4
100
AcDbLine
 10
9.6000000047683898
 20
-0.6000000000000227
 30
0.0
 11
9.6000000047683898
 21
0.8999999999999773
 31
0.0
  0
LINE
  5
695
100
AcDbEntity
  8
0
  6
CONTINUOUS
 62
               4
100
AcDbLine
 10
0.0
 20
-2.0500000000000114
 30
0.0
 11
0.0
 21
2.0500000000000114
 31
0.0
  0
LINE
  5
696
100
AcDbEntity
  8
0
  6
CONTINUOUS
 62
               4
100
AcDbLine
 10
15.500000004768253
 20
-2.0500000000000114
 30
0.0
 11
15.500000004768253
 21
2.0500000000000114
 31
0.0
  0
LINE
  5
697
100
AcDbEntity
  8
0
  6
CONTINUOUS
 62
               4
100
AcDbLine
 10
0.0
 20
1.5
 30
0.0
 11
15.500000004768253
 21
1.5
 31
0.0
  0
LINE
  5
698
100
AcDbEntity
  8
0
  6
CONTINUOUS
 62
               4
100
AcDbLine
 10
0.0
 20
-1.5
 30
0.0
 11
15.500000004768253
 21
-1.5
 31
0.0
  0
CIRCLE
  5
699
100
AcDbEntity
  8
0
  6
CONTINUOUS
 62
               4
100
AcDbCircle
 10
2.0000000047682533
 20
0.0
 30
0.0
 40
1.3999999999999997
  0
CIRCLE
  5
69A
100
AcDbEntity
  8
0
  6
CONTINUOUS
 62
               4
100
AcDbCircle
 10
2.0000000047682533
 20
0.0
 30
0.0
 40
1.25
  0
CIRCLE
  5
69B
100
AcDbEntity
  8
0
  6
CONTINUOUS
 62
               2
100
AcDbCircle
 10
2.0000000047682533
 20
0.0
 30
0.0
 40
1.05
  0
LINE
  5
69C
100
AcDbEntity
  8
0
  6
CONTINUOUS
 62
               4
100
AcDbLine
 10
0.9571978986753038
 20
-0.6892486978790089
 30
0.0
 11
2.6892487026473191
 21
1.0428021060930632
 31
0.0
  0
LINE
  5
69D
100
AcDbEntity
  8
0
  6
CONTINUOUS
 62
               4
100
AcDbLine
 10
1.3107513189315796
 20
-1.0428020722525844
 30
0.0
 11
3.0428021124430416
 21
0.6892487212589913
 31
0.0
  0
LINE
  5
69E
100
AcDbEntity
  8
0
  6
CONTINUOUS
 62
               4
100
AcDbLine
 10
8.0000000047682533
 20
0.8999999999999773
 30
0.0
 11
9.6000000047683898
 21
0.8999999999999773
 31
0.0
  0
LINE
  5
69F
100
AcDbEntity
  8
0
  6
CONTINUOUS
 62
               4
100
AcDbLine
 10
8.0000000047682533
 20
-0.6000000000000227
 30
0.0
 11
9.6000000047683898
 21
-0.6000000000000227
 31
0.0
  0
LINE
  5
6A0
100
AcDbEntity
  8
0
  6
CONTINUOUS
 62
               4
100
AcDbLine
 10
0.0
 20
2.0500000000000114
 30
0.0
 11
15.500000004768253
 21
2.0500000000000114
 31
0.0
  0
LINE
  5
6A1
100
AcDbEntity
  8
0
  6
CONTINUOUS
 62
               4
100
AcDbLine
 10
0.0
 20
-2.0500000000000114
 30
0.0
 11
15.500000004768253
 21
-2.0500000000000114
 31
0.0
  0
ENDBLK
  5
6A2
100
AcDbEntity
  8
0
100
AcDbBlockEnd
  0
BLOCK
  5
6A3
100
AcDbEntity
  8
0
100
AcDbBlockBegin
  2
MGAG6-24
 70
               0
 10
0.0
 20
0.0
 30
0.0
  3
MGAG6-24
  1

  0
LINE
  5
6A4
100
AcDbEntity
  8
0
  6
CONTINUOUS
 62
               4
100
AcDbLine
 10
11.200000000000045
 20
9.6445121127279663
 30
0.0
 11
11.200000000000045
 21
14.397976315961273
 31
0.0
  0
LINE
  5
6A5
100
AcDbEntity
  8
0
  6
CONTINUOUS
 62
               4
100
AcDbLine
 10
13.800000000000182
 20
11.145666847139069
 30
0.0
 11
13.800000000000182
 21
14.397976315961273
 31
0.0
  0
LINE
  5
6A6
100
AcDbEntity
  8
0
  6
CONTINUOUS
 62
               2
100
AcDbLine
 10
10.340000000000146
 20
16.627976315961291
 30
0.0
 11
14.670000000000073
 21
19.127976315961291
 31
0.0
  0
LINE
  5
6A7
100
AcDbEntity
  8
0
  6
CONTINUOUS
 62
               2
100
AcDbLine
 10
10.340000000000146
 20
18.127976315961291
 30
0.0
 11
14.670000000000073
 21
20.627976315961291
 31
0.0
  0
LINE
  5
6A8
100
AcDbEntity
  8
0
  6
CONTINUOUS
 62
               2
100
AcDbLine
 10
10.340000000000146
 20
7.647976315961273
 30
0.0
 11
14.670000000000073
 21
10.147976315961273
 31
0.0
  0
LINE
  5
6A9
100
AcDbEntity
  8
0
  6
CONTINUOUS
 62
               2
100
AcDbLine
 10
10.340000000000146
 20
9.147976315961273
 30
0.0
 11
14.670000000000073
 21
11.647976315961273
 31
0.0
  0
LINE
  5
6AA
100
AcDbEntity
  8
0
  6
CONTINUOUS
 62
               4
100
AcDbLine
 10
10.400000005449783
 20
0.9479762348988743
 30
0.0
 11
12.050955663295554
 21
1.4979762296661647
 31
0.0
  0
LINE
  5
6AB
100
AcDbEntity
  8
0
  6
CONTINUOUS
 62
               4
100
AcDbLine
 10
12.050955663295554
 20
1.4979762296661647
 30
0.0
 11
12.050955663295554
 21
5.897976315961273
 31
0.0
  0
LINE
  5
6AC
100
AcDbEntity
  8
0
  6
CONTINUOUS
 62
               4
100
AcDbLine
 10
12.949044336704901
 20
4.8979763118740038
 30
0.0
 11
12.949044336704901
 21
5.8979763118740038
 31
0.0
  0
LINE
  5
6AD
100
AcDbEntity
  8
0
  6
CONTINUOUS
 62
               4
100
AcDbLine
 10
12.949044336704901
 20
4.897976315961273
 30
0.0
 11
15.0
 21
4.897976315961273
 31
0.0
  0
LINE
  5
6AE
100
AcDbEntity
  8
0
  6
CONTINUOUS
 62
               4
100
AcDbLine
 10
14.600000000000136
 20
4.897976315961273
 30
0.0
 11
14.600000000000136
 21
5.897976315961273
 31
0.0
  0
LINE
  5
6AF
100
AcDbEntity
  8
0
  6
CONTINUOUS
 62
               4
100
AcDbLine
 10
10.400000000000091
 20
-0.0020236840388179
 30
0.0
 11
10.400000000000091
 21
5.897976315961273
 31
0.0
  0
LINE
  5
6B0
100
AcDbEntity
  8
0
  6
CONTINUOUS
 62
               4
100
AcDbLine
 10
10.400000000000091
 20
5.897976315961273
 30
0.0
 11
14.600000000000136
 21
5.897976315961273
 31
0.0
  0
LINE
  5
6B1
100
AcDbEntity
  8
0
  6
CONTINUOUS
 62
               4
100
AcDbLine
 10
15.0
 20
3.897976315961273
 30
0.0
 11
10.400000000000091
 21
3.897976315961273
 31
0.0
  0
LINE
  5
6B2
100
AcDbEntity
  8
0
  6
CENTER
 62
               2
100
AcDbLine
 10
12.5
 20
5.3933952003748118
 30
0.0
 11
12.5
 21
17.186465534727631
 31
0.0
  0
LINE
  5
6B3
100
AcDbEntity
  8
0
  6
CONTINUOUS
 62
               2
100
AcDbLine
 10
0.9500000000000455
 20
0.5979763159613185
 30
0.0
 11
0.9500000000000455
 21
-0.0020236840388179
 31
0.0
  0
LINE
  5
6B4
100
AcDbEntity
  8
0
  6
CONTINUOUS
 62
               2
100
AcDbLine
 10
3.0500000000001819
 20
0.5979763159613185
 30
0.0
 11
3.0500000000001819
 21
-0.0020236840388179
 31
0.0
  0
LINE
  5
6B5
100
AcDbEntity
  8
0
  6
CONTINUOUS
 62
               4
100
AcDbLine
 10
0.7514285714287325
 20
0.397976315961273
 30
0.0
 11
3.2514285714287325
 21
0.397976315961273
 31
0.0
  0
LINE
  5
6B6
100
AcDbEntity
  8
0
  6
CONTINUOUS
 62
               4
100
AcDbLine
 10
3.0514285714286871
 20
0.5979763159613185
 30
0.0
 11
3.2514285714287325
 21
0.397976315961273
 31
0.0
  0
LINE
  5
6B7
100
AcDbEntity
  8
0
  6
CONTINUOUS
 62
               4
100
AcDbLine
 10
0.7514285714287325
 20
0.397976315961273
 30
0.0
 11
0.951428571428778
 21
0.5979763159613185
 31
0.0
  0
LINE
  5
6B8
100
AcDbEntity
  8
0
  6
CONTINUOUS
 62
               4
100
AcDbLine
 10
3.2514285714287325
 20
0.397976315961273
 30
0.0
 11
3.2514285714287325
 21
-0.0020236840388179
 31
0.0
  0
LINE
  5
6B9
100
AcDbEntity
  8
0
  6
CONTINUOUS
 62
               4
100
AcDbLine
 10
0.7514285714287325
 20
-0.0020236840388179
 30
0.0
 11
0.7514285714287325
 21
0.397976315961273
 31
0.0
  0
LINE
  5
6BA
100
AcDbEntity
  8
0
  6
CONTINUOUS
 62
               2
100
AcDbLine
 10
0.9500000000000455
 20
-2.602023684038727
 30
0.0
 11
0.9500000000000455
 21
-4.1005951126102218
 31
0.0
  0
LINE
  5
6BB
100
AcDbEntity
  8
0
  6
CONTINUOUS
 62
               2
100
AcDbLine
 10
3.0500000000001819
 20
-2.602023684038727
 30
0.0
 11
3.0500000000001819
 21
-4.1034522554673458
 31
0.0
  0
LINE
  5
6BC
100
AcDbEntity
  8
0
  6
CONTINUOUS
 62
               4
100
AcDbLine
 10
0.951428571428778
 20
0.5979763159613185
 30
0.0
 11
3.0514285714286871
 21
0.5979763159613185
 31
0.0
  0
LINE
  5
6BD
100
AcDbEntity
  8
0
  6
CENTER
 62
               2
100
AcDbLine
 10
6.0
 20
-6.0925758804909265
 30
0.0
 11
6.0
 21
-3.6831687470557881
 31
0.0
  0
LINE
  5
6BE
100
AcDbEntity
  8
0
  6
CONTINUOUS
 62
               4
100
AcDbLine
 10
0.0
 20
-1.8020236840387724
 30
0.0
 11
0.0
 21
0.0
 31
0.0
  0
LINE
  5
6BF
100
AcDbEntity
  8
0
  6
CENTER
 62
               2
100
AcDbLine
 10
2.0
 20
1.2843226271262438
 30
0.0
 11
2.0
 21
-5.0691959306681156
 31
0.0
  0
LINE
  5
6C0
100
AcDbEntity
  8
0
  6
CONTINUOUS
 62
               4
100
AcDbLine
 10
4.0
 20
-1.8020236840387724
 30
0.0
 11
4.0
 21
-2.602023684038727
 31
0.0
  0
LINE
  5
6C1
100
AcDbEntity
  8
0
  6
CONTINUOUS
 62
               4
100
AcDbLine
 10
0.0
 20
-1.8020236840387724
 30
0.0
 11
0.0
 21
-2.602023684038727
 31
0.0
  0
LINE
  5
6C2
100
AcDbEntity
  8
0
  6
CONTINUOUS
 62
               4
100
AcDbLine
 10
0.7514285714287325
 20
-2.602023684038727
 30
0.0
 11
0.7514285714287325
 21
-3.9020236840386815
 31
0.0
  0
LINE
  5
6C3
100
AcDbEntity
  8
0
  6
CONTINUOUS
 62
               2
100
AcDbLine
 10
0.7514285714287325
 20
-3.9020236840386815
 30
0.0
 11
3.2514285714287325
 21
-3.9020236840386815
 31
0.0
  0
LINE
  5
6C4
100
AcDbEntity
  8
0
  6
CONTINUOUS
 62
               4
100
AcDbLine
 10
1.2514285714287325
 20
-4.4020236840386815
 30
0.0
 11
0.7514285714287325
 21
-3.9020236840386815
 31
0.0
  0
LINE
  5
6C5
100
AcDbEntity
  8
0
  6
CONTINUOUS
 62
               4
100
AcDbLine
 10
1.2514285714287325
 20
-4.4020236840386815
 30
0.0
 11
2.7514285714287325
 21
-4.4020236840386815
 31
0.0
  0
LINE
  5
6C6
100
AcDbEntity
  8
0
  6
CONTINUOUS
 62
               4
100
AcDbLine
 10
3.2514285714287325
 20
-3.9020236840386815
 30
0.0
 11
2.7514285714287325
 21
-4.4020236840386815
 31
0.0
  0
LINE
  5
6C7
100
AcDbEntity
  8
0
  6
CONTINUOUS
 62
               4
100
AcDbLine
 10
3.2514285714287325
 20
-2.602023684038727
 30
0.0
 11
3.2514285714287325
 21
-3.9020236840386815
 31
0.0
  0
LINE
  5
6C8
100
AcDbEntity
  8
0
  6
CONTINUOUS
 62
               4
100
AcDbLine
 10
4.3000000000001819
 20
-1.8000000000000682
 30
0.0
 11
4.3000000000001819
 21
-4.6000000000000227
 31
0.0
  0
LINE
  5
6C9
100
AcDbEntity
  8
0
  6
CONTINUOUS
 62
               4
100
AcDbLine
 10
15.0
 20
-4.6000000000000227
 30
0.0
 11
15.0
 21
4.897976315961273
 31
0.0
  0
LINE
  5
6CA
100
AcDbEntity
  8
0
  6
CONTINUOUS
 62
               4
100
AcDbLine
 10
11.200000000000045
 20
14.397976315961273
 30
0.0
 11
13.800000000000182
 21
14.397976315961273
 31
0.0
  0
LINE
  5
6CB
100
AcDbEntity
  8
0
  6
CONTINUOUS
 62
               4
100
AcDbLine
 10
11.200000000000045
 20
5.897976315961273
 30
0.0
 11
11.200000000000045
 21
8.1445121127279663
 31
0.0
  0
LINE
  5
6CC
100
AcDbEntity
  8
0
  6
CONTINUOUS
 62
               4
100
AcDbLine
 10
13.800000000000182
 20
5.897976315961273
 30
0.0
 11
13.800000000000182
 21
9.6456668471390685
 31
0.0
  0
LINE
  5
6CD
100
AcDbEntity
  8
0
  6
CONTINUOUS
 62
               4
100
AcDbLine
 10
4.2999999986377588
 20
-4.6000000000000227
 30
0.0
 11
14.999999995231747
 21
-4.6000000000000227
 31
0.0
  0
LINE
  5
6CE
100
AcDbEntity
  8
0
  6
CONTINUOUS
 62
               4
100
AcDbLine
 10
-0.0000000047682533
 20
0.0
 30
0.0
 11
14.999999995231747
 21
0.0
 31
0.0
  0
LINE
  5
6CF
100
AcDbEntity
  8
0
  6
CONTINUOUS
 62
               4
100
AcDbLine
 10
0.0
 20
-1.8000000000000682
 30
0.0
 11
4.3000000000001819
 21
-1.8000000000000682
 31
0.0
  0
LINE
  5
6D0
100
AcDbEntity
  8
0
  6
CONTINUOUS
 62
               4
100
AcDbLine
 10
-0.0000000047682533
 20
-2.6000000000000227
 30
0.0
 11
3.9999999952317467
 21
-2.6000000000000227
 31
0.0
  0
LINE
  5
6D1
100
AcDbEntity
  8
0
  6
CONTINUOUS
 62
               4
100
AcDbLine
 10
-0.0000000047682533
 20
-1.1000000082564156
 30
0.0
 11
14.999999995231747
 21
-1.1000000082564156
 31
0.0
  0
LINE
  5
6D2
100
AcDbEntity
  8
0
  6
CONTINUOUS
 62
               4
100
AcDbLine
 10
-0.0000000047682533
 20
-0.5500000000000682
 30
0.0
 11
15.0
 21
-0.5500000000000682
 31
0.0
  0
LINE
  5
6D3
100
AcDbEntity
  8
0
  6
CONTINUOUS
 62
               4
100
AcDbLine
 10
10.399999988419722
 20
0.9479762301306209
 30
0.0
 11
14.999999995231747
 21
0.9479762301306209
 31
0.0
  0
LINE
  5
6D4
100
AcDbEntity
  8
0
  6
CONTINUOUS
 62
               4
100
AcDbLine
 10
10.400000005449783
 20
1.4979762335365194
 30
0.0
 11
15.0
 21
1.4979762335365194
 31
0.0
  0
LINE
  5
6D5
100
AcDbEntity
  8
0
  6
CONTINUOUS
 62
               4
100
AcDbLine
 10
12.350000000000136
 20
14.397976315961273
 30
0.0
 11
12.350000000000136
 21
17.788484399102117
 31
0.0
  0
LINE
  5
6D6
100
AcDbEntity
  8
0
  6
CONTINUOUS
 62
               4
100
AcDbLine
 10
12.650000000000091
 20
14.397976315961273
 30
0.0
 11
12.650000000000091
 21
17.961694560764954
 31
0.0
  0
LINE
  5
6D7
100
AcDbEntity
  8
0
  6
CONTINUOUS
 62
               4
100
AcDbLine
 10
13.650000000000091
 20
14.397976315961273
 30
0.0
 11
13.650000000000091
 21
18.539061766307668
 31
0.0
  0
LINE
  5
6D8
100
AcDbEntity
  8
0
  6
CONTINUOUS
 62
               4
100
AcDbLine
 10
11.350000000000136
 20
14.397976315961273
 30
0.0
 11
11.350000000000136
 21
17.211117193559403
 31
0.0
  0
LINE
  5
6D9
100
AcDbEntity
  8
0
  6
CONTINUOUS
 62
               4
100
AcDbLine
 10
11.350000002043771
 20
21.397976315961273
 30
0.0
 11
12.350000000000136
 21
21.397976315961273
 31
0.0
  0
LINE
  5
6DA
100
AcDbEntity
  8
0
  6
CONTINUOUS
 62
               4
100
AcDbLine
 10
12.650000000000091
 20
21.397976315961273
 30
0.0
 11
13.650000005449783
 21
21.397976315961273
 31
0.0
  0
LINE
  5
6DB
100
AcDbEntity
  8
0
  6
CONTINUOUS
 62
               4
100
AcDbLine
 10
12.650000000000091
 20
19.461694560764954
 30
0.0
 11
12.650000000000091
 21
21.397976315961273
 31
0.0
  0
LINE
  5
6DC
100
AcDbEntity
  8
0
  6
CONTINUOUS
 62
               4
100
AcDbLine
 10
13.650000000000091
 20
20.039061766307668
 30
0.0
 11
13.650000000000091
 21
21.397976315961273
 31
0.0
  0
LINE
  5
6DD
100
AcDbEntity
  8
0
  6
CONTINUOUS
 62
               4
100
AcDbLine
 10
11.350000000000136
 20
18.711117193559403
 30
0.0
 11
11.350000000000136
 21
21.397976315961273
 31
0.0
  0
LINE
  5
6DE
100
AcDbEntity
  8
0
  6
CONTINUOUS
 62
               4
100
AcDbLine
 10
12.350000000000136
 20
19.288484399102117
 30
0.0
 11
12.350000000000136
 21
21.397976315961273
 31
0.0
  0
LINE
  5
6DF
100
AcDbEntity
  8
0
  6
CENTER
 62
               2
100
AcDbLine
 10
11.84999999727529
 20
12.667976315961255
 30
0.0
 11
11.84999999727529
 21
24.597976315961262
 31
0.0
  0
LINE
  5
6E0
100
AcDbEntity
  8
0
  6
CENTER
 62
               2
100
AcDbLine
 10
13.150000002724937
 20
12.667976315961255
 30
0.0
 11
13.150000002724937
 21
24.647976315961216
 31
0.0
  0
LINE
  5
6E1
100
AcDbEntity
  8
0
  6
CONTINUOUS
 62
               4
100
AcDbLine
 10
12.860000002724973
 20
21.397976315961273
 30
0.0
 11
12.860000002724973
 21
24.397976315961216
 31
0.0
  0
LINE
  5
6E2
100
AcDbEntity
  8
0
  6
CONTINUOUS
 62
               4
100
AcDbLine
 10
13.440000002724901
 20
21.397976315961273
 30
0.0
 11
13.440000002724901
 21
24.397976315961216
 31
0.0
  0
LINE
  5
6E3
100
AcDbEntity
  8
0
  6
CONTINUOUS
 62
               4
100
AcDbLine
 10
12.860000009536861
 20
24.397976315961216
 30
0.0
 11
13.440000001362478
 21
24.397976315961216
 31
0.0
  0
LINE
  5
6E4
100
AcDbEntity
  8
0
  6
CONTINUOUS
 62
               4
100
AcDbLine
 10
12.139999990463366
 20
24.397976315961216
 30
0.0
 11
11.55999999863775
 21
24.397976315961216
 31
0.0
  0
LINE
  5
6E5
100
AcDbEntity
  8
0
  6
CONTINUOUS
 62
               4
100
AcDbLine
 10
12.139999997275254
 20
21.397976315961273
 30
0.0
 11
12.139999997275254
 21
24.397976315961216
 31
0.0
  0
LINE
  5
6E6
100
AcDbEntity
  8
0
  6
CONTINUOUS
 62
               4
100
AcDbLine
 10
11.559999997275327
 20
21.397976315961273
 30
0.0
 11
11.559999997275327
 21
24.397976315961216
 31
0.0
  0
ENDBLK
  5
6E7
100
AcDbEntity
  8
0
100
AcDbBlockEnd
  0
BLOCK
  5
6E8
100
AcDbEntity
  8
0
100
AcDbBlockBegin
  2
MGAG6-25
 70
               0
 10
0.0
 20
0.0
 30
0.0
  3
MGAG6-25
  1

  0
LINE
  5
6E9
100
AcDbEntity
  8
0
  6
CONTINUOUS
 62
               2
100
AcDbLine
 10
-2.1599999999998545
 20
7.647976229666142
 30
0.0
 11
2.1700000000000728
 21
10.147976229666142
 31
0.0
  0
LINE
  5
6EA
100
AcDbEntity
  8
0
  6
CONTINUOUS
 62
               4
100
AcDbLine
 10
-2.0499999999999545
 20
5.897976229666142
 30
0.0
 11
2.0499999999999545
 21
5.897976229666142
 31
0.0
  0
LINE
  5
6EB
100
AcDbEntity
  8
0
  6
CONTINUOUS
 62
               4
100
AcDbLine
 10
-2.0499999999999545
 20
3.897976229666142
 30
0.0
 11
2.0499999999999545
 21
3.897976229666142
 31
0.0
  0
LINE
  5
6EC
100
AcDbEntity
  8
0
  6
CONTINUOUS
 62
               4
100
AcDbLine
 10
-1.0499999999999545
 20
0.5979763159613185
 30
0.0
 11
1.0499999999999545
 21
0.5979763159613185
 31
0.0
  0
LINE
  5
6ED
100
AcDbEntity
  8
0
  6
CONTINUOUS
 62
               4
100
AcDbLine
 10
-1.25
 20
0.397976315961273
 30
0.0
 11
-1.0499999999999545
 21
0.5979763159613185
 31
0.0
  0
LINE
  5
6EE
100
AcDbEntity
  8
0
  6
CONTINUOUS
 62
               4
100
AcDbLine
 10
1.0499999999999545
 20
0.5979763159613185
 30
0.0
 11
1.25
 21
0.397976315961273
 31
0.0
  0
LINE
  5
6EF
100
AcDbEntity
  8
0
  6
CONTINUOUS
 62
               4
100
AcDbLine
 10
-1.25
 20
0.397976315961273
 30
0.0
 11
1.25
 21
0.397976315961273
 31
0.0
  0
LINE
  5
6F0
100
AcDbEntity
  8
0
  6
CONTINUOUS
 62
               4
100
AcDbLine
 10
1.25
 20
0.397976315961273
 30
0.0
 11
1.25
 21
0.0
 31
0.0
  0
LINE
  5
6F1
100
AcDbEntity
  8
0
  6
CONTINUOUS
 62
               4
100
AcDbLine
 10
-1.25
 20
0.0
 30
0.0
 11
-1.25
 21
0.397976315961273
 31
0.0
  0
LINE
  5
6F2
100
AcDbEntity
  8
0
  6
CONTINUOUS
 62
               4
100
AcDbLine
 10
-2.0479763159612503
 20
-1.102023684038727
 30
0.0
 11
-1.5
 21
-0.5511933247652223
 31
0.0
  0
LINE
  5
6F3
100
AcDbEntity
  8
0
  6
CONTINUOUS
 62
               4
100
AcDbLine
 10
2.0499999999999545
 20
-1.1000000000000227
 30
0.0
 11
1.5
 21
-0.5500000000000682
 31
0.0
  0
LINE
  5
6F4
100
AcDbEntity
  8
0
  6
CONTINUOUS
 62
               4
100
AcDbLine
 10
1.25
 20
-2.6000000000000227
 30
0.0
 11
1.25
 21
-3.8991665411816712
 31
0.0
  0
LINE
  5
6F5
100
AcDbEntity
  8
0
  6
CONTINUOUS
 62
               4
100
AcDbLine
 10
-1.25
 20
-2.6000000000000227
 30
0.0
 11
-1.25
 21
-3.8991665411816712
 31
0.0
  0
LINE
  5
6F6
100
AcDbEntity
  8
0
  6
CONTINUOUS
 62
               4
100
AcDbLine
 10
-1.25
 20
-3.8991665411816712
 30
0.0
 11
1.25
 21
-3.8991665411816712
 31
0.0
  0
LINE
  5
6F7
100
AcDbEntity
  8
0
  6
CONTINUOUS
 62
               4
100
AcDbLine
 10
1.25
 20
-3.8991665411816712
 30
0.0
 11
0.7471428571429897
 21
-4.4020236840386815
 31
0.0
  0
LINE
  5
6F8
100
AcDbEntity
  8
0
  6
CONTINUOUS
 62
               4
100
AcDbLine
 10
-0.7471428571427623
 20
-4.4020236840386815
 30
0.0
 11
-1.25
 21
-3.8991665411816712
 31
0.0
  0
LINE
  5
6F9
100
AcDbEntity
  8
0
  6
CONTINUOUS
 62
               4
100
AcDbLine
 10
2.0005951126101991
 20
-1.8000000000000682
 30
0.0
 11
2.0005951126101991
 21
-2.602023684038727
 31
0.0
  0
LINE
  5
6FA
100
AcDbEntity
  8
0
  6
CONTINUOUS
 62
               4
100
AcDbLine
 10
-1.9994048873898009
 20
-1.8000000000000682
 30
0.0
 11
-1.9994048873898009
 21
-2.602023684038727
 31
0.0
  0
LINE
  5
6FB
100
AcDbEntity
  8
0
  6
CONTINUOUS
 62
               4
100
AcDbLine
 10
-0.7471428571427623
 20
-4.4020236840386815
 30
0.0
 11
0.7471428571429897
 21
-4.4020236840386815
 31
0.0
  0
LINE
  5
6FC
100
AcDbEntity
  8
0
  6
CONTINUOUS
 62
               4
100
AcDbLine
 10
-2.0499999999999545
 20
-2.5505951126101536
 30
0.0
 11
-2.0499999999999545
 21
-1.102023684038727
 31
0.0
  0
LINE
  5
6FD
100
AcDbEntity
  8
0
  6
CONTINUOUS
 62
               4
100
AcDbLine
 10
2.0499999999999545
 20
-2.6411128569469611
 30
0.0
 11
2.0499999999999545
 21
-1.1000000082564156
 31
0.0
  0
ARC
  5
6FE
100
AcDbEntity
  8
0
  6
CONTINUOUS
 62
               4
100
AcDbCircle
 10
0.0
 20
-2.5500000000000682
 30
0.0
 40
2.0499999999999994
100
AcDbArc
 50
180.0
 51
0.0
  0
LINE
  5
6FF
100
AcDbEntity
  8
0
  6
CONTINUOUS
 62
               4
100
AcDbLine
 10
-2.0499999999999545
 20
1.4979762281690228
 30
0.0
 11
-2.0499999999999545
 21
5.897976229666142
 31
0.0
  0
LINE
  5
700
100
AcDbEntity
  8
0
  6
CONTINUOUS
 62
               4
100
AcDbLine
 10
2.0499999999999545
 20
1.4979762320921282
 30
0.0
 11
2.0499999999999545
 21
5.897976229666142
 31
0.0
  0
LINE
  5
701
100
AcDbEntity
  8
0
  6
CONTINUOUS
 62
               4
100
AcDbLine
 10
1.5
 20
0.9479762320920599
 30
0.0
 11
2.0500000014444595
 21
1.4979762335365194
 31
0.0
  0
LINE
  5
702
100
AcDbEntity
  8
0
  6
CONTINUOUS
 62
               4
100
AcDbLine
 10
-2.0500000053675649
 20
1.4979762335365194
 30
0.0
 11
-1.5
 21
0.9479762281690682
 31
0.0
  0
LINE
  5
703
100
AcDbEntity
  8
0
  6
CONTINUOUS
 62
               4
100
AcDbLine
 10
-1.5
 20
-0.5511933238987012
 30
0.0
 11
-1.5
 21
0.9479762301306209
 31
0.0
  0
LINE
  5
704
100
AcDbEntity
  8
0
  6
CONTINUOUS
 62
               4
100
AcDbLine
 10
1.5
 20
-0.5500000048504035
 30
0.0
 11
1.5
 21
0.9479762301306209
 31
0.0
  0
LINE
  5
705
100
AcDbEntity
  8
0
  6
CONTINUOUS
 62
               4
100
AcDbLine
 10
-1.5000000019615527
 20
0.0
 30
0.0
 11
1.4999999980384473
 21
0.0
 31
0.0
  0
LINE
  5
706
100
AcDbEntity
  8
0
  6
CONTINUOUS
 62
               4
100
AcDbLine
 10
-2.0499999999999545
 20
-1.8000000000000682
 30
0.0
 11
2.0499999999999545
 21
-1.8000000000000682
 31
0.0
  0
LINE
  5
707
100
AcDbEntity
  8
0
  6
CONTINUOUS
 62
               4
100
AcDbLine
 10
-1.9994048873898009
 20
-2.6000000000000227
 30
0.0
 11
2.0005951126101991
 21
-2.6000000000000227
 31
0.0
  0
LINE
  5
708
100
AcDbEntity
  8
0
  6
CONTINUOUS
 62
               4
100
AcDbLine
 10
-1.2999999999999545
 20
5.897976229666142
 30
0.0
 11
-1.2999999999999545
 21
8.1445120264329489
 31
0.0
  0
LINE
  5
709
100
AcDbEntity
  8
0
  6
CONTINUOUS
 62
               4
100
AcDbLine
 10
1.2999999999999545
 20
5.897976229666142
 30
0.0
 11
1.2999999999999545
 21
9.6456667608439375
 31
0.0
  0
LINE
  5
70A
100
AcDbEntity
  8
0
  6
CENTER
 62
               2
100
AcDbLine
 10
0.0
 20
-5.5464060491292457
 30
0.0
 11
0.0
 21
9.6693480170655448
 31
0.0
  0
LINE
  5
70B
100
AcDbEntity
  8
0
  6
CONTINUOUS
 62
               2
100
AcDbLine
 10
-1.0250000000000909
 20
-4.1241665411815802
 30
0.0
 11
-1.0250000000000909
 21
-2.6000000000000227
 31
0.0
  0
LINE
  5
70C
100
AcDbEntity
  8
0
  6
CONTINUOUS
 62
               2
100
AcDbLine
 10
1.0250000000000909
 20
-4.1241665411815802
 30
0.0
 11
1.0250000000000909
 21
-2.6000000000000227
 31
0.0
  0
LINE
  5
70D
100
AcDbEntity
  8
0
  6
CONTINUOUS
 62
               2
100
AcDbLine
 10
1.0250000000000909
 20
-0.0000000014443913
 30
0.0
 11
1.0250000000000909
 21
0.5979763159613185
 31
0.0
  0
LINE
  5
70E
100
AcDbEntity
  8
0
  6
CONTINUOUS
 62
               2
100
AcDbLine
 10
-1.0250000000000909
 20
-0.0000000014443913
 30
0.0
 11
-1.0250000000000909
 21
0.5979763159613185
 31
0.0
  0
ENDBLK
  5
70F
100
AcDbEntity
  8
0
100
AcDbBlockEnd
  0
BLOCK
  5
710
100
AcDbEntity
  8
0
100
AcDbBlockBegin
  2
MGAG6-26
 70
               0
 10
0.0
 20
0.0
 30
0.0
  3
MGAG6-26
  1

  0
CIRCLE
  5
711
100
AcDbEntity
  8
0
  6
CONTINUOUS
 62
               4
100
AcDbCircle
 10
12.5
 20
0.0
 30
0.0
 40
1.3
  0
LINE
  5
712
100
AcDbEntity
  8
0
  6
CENTER
 62
               2
100
AcDbLine
 10
12.5
 20
-2.4429562044143722
 30
0.0
 11
12.5
 21
2.4456261784689559
 31
0.0
  0
ARC
  5
713
100
AcDbEntity
  8
0
  6
CONTINUOUS
 62
               4
100
AcDbCircle
 10
12.5
 20
0.0
 30
0.0
 40
2.1000000000000001
100
AcDbArc
 50
282.34693236741282
 51
77.293658161570477
  0
ARC
  5
714
100
AcDbEntity
  8
0
  6
CONTINUOUS
 62
               4
100
AcDbCircle
 10
12.5
 20
0.0
 30
0.0
 40
2.1000000000000001
100
AcDbArc
 50
102.70634183842952
 51
257.65306763258718
  0
LINE
  5
715
100
AcDbEntity
  8
0
  6
CENTER
 62
               2
100
AcDbLine
 10
-1.3247205773654969
 20
0.0
 30
0.0
 11
16.237619114850304
 21
0.0
 31
0.0
  0
LINE
  5
716
100
AcDbEntity
  8
0
  6
CONTINUOUS
 62
               4
100
AcDbLine
 10
0.0
 20
1.5
 30
0.0
 11
11.030306154330219
 21
1.5
 31
0.0
  0
LINE
  5
717
100
AcDbEntity
  8
0
  6
CONTINUOUS
 62
               4
100
AcDbLine
 10
0.0
 20
2.0500000000000114
 30
0.0
 11
0.0
 21
-2.0500000000000114
 31
0.0
  0
LINE
  5
718
100
AcDbEntity
  8
0
  6
CONTINUOUS
 62
               4
100
AcDbLine
 10
15.0
 20
2.0500000000000114
 30
0.0
 11
15.0
 21
-2.0500000000000114
 31
0.0
  0
LINE
  5
719
100
AcDbEntity
  8
0
  6
CENTER
 62
               2
100
AcDbLine
 10
2.0
 20
2.834285714285727
 30
0.0
 11
2.0
 21
-3.35141324485204
 31
0.0
  0
LINE
  5
71A
100
AcDbEntity
  8
0
  6
CONTINUOUS
 62
               4
100
AcDbLine
 10
0.9571428571427987
 20
-0.7142857142857224
 30
0.0
 11
2.6885714285715494
 21
1.0199999999999818
 31
0.0
  0
LINE
  5
71B
100
AcDbEntity
  8
0
  6
CONTINUOUS
 62
               4
100
AcDbLine
 10
1.3085714285714403
 20
-1.0685714285714312
 30
0.0
 11
3.051993036971453
 21
0.6748501798286384
 31
0.0
  0
LINE
  5
71C
100
AcDbEntity
  8
0
  6
CONTINUOUS
 62
               4
100
AcDbLine
 10
3.9000000000000909
 20
-1.5028571503502803
 30
0.0
 11
3.9000000000000909
 21
1.5000000068119448
 31
0.0
  0
LINE
  5
71D
100
AcDbEntity
  8
0
  6
CONTINUOUS
 62
               4
100
AcDbLine
 10
10.400000000000091
 20
-1.5028571503502803
 30
0.0
 11
10.400000000000091
 21
1.5000000068119448
 31
0.0
  0
LINE
  5
71E
100
AcDbEntity
  8
0
  6
CONTINUOUS
 62
               4
100
AcDbLine
 10
8.0
 20
-0.7000000068119334
 30
0.0
 11
8.0
 21
0.8999999999999773
 31
0.0
  0
LINE
  5
71F
100
AcDbEntity
  8
0
  6
CONTINUOUS
 62
               4
100
AcDbLine
 10
9.6000000000001364
 20
-0.7000000068119334
 30
0.0
 11
9.6000000000001364
 21
0.8999999999999773
 31
0.0
  0
LINE
  5
720
100
AcDbEntity
  8
0
  6
CONTINUOUS
 62
               4
100
AcDbLine
 10
8.0
 20
0.8999999999999773
 30
0.0
 11
9.6000000000001364
 21
0.8999999999999773
 31
0.0
  0
LINE
  5
721
100
AcDbEntity
  8
0
  6
CONTINUOUS
 62
               4
100
AcDbLine
 10
8.0
 20
-0.6999999999999886
 30
0.0
 11
9.6000000000001364
 21
-0.6999999999999886
 31
0.0
  0
LINE
  5
722
100
AcDbEntity
  8
0
  6
CONTINUOUS
 62
               4
100
AcDbLine
 10
0.0
 20
2.0500000000000114
 30
0.0
 11
15.0
 21
2.0500000000000114
 31
0.0
  0
LINE
  5
723
100
AcDbEntity
  8
0
  6
CONTINUOUS
 62
               4
100
AcDbLine
 10
0.0
 20
-2.0500000000000114
 30
0.0
 11
15.0
 21
-2.0500000000000114
 31
0.0
  0
LINE
  5
724
100
AcDbEntity
  8
0
  6
CONTINUOUS
 62
               4
100
AcDbLine
 10
0.0
 20
-1.5
 30
0.0
 11
11.030306154330219
 21
-1.5
 31
0.0
  0
CIRCLE
  5
725
100
AcDbEntity
  8
0
  6
CONTINUOUS
 62
               4
100
AcDbCircle
 10
2.0
 20
0.0
 30
0.0
 40
1.3999999999999997
  0
CIRCLE
  5
726
100
AcDbEntity
  8
0
  6
CONTINUOUS
 62
               2
100
AcDbCircle
 10
2.0
 20
0.0
 30
0.0
 40
1.05
  0
CIRCLE
  5
727
100
AcDbEntity
  8
0
  6
CONTINUOUS
 62
               4
100
AcDbCircle
 10
2.0
 20
0.0
 30
0.0
 40
1.25
  0
LINE
  5
728
100
AcDbEntity
  8
0
  6
CENTER
 62
               2
100
AcDbLine
 10
11.84999999727529
 20
-0.8054622970306014
 30
0.0
 11
11.84999999727529
 21
0.8557856223879981
 31
0.0
  0
LINE
  5
729
100
AcDbEntity
  8
0
  6
CENTER
 62
               2
100
AcDbLine
 10
13.15000000272471
 20
-0.8054622970306014
 30
0.0
 11
13.15000000272471
 21
0.8557856223879981
 31
0.0
  0
CIRCLE
  5
72A
100
AcDbEntity
  8
0
  6
CONTINUOUS
 62
               4
100
AcDbCircle
 10
13.15000000272471
 20
0.0
 30
0.0
 40
0.5
  0
CIRCLE
  5
72B
100
AcDbEntity
  8
0
  6
CONTINUOUS
 62
               4
100
AcDbCircle
 10
11.84999999727529
 20
0.0
 30
0.0
 40
0.5
  0
CIRCLE
  5
72C
100
AcDbEntity
  8
0
  6
CONTINUOUS
 62
               4
100
AcDbCircle
 10
13.15000000272471
 20
0.0
 30
0.0
 40
0.29
  0
CIRCLE
  5
72D
100
AcDbEntity
  8
0
  6
CONTINUOUS
 62
               4
100
AcDbCircle
 10
11.84999999727529
 20
0.0
 30
0.0
 40
0.29
  0
ENDBLK
  5
72E
100
AcDbEntity
  8
0
100
AcDbBlockEnd
  0
ENDSEC
  0
SECTION
  2
ENTITIES
  0
MTEXT
  5
72F
100
AcDbEntity
  8
0
  6
CONTINUOUS
 62
               7
100
AcDbMText
 10
-235.94999345143637
 20
180.5
 30
0.0
 40
6.2999992370605469
 41
0.0
 71
               4
 72
               1
  1
\A1;MGAG6
  0
INSERT
  5
730
100
AcDbEntity
  8
0
  6
ByBlock
100
AcDbBlockReference
  2
MGAG6-26
 10
226.34404906057091
 20
-101.05801330566408
 30
0.0
  0
INSERT
  5
731
100
AcDbEntity
  8
0
  6
ByBlock
100
AcDbBlockReference
  2
MGAG6-25
 10
179.34345394319234
 20
-148.65803466796876
 30
0.0
  0
INSERT
  5
732
100
AcDbEntity
  8
0
  6
ByBlock
100
AcDbBlockReference
  2
MGAG6-24
 10
226.34404906057091
 20
-148.65803466796876
 30
0.0
  0
INSERT
  5
733
100
AcDbEntity
  8
0
  6
ByBlock
100
AcDbBlockReference
  2
MGAG6-23
 10
82.835088833818759
 20
-101.05801330566408
 30
0.0
  0
INSERT
  5
734
100
AcDbEntity
  8
0
  6
ByBlock
100
AcDbBlockReference
  2
MGAG6-22
 10
35.836517400479011
 20
-148.65803514834704
 30
0.0
  0
INSERT
  5
735
100
AcDbEntity
  8
0
  6
ByBlock
100
AcDbBlockReference
  2
MGAG6-21
 10
82.835088838587126
 20
-148.65803515390087
 30
0.0
  0
INSERT
  5
736
100
AcDbEntity
  8
0
  6
ByBlock
100
AcDbBlockReference
  2
MGAG6-20
 10
-57.896331787109375
 20
-101.05801330566408
 30
0.0
  0
INSERT
  5
737
100
AcDbEntity
  8
0
  6
ByBlock
100
AcDbBlockReference
  2
MGAG6-19
 10
-100.93905639648437
 20
-148.65806927420238
 30
0.0
  0
INSERT
  5
738
100
AcDbEntity
  8
0
  6
ByBlock
100
AcDbBlockReference
  2
MGAG6-18
 10
-57.896331787109375
 20
-148.65806927420238
 30
0.0
  0
INSERT
  5
739
100
AcDbEntity
  8
0
  6
ByBlock
100
AcDbBlockReference
  2
MGAG6-17
 10
-198.70729064941406
 20
-101.05801330566408
 30
0.0
  0
INSERT
  5
73A
100
AcDbEntity
  8
0
  6
ByBlock
100
AcDbBlockReference
  2
MGAG6-16
 10
-243.25
 20
-148.65808044433595
 30
0.0
  0
INSERT
  5
73B
100
AcDbEntity
  8
0
  6
ByBlock
100
AcDbBlockReference
  2
MGAG6-15
 10
-198.70729064941406
 20
-148.65808044433595
 30
0.0
  0
INSERT
  5
73C
100
AcDbEntity
  8
0
  6
ByBlock
100
AcDbBlockReference
  2
MGAG6-14
 10
105.09772035168629
 20
-50.185868758549873
 30
0.0
  0
INSERT
  5
73D
100
AcDbEntity
  8
0
  6
ByBlock
100
AcDbBlockReference
  2
MGAG6-13
 10
221.28118424483819
 20
-3.6858687585498728
 30
0.0
  0
INSERT
  5
73E
100
AcDbEntity
  8
0
  6
ByBlock
100
AcDbBlockReference
  2
MGAG6-12
 10
54.281184220916771
 20
-3.6858687585498728
 30
0.0
  0
INSERT
  5
73F
100
AcDbEntity
  8
0
  6
ByBlock
100
AcDbBlockReference
  2
MGAG6-11
 10
106.2811842423007
 20
-3.6858687585498728
 30
0.0
  0
INSERT
  5
740
100
AcDbEntity
  8
0
  6
ByBlock
100
AcDbBlockReference
  2
MGAG6-10
 10
105.09772035168629
 20
142.83586875854991
 30
0.0
  0
INSERT
  5
741
100
AcDbEntity
  8
0
  6
ByBlock
100
AcDbBlockReference
  2
MGAG6-9
 10
221.28118424483819
 20
81.335868758549907
 30
0.0
  0
INSERT
  5
742
100
AcDbEntity
  8
0
  6
ByBlock
100
AcDbBlockReference
  2
MGAG6-8
 10
54.281184220916771
 20
81.335868758549907
 30
0.0
  0
INSERT
  5
743
100
AcDbEntity
  8
0
  6
ByBlock
100
AcDbBlockReference
  2
MGAG6-7
 10
106.2811842423007
 20
81.335868758549907
 30
0.0
  0
INSERT
  5
744
100
AcDbEntity
  8
0
  6
ByBlock
100
AcDbBlockReference
  2
MGAG6-6
 10
-160.83494567210698
 20
-23.889436190670352
 30
0.0
  0
INSERT
  5
745
100
AcDbEntity
  8
0
  6
ByBlock
100
AcDbBlockReference
  2
MGAG6-5
 10
-160.83494566956961
 20
24.610563809329648
 30
0.0
  0
INSERT
  5
746
100
AcDbEntity
  8
0
  6
ByBlock
100
AcDbBlockReference
  2
MGAG6-4
 10
-160.83494566956961
 20
122.61056380932965
 30
0.0
  0
INSERT
  5
747
100
AcDbEntity
  8
0
  6
ByBlock
100
AcDbBlockReference
  2
MGAG6-3
 10
-45.834945669569493
 20
76.110563809329648
 30
0.0
  0
INSERT
  5
748
100
AcDbEntity
  8
0
  6
ByBlock
100
AcDbBlockReference
  2
MGAG6-2
 10
-219.83494569095359
 20
76.110563809329648
 30
0.0
  0
INSERT
  5
749
100
AcDbEntity
  8
0
  6
ByBlock
100
AcDbBlockReference
  2
MGAG6-1
 10
-160.83494567210698
 20
76.110563809329648
 30
0.0
  0
MTEXT
  5
74A
100
AcDbEntity
  8
0
  6
CONTINUOUS
 62
               3
100
AcDbMText
 10
99.17475596919094
 20
158.99365174084562
 30
0.0
 40
6.2999992370605469
 41
0.0
 71
               4
 72
               1
  1
\W1.065;\A1;STRETCH LINE
  0
LINE
  5
74B
100
AcDbEntity
  8
0
  6
DASHED
 62
               2
100
AcDbLine
 10
0.4249267578125
 20
48.825000000000017
 30
0.0
 11
282.099853515625
 21
48.825000000000017
 31
0.0
  0
MTEXT
  5
74C
100
AcDbEntity
  8
0
  6
CONTINUOUS
 62
               7
100
AcDbMText
 10
18.978498182962742
 20
-85.599999999999966
 30
0.0
 40
4.5
 41
0.0
 71
               1
 72
               1
  1
\W1.071;\A1;ZE135
  0
MTEXT
  5
74D
100
AcDbEntity
  8
0
  6
CONTINUOUS
 62
               7
100
AcDbMText
 10
18.978498182962742
 20
-92.543062701548052
 30
0.0
 40
4.5
 41
0.0
 71
               1
 72
               1
  1
\W1.071;\A1;ZE155
  0
MTEXT
  5
74E
100
AcDbEntity
  8
0
  6
CONTINUOUS
 62
               7
100
AcDbMText
 10
159.76239013671875
 20
-92.543062701548052
 30
0.0
 40
4.5
 41
0.0
 71
               1
 72
               1
  1
\A1;ZE255
  0
MTEXT
  5
74F
100
AcDbEntity
  8
0
  6
CONTINUOUS
 62
               7
100
AcDbMText
 10
159.76239013671875
 20
-85.599999999999966
 30
0.0
 40
4.5
 41
0.0
 71
               1
 72
               1
  1
\A1;ZE235
  0
MTEXT
  5
750
100
AcDbEntity
  8
0
  6
CONTINUOUS
 62
               7
100
AcDbMText
 10
-121.82920328776042
 20
-85.599999999999966
 30
0.0
 40
4.5
 41
0.0
 71
               1
 72
               1
  1
\W1.111;\A1;ZE201
  0
MTEXT
  5
751
100
AcDbEntity
  8
0
  6
CONTINUOUS
 62
               7
100
AcDbMText
 10
-121.88667454893893
 20
-92.543062701548052
 30
0.0
 40
4.5
 41
0.0
 71
               1
 72
               1
  1
\W1.034;\A1;ZE202
  0
MTEXT
  5
752
100
AcDbEntity
  8
0
  6
CONTINUOUS
 62
               7
100
AcDbMText
 10
-262.60000000429153
 20
-85.599999999999966
 30
0.0
 40
4.5
 41
0.0
 71
               1
 72
               1
  1
\W1.200;\A1;ZE101
  0
MTEXT
  5
753
100
AcDbEntity
  8
0
  6
CONTINUOUS
 62
               7
100
AcDbMText
 10
-262.66666666666669
 20
-92.543062701548052
 30
0.0
 40
4.5
 41
0.0
 71
               1
 72
               1
  1
\W1.111;\A1;ZE102
  0
MTEXT
  5
754
100
AcDbEntity
  8
0
  6
CONTINUOUS
 62
               3
100
AcDbMText
 10
100.27089632006813
 20
28.428489864558401
 30
0.0
 40
6.2999992370605469
 41
0.0
 71
               4
 72
               1
  1
\W1.065;\A1;STRETCH LINE
  0
MTEXT
  5
755
100
AcDbEntity
  8
0
  6
CONTINUOUS
 62
               7
100
AcDbMText
 10
-203.0
 20
-63.849999990978716
 30
0.0
 40
4.5
 41
0.0
 71
               4
 72
               1
  1
\A1;5
  0
MTEXT
  5
756
100
AcDbEntity
  8
0
  6
CONTINUOUS
 62
               7
100
AcDbMText
 10
-216.34999997854231
 20
-63.849999990978716
 30
0.0
 40
4.5
 41
0.0
 71
               4
 72
               1
  1
\W1.200;\A1;0
  0
MTEXT
  5
757
100
AcDbEntity
  8
0
  6
CONTINUOUS
 62
               7
100
AcDbMText
 10
-229.84999997854231
 20
-63.849999990978716
 30
0.0
 40
4.5
 41
0.0
 71
               4
 72
               1
  1
\W1.200;\A1;0
  0
MTEXT
  5
758
100
AcDbEntity
  8
0
  6
CONTINUOUS
 62
               7
100
AcDbMText
 10
-205.10000001072885
 20
-55.849999990978716
 30
0.0
 40
4.5
 41
0.0
 71
               4
 72
               1
  1
\W1.200;\A1;15
  0
MTEXT
  5
759
100
AcDbEntity
  8
0
  6
CONTINUOUS
 62
               7
100
AcDbMText
 10
-218.5
 20
-55.849999990978716
 30
0.0
 40
4.5
 41
0.0
 71
               4
 72
               1
  1
\W1.333;\A1;10
  0
MTEXT
  5
75A
100
AcDbEntity
  8
0
  6
CONTINUOUS
 62
               7
100
AcDbMText
 10
-230.0
 20
-55.849999990978716
 30
0.0
 40
4.5
 41
0.0
 71
               4
 72
               1
  1
\A1;5
  0
MTEXT
  5
75B
100
AcDbEntity
  8
0
  6
CONTINUOUS
 62
               3
100
AcDbMText
 10
-166.90382339820607
 20
139.00392770127922
 30
0.0
 40
6.2999992370605469
 41
0.0
 71
               4
 72
               1
  1
\W1.065;\A1;STRETCH LINE
  0
MTEXT
  5
75C
100
AcDbEntity
  8
0
  6
CONTINUOUS
 62
               7
100
AcDbMText
 10
13.443475981949444
 20
38.825000000000017
 30
0.0
 40
6.2999992370605469
 41
0.0
 71
               4
 72
               1
  1
\W1.113;\A1;MODEL:MGAGS6*ST(5,10)-L
  0
MTEXT
  5
75D
100
AcDbEntity
  8
0
  6
CONTINUOUS
 62
               7
100
AcDbMText
 10
-259.20118343336134
 20
-47.849999981957467
 30
0.0
 40
4.5
 41
0.0
 71
               4
 72
               1
  1
\W1.065;\A1;STRETCH LIST
  0
LINE
  5
75E
100
AcDbEntity
  8
0
  6
CONTINUOUS
 62
               7
100
AcDbLine
 10
-194.75
 20
-67.849999963914968
 30
0.0
 11
-194.75
 21
-51.849999963914968
 31
0.0
  0
LINE
  5
75F
100
AcDbEntity
  8
0
  6
CONTINUOUS
 62
               7
100
AcDbLine
 10
-208.25
 20
-67.849999981957467
 30
0.0
 11
-208.25
 21
-51.849999981957467
 31
0.0
  0
LINE
  5
760
100
AcDbEntity
  8
0
  6
CONTINUOUS
 62
               7
100
AcDbLine
 10
-221.75
 20
-67.849999999999966
 30
0.0
 11
-221.75
 21
-51.849999999999966
 31
0.0
  0
LINE
  5
761
100
AcDbEntity
  8
0
  6
CONTINUOUS
 62
               7
100
AcDbLine
 10
-235.25
 20
-67.849999999999966
 30
0.0
 11
-235.25
 21
-51.849999999999966
 31
0.0
  0
LINE
  5
762
100
AcDbEntity
  8
0
  6
CONTINUOUS
 62
               7
100
AcDbLine
 10
-271.25
 20
-67.849999999999966
 30
0.0
 11
-271.25
 21
-51.849999999999966
 31
0.0
  0
MTEXT
  5
763
100
AcDbEntity
  8
0
  6
CONTINUOUS
 62
               7
100
AcDbMText
 10
-268.25
 20
-63.849999999999966
 30
0.0
 40
4.5
 41
0.0
 71
               4
 72
               1
  1
\A1;STRETCH
  0
MTEXT
  5
764
100
AcDbEntity
  8
0
  6
CONTINUOUS
 62
               7
100
AcDbMText
 10
-266.0
 20
-55.849999999999966
 30
0.0
 40
4.5
 41
0.0
 71
               4
 72
               1
  1
\A1;STROKE
  0
LINE
  5
765
100
AcDbEntity
  8
0
  6
CONTINUOUS
 62
               7
100
AcDbLine
 10
-271.25
 20
-51.849999981957467
 30
0.0
 11
-194.75
 21
-51.849999981957467
 31
0.0
  0
LINE
  5
766
100
AcDbEntity
  8
0
  6
CONTINUOUS
 62
               7
100
AcDbLine
 10
-271.25
 20
-59.849999981957467
 30
0.0
 11
-194.75
 21
-59.849999981957467
 31
0.0
  0
LINE
  5
767
100
AcDbEntity
  8
0
  6
CONTINUOUS
 62
               7
100
AcDbLine
 10
-271.25
 20
-67.849999981957467
 30
0.0
 11
-194.75
 21
-67.849999981957467
 31
0.0
  0
LINE
  5
768
100
AcDbEntity
  8
0
  6
CONTINUOUS
 62
               7
100
AcDbLine
 10
-281.25
 20
-77.849999999999966
 30
0.0
 11
0.4249267578125
 21
-77.849999999999966
 31
0.0
  0
LINE
  5
769
100
AcDbEntity
  8
0
  6
DASHED
 62
               2
100
AcDbLine
 10
0.4249267578125
 20
-77.849999999999966
 30
0.0
 11
282.099853515625
 21
-77.849999999999966
 31
0.0
  0
LINE
  5
76A
100
AcDbEntity
  8
0
  6
CONTINUOUS
 62
               7
100
AcDbLine
 10
0.4249267578125
 20
195.5
 30
0.0
 11
0.4249267578125
 21
-77.849999999999966
 31
0.0
  0
MTEXT
  5
76B
100
AcDbEntity
  8
0
  6
CONTINUOUS
 62
               7
100
AcDbMText
 10
13.443475981949444
 20
170.5
 30
0.0
 40
6.2999992370605469
 41
0.0
 71
               4
 72
               1
  1
\W1.113;\A1;MODEL:MGAGS6*ST(5,10)-R
  0
MTEXT
  5
76C
100
AcDbEntity
  8
0
  6
CONTINUOUS
 62
               7
100
AcDbMText
 10
-230.42790499723816
 20
150.5
 30
0.0
 40
6.2999992370605469
 41
0.0
 71
               4
 72
               1
  1
\W1.116;\A1;MGAG6*ST(5,10)-L
  0
MTEXT
  5
76D
100
AcDbEntity
  8
0
  6
CONTINUOUS
 62
               7
100
AcDbMText
 10
-268.22542289448637
 20
160.5
 30
0.0
 40
6.2999992370605469
 41
0.0
 71
               4
 72
               1
  1
\W1.119;\A1;MODEL:MGAG6*ST(5,10)-R
  0
MTEXT
  5
76E
100
AcDbEntity
  8
0
  6
CONTINUOUS
 62
               7
100
AcDbMText
 10
-273.59930517214121
 20
190.5
 30
0.0
 40
6.2999992370605469
 41
0.0
 71
               4
 72
               1
  1
\W1.143;\A1;MINI GUIDE SLIDER
  0
LINE
  5
76F
100
AcDbEntity
  8
0
  6
CONTINUOUS
 62
               7
100
AcDbLine
 10
-281.25
 20
175.5
 30
0.0
 11
-161.25
 21
175.5
 31
0.0
  0
LINE
  5
770
100
AcDbEntity
  8
0
  6
CONTINUOUS
 62
               7
100
AcDbLine
 10
-161.25
 20
195.5
 30
0.0
 11
-161.25
 21
175.5
 31
0.0
  0
LINE
  5
771
100
AcDbEntity
  8
0
  6
CONTINUOUS
 62
               7
100
AcDbLine
 10
162.0999755859375
 20
-175.0
 30
0.0
 11
162.0999755859375
 21
-195.0
 31
0.0
  0
LINE
  5
772
100
AcDbEntity
  8
0
  6
CONTINUOUS
 62
               7
100
AcDbLine
 10
162.0999755859375
 20
-175.0
 30
0.0
 11
282.099853515625
 21
-175.0
 31
0.0
  0
MTEXT
  5
773
100
AcDbEntity
  8
0
  6
CONTINUOUS
 62
               7
100
AcDbMText
 10
170.28101006437726
 20
-185.0
 30
0.0
 40
9.0
 41
0.0
 71
               4
 72
               1
  1
\W1.121;\A1;KOGANEI CORP.
  0
MTEXT
  5
774
100
AcDbEntity
  8
0
  6
CONTINUOUS
 62
               7
100
AcDbMText
 10
198.27703485029269
 20
185.5
 30
0.0
 40
6.2999992370605469
 41
0.0
 71
               4
 72
               1
  1
\W1.311;\A1;Ver. 1.0
  0
LINE
  5
775
100
AcDbEntity
  8
0
  6
CONTINUOUS
 62
               7
100
AcDbLine
 10
162.0999755859375
 20
175.5
 30
0.0
 11
282.099853515625
 21
175.5
 31
0.0
  0
LINE
  5
776
100
AcDbEntity
  8
0
  6
CONTINUOUS
 62
               7
100
AcDbLine
 10
162.0999755859375
 20
195.5
 30
0.0
 11
162.0999755859375
 21
175.5
 31
0.0
  0
LINE
  5
777
100
AcDbEntity
  8
0
  6
CONTINUOUS
 62
               7
100
AcDbLine
 10
282.099853515625
 20
195.5
 30
0.0
 11
282.099853515625
 21
-195.0
 31
0.0
  0
LINE
  5
778
100
AcDbEntity
  8
0
  6
CONTINUOUS
 62
               7
100
AcDbLine
 10
-281.25
 20
195.5
 30
0.0
 11
282.099853515625
 21
195.5
 31
0.0
  0
LINE
  5
779
100
AcDbEntity
  8
0
  6
CONTINUOUS
 62
               7
100
AcDbLine
 10
-281.25
 20
195.5
 30
0.0
 11
-281.25
 21
-195.0
 31
0.0
  0
LINE
  5
77A
100
AcDbEntity
  8
0
  6
CONTINUOUS
 62
               7
100
AcDbLine
 10
-281.25
 20
-195.0
 30
0.0
 11
282.099853515625
 21
-195.0
 31
0.0
  0
ENDSEC
  0
SECTION
  2
OBJECTS
  0
DICTIONARY
  5
19
100
AcDbDictionary
  3
ACAD_GROUP
350
1A
  3
ACAD_MLINESTYLE
350
1B
  0
DICTIONARY
  5
1A
102
{ACAD_REACTORS
330
19
102
}
100
AcDbDictionary
  0
DICTIONARY
  5
1B
102
{ACAD_REACTORS
330
19
102
}
100
AcDbDictionary
  3
STANDARD
350
1C
  0
MLINESTYLE
  5
1C
102
{ACAD_REACTORS
330
1B
102
}
100
AcDbMlineStyle
  2
Standard
 70
               0
  3

 62
               0
 51
90.0
 52
90.0
 71
               2
 49
0.5
 62
             256
  6
ByLayer
 49
-0.5
 62
             256
  6
ByLayer
  0
ENDSEC
  0
EOF
