  0
SECTION
  2
HEADER
  9
$ACADVER
  1
AC1012
  9
$DWGCODEPAGE
  3
dos932
  9
$INSBASE
 10
0.0
 20
0.0
 30
0.0
  9
$EXTMIN
 10
-281.25
 20
-195.0
 30
0.0
  9
$EXTMAX
 10
285.5999755859375
 20
195.5
 30
0.0
  9
$LIMMIN
 10
-281.25
 20
-195.0
  9
$LIMMAX
 10
285.5999755859375
 20
195.5
  9
$ORTHOMODE
 70
               0
  9
$REGENMODE
 70
               1
  9
$FILLMODE
 70
               1
  9
$QTEXTMODE
 70
               0
  9
$MIRRTEXT
 70
               1
  9
$DRAGMODE
 70
               2
  9
$LTSCALE
 40
1.0
  9
$OSMODE
 70
               0
  9
$ATTMODE
 70
               1
  9
$TEXTSIZE
 40
3.2000000476837158
  9
$TRACEWID
 40
0.05
  9
$TEXTSTYLE
  7
MX_NOTE_STANDARD
  9
$CLAYER
  8
0
  9
$CELTYPE
  6
CONTINUOUS
  9
$CECOLOR
 62
             256
  9
$CELTSCALE
 40
1.0
  9
$DELOBJ
 70
               1
  9
$DISPSILH
 70
               0
  9
$DIMSCALE
 40
1.0
  9
$DIMASZ
 40
2.5
  9
$DIMEXO
 40
1.5
  9
$DIMDLI
 40
3.75
  9
$DIMRND
 40
0.0
  9
$DIMDLE
 40
0.0
  9
$DIMEXE
 40
1.5
  9
$DIMTP
 40
0.0
  9
$DIMTM
 40
0.0
  9
$DIMTXT
 40
3.2000000476837158
  9
$DIMCEN
 40
2.5
  9
$DIMTSZ
 40
0.0
  9
$DIMTOL
 70
               0
  9
$DIMLIM
 70
               0
  9
$DIMTIH
 70
               0
  9
$DIMTOH
 70
               0
  9
$DIMSE1
 70
               0
  9
$DIMSE2
 70
               0
  9
$DIMTAD
 70
               1
  9
$DIMZIN
 70
               8
  9
$DIMBLK
  1

  9
$DIMASO
 70
               1
  9
$DIMSHO
 70
               1
  9
$DIMPOST
  1

  9
$DIMAPOST
  1

  9
$DIMALT
 70
               0
  9
$DIMALTD
 70
               4
  9
$DIMALTF
 40
0.03937007874016
  9
$DIMLFAC
 40
1.0
  9
$DIMTOFL
 70
               1
  9
$DIMTVP
 40
0.0
  9
$DIMTIX
 70
               0
  9
$DIMSOXD
 70
               0
  9
$DIMSAH
 70
               0
  9
$DIMBLK1
  1

  9
$DIMBLK2
  1

  9
$DIMSTYLE
  2
MXDIMSTYLE
  9
$DIMCLRD
 70
               0
  9
$DIMCLRE
 70
               0
  9
$DIMCLRT
 70
               0
  9
$DIMTFAC
 40
1.0
  9
$DIMGAP
 40
1.0
  9
$DIMJUST
 70
               0
  9
$DIMSD1
 70
               0
  9
$DIMSD2
 70
               0
  9
$DIMTOLJ
 70
               1
  9
$DIMTZIN
 70
               0
  9
$DIMALTZ
 70
               0
  9
$DIMALTTZ
 70
               0
  9
$DIMFIT
 70
               3
  9
$DIMUPT
 70
               1
  9
$DIMUNIT
 70
               2
  9
$DIMDEC
 70
               4
  9
$DIMTDEC
 70
               4
  9
$DIMALTU
 70
               2
  9
$DIMALTTD
 70
               4
  9
$DIMTXSTY
  7
MX_NOTE_STANDARD
  9
$DIMAUNIT
 70
               0
  9
$LUNITS
 70
               2
  9
$LUPREC
 70
               4
  9
$SKETCHINC
 40
0.1
  9
$FILLETRAD
 40
0.0
  9
$AUNITS
 70
               0
  9
$AUPREC
 70
               0
  9
$MENU
  1
acad
  9
$ELEVATION
 40
0.0
  9
$PELEVATION
 40
0.0
  9
$THICKNESS
 40
0.0
  9
$LIMCHECK
 70
               0
  9
$BLIPMODE
 70
               1
  9
$CHAMFERA
 40
0.0
  9
$CHAMFERB
 40
0.0
  9
$CHAMFERC
 40
0.0
  9
$CHAMFERD
 40
0.0
  9
$SKPOLY
 70
               0
  9
$TDCREATE
 40
2453656.551145834
  9
$TDUPDATE
 40
2453656.551145834
  9
$TDINDWG
 40
0.0000000000
  9
$TDUSRTIMER
 40
0.0000000000
  9
$USRTIMER
 70
               1
  9
$ANGBASE
 50
0.0
  9
$ANGDIR
 70
               0
  9
$PDMODE
 70
               0
  9
$PDSIZE
 40
0.0
  9
$PLINEWID
 40
0.0
  9
$COORDS
 70
               1
  9
$SPLFRAME
 70
               0
  9
$SPLINETYPE
 70
               6
  9
$SPLINESEGS
 70
               8
  9
$ATTDIA
 70
               0
  9
$ATTREQ
 70
               1
  9
$HANDLING
 70
               1
  9
$HANDSEED
  5
7DF
  9
$SURFTAB1
 70
               6
  9
$SURFTAB2
 70
               6
  9
$SURFTYPE
 70
               6
  9
$SURFU
 70
               6
  9
$SURFV
 70
               6
  9
$UCSNAME
  2

  9
$UCSORG
 10
0.0
 20
0.0
 30
0.0
  9
$UCSXDIR
 10
1.0
 20
0.0
 30
0.0
  9
$UCSYDIR
 10
0.0
 20
1.0
 30
0.0
  9
$PUCSNAME
  2

  9
$PUCSORG
 10
0.0
 20
0.0
 30
0.0
  9
$PUCSXDIR
 10
1.0
 20
0.0
 30
0.0
  9
$PUCSYDIR
 10
0.0
 20
1.0
 30
0.0
  9
$USERI1
 70
               0
  9
$USERI2
 70
               0
  9
$USERI3
 70
               0
  9
$USERI4
 70
               0
  9
$USERI5
 70
               0
  9
$USERR1
 40
0.0
  9
$USERR2
 40
0.0
  9
$USERR3
 40
0.0
  9
$USERR4
 40
0.0
  9
$USERR5
 40
0.0
  9
$WORLDVIEW
 70
               1
  9
$SHADEDGE
 70
               3
  9
$SHADEDIF
 70
              70
  9
$TILEMODE
 70
               1
  9
$MAXACTVP
 70
              16
  9
$PINSBASE
 10
0.0
 20
0.0
 30
0.0
  9
$PLIMCHECK
 70
               0
  9
$PEXTMIN
 10
1.0000000000000000E+20
 20
1.0000000000000000E+20
 30
1.0000000000000000E+20
  9
$PEXTMAX
 10
-1.0000000000000000E+20
 20
-1.0000000000000000E+20
 30
-1.0000000000000000E+20
  9
$PLIMMIN
 10
0.0
 20
0.0
  9
$PLIMMAX
 10
12.0
 20
9.0
  9
$UNITMODE
 70
               0
  9
$VISRETAIN
 70
               0
  9
$PLINEGEN
 70
               1
  9
$PSLTSCALE
 70
               0
  9
$TREEDEPTH
 70
            3020
  9
$PICKSTYLE
 70
               1
  9
$CMLSTYLE
  2
Standard
  9
$CMLJUST
 70
               0
  9
$CMLSCALE
 40
1.0
  9
$SAVEIMAGES
 70
               0
  0
ENDSEC
  0
SECTION
  2
CLASSES
  0
CLASS
  1
LWPOLYLINE
  2
AcDbPolyline
  3
"AutoCAD"
 90
        0
280
               0
281
               1
  0
CLASS
  1
IMAGE
  2
AcDbRasterImage
  3
ISM
 90
      127
280
               0
281
               1
  0
CLASS
  1
OLE2FRAME
  2
AcDbOle2Frame
  3
""
 90
        0
280
               0
281
               1
  0
CLASS
  1
HATCH
  2
AcDbHatch
  3
"ACAD_SEDONA"
 90
        0
280
               0
281
               1
  0
CLASS
  1
DICTIONARYVAR
  2
AcDbDictionaryVar
  3
"AutoCAD"
 90
        0
280
               0
281
               0
  0
CLASS
  1
RASTERVARIABLES
  2
AcDbRasterVariables
  3
ISM
 90
        0
280
               0
281
               0
  0
CLASS
  1
IMAGEDEF
  2
AcDbRasterImageDef
  3
ISM
 90
        0
280
               0
281
               0
  0
CLASS
  1
IMAGEDEF_REACTOR
  2
AcDbRasterImageDefReactor
  3
ISM
 90
        1
280
               0
281
               0
  0
CLASS
  1
IDBUFFER
  2
AcDbIdBuffer
  3
"Acad"
 90
        0
280
               0
281
               0
  0
CLASS
  1
SPATIAL_FILTER
  2
AcDbSpatialFilter
  3
"Acad"
 90
        0
280
               0
281
               0
  0
CLASS
  1
XRECORD
  2
AcDbXrecord
  3
"<Built In>"
 90
        0
280
               0
281
               0
  0
CLASS
  1
SORTENTSTABLE
  2
AcDbSortentsTable
  3
"AutoCAD"
 90
        0
280
               0
281
               0
  0
CLASS
  1
LAYER_INDEX
  2
AcDbLayerIndex
  3
"Acad"
 90
        0
280
               0
281
               0
  0
CLASS
  1
SPATIAL_INDEX
  2
AcDbSpatialIndex
  3
"Acad"
 90
        0
280
               0
281
               0
  0
CLASS
  1
OBJECT_PTR
  2
CAseDLPNTableRecord
  3
"ASE-LPNTableRecord"
 90
        1
280
               0
281
               0
  0
CLASS
  1
LAYOUT
  2
AcDbLayout
  3
"AutoCAD 2000"
 90
        1
280
               0
281
               0
  0
CLASS
  1
PLOTSETTINGS
  2
AcDbPlotSettings
  3
"AutoCAD 2000"
 90
        1
280
               0
281
               0
  0
CLASS
  1
ACDBDICTIONARYWDFLT
  2
AcDbDictionaryWithDefault
  3
"AutoCAD 2000"
 90
        1
280
               0
281
               0
  0
CLASS
  1
ACDBPLACEHOLDER
  2
AcDbPlaceHolder
  3
"AutoCAD 2000"
 90
        1
280
               0
281
               0
  0
ENDSEC
  0
SECTION
  2
TABLES
  0
TABLE
  2
VPORT
  5
7
100
AcDbSymbolTable
 70
               1
  0
VPORT
  5
15
100
AcDbSymbolTableRecord
100
AcDbViewportTableRecord
  2
*ACTIVE
 70
               0
 10
0.0
 20
0.0
 11
1.0
 21
1.0
 12
2.17498779296875
 22
0.25
 13
0.0
 23
0.0
 14
1.0
 24
1.0
 15
0.0
 25
0.0
 16
0.0
 26
0.0
 36
1.0
 17
0.0
 27
0.0
 37
0.0
 40
394.40500000000003
 41
1.7320508075688772
 42
50.0
 43
0.0
 44
0.0
 50
0.0
 51
0.0
 71
               0
 72
             100
 73
               1
 74
               1
 75
               0
 76
               0
 77
               0
 78
               0
  0
ENDTAB
  0
TABLE
  2
LTYPE
  5
4
100
AcDbSymbolTable
 70
               6
  0
LTYPE
  5
11
100
AcDbSymbolTableRecord
100
AcDbLinetypeTableRecord
  2
BYBLOCK
 70
              64
  3

 72
              65
 73
               0
 40
0.0
  0
LTYPE
  5
12
100
AcDbSymbolTableRecord
100
AcDbLinetypeTableRecord
  2
BYLAYER
 70
              64
  3

 72
              65
 73
               0
 40
0.0
  0
LTYPE
  5
13
100
AcDbSymbolTableRecord
100
AcDbLinetypeTableRecord
  2
CONTINUOUS
 70
              64
  3
Solid line
 72
              65
 73
               0
 40
0.0
  0
LTYPE
  5
66
100
AcDbSymbolTableRecord
100
AcDbLinetypeTableRecord
  2
CENTER
 70
              64
  3
Center ____ _ ____ _ ____ _ ____ _ ____ _ ____
 72
              65
 73
               4
 40
26.0
 49
20.0
 74
               0
 49
-2.0
 74
               0
 49
2.0
 74
               0
 49
-2.0
 74
               0
  0
LTYPE
  5
A6
100
AcDbSymbolTableRecord
100
AcDbLinetypeTableRecord
  2
PHANTOM
 70
              64
  3
Phantom ______  __  __  ______  __  __  ______
 72
              65
 73
               6
 40
30.0
 49
20.0
 74
               0
 49
-2.0
 74
               0
 49
2.0
 74
               0
 49
-2.0
 74
               0
 49
2.0
 74
               0
 49
-2.0
 74
               0
  0
LTYPE
  5
792
100
AcDbSymbolTableRecord
100
AcDbLinetypeTableRecord
  2
DASHED
 70
              64
  3
Dashed __ __ __ __ __ __ __ __ __ __ __ __ __ _
 72
              65
 73
               2
 40
4.0
 49
2.0
 74
               0
 49
-2.0
 74
               0
  0
ENDTAB
  0
TABLE
  2
LAYER
  5
2
100
AcDbSymbolTable
 70
               2
  0
LAYER
  5
14
100
AcDbSymbolTableRecord
100
AcDbLayerTableRecord
  2
0
 70
               0
 62
               7
  6
CONTINUOUS
  0
LAYER
  5
1D
100
AcDbSymbolTableRecord
100
AcDbLayerTableRecord
  2
DEFPOINTS
 70
               0
 62
               7
  6
CONTINUOUS
  0
ENDTAB
  0
TABLE
  2
STYLE
  5
3
100
AcDbSymbolTable
 70
               1
  0
STYLE
  5
17
100
AcDbSymbolTableRecord
100
AcDbTextStyleTableRecord
  2
MX_NOTE_STANDARD
 70
               0
 40
0.0
 41
1.0
 50
0.0
 71
               0
 42
3.2000000476837158
  3
txt.shx
  4
extfont.shx
  0
ENDTAB
  0
TABLE
  2
VIEW
  5
5
100
AcDbSymbolTable
 70
               0
  0
ENDTAB
  0
TABLE
  2
UCS
  5
6
100
AcDbSymbolTable
 70
               0
  0
ENDTAB
  0
TABLE
  2
APPID
  5
8
100
AcDbSymbolTable
 70
               1
  0
APPID
  5
16
100
AcDbSymbolTableRecord
100
AcDbRegAppTableRecord
  2
ACAD
 70
               0
  0
ENDTAB
  0
TABLE
  2
DIMSTYLE
  5
9
100
AcDbSymbolTable
 70
               1
  0
DIMSTYLE
105
18
100
AcDbSymbolTableRecord
100
AcDbDimStyleTableRecord
  2
MXDIMSTYLE
 70
               0
  3

  4

  5

  6

  7

 40
1.0
 41
2.5
 42
1.5
 43
3.75
 44
1.5
 45
0.0
 46
0.0
 47
0.0
 48
0.0
 71
               0
 72
               0
 73
               0
 74
               0
 75
               0
 76
               0
 77
               1
 78
               8
140
3.2000000476837158
141
2.5
142
0.0
143
0.03937007874016
144
1.0
145
0.0
146
1.0
147
1.0
170
               0
171
               4
172
               1
173
               0
174
               0
175
               0
176
               0
177
               0
178
               0
270
               2
271
               4
272
               4
273
               2
274
               4
275
               0
280
               0
281
               0
282
               0
283
               1
284
               0
285
               0
286
               0
287
               3
288
               1
340
17
  0
ENDTAB
  0
TABLE
  2
BLOCK_RECORD
  5
1
100
AcDbSymbolTable
 70
              24
  0
BLOCK_RECORD
  5
A
100
AcDbSymbolTableRecord
100
AcDbBlockTableRecord
  2
*MODEL_SPACE
  0
BLOCK_RECORD
  5
B
100
AcDbSymbolTableRecord
100
AcDbBlockTableRecord
  2
*PAPER_SPACE
  0
BLOCK_RECORD
  5
1E
100
AcDbSymbolTableRecord
100
AcDbBlockTableRecord
  2
MGALGS10-1
  0
BLOCK_RECORD
  5
1F
100
AcDbSymbolTableRecord
100
AcDbBlockTableRecord
  2
MGALGS10-2
  0
BLOCK_RECORD
  5
20
100
AcDbSymbolTableRecord
100
AcDbBlockTableRecord
  2
MGALGS10-3
  0
BLOCK_RECORD
  5
21
100
AcDbSymbolTableRecord
100
AcDbBlockTableRecord
  2
MGALGS10-4
  0
BLOCK_RECORD
  5
22
100
AcDbSymbolTableRecord
100
AcDbBlockTableRecord
  2
MGALGS10-5
  0
BLOCK_RECORD
  5
23
100
AcDbSymbolTableRecord
100
AcDbBlockTableRecord
  2
MGALGS10-6
  0
BLOCK_RECORD
  5
24
100
AcDbSymbolTableRecord
100
AcDbBlockTableRecord
  2
MGALGS10-7
  0
BLOCK_RECORD
  5
25
100
AcDbSymbolTableRecord
100
AcDbBlockTableRecord
  2
MGALGS10-8
  0
BLOCK_RECORD
  5
26
100
AcDbSymbolTableRecord
100
AcDbBlockTableRecord
  2
MGALGS10-9
  0
BLOCK_RECORD
  5
27
100
AcDbSymbolTableRecord
100
AcDbBlockTableRecord
  2
MGALGS10-10
  0
BLOCK_RECORD
  5
28
100
AcDbSymbolTableRecord
100
AcDbBlockTableRecord
  2
MGALGS10-11
  0
BLOCK_RECORD
  5
29
100
AcDbSymbolTableRecord
100
AcDbBlockTableRecord
  2
MGALGS10-12
  0
BLOCK_RECORD
  5
2A
100
AcDbSymbolTableRecord
100
AcDbBlockTableRecord
  2
MGALGS10-13
  0
BLOCK_RECORD
  5
2B
100
AcDbSymbolTableRecord
100
AcDbBlockTableRecord
  2
MGALGS10-14
  0
BLOCK_RECORD
  5
2C
100
AcDbSymbolTableRecord
100
AcDbBlockTableRecord
  2
MGALGS10-15
  0
BLOCK_RECORD
  5
2D
100
AcDbSymbolTableRecord
100
AcDbBlockTableRecord
  2
MGALGS10-16
  0
BLOCK_RECORD
  5
2E
100
AcDbSymbolTableRecord
100
AcDbBlockTableRecord
  2
MGALGS10-17
  0
BLOCK_RECORD
  5
2F
100
AcDbSymbolTableRecord
100
AcDbBlockTableRecord
  2
MGALGS10-18
  0
BLOCK_RECORD
  5
30
100
AcDbSymbolTableRecord
100
AcDbBlockTableRecord
  2
MGALGS10-19
  0
BLOCK_RECORD
  5
31
100
AcDbSymbolTableRecord
100
AcDbBlockTableRecord
  2
MGALGS10-20
  0
BLOCK_RECORD
  5
32
100
AcDbSymbolTableRecord
100
AcDbBlockTableRecord
  2
MGALGS10-21
  0
BLOCK_RECORD
  5
33
100
AcDbSymbolTableRecord
100
AcDbBlockTableRecord
  2
MGALGS10-22
  0
BLOCK_RECORD
  5
34
100
AcDbSymbolTableRecord
100
AcDbBlockTableRecord
  2
MGALGS10-23
  0
BLOCK_RECORD
  5
35
100
AcDbSymbolTableRecord
100
AcDbBlockTableRecord
  2
MGALGS10-24
  0
ENDTAB
  0
ENDSEC
  0
SECTION
  2
BLOCKS
  0
BLOCK
  5
D
100
AcDbEntity
  8
0
100
AcDbBlockBegin
  2
*MODEL_SPACE
 70
               0
 10
0.0
 20
0.0
 30
0.0
  3
*MODEL_SPACE
  1

  0
ENDBLK
  5
E
100
AcDbEntity
  8
0
100
AcDbBlockEnd
  0
BLOCK
  5
F
100
AcDbEntity
 67
               1
  8
0
100
AcDbBlockBegin
  2
*PAPER_SPACE
 70
               0
 10
0.0
 20
0.0
 30
0.0
  3
*PAPER_SPACE
  1

  0
ENDBLK
  5
10
100
AcDbEntity
 67
               1
  8
0
100
AcDbBlockEnd
  0
BLOCK
  5
36
100
AcDbEntity
  8
0
100
AcDbBlockBegin
  2
MGALGS10-1
 70
               0
 10
0.0
 20
0.0
 30
0.0
  3
MGALGS10-1
  1

  0
LINE
  5
37
100
AcDbEntity
  8
0
  6
CONTINUOUS
 62
               7
100
AcDbLine
 10
-16.50000019073488
 20
33.25
 30
0.0
 11
-13.700000000000017
 21
33.25
 31
0.0
  0
LINE
  5
38
100
AcDbEntity
  8
0
  6
CONTINUOUS
 62
               7
100
AcDbLine
 10
-16.49999976533158
 20
33.249999661049628
 30
0.0
 11
-16.699999765331626
 21
32.90358937547893
 31
0.0
  0
LINE
  5
39
100
AcDbEntity
  8
0
  6
CONTINUOUS
 62
               7
100
AcDbLine
 10
-16.50000019073488
 20
27.75
 30
0.0
 11
-16.50000019073488
 21
33.25
 31
0.0
  0
LINE
  5
3A
100
AcDbEntity
  8
0
  6
CONTINUOUS
 62
               7
100
AcDbLine
 10
-16.700000000000017
 20
28.096410751342773
 30
0.0
 11
-16.700000000000017
 21
32.903589248657227
 31
0.0
  0
LINE
  5
3B
100
AcDbEntity
  8
0
  6
CONTINUOUS
 62
               7
100
AcDbLine
 10
-16.499999031749752
 20
27.749999794972268
 30
0.0
 11
-16.699999389377723
 21
28.096410421970404
 31
0.0
  0
LINE
  5
3C
100
AcDbEntity
  8
0
  6
CONTINUOUS
 62
               7
100
AcDbLine
 10
-16.50000019073488
 20
27.75
 30
0.0
 11
-13.700000000000017
 21
27.75
 31
0.0
  0
LINE
  5
3D
100
AcDbEntity
  8
0
  6
CONTINUOUS
 62
               7
100
AcDbLine
 10
-16.999999999999972
 20
27.5
 30
0.0
 11
-13.700000000000017
 21
27.5
 31
0.0
  0
LINE
  5
3E
100
AcDbEntity
  8
0
  6
CONTINUOUS
 62
               7
100
AcDbLine
 10
-16.999999999999972
 20
33.5
 30
0.0
 11
-13.700000000000017
 21
33.5
 31
0.0
  0
LINE
  5
3F
100
AcDbEntity
  8
0
  6
CONTINUOUS
 62
               7
100
AcDbLine
 10
-13.700000000000017
 20
33.500000013690624
 30
0.0
 11
-13.700000000000017
 21
27.500000013690624
 31
0.0
  0
LINE
  5
40
100
AcDbEntity
  8
0
  6
CONTINUOUS
 62
               7
100
AcDbLine
 10
-13.700000000000017
 20
10.499999986309433
 30
0.0
 11
-13.700000000000017
 21
16.499999986309433
 31
0.0
  0
LINE
  5
41
100
AcDbEntity
  8
0
  6
CONTINUOUS
 62
               7
100
AcDbLine
 10
-16.999999999999972
 20
10.5
 30
0.0
 11
-13.700000000000017
 21
10.5
 31
0.0
  0
LINE
  5
42
100
AcDbEntity
  8
0
  6
CONTINUOUS
 62
               7
100
AcDbLine
 10
-16.999999999999972
 20
16.5
 30
0.0
 11
-13.700000000000017
 21
16.5
 31
0.0
  0
LINE
  5
43
100
AcDbEntity
  8
0
  6
CONTINUOUS
 62
               7
100
AcDbLine
 10
-16.50000019073488
 20
16.25
 30
0.0
 11
-13.700000000000017
 21
16.25
 31
0.0
  0
LINE
  5
44
100
AcDbEntity
  8
0
  6
CONTINUOUS
 62
               7
100
AcDbLine
 10
-16.499999031749752
 20
16.250000205027732
 30
0.0
 11
-16.699999389377723
 21
15.903589578029596
 31
0.0
  0
LINE
  5
45
100
AcDbEntity
  8
0
  6
CONTINUOUS
 62
               7
100
AcDbLine
 10
-16.700000000000017
 20
15.903589248657227
 30
0.0
 11
-16.700000000000017
 21
11.096410751342773
 31
0.0
  0
LINE
  5
46
100
AcDbEntity
  8
0
  6
CONTINUOUS
 62
               7
100
AcDbLine
 10
-16.50000019073488
 20
16.25
 30
0.0
 11
-16.50000019073488
 21
10.75
 31
0.0
  0
LINE
  5
47
100
AcDbEntity
  8
0
  6
CONTINUOUS
 62
               7
100
AcDbLine
 10
-16.49999976533158
 20
10.750000338950485
 30
0.0
 11
-16.699999765331626
 21
11.096410624521127
 31
0.0
  0
LINE
  5
48
100
AcDbEntity
  8
0
  6
CONTINUOUS
 62
               7
100
AcDbLine
 10
-16.50000019073488
 20
10.75
 30
0.0
 11
-13.700000000000017
 21
10.75
 31
0.0
  0
LINE
  5
49
100
AcDbEntity
  8
0
  6
CONTINUOUS
 62
               7
100
AcDbLine
 10
-16.999999999999972
 20
9.0
 30
0.0
 11
-16.999999999999972
 21
35.0
 31
0.0
  0
LINE
  5
4A
100
AcDbEntity
  8
0
  6
CONTINUOUS
 62
               7
100
AcDbLine
 10
-16.999999999999972
 20
9.5
 30
0.0
 11
40.000000000000028
 21
9.5
 31
0.0
  0
LINE
  5
4B
100
AcDbEntity
  8
0
  6
CONTINUOUS
 62
               7
100
AcDbLine
 10
-16.999999999999972
 20
34.5
 30
0.0
 11
40.000000000000028
 21
34.5
 31
0.0
  0
LINE
  5
4C
100
AcDbEntity
  8
0
  6
CONTINUOUS
 62
               2
100
AcDbLine
 10
3.5000000000000284
 20
12.5
 30
0.0
 11
15.900000000000006
 21
12.5
 31
0.0
  0
LINE
  5
4D
100
AcDbEntity
  8
0
  6
CONTINUOUS
 62
               2
100
AcDbLine
 10
12.000000000000028
 20
16.400000000000034
 30
0.0
 11
12.000000000000028
 21
8.6000000000000227
 31
0.0
  0
CIRCLE
  5
4E
100
AcDbEntity
  8
0
  6
CONTINUOUS
 62
               7
100
AcDbCircle
 10
12.000000000000028
 20
12.5
 30
0.0
 40
2.8999999999999999
  0
LINE
  5
4F
100
AcDbEntity
  8
0
  6
CONTINUOUS
 62
               2
100
AcDbLine
 10
19.500000000000028
 20
31.5
 30
0.0
 11
31.900000000000006
 21
31.5
 31
0.0
  0
LINE
  5
50
100
AcDbEntity
  8
0
  6
CONTINUOUS
 62
               2
100
AcDbLine
 10
28.000000000000028
 20
27.600000000000023
 30
0.0
 11
28.000000000000028
 21
35.400000000000034
 31
0.0
  0
CIRCLE
  5
51
100
AcDbEntity
  8
0
  6
CONTINUOUS
 62
               7
100
AcDbCircle
 10
28.000000000000028
 20
31.5
 30
0.0
 40
2.8999999999999999
  0
LINE
  5
52
100
AcDbEntity
  8
0
  6
CONTINUOUS
 62
               2
100
AcDbLine
 10
3.5000000000000284
 20
31.5
 30
0.0
 11
15.900000000000006
 21
31.5
 31
0.0
  0
LINE
  5
53
100
AcDbEntity
  8
0
  6
CONTINUOUS
 62
               7
100
AcDbLine
 10
22.500000000000028
 20
20.5
 30
0.0
 11
21.500000000000028
 21
20.5
 31
0.0
  0
LINE
  5
54
100
AcDbEntity
  8
0
  6
CONTINUOUS
 62
               7
100
AcDbLine
 10
22.500000000000028
 20
23.5
 30
0.0
 11
21.500000000000028
 21
23.5
 31
0.0
  0
ARC
  5
55
100
AcDbEntity
  8
0
  6
CONTINUOUS
 62
               7
100
AcDbCircle
 10
22.500000000000028
 20
22.0
 30
0.0
 40
1.5
100
AcDbArc
 50
270.0
 51
90.0
  0
LINE
  5
56
100
AcDbEntity
  8
0
  6
CONTINUOUS
 62
               2
100
AcDbLine
 10
22.000000000000028
 20
24.300000000000011
 30
0.0
 11
22.000000000000028
 21
19.700000000000045
 31
0.0
  0
ARC
  5
57
100
AcDbEntity
  8
0
  6
CONTINUOUS
 62
               7
100
AcDbCircle
 10
21.500000000000028
 20
22.0
 30
0.0
 40
1.5
100
AcDbArc
 50
90.0
 51
270.0
  0
CIRCLE
  5
58
100
AcDbEntity
  8
0
  6
CONTINUOUS
 62
               7
100
AcDbCircle
 10
6.0000000000000284
 20
22.0
 30
0.0
 40
1.5
  0
LINE
  5
59
100
AcDbEntity
  8
0
  6
CONTINUOUS
 62
               2
100
AcDbLine
 10
6.0000000000000284
 20
19.5
 30
0.0
 11
6.0000000000000284
 21
24.5
 31
0.0
  0
LINE
  5
5A
100
AcDbEntity
  8
0
  6
CONTINUOUS
 62
               2
100
AcDbLine
 10
6.0000000000000284
 20
29.0
 30
0.0
 11
6.0000000000000284
 21
34.0
 31
0.0
  0
LINE
  5
5B
100
AcDbEntity
  8
0
  6
CONTINUOUS
 62
               7
100
AcDbLine
 10
-16.999999999999972
 20
35.0
 30
0.0
 11
40.000000000000028
 21
35.0
 31
0.0
  0
CIRCLE
  5
5C
100
AcDbEntity
  8
0
  6
CONTINUOUS
 62
               2
100
AcDbCircle
 10
6.0000000000000284
 20
31.5
 30
0.0
 40
1.5
  0
CIRCLE
  5
5D
100
AcDbEntity
  8
0
  6
CONTINUOUS
 62
               7
100
AcDbCircle
 10
6.0000000000000284
 20
31.5
 30
0.0
 40
1.25
  0
LINE
  5
5E
100
AcDbEntity
  8
0
  6
CONTINUOUS
 62
               2
100
AcDbLine
 10
12.000000000000028
 20
27.600000000000023
 30
0.0
 11
12.000000000000028
 21
35.400000000000034
 31
0.0
  0
CIRCLE
  5
5F
100
AcDbEntity
  8
0
  6
CONTINUOUS
 62
               7
100
AcDbCircle
 10
12.000000000000028
 20
31.5
 30
0.0
 40
2.8999999999999999
  0
LINE
  5
60
100
AcDbEntity
  8
0
  6
CONTINUOUS
 62
               2
100
AcDbLine
 10
22.000000000000028
 20
29.0
 30
0.0
 11
22.000000000000028
 21
34.0
 31
0.0
  0
CIRCLE
  5
61
100
AcDbEntity
  8
0
  6
CONTINUOUS
 62
               2
100
AcDbCircle
 10
22.000000000000028
 20
31.5
 30
0.0
 40
1.5
  0
CIRCLE
  5
62
100
AcDbEntity
  8
0
  6
CONTINUOUS
 62
               7
100
AcDbCircle
 10
22.000000000000028
 20
31.5
 30
0.0
 40
1.25
  0
LINE
  5
63
100
AcDbEntity
  8
0
  6
CONTINUOUS
 62
               2
100
AcDbLine
 10
6.0000000000000284
 20
15.0
 30
0.0
 11
6.0000000000000284
 21
10.0
 31
0.0
  0
CIRCLE
  5
64
100
AcDbEntity
  8
0
  6
CONTINUOUS
 62
               2
100
AcDbCircle
 10
6.0000000000000284
 20
12.5
 30
0.0
 40
1.5
  0
CIRCLE
  5
65
100
AcDbEntity
  8
0
  6
CONTINUOUS
 62
               7
100
AcDbCircle
 10
6.0000000000000284
 20
12.5
 30
0.0
 40
1.25
  0
LINE
  5
67
100
AcDbEntity
  8
0
  6
CENTER
 62
               2
100
AcDbLine
 10
-18.721253657327082
 20
22.0
 30
0.0
 11
47.249148963677214
 21
22.0
 31
0.0
  0
LINE
  5
68
100
AcDbEntity
  8
0
  6
CONTINUOUS
 62
               7
100
AcDbLine
 10
-1.4999999999999716
 20
9.0
 30
0.0
 11
-1.4999999999999716
 21
35.0
 31
0.0
  0
LINE
  5
69
100
AcDbEntity
  8
0
  6
CONTINUOUS
 62
               7
100
AcDbLine
 10
40.000000000000028
 20
9.0
 30
0.0
 11
40.000000000000028
 21
35.0
 31
0.0
  0
LINE
  5
6A
100
AcDbEntity
  8
0
  6
CONTINUOUS
 62
               7
100
AcDbLine
 10
-16.999999999999972
 20
9.0
 30
0.0
 11
40.000000000000028
 21
9.0
 31
0.0
  0
LINE
  5
6B
100
AcDbEntity
  8
0
  6
CONTINUOUS
 62
               7
100
AcDbLine
 10
40.500000000000028
 20
31.300000000000011
 30
0.0
 11
40.500000000000028
 21
12.700000000000045
 31
0.0
  0
LINE
  5
6C
100
AcDbEntity
  8
0
  6
CONTINUOUS
 62
               7
100
AcDbLine
 10
40.000000000000028
 20
31.300000000000011
 30
0.0
 11
40.500000000000028
 21
31.300000000000011
 31
0.0
  0
LINE
  5
6D
100
AcDbEntity
  8
0
  6
CONTINUOUS
 62
               7
100
AcDbLine
 10
41.000000000000028
 20
30.200000000000045
 30
0.0
 11
41.000000000000028
 21
28.800000000000068
 31
0.0
  0
ARC
  5
6E
100
AcDbEntity
  8
0
  6
CONTINUOUS
 62
               7
100
AcDbCircle
 10
40.700000000000017
 20
28.800000000000068
 30
0.0
 40
0.3
100
AcDbArc
 50
270.0
 51
0.0
  0
ARC
  5
6F
100
AcDbEntity
  8
0
  6
CONTINUOUS
 62
               7
100
AcDbCircle
 10
40.700000000000017
 20
30.200000000000045
 30
0.0
 40
0.3
100
AcDbArc
 50
0.0
 51
90.0
  0
LINE
  5
70
100
AcDbEntity
  8
0
  6
CONTINUOUS
 62
               7
100
AcDbLine
 10
40.500000000000028
 20
30.5
 30
0.0
 11
40.700000000000017
 21
30.5
 31
0.0
  0
LINE
  5
71
100
AcDbEntity
  8
0
  6
CONTINUOUS
 62
               7
100
AcDbLine
 10
40.500000000000028
 20
28.5
 30
0.0
 11
40.700000000000017
 21
28.5
 31
0.0
  0
LINE
  5
72
100
AcDbEntity
  8
0
  6
CONTINUOUS
 62
               7
100
AcDbLine
 10
40.000000000000028
 20
12.700000000000045
 30
0.0
 11
40.500000000000028
 21
12.700000000000045
 31
0.0
  0
LINE
  5
73
100
AcDbEntity
  8
0
  6
CONTINUOUS
 62
               7
100
AcDbLine
 10
41.000000000000028
 20
15.200000000000045
 30
0.0
 11
41.000000000000028
 21
13.800000000000011
 31
0.0
  0
ARC
  5
74
100
AcDbEntity
  8
0
  6
CONTINUOUS
 62
               7
100
AcDbCircle
 10
40.700000000000017
 20
13.800000000000011
 30
0.0
 40
0.3
100
AcDbArc
 50
270.0
 51
0.0
  0
ARC
  5
75
100
AcDbEntity
  8
0
  6
CONTINUOUS
 62
               7
100
AcDbCircle
 10
40.700000000000017
 20
15.200000000000045
 30
0.0
 40
0.3
100
AcDbArc
 50
0.0
 51
90.0
  0
LINE
  5
76
100
AcDbEntity
  8
0
  6
CONTINUOUS
 62
               7
100
AcDbLine
 10
40.500000000000028
 20
15.5
 30
0.0
 11
40.700000000000017
 21
15.5
 31
0.0
  0
LINE
  5
77
100
AcDbEntity
  8
0
  6
CONTINUOUS
 62
               7
100
AcDbLine
 10
40.500000000000028
 20
13.500000000000057
 30
0.0
 11
40.700000000000017
 21
13.500000000000057
 31
0.0
  0
LINE
  5
78
100
AcDbEntity
  8
0
  6
CONTINUOUS
 62
               2
100
AcDbLine
 10
19.500000000000028
 20
12.5
 30
0.0
 11
31.900000000000006
 21
12.5
 31
0.0
  0
LINE
  5
79
100
AcDbEntity
  8
0
  6
CONTINUOUS
 62
               2
100
AcDbLine
 10
28.000000000000028
 20
16.400000000000034
 30
0.0
 11
28.000000000000028
 21
8.6000000000000227
 31
0.0
  0
CIRCLE
  5
7A
100
AcDbEntity
  8
0
  6
CONTINUOUS
 62
               7
100
AcDbCircle
 10
28.000000000000028
 20
12.5
 30
0.0
 40
2.8999999999999999
  0
LINE
  5
7B
100
AcDbEntity
  8
0
  6
CONTINUOUS
 62
               2
100
AcDbLine
 10
22.000000000000028
 20
15.0
 30
0.0
 11
22.000000000000028
 21
10.0
 31
0.0
  0
CIRCLE
  5
7C
100
AcDbEntity
  8
0
  6
CONTINUOUS
 62
               2
100
AcDbCircle
 10
22.000000000000028
 20
12.5
 30
0.0
 40
1.5
  0
CIRCLE
  5
7D
100
AcDbEntity
  8
0
  6
CONTINUOUS
 62
               7
100
AcDbCircle
 10
22.000000000000028
 20
12.5
 30
0.0
 40
1.25
  0
LINE
  5
7E
100
AcDbEntity
  8
0
  6
CONTINUOUS
 62
               7
100
AcDbLine
 10
-3.9999999999999716
 20
0.0
 30
0.0
 11
53.0
 21
0.0
 31
0.0
  0
LINE
  5
7F
100
AcDbEntity
  8
0
  6
CONTINUOUS
 62
               7
100
AcDbLine
 10
53.0
 20
8.3000000000000114
 30
0.0
 11
53.0
 21
0.0
 31
0.0
  0
LINE
  5
80
100
AcDbEntity
  8
0
  6
CONTINUOUS
 62
               7
100
AcDbLine
 10
-3.9999999999999716
 20
8.3000000000000114
 30
0.0
 11
-3.9999999999999716
 21
0.0
 31
0.0
  0
LINE
  5
81
100
AcDbEntity
  8
0
  6
CONTINUOUS
 62
               7
100
AcDbLine
 10
5.0000000000000284
 20
9.0
 30
0.0
 11
5.0000000000000284
 21
8.3000000000000114
 31
0.0
  0
LINE
  5
82
100
AcDbEntity
  8
0
  6
CONTINUOUS
 62
               7
100
AcDbLine
 10
44.000000000000028
 20
10.0
 30
0.0
 11
44.000000000000028
 21
8.3000000000000114
 31
0.0
  0
LINE
  5
83
100
AcDbEntity
  8
0
  6
CONTINUOUS
 62
               7
100
AcDbLine
 10
-3.9999999999999716
 20
8.3000000000000114
 30
0.0
 11
53.0
 21
8.3000000000000114
 31
0.0
  0
LINE
  5
84
100
AcDbEntity
  8
0
  6
CONTINUOUS
 62
               7
100
AcDbLine
 10
40.000000000000028
 20
9.5
 30
0.0
 11
44.000000000000028
 21
9.5
 31
0.0
  0
LINE
  5
85
100
AcDbEntity
  8
0
  6
CONTINUOUS
 62
               7
100
AcDbLine
 10
40.000000000000028
 20
34.0
 30
0.0
 11
45.500000000000028
 21
34.0
 31
0.0
  0
LINE
  5
86
100
AcDbEntity
  8
0
  6
CONTINUOUS
 62
               7
100
AcDbLine
 10
45.500000000000028
 20
10.0
 30
0.0
 11
45.500000000000028
 21
34.0
 31
0.0
  0
LINE
  5
87
100
AcDbEntity
  8
0
  6
CONTINUOUS
 62
               7
100
AcDbLine
 10
40.000000000000028
 20
10.0
 30
0.0
 11
45.500000000000028
 21
10.0
 31
0.0
  0
LINE
  5
88
100
AcDbEntity
  8
0
  6
CONTINUOUS
 62
               7
100
AcDbLine
 10
40.500000000000028
 20
26.5
 30
0.0
 11
45.500000000000028
 21
26.5
 31
0.0
  0
LINE
  5
89
100
AcDbEntity
  8
0
  6
CONTINUOUS
 62
               7
100
AcDbLine
 10
40.500000000000028
 20
17.5
 30
0.0
 11
45.500000000000028
 21
17.5
 31
0.0
  0
LINE
  5
8A
100
AcDbEntity
  8
0
  6
CONTINUOUS
 62
               7
100
AcDbLine
 10
4.0000000222711662
 20
44.500000000000071
 30
0.0
 11
38.99999999873134
 21
44.500000000000071
 31
0.0
  0
LINE
  5
8B
100
AcDbEntity
  8
0
  6
CONTINUOUS
 62
               7
100
AcDbLine
 10
4.0000000222711662
 20
38.5
 30
0.0
 11
38.99999999873134
 21
38.5
 31
0.0
  0
LINE
  5
8C
100
AcDbEntity
  8
0
  6
CONTINUOUS
 62
               7
100
AcDbLine
 10
9.9999999987313402
 20
38.50000001369061
 30
0.0
 11
9.9999999987313402
 21
35.0
 31
0.0
  0
LINE
  5
8D
100
AcDbEntity
  8
0
  6
CONTINUOUS
 62
               7
100
AcDbLine
 10
32.99999999873134
 20
38.5
 30
0.0
 11
32.99999999873134
 21
37.99999998630939
 31
0.0
  0
LINE
  5
8E
100
AcDbEntity
  8
0
  6
CONTINUOUS
 62
               7
100
AcDbLine
 10
38.99999999873134
 20
44.50000001369061
 30
0.0
 11
38.99999999873134
 21
35.0
 31
0.0
  0
LINE
  5
8F
100
AcDbEntity
  8
0
  6
CONTINUOUS
 62
               7
100
AcDbLine
 10
3.9999999987313402
 20
44.50000001369061
 30
0.0
 11
3.9999999987313402
 21
35.0
 31
0.0
  0
LINE
  5
90
100
AcDbEntity
  8
0
  6
CONTINUOUS
 62
               7
100
AcDbLine
 10
16.99999999873134
 20
35.99999998630939
 30
0.0
 11
34.99999999873134
 21
35.99999998630939
 31
0.0
  0
LINE
  5
91
100
AcDbEntity
  8
0
  6
CONTINUOUS
 62
               7
100
AcDbLine
 10
23.99999999873134
 20
37.699999986309393
 30
0.0
 11
27.999999998731397
 21
37.699999986309393
 31
0.0
  0
LINE
  5
92
100
AcDbEntity
  8
0
  6
CONTINUOUS
 62
               7
100
AcDbLine
 10
27.99999999873134
 20
37.699999986309393
 30
0.0
 11
27.99999999873134
 21
35.99999998630939
 31
0.0
  0
LINE
  5
93
100
AcDbEntity
  8
0
  6
CONTINUOUS
 62
               7
100
AcDbLine
 10
23.99999999873134
 20
37.699999986309393
 30
0.0
 11
23.99999999873134
 21
35.99999998630939
 31
0.0
  0
LINE
  5
94
100
AcDbEntity
  8
0
  6
CONTINUOUS
 62
               7
100
AcDbLine
 10
31.399999998731374
 20
37.99999998630939
 30
0.0
 11
31.099999998731363
 21
37.699999986309408
 31
0.0
  0
LINE
  5
95
100
AcDbEntity
  8
0
  6
CONTINUOUS
 62
               7
100
AcDbLine
 10
34.599999998731363
 20
37.99999998630939
 30
0.0
 11
31.399999998731374
 21
37.99999998630939
 31
0.0
  0
LINE
  5
96
100
AcDbEntity
  8
0
  6
CONTINUOUS
 62
               7
100
AcDbLine
 10
31.099999998731363
 20
37.699999986309408
 30
0.0
 11
31.099999998731363
 21
35.99999998630939
 31
0.0
  0
LINE
  5
97
100
AcDbEntity
  8
0
  6
CONTINUOUS
 62
               7
100
AcDbLine
 10
34.899999998731374
 20
37.699999986309408
 30
0.0
 11
31.099999998731363
 21
37.699999986309408
 31
0.0
  0
LINE
  5
98
100
AcDbEntity
  8
0
  6
CONTINUOUS
 62
               7
100
AcDbLine
 10
34.599999998731363
 20
37.99999998630939
 30
0.0
 11
34.899999998731374
 21
37.699999986309408
 31
0.0
  0
LINE
  5
99
100
AcDbEntity
  8
0
  6
CONTINUOUS
 62
               7
100
AcDbLine
 10
34.899999998731374
 20
37.699999986309408
 30
0.0
 11
34.899999998731374
 21
35.99999998630939
 31
0.0
  0
LINE
  5
9A
100
AcDbEntity
  8
0
  6
CONTINUOUS
 62
               7
100
AcDbLine
 10
34.99999999873134
 20
35.999999964237219
 30
0.0
 11
34.99999999873134
 21
35.0
 31
0.0
  0
LINE
  5
9B
100
AcDbEntity
  8
0
  6
CONTINUOUS
 62
               7
100
AcDbLine
 10
17.099999998731363
 20
37.699999986309408
 30
0.0
 11
17.099999998731363
 21
35.99999998630939
 31
0.0
  0
LINE
  5
9C
100
AcDbEntity
  8
0
  6
CONTINUOUS
 62
               7
100
AcDbLine
 10
20.899999998731374
 20
37.699999986309408
 30
0.0
 11
20.899999998731374
 21
35.99999998630939
 31
0.0
  0
LINE
  5
9D
100
AcDbEntity
  8
0
  6
CONTINUOUS
 62
               7
100
AcDbLine
 10
17.399999998731374
 20
37.99999998630939
 30
0.0
 11
17.099999998731363
 21
37.699999986309408
 31
0.0
  0
LINE
  5
9E
100
AcDbEntity
  8
0
  6
CONTINUOUS
 62
               7
100
AcDbLine
 10
20.599999998731363
 20
37.99999998630939
 30
0.0
 11
20.899999998731374
 21
37.699999986309408
 31
0.0
  0
LINE
  5
9F
100
AcDbEntity
  8
0
  6
CONTINUOUS
 62
               7
100
AcDbLine
 10
20.599999998731363
 20
37.99999998630939
 30
0.0
 11
17.399999998731374
 21
37.99999998630939
 31
0.0
  0
LINE
  5
A0
100
AcDbEntity
  8
0
  6
CONTINUOUS
 62
               7
100
AcDbLine
 10
20.899999998731374
 20
37.699999986309408
 30
0.0
 11
17.099999998731363
 21
37.699999986309408
 31
0.0
  0
LINE
  5
A1
100
AcDbEntity
  8
0
  6
CONTINUOUS
 62
               7
100
AcDbLine
 10
16.99999999873134
 20
35.999999964237219
 30
0.0
 11
16.99999999873134
 21
35.0
 31
0.0
  0
LINE
  5
A2
100
AcDbEntity
  8
0
  6
CONTINUOUS
 62
               2
100
AcDbLine
 10
-19.499999999999972
 20
31.0
 30
0.0
 11
-14.499999999999972
 21
31.0
 31
0.0
  0
LINE
  5
A3
100
AcDbEntity
  8
0
  6
CONTINUOUS
 62
               2
100
AcDbLine
 10
-19.499999999999972
 20
13.0
 30
0.0
 11
-14.499999999999972
 21
13.0
 31
0.0
  0
LINE
  5
A4
100
AcDbEntity
  8
0
  6
CONTINUOUS
 62
               2
100
AcDbLine
 10
49.0
 20
-1.2000000000000028
 30
0.0
 11
49.0
 21
5.2000000000000028
 31
0.0
  0
LINE
  5
A5
100
AcDbEntity
  8
0
  6
CONTINUOUS
 62
               2
100
AcDbLine
 10
0.0
 20
-1.2000000000000028
 30
0.0
 11
0.0
 21
5.2000000000000028
 31
0.0
  0
LINE
  5
A7
100
AcDbEntity
  8
0
  6
PHANTOM
 62
               3
100
AcDbLine
 10
16.298648857192006
 20
47.937629072253287
 30
0.0
 11
16.298648857192006
 21
-9.5
 31
0.0
  0
ENDBLK
  5
A8
100
AcDbEntity
  8
0
100
AcDbBlockEnd
  0
BLOCK
  5
A9
100
AcDbEntity
  8
0
100
AcDbBlockBegin
  2
MGALGS10-2
 70
               0
 10
0.0
 20
0.0
 30
0.0
  3
MGALGS10-2
  1

  0
LINE
  5
AA
100
AcDbEntity
  8
0
  6
CONTINUOUS
 62
               7
100
AcDbLine
 10
4.5
 20
27.200000000000045
 30
0.0
 11
-0.5
 21
27.200000000000045
 31
0.0
  0
LINE
  5
AB
100
AcDbEntity
  8
0
  6
CONTINUOUS
 62
               7
100
AcDbLine
 10
4.5
 20
16.800000000000011
 30
0.0
 11
-0.5
 21
16.800000000000011
 31
0.0
  0
LINE
  5
AC
100
AcDbEntity
  8
0
  6
CONTINUOUS
 62
               7
100
AcDbLine
 10
-0.5
 20
25.200000000000045
 30
0.0
 11
1.0576171043882709
 21
25.200000000000045
 31
0.0
  0
LINE
  5
AD
100
AcDbEntity
  8
0
  6
CONTINUOUS
 62
               7
100
AcDbLine
 10
-0.5
 20
18.800000000000011
 30
0.0
 11
1.0576171043882709
 21
18.800000000000011
 31
0.0
  0
ARC
  5
AE
100
AcDbEntity
  8
0
  6
CONTINUOUS
 62
               7
100
AcDbCircle
 10
4.5
 20
22.0
 30
0.0
 40
5.0
100
AcDbArc
 50
140.20818050044272
 51
219.79181949955728
  0
ARC
  5
AF
100
AcDbEntity
  8
0
  6
CONTINUOUS
 62
               7
100
AcDbCircle
 10
4.5
 20
22.0
 30
0.0
 40
5.2000000000000028
100
AcDbArc
 50
270.0
 51
90.0
  0
CIRCLE
  5
B0
100
AcDbEntity
  8
0
  6
CONTINUOUS
 62
               7
100
AcDbCircle
 10
4.5
 20
22.0
 30
0.0
 40
1.7
  0
CIRCLE
  5
B1
100
AcDbEntity
  8
0
  6
CONTINUOUS
 62
               7
100
AcDbCircle
 10
4.5
 20
22.0
 30
0.0
 40
4.7000000000000002
  0
LINE
  5
B2
100
AcDbEntity
  8
0
  6
CONTINUOUS
 62
               7
100
AcDbLine
 10
-1.7000000000000455
 20
25.400000000000034
 30
0.0
 11
-1.7000000000000455
 21
18.600000000000023
 31
0.0
  0
LINE
  5
B3
100
AcDbEntity
  8
0
  6
CONTINUOUS
 62
               7
100
AcDbLine
 10
-1.7000000000000455
 20
18.600000000000023
 30
0.0
 11
-2.0
 21
18.300000000000011
 31
0.0
  0
LINE
  5
B4
100
AcDbEntity
  8
0
  6
CONTINUOUS
 62
               7
100
AcDbLine
 10
-1.7000000000000455
 20
25.400000000000034
 30
0.0
 11
-2.0
 21
25.700000000000045
 31
0.0
  0
LINE
  5
B5
100
AcDbEntity
  8
0
  6
CONTINUOUS
 62
               7
100
AcDbLine
 10
-2.0
 20
34.5
 30
0.0
 11
-2.0
 21
25.700000000000045
 31
0.0
  0
LINE
  5
B6
100
AcDbEntity
  8
0
  6
CONTINUOUS
 62
               7
100
AcDbLine
 10
-2.0
 20
18.300000000000011
 30
0.0
 11
-2.0
 21
9.5
 31
0.0
  0
LINE
  5
B7
100
AcDbEntity
  8
0
  6
CONTINUOUS
 62
               7
100
AcDbLine
 10
-0.5
 20
18.800000000000011
 30
0.0
 11
-0.5
 21
9.0
 31
0.0
  0
LINE
  5
B8
100
AcDbEntity
  8
0
  6
CONTINUOUS
 62
               7
100
AcDbLine
 10
13.5
 20
9.0
 30
0.0
 11
14.0
 21
9.4999999999998863
 31
0.0
  0
LINE
  5
B9
100
AcDbEntity
  8
0
  6
CONTINUOUS
 62
               7
100
AcDbLine
 10
13.799999999999955
 20
9.5
 30
0.0
 11
13.300000000000068
 21
9.0
 31
0.0
  0
LINE
  5
BA
100
AcDbEntity
  8
0
  6
CONTINUOUS
 62
               7
100
AcDbLine
 10
14.0
 20
34.5
 30
0.0
 11
13.5
 21
35.0
 31
0.0
  0
LINE
  5
BB
100
AcDbEntity
  8
0
  6
CONTINUOUS
 62
               7
100
AcDbLine
 10
13.299999999999955
 20
35.0
 30
0.0
 11
13.799999999999955
 21
34.5
 31
0.0
  0
LINE
  5
BC
100
AcDbEntity
  8
0
  6
CONTINUOUS
 62
               7
100
AcDbLine
 10
-0.5
 20
35.0
 30
0.0
 11
13.5
 21
35.0
 31
0.0
  0
CIRCLE
  5
BD
100
AcDbEntity
  8
0
  6
CONTINUOUS
 62
               7
100
AcDbCircle
 10
5.0
 20
31.0
 30
0.0
 40
1.25
  0
LINE
  5
BE
100
AcDbEntity
  8
0
  6
CONTINUOUS
 62
               2
100
AcDbLine
 10
5.0
 20
28.5
 30
0.0
 11
5.0
 21
33.5
 31
0.0
  0
CIRCLE
  5
BF
100
AcDbEntity
  8
0
  6
CONTINUOUS
 62
               2
100
AcDbCircle
 10
5.0
 20
31.0
 30
0.0
 40
1.5
  0
LINE
  5
C0
100
AcDbEntity
  8
0
  6
CONTINUOUS
 62
               2
100
AcDbLine
 10
2.5
 20
31.0
 30
0.0
 11
7.4999999999999432
 21
31.0
 31
0.0
  0
LINE
  5
C1
100
AcDbEntity
  8
0
  6
CONTINUOUS
 62
               7
100
AcDbLine
 10
9.5566251622494747
 20
30.500000546114052
 30
0.0
 11
10.278312869949275
 21
29.250000556571877
 31
0.0
  0
LINE
  5
C2
100
AcDbEntity
  8
0
  6
CONTINUOUS
 62
               7
100
AcDbLine
 10
10.278312044043048
 20
31.749999920265282
 30
0.0
 11
9.5566243363432477
 21
30.499999930723106
 31
0.0
  0
LINE
  5
C3
100
AcDbEntity
  8
0
  6
CONTINUOUS
 62
               7
100
AcDbLine
 10
10.278312087059021
 20
29.25
 30
0.0
 11
11.721687912940979
 21
29.25
 31
0.0
  0
LINE
  5
C4
100
AcDbEntity
  8
0
  6
CONTINUOUS
 62
               7
100
AcDbLine
 10
10.278311967849731
 20
31.75
 30
0.0
 11
11.721688032150269
 21
31.75
 31
0.0
  0
LINE
  5
C5
100
AcDbEntity
  8
0
  6
CONTINUOUS
 62
               7
100
AcDbLine
 10
11.0
 20
33.5
 30
0.0
 11
13.799999999999955
 21
33.5
 31
0.0
  0
LINE
  5
C6
100
AcDbEntity
  8
0
  6
CONTINUOUS
 62
               7
100
AcDbLine
 10
11.0
 20
27.5
 30
0.0
 11
13.799999999999955
 21
27.5
 31
0.0
  0
ARC
  5
C7
100
AcDbEntity
  8
0
  6
CONTINUOUS
 62
               7
100
AcDbCircle
 10
11.0
 20
30.5
 30
0.0
 40
3.0
100
AcDbArc
 50
90.0
 51
270.0
  0
LINE
  5
C8
100
AcDbEntity
  8
0
  6
CONTINUOUS
 62
               7
100
AcDbLine
 10
12.443374837750468
 20
30.500000546114052
 30
0.0
 11
11.721687130050668
 21
29.250000556571877
 31
0.0
  0
LINE
  5
C9
100
AcDbEntity
  8
0
  6
CONTINUOUS
 62
               7
100
AcDbLine
 10
11.721687955956895
 20
31.749999920265282
 30
0.0
 11
12.443375663656695
 21
30.499999930723106
 31
0.0
  0
CIRCLE
  5
CA
100
AcDbEntity
  8
0
  6
CONTINUOUS
 62
               7
100
AcDbCircle
 10
11.0
 20
30.5
 30
0.0
 40
2.75
  0
CIRCLE
  5
CB
100
AcDbEntity
  8
0
  6
CONTINUOUS
 62
               7
100
AcDbCircle
 10
10.99999988079071
 20
30.5
 30
0.0
 40
2.4035892486572266
  0
LINE
  5
CC
100
AcDbEntity
  8
0
  6
CONTINUOUS
 62
               7
100
AcDbLine
 10
11.0
 20
10.5
 30
0.0
 11
13.799999999999955
 21
10.5
 31
0.0
  0
LINE
  5
CD
100
AcDbEntity
  8
0
  6
CONTINUOUS
 62
               7
100
AcDbLine
 10
11.0
 20
16.5
 30
0.0
 11
13.799999999999955
 21
16.5
 31
0.0
  0
LINE
  5
CE
100
AcDbEntity
  8
0
  6
CONTINUOUS
 62
               2
100
AcDbLine
 10
5.0
 20
15.5
 30
0.0
 11
5.0
 21
10.5
 31
0.0
  0
CIRCLE
  5
CF
100
AcDbEntity
  8
0
  6
CONTINUOUS
 62
               2
100
AcDbCircle
 10
5.0
 20
13.0
 30
0.0
 40
1.5
  0
LINE
  5
D0
100
AcDbEntity
  8
0
  6
CONTINUOUS
 62
               2
100
AcDbLine
 10
2.5
 20
13.0
 30
0.0
 11
7.4999999999999432
 21
13.0
 31
0.0
  0
CIRCLE
  5
D1
100
AcDbEntity
  8
0
  6
CONTINUOUS
 62
               7
100
AcDbCircle
 10
5.0
 20
13.0
 30
0.0
 40
1.25
  0
CIRCLE
  5
D2
100
AcDbEntity
  8
0
  6
CONTINUOUS
 62
               7
100
AcDbCircle
 10
4.5
 20
18.75
 30
0.0
 40
0.6
  0
CIRCLE
  5
D3
100
AcDbEntity
  8
0
  6
CONTINUOUS
 62
               7
100
AcDbCircle
 10
4.5
 20
25.250000000000057
 30
0.0
 40
0.6
  0
LINE
  5
D4
100
AcDbEntity
  8
0
  6
CONTINUOUS
 62
               2
100
AcDbLine
 10
3.5
 20
18.75
 30
0.0
 11
5.5
 21
18.75
 31
0.0
  0
LINE
  5
D5
100
AcDbEntity
  8
0
  6
CONTINUOUS
 62
               2
100
AcDbLine
 10
3.5
 20
25.250000000000057
 30
0.0
 11
5.5
 21
25.250000000000057
 31
0.0
  0
LINE
  5
D6
100
AcDbEntity
  8
0
  6
CONTINUOUS
 62
               7
100
AcDbLine
 10
-0.5
 20
35.0
 30
0.0
 11
-0.5
 21
25.200000000000045
 31
0.0
  0
LINE
  5
D7
100
AcDbEntity
  8
0
  6
CONTINUOUS
 62
               7
100
AcDbLine
 10
13.799999999999955
 20
34.5
 30
0.0
 11
13.799999999999955
 21
9.5
 31
0.0
  0
ARC
  5
D8
100
AcDbEntity
  8
0
  6
CONTINUOUS
 62
               7
100
AcDbCircle
 10
11.0
 20
13.5
 30
0.0
 40
3.0
100
AcDbArc
 50
90.0
 51
270.0
  0
LINE
  5
D9
100
AcDbEntity
  8
0
  6
CONTINUOUS
 62
               7
100
AcDbLine
 10
10.278311967849731
 20
12.25
 30
0.0
 11
11.721688032150269
 21
12.25
 31
0.0
  0
LINE
  5
DA
100
AcDbEntity
  8
0
  6
CONTINUOUS
 62
               7
100
AcDbLine
 10
10.278312087059021
 20
14.75
 30
0.0
 11
11.721687912940979
 21
14.75
 31
0.0
  0
LINE
  5
DB
100
AcDbEntity
  8
0
  6
CONTINUOUS
 62
               7
100
AcDbLine
 10
10.278312044043048
 20
12.250000079734718
 30
0.0
 11
9.5566243363432477
 21
13.500000069276894
 31
0.0
  0
LINE
  5
DC
100
AcDbEntity
  8
0
  6
CONTINUOUS
 62
               7
100
AcDbLine
 10
12.443374837750468
 20
13.499999453886062
 30
0.0
 11
11.721687130050668
 21
14.749999443428237
 31
0.0
  0
LINE
  5
DD
100
AcDbEntity
  8
0
  6
CONTINUOUS
 62
               7
100
AcDbLine
 10
9.5566251622494747
 20
13.499999453886062
 30
0.0
 11
10.278312869949275
 21
14.749999443428237
 31
0.0
  0
LINE
  5
DE
100
AcDbEntity
  8
0
  6
CONTINUOUS
 62
               7
100
AcDbLine
 10
11.721687955956895
 20
12.250000079734718
 30
0.0
 11
12.443375663656695
 21
13.500000069276894
 31
0.0
  0
CIRCLE
  5
DF
100
AcDbEntity
  8
0
  6
CONTINUOUS
 62
               7
100
AcDbCircle
 10
11.0
 20
13.5
 30
0.0
 40
2.75
  0
CIRCLE
  5
E0
100
AcDbEntity
  8
0
  6
CONTINUOUS
 62
               7
100
AcDbCircle
 10
10.99999988079071
 20
13.5
 30
0.0
 40
2.4035892486572266
  0
LINE
  5
E1
100
AcDbEntity
  8
0
  6
CENTER
 62
               2
100
AcDbLine
 10
-2.9560299056583972
 20
22.0
 30
0.0
 11
15.366814659256306
 21
22.0
 31
0.0
  0
LINE
  5
E2
100
AcDbEntity
  8
0
  6
CONTINUOUS
 62
               2
100
AcDbLine
 10
4.5
 20
28.0
 30
0.0
 11
4.5
 21
16.0
 31
0.0
  0
LINE
  5
E3
100
AcDbEntity
  8
0
  6
CONTINUOUS
 62
               7
100
AcDbLine
 10
14.0
 20
34.5
 30
0.0
 11
14.0
 21
9.4999999999998863
 31
0.0
  0
LINE
  5
E4
100
AcDbEntity
  8
0
  6
CONTINUOUS
 62
               7
100
AcDbLine
 10
-2.0
 20
34.5
 30
0.0
 11
-0.5
 21
34.5
 31
0.0
  0
LINE
  5
E5
100
AcDbEntity
  8
0
  6
CONTINUOUS
 62
               7
100
AcDbLine
 10
-2.0
 20
9.5
 30
0.0
 11
-0.5
 21
9.5
 31
0.0
  0
LINE
  5
E6
100
AcDbEntity
  8
0
  6
CONTINUOUS
 62
               7
100
AcDbLine
 10
-0.5
 20
9.0
 30
0.0
 11
13.5
 21
9.0
 31
0.0
  0
LINE
  5
E7
100
AcDbEntity
  8
0
  6
CONTINUOUS
 62
               7
100
AcDbLine
 10
13.0
 20
8.3000000000000114
 30
0.0
 11
13.0
 21
0.0
 31
0.0
  0
LINE
  5
E8
100
AcDbEntity
  8
0
  6
CONTINUOUS
 62
               7
100
AcDbLine
 10
13.0
 20
8.3000000000000114
 30
0.0
 11
-4.0
 21
8.3000000000000114
 31
0.0
  0
LINE
  5
E9
100
AcDbEntity
  8
0
  6
CONTINUOUS
 62
               7
100
AcDbLine
 10
8.0
 20
9.0
 30
0.0
 11
8.0
 21
8.3000000000000114
 31
0.0
  0
LINE
  5
EA
100
AcDbEntity
  8
0
  6
CONTINUOUS
 62
               7
100
AcDbLine
 10
13.0
 20
0.0
 30
0.0
 11
-4.0
 21
0.0
 31
0.0
  0
LINE
  5
EB
100
AcDbEntity
  8
0
  6
CONTINUOUS
 62
               7
100
AcDbLine
 10
4.0
 20
4.0
 30
0.0
 11
-4.0
 21
4.0
 31
0.0
  0
LINE
  5
EC
100
AcDbEntity
  8
0
  6
CONTINUOUS
 62
               7
100
AcDbLine
 10
4.0
 20
4.0
 30
0.0
 11
4.0
 21
8.3000000000000114
 31
0.0
  0
LINE
  5
ED
100
AcDbEntity
  8
0
  6
CONTINUOUS
 62
               7
100
AcDbLine
 10
-2.0
 20
11.000000007980816
 30
0.0
 11
-3.2000000000000455
 21
11.000000007980816
 31
0.0
  0
LINE
  5
EE
100
AcDbEntity
  8
0
  6
CONTINUOUS
 62
               7
100
AcDbLine
 10
-3.2000000000000455
 20
8.3000000000000114
 30
0.0
 11
-3.2000000000000455
 21
11.000000007980816
 31
0.0
  0
LINE
  5
EF
100
AcDbEntity
  8
0
  6
CONTINUOUS
 62
               7
100
AcDbLine
 10
-4.0
 20
0.0
 30
0.0
 11
-4.0
 21
8.3000000000000114
 31
0.0
  0
CIRCLE
  5
F0
100
AcDbEntity
  8
0
  6
CONTINUOUS
 62
               2
100
AcDbCircle
 10
8.0
 20
6.0
 30
0.0
 40
1.25
  0
LINE
  5
F1
100
AcDbEntity
  8
0
  6
CONTINUOUS
 62
               7
100
AcDbLine
 10
8.0000000186514626
 20
5.1339745794538203
 30
0.0
 11
7.2499999697701583
 21
5.5669873219499095
 31
0.0
  0
LINE
  5
F2
100
AcDbEntity
  8
0
  6
CONTINUOUS
 62
               7
100
AcDbLine
 10
8.7500000238418352
 20
5.5669873058795929
 30
0.0
 11
7.9999999642371904
 21
5.1339745819568634
 31
0.0
  0
CIRCLE
  5
F3
100
AcDbEntity
  8
0
  6
CONTINUOUS
 62
               7
100
AcDbCircle
 10
8.0
 20
6.0
 30
0.0
 40
1.5
  0
LINE
  5
F4
100
AcDbEntity
  8
0
  6
CONTINUOUS
 62
               7
100
AcDbLine
 10
7.2499999948096274
 20
5.5669872735742274
 30
0.0
 11
7.2500000055329679
 21
6.4330127399930461
 31
0.0
  0
LINE
  5
F5
100
AcDbEntity
  8
0
  6
CONTINUOUS
 62
               7
100
AcDbLine
 10
7.249999976158108
 20
6.4330126941204071
 30
0.0
 11
8.0000000357627528
 21
6.8660254180431366
 31
0.0
  0
LINE
  5
F6
100
AcDbEntity
  8
0
  6
CONTINUOUS
 62
               7
100
AcDbLine
 10
7.9999999813484806
 20
6.8660254205462365
 30
0.0
 11
8.7500000302297849
 21
6.4330126780500905
 31
0.0
  0
LINE
  5
F7
100
AcDbEntity
  8
0
  6
CONTINUOUS
 62
               7
100
AcDbLine
 10
8.7500000051903157
 20
6.4330127264257726
 30
0.0
 11
8.7499999944669753
 21
5.5669872600069539
 31
0.0
  0
LINE
  5
F8
100
AcDbEntity
  8
0
  6
CONTINUOUS
 62
               2
100
AcDbLine
 10
-4.5
 20
31.5
 30
0.0
 11
0.5
 21
31.5
 31
0.0
  0
LINE
  5
F9
100
AcDbEntity
  8
0
  6
CONTINUOUS
 62
               2
100
AcDbLine
 10
-4.5
 20
12.5
 30
0.0
 11
0.5
 21
12.5
 31
0.0
  0
LINE
  5
FA
100
AcDbEntity
  8
0
  6
CONTINUOUS
 62
               7
100
AcDbLine
 10
0.8999999999999773
 20
44.500000000000071
 30
0.0
 11
0.8999999999999773
 21
35.0
 31
0.0
  0
LINE
  5
FB
100
AcDbEntity
  8
0
  6
CONTINUOUS
 62
               7
100
AcDbLine
 10
6.6999999999999318
 20
38.5
 30
0.0
 11
6.6999999999999318
 21
35.0
 31
0.0
  0
ARC
  5
FC
100
AcDbEntity
  8
0
  6
CONTINUOUS
 62
               7
100
AcDbCircle
 10
10.299999999999983
 20
40.5
 30
0.0
 40
2.0
100
AcDbArc
 50
269.99999999999994
 51
359.99999999999994
  0
LINE
  5
FD
100
AcDbEntity
  8
0
  6
CONTINUOUS
 62
               7
100
AcDbLine
 10
12.299999999999983
 20
44.500000000000057
 30
0.0
 11
12.299999999999983
 21
40.5
 31
0.0
  0
LINE
  5
FE
100
AcDbEntity
  8
0
  6
CONTINUOUS
 62
               7
100
AcDbLine
 10
10.799999999999983
 20
44.200000000000045
 30
0.0
 11
10.799999999999983
 21
44.000000000000057
 31
0.0
  0
LINE
  5
FF
100
AcDbEntity
  8
0
  6
CONTINUOUS
 62
               7
100
AcDbLine
 10
10.799999999999983
 20
44.000000000000057
 30
0.0
 11
11.299999999999983
 21
43.500000000000057
 31
0.0
  0
ARC
  5
100
100
AcDbEntity
  8
0
  6
CONTINUOUS
 62
               7
100
AcDbCircle
 10
11.099523973635343
 20
44.20047602636464
 30
0.0
 40
0.2995243519038812
100
AcDbArc
 50
89.908941249896912
 51
180.091058750104
  0
LINE
  5
101
100
AcDbEntity
  8
0
  6
CONTINUOUS
 62
               7
100
AcDbLine
 10
11.299999999999983
 20
43.500000000000057
 30
0.0
 11
11.299999999999983
 21
41.900000000000063
 31
0.0
  0
LINE
  5
102
100
AcDbEntity
  8
0
  6
CONTINUOUS
 62
               7
100
AcDbLine
 10
11.099999999999937
 20
44.500000000000057
 30
0.0
 11
12.299999999999983
 21
44.500000000000057
 31
0.0
  0
ARC
  5
103
100
AcDbEntity
  8
0
  6
CONTINUOUS
 62
               7
100
AcDbCircle
 10
9.1999999999999318
 20
41.900000000000063
 30
0.0
 40
2.1000000111152071
100
AcDbArc
 50
180.0
 51
0.0
  0
LINE
  5
104
100
AcDbEntity
  8
0
  6
CONTINUOUS
 62
               7
100
AcDbLine
 10
7.5999999999999091
 20
44.20000000000006
 30
0.0
 11
7.5999999999999091
 21
44.000000000000057
 31
0.0
  0
LINE
  5
105
100
AcDbEntity
  8
0
  6
CONTINUOUS
 62
               7
100
AcDbLine
 10
7.0999999999999091
 20
43.500000000000057
 30
0.0
 11
7.5999999999999091
 21
44.000000000000057
 31
0.0
  0
ARC
  5
106
100
AcDbEntity
  8
0
  6
CONTINUOUS
 62
               7
100
AcDbCircle
 10
7.2993006134913685
 20
44.199300613491431
 30
0.0
 40
0.3007001998472195
100
AcDbArc
 50
0.1332620708018084
 51
89.866737929199033
  0
LINE
  5
107
100
AcDbEntity
  8
0
  6
CONTINUOUS
 62
               7
100
AcDbLine
 10
7.0999999999999091
 20
43.500000000000057
 30
0.0
 11
7.0999999999999091
 21
41.900000000000063
 31
0.0
  0
ARC
  5
108
100
AcDbEntity
  8
0
  6
CONTINUOUS
 62
               7
100
AcDbCircle
 10
2.1004760263645039
 20
44.200476026364655
 30
0.0
 40
0.2995243519038812
100
AcDbArc
 50
359.90894124989592
 51
90.091058750103045
  0
ARC
  5
109
100
AcDbEntity
  8
0
  6
CONTINUOUS
 62
               7
100
AcDbCircle
 10
5.9006993865085633
 20
44.199300613491431
 30
0.0
 40
0.3007001998472195
100
AcDbArc
 50
90.133262070800924
 51
179.86673792919814
  0
ARC
  5
10A
100
AcDbEntity
  8
0
  6
CONTINUOUS
 62
               7
100
AcDbCircle
 10
4.0
 20
41.900000000000063
 30
0.0
 40
2.1000000111152071
100
AcDbArc
 50
179.99999999999994
 51
359.99999999999994
  0
LINE
  5
10B
100
AcDbEntity
  8
0
  6
CONTINUOUS
 62
               7
100
AcDbLine
 10
6.0999999999999091
 20
43.500000000000057
 30
0.0
 11
5.5999999999999091
 21
44.000000000000057
 31
0.0
  0
LINE
  5
10C
100
AcDbEntity
  8
0
  6
CONTINUOUS
 62
               7
100
AcDbLine
 10
2.3999999999999773
 20
44.000000000000057
 30
0.0
 11
1.8999999999999773
 21
43.500000000000057
 31
0.0
  0
LINE
  5
10D
100
AcDbEntity
  8
0
  6
CONTINUOUS
 62
               7
100
AcDbLine
 10
1.8999999999999773
 20
43.500000000000057
 30
0.0
 11
1.8999999999999773
 21
41.900000000000063
 31
0.0
  0
LINE
  5
10E
100
AcDbEntity
  8
0
  6
CONTINUOUS
 62
               7
100
AcDbLine
 10
6.0999999999999091
 20
43.500000000000057
 30
0.0
 11
6.0999999999999091
 21
41.900000000000063
 31
0.0
  0
LINE
  5
10F
100
AcDbEntity
  8
0
  6
CONTINUOUS
 62
               7
100
AcDbLine
 10
7.2999999999999545
 20
44.500000000000057
 30
0.0
 11
5.9006993865085633
 21
44.500000000000057
 31
0.0
  0
LINE
  5
110
100
AcDbEntity
  8
0
  6
CONTINUOUS
 62
               7
100
AcDbLine
 10
5.5999999999999091
 20
44.20000000000006
 30
0.0
 11
5.5999999999999091
 21
44.000000000000057
 31
0.0
  0
LINE
  5
111
100
AcDbEntity
  8
0
  6
CONTINUOUS
 62
               7
100
AcDbLine
 10
2.3999999999999773
 20
44.20000000000006
 30
0.0
 11
2.3999999999999773
 21
44.000000000000057
 31
0.0
  0
LINE
  5
112
100
AcDbEntity
  8
0
  6
CONTINUOUS
 62
               7
100
AcDbLine
 10
2.1000000000000227
 20
44.500000000000057
 30
0.0
 11
0.8999999999999773
 21
44.500000000000071
 31
0.0
  0
LINE
  5
113
100
AcDbEntity
  8
0
  6
CONTINUOUS
 62
               7
100
AcDbLine
 10
10.299999999999983
 20
38.5
 30
0.0
 11
6.6999999999999318
 21
38.5
 31
0.0
  0
LINE
  5
114
100
AcDbEntity
  8
0
  6
CONTINUOUS
 62
               7
100
AcDbLine
 10
9.0999999999999091
 20
37.700000000000003
 30
0.0
 11
6.6999999999999318
 21
37.700000000000003
 31
0.0
  0
LINE
  5
115
100
AcDbEntity
  8
0
  6
CONTINUOUS
 62
               7
100
AcDbLine
 10
9.1999999999999318
 20
35.0
 30
0.0
 11
9.1999999999999318
 21
36.0
 31
0.0
  0
LINE
  5
116
100
AcDbEntity
  8
0
  6
CONTINUOUS
 62
               7
100
AcDbLine
 10
12.799999999999926
 20
36.0
 30
0.0
 11
12.799999999999926
 21
35.0
 31
0.0
  0
LINE
  5
117
100
AcDbEntity
  8
0
  6
CONTINUOUS
 62
               7
100
AcDbLine
 10
12.899999999999949
 20
37.700000000000017
 30
0.0
 11
9.0999999999999091
 21
37.700000000000017
 31
0.0
  0
LINE
  5
118
100
AcDbEntity
  8
0
  6
CONTINUOUS
 62
               7
100
AcDbLine
 10
12.599999999999937
 20
38.0
 30
0.0
 11
12.899999999999949
 21
37.700000000000017
 31
0.0
  0
LINE
  5
119
100
AcDbEntity
  8
0
  6
CONTINUOUS
 62
               7
100
AcDbLine
 10
9.3999999999999773
 20
38.0
 30
0.0
 11
9.0999999999999091
 21
37.700000000000017
 31
0.0
  0
LINE
  5
11A
100
AcDbEntity
  8
0
  6
CONTINUOUS
 62
               7
100
AcDbLine
 10
12.899999999999949
 20
37.700000000000017
 30
0.0
 11
12.899999999999949
 21
36.0
 31
0.0
  0
LINE
  5
11B
100
AcDbEntity
  8
0
  6
CONTINUOUS
 62
               7
100
AcDbLine
 10
9.0999999999999091
 20
37.700000000000017
 30
0.0
 11
9.0999999999999091
 21
36.0
 31
0.0
  0
LINE
  5
11C
100
AcDbEntity
  8
0
  6
CONTINUOUS
 62
               7
100
AcDbLine
 10
12.599999999999937
 20
38.0
 30
0.0
 11
9.3999999999999773
 21
38.0
 31
0.0
  0
LINE
  5
11D
100
AcDbEntity
  8
0
  6
CONTINUOUS
 62
               7
100
AcDbLine
 10
12.899999999999949
 20
36.0
 30
0.0
 11
6.6999999999999318
 21
36.0
 31
0.0
  0
LINE
  5
11E
100
AcDbEntity
  8
0
  6
CONTINUOUS
 62
               2
100
AcDbLine
 10
3.9999999999999432
 20
45.421064405906037
 30
0.0
 11
3.9999999999999432
 21
38.762026915600941
 31
0.0
  0
LINE
  5
11F
100
AcDbEntity
  8
0
  6
CONTINUOUS
 62
               2
100
AcDbLine
 10
9.1999999999999318
 20
45.421064405906037
 30
0.0
 11
9.1999999999999318
 21
38.762026915600941
 31
0.0
  0
LINE
  5
120
100
AcDbEntity
  8
0
  6
CONTINUOUS
 62
               2
100
AcDbLine
 10
0.0
 20
-1.2000000000000028
 30
0.0
 11
0.0
 21
5.2000000000000028
 31
0.0
  0
ENDBLK
  5
121
100
AcDbEntity
  8
0
100
AcDbBlockEnd
  0
BLOCK
  5
122
100
AcDbEntity
  8
0
100
AcDbBlockBegin
  2
MGALGS10-3
 70
               0
 10
0.0
 20
0.0
 30
0.0
  3
MGALGS10-3
  1

  0
LINE
  5
123
100
AcDbEntity
  8
0
  6
CONTINUOUS
 62
               7
100
AcDbLine
 10
1.7999999999999829
 20
25.5
 30
0.0
 11
2.0
 21
25.700000000000045
 31
0.0
  0
LINE
  5
124
100
AcDbEntity
  8
0
  6
CONTINUOUS
 62
               7
100
AcDbLine
 10
1.7999999999999829
 20
18.5
 30
0.0
 11
2.0
 21
18.300000000000011
 31
0.0
  0
ARC
  5
125
100
AcDbEntity
  8
0
  6
CONTINUOUS
 62
               7
100
AcDbCircle
 10
-10.0
 20
16.917349939951976
 30
0.0
 40
0.4
100
AcDbArc
 50
69.512684885277253
 51
110.48731511472275
  0
ARC
  5
126
100
AcDbEntity
  8
0
  6
CONTINUOUS
 62
               7
100
AcDbCircle
 10
-10.070000000000022
 20
16.730000000000018
 30
0.0
 40
0.6000000000000001
100
AcDbArc
 50
26.743683950403376
 51
69.512684885277253
  0
ARC
  5
127
100
AcDbEntity
  8
0
  6
CONTINUOUS
 62
               7
100
AcDbCircle
 10
-9.9299999999999784
 20
16.730000000000018
 30
0.0
 40
0.6000000000000001
100
AcDbArc
 50
110.48731511472272
 51
153.25631604959662
  0
LINE
  5
128
100
AcDbEntity
  8
0
  6
CONTINUOUS
 62
               7
100
AcDbLine
 10
-10.800000000000011
 20
17.0
 30
0.0
 11
-10.465817132984768
 21
17.0
 31
0.0
  0
ARC
  5
129
100
AcDbEntity
  8
0
  6
CONTINUOUS
 62
               7
100
AcDbCircle
 10
-10.0
 20
16.800000000000068
 30
0.0
 40
0.5
100
AcDbArc
 50
11.536959032814146
 51
168.46304096718586
  0
LINE
  5
12A
100
AcDbEntity
  8
0
  6
CONTINUOUS
 62
               7
100
AcDbLine
 10
-9.5341828670152324
 20
17.0
 30
0.0
 11
-8.5
 21
17.0
 31
0.0
  0
LINE
  5
12B
100
AcDbEntity
  8
0
  6
CONTINUOUS
 62
               7
100
AcDbLine
 10
2.0
 20
9.5
 30
0.0
 11
2.0
 21
18.300000000000011
 31
0.0
  0
LINE
  5
12C
100
AcDbEntity
  8
0
  6
CONTINUOUS
 62
               7
100
AcDbLine
 10
2.0
 20
25.700000000000045
 30
0.0
 11
2.0
 21
34.5
 31
0.0
  0
LINE
  5
12D
100
AcDbEntity
  8
0
  6
CONTINUOUS
 62
               7
100
AcDbLine
 10
-9.0
 20
9.0
 30
0.0
 11
-9.0
 21
16.600000000000023
 31
0.0
  0
LINE
  5
12E
100
AcDbEntity
  8
0
  6
CONTINUOUS
 62
               7
100
AcDbLine
 10
-14.0
 20
34.5
 30
0.0
 11
-13.500000000000114
 21
35.0
 31
0.0
  0
LINE
  5
12F
100
AcDbEntity
  8
0
  6
CONTINUOUS
 62
               7
100
AcDbLine
 10
-14.0
 20
9.5
 30
0.0
 11
-13.500000000000142
 21
9.0
 31
0.0
  0
CIRCLE
  5
130
100
AcDbEntity
  8
0
  6
CONTINUOUS
 62
               7
100
AcDbCircle
 10
-11.0
 20
14.5
 30
0.0
 40
1.0
  0
LINE
  5
131
100
AcDbEntity
  8
0
  6
CONTINUOUS
 62
               7
100
AcDbLine
 10
-10.434314575050763
 20
15.065685424949265
 30
0.0
 11
-11.565685424949265
 21
13.934314575050792
 31
0.0
  0
LINE
  5
132
100
AcDbEntity
  8
0
  6
CONTINUOUS
 62
               7
100
AcDbLine
 10
-10.434314575050763
 20
13.934314575050792
 30
0.0
 11
-11.565685424949265
 21
15.065685424949265
 31
0.0
  0
CIRCLE
  5
133
100
AcDbEntity
  8
0
  6
CONTINUOUS
 62
               7
100
AcDbCircle
 10
-11.0
 20
29.5
 30
0.0
 40
1.0
  0
LINE
  5
134
100
AcDbEntity
  8
0
  6
CONTINUOUS
 62
               7
100
AcDbLine
 10
-10.434314575050735
 20
30.065685424949265
 30
0.0
 11
-11.565685424949237
 21
28.934314575050792
 31
0.0
  0
LINE
  5
135
100
AcDbEntity
  8
0
  6
CONTINUOUS
 62
               7
100
AcDbLine
 10
-10.434314575050735
 20
28.934314575050792
 30
0.0
 11
-11.565685424949237
 21
30.065685424949265
 31
0.0
  0
LINE
  5
136
100
AcDbEntity
  8
0
  6
CENTER
 62
               2
100
AcDbLine
 10
2.9560299056583688
 20
22.0
 30
0.0
 11
-15.366814659256335
 21
22.0
 31
0.0
  0
LINE
  5
137
100
AcDbEntity
  8
0
  6
CONTINUOUS
 62
               2
100
AcDbLine
 10
-4.5
 20
24.5
 30
0.0
 11
-4.5
 21
19.5
 31
0.0
  0
LINE
  5
138
100
AcDbEntity
  8
0
  6
CONTINUOUS
 62
               7
100
AcDbLine
 10
-8.5
 20
34.499999978616074
 30
0.0
 11
-8.5
 21
26.5
 31
0.0
  0
LINE
  5
139
100
AcDbEntity
  8
0
  6
CONTINUOUS
 62
               7
100
AcDbLine
 10
-14.0
 20
34.5
 30
0.0
 11
-14.0
 21
9.5
 31
0.0
  0
LINE
  5
13A
100
AcDbEntity
  8
0
  6
CONTINUOUS
 62
               7
100
AcDbLine
 10
2.0
 20
34.5
 30
0.0
 11
-8.5
 21
34.5
 31
0.0
  0
LINE
  5
13B
100
AcDbEntity
  8
0
  6
CONTINUOUS
 62
               7
100
AcDbLine
 10
2.0
 20
9.5
 30
0.0
 11
-8.5
 21
9.5
 31
0.0
  0
LINE
  5
13C
100
AcDbEntity
  8
0
  6
CONTINUOUS
 62
               7
100
AcDbLine
 10
-8.0
 20
9.0
 30
0.0
 11
-13.500000000000142
 21
9.0
 31
0.0
  0
LINE
  5
13D
100
AcDbEntity
  8
0
  6
CONTINUOUS
 62
               7
100
AcDbLine
 10
0.5
 20
35.0
 30
0.0
 11
-0.8999999999999773
 21
35.0
 31
0.0
  0
LINE
  5
13E
100
AcDbEntity
  8
0
  6
CONTINUOUS
 62
               7
100
AcDbLine
 10
-8.5
 20
17.5
 30
0.0
 11
-8.5
 21
9.5
 31
0.0
  0
LINE
  5
13F
100
AcDbEntity
  8
0
  6
CONTINUOUS
 62
               7
100
AcDbLine
 10
-10.799999999999983
 20
17.0
 30
0.0
 11
-10.800000000000011
 21
27.0
 31
0.0
  0
LINE
  5
140
100
AcDbEntity
  8
0
  6
CONTINUOUS
 62
               7
100
AcDbLine
 10
-9.0
 20
35.0
 30
0.0
 11
-9.0
 21
27.400000000000034
 31
0.0
  0
LINE
  5
141
100
AcDbEntity
  8
0
  6
CONTINUOUS
 62
               7
100
AcDbLine
 10
-9.5341828670152324
 20
27.0
 30
0.0
 11
-8.5
 21
27.0
 31
0.0
  0
ARC
  5
142
100
AcDbEntity
  8
0
  6
CONTINUOUS
 62
               7
100
AcDbCircle
 10
-10.0
 20
27.200000000000045
 30
0.0
 40
0.5
100
AcDbArc
 50
191.53695903281414
 51
348.4630409671858
  0
LINE
  5
143
100
AcDbEntity
  8
0
  6
CONTINUOUS
 62
               7
100
AcDbLine
 10
-10.800000000000011
 20
27.0
 30
0.0
 11
-10.465817132984768
 21
27.0
 31
0.0
  0
ARC
  5
144
100
AcDbEntity
  8
0
  6
CONTINUOUS
 62
               7
100
AcDbCircle
 10
-9.9299999999999784
 20
27.270000000000039
 30
0.0
 40
0.6000000000000001
100
AcDbArc
 50
206.74368395040338
 51
249.51268488527725
  0
ARC
  5
145
100
AcDbEntity
  8
0
  6
CONTINUOUS
 62
               7
100
AcDbCircle
 10
-10.070000000000022
 20
27.270000000000039
 30
0.0
 40
0.6000000000000001
100
AcDbArc
 50
290.48731511472278
 51
333.25631604959665
  0
ARC
  5
146
100
AcDbEntity
  8
0
  6
CONTINUOUS
 62
               7
100
AcDbCircle
 10
-10.0
 20
27.082650060048081
 30
0.0
 40
0.4
100
AcDbArc
 50
249.51268488527725
 51
290.48731511472278
  0
LINE
  5
147
100
AcDbEntity
  8
0
  6
CONTINUOUS
 62
               7
100
AcDbLine
 10
0.5
 20
34.5
 30
0.0
 11
0.5
 21
35.0
 31
0.0
  0
LINE
  5
148
100
AcDbEntity
  8
0
  6
CONTINUOUS
 62
               7
100
AcDbLine
 10
-13.699999999999989
 20
12.700000000000045
 30
0.0
 11
-13.699999999999989
 21
31.300000000000011
 31
0.0
  0
LINE
  5
149
100
AcDbEntity
  8
0
  6
CONTINUOUS
 62
               7
100
AcDbLine
 10
-9.1999999999999886
 20
31.300000000000011
 30
0.0
 11
-13.699999999999989
 21
31.300000000000011
 31
0.0
  0
LINE
  5
14A
100
AcDbEntity
  8
0
  6
CONTINUOUS
 62
               7
100
AcDbLine
 10
-9.1999999999999886
 20
12.700000000000045
 30
0.0
 11
-13.699999999999989
 21
12.700000000000045
 31
0.0
  0
LINE
  5
14B
100
AcDbEntity
  8
0
  6
CONTINUOUS
 62
               7
100
AcDbLine
 10
-9.1999999999999886
 20
12.700000000000045
 30
0.0
 11
-9.1999999999999886
 21
16.900000000000034
 31
0.0
  0
LINE
  5
14C
100
AcDbEntity
  8
0
  6
CONTINUOUS
 62
               7
100
AcDbLine
 10
-9.1999999999999886
 20
16.900000000000034
 30
0.0
 11
-11.199999999999989
 21
16.900000000000034
 31
0.0
  0
LINE
  5
14D
100
AcDbEntity
  8
0
  6
CONTINUOUS
 62
               7
100
AcDbLine
 10
-9.1999999999999886
 20
31.300000000000011
 30
0.0
 11
-9.1999999999999886
 21
27.100000000000023
 31
0.0
  0
LINE
  5
14E
100
AcDbEntity
  8
0
  6
CONTINUOUS
 62
               7
100
AcDbLine
 10
-9.1999999999999886
 20
27.100000000000023
 30
0.0
 11
-11.199999999999989
 21
27.100000000000023
 31
0.0
  0
LINE
  5
14F
100
AcDbEntity
  8
0
  6
CONTINUOUS
 62
               7
100
AcDbLine
 10
-11.199999999999989
 20
27.100000000000023
 30
0.0
 11
-11.199999999999989
 21
16.900000000000034
 31
0.0
  0
LINE
  5
150
100
AcDbEntity
  8
0
  6
CONTINUOUS
 62
               7
100
AcDbLine
 10
-9.1999999999999886
 20
27.400000000000034
 30
0.0
 11
-9.0
 21
27.400000000000034
 31
0.0
  0
LINE
  5
151
100
AcDbEntity
  8
0
  6
CONTINUOUS
 62
               7
100
AcDbLine
 10
-9.1999999999999886
 20
16.600000000000023
 30
0.0
 11
-9.0
 21
16.600000000000023
 31
0.0
  0
LINE
  5
152
100
AcDbEntity
  8
0
  6
CONTINUOUS
 62
               7
100
AcDbLine
 10
-2.7216880321502686
 20
12.75
 30
0.0
 11
-1.2783119678497314
 21
12.75
 31
0.0
  0
LINE
  5
153
100
AcDbEntity
  8
0
  6
CONTINUOUS
 62
               7
100
AcDbLine
 10
-2.721687912940979
 20
15.25
 30
0.0
 11
-1.278312087059021
 21
15.25
 31
0.0
  0
LINE
  5
154
100
AcDbEntity
  8
0
  6
CONTINUOUS
 62
               7
100
AcDbLine
 10
-2.7216879559569236
 20
12.750000079734718
 30
0.0
 11
-3.4433756636567239
 21
14.000000069276894
 31
0.0
  0
LINE
  5
155
100
AcDbEntity
  8
0
  6
CONTINUOUS
 62
               7
100
AcDbLine
 10
-0.5566251622495031
 20
13.999999453886062
 30
0.0
 11
-1.2783128699493034
 21
15.249999443428237
 31
0.0
  0
LINE
  5
156
100
AcDbEntity
  8
0
  6
CONTINUOUS
 62
               7
100
AcDbLine
 10
-3.4433748377504969
 20
13.999999453886062
 30
0.0
 11
-2.7216871300506966
 21
15.249999443428237
 31
0.0
  0
LINE
  5
157
100
AcDbEntity
  8
0
  6
CONTINUOUS
 62
               7
100
AcDbLine
 10
-1.2783120440430764
 20
12.750000079734718
 30
0.0
 11
-0.5566243363432761
 21
14.000000069276894
 31
0.0
  0
CIRCLE
  5
158
100
AcDbEntity
  8
0
  6
CONTINUOUS
 62
               7
100
AcDbCircle
 10
-2.0
 20
14.0
 30
0.0
 40
2.75
  0
CIRCLE
  5
159
100
AcDbEntity
  8
0
  6
CONTINUOUS
 62
               7
100
AcDbCircle
 10
-2.0000001192092896
 20
14.0
 30
0.0
 40
2.4035892486572266
  0
LINE
  5
15A
100
AcDbEntity
  8
0
  6
CONTINUOUS
 62
               7
100
AcDbLine
 10
-8.5
 20
26.5
 30
0.0
 11
-10.5
 21
26.5
 31
0.0
  0
LINE
  5
15B
100
AcDbEntity
  8
0
  6
CONTINUOUS
 62
               7
100
AcDbLine
 10
-10.5
 20
26.5
 30
0.0
 11
-10.5
 21
17.5
 31
0.0
  0
LINE
  5
15C
100
AcDbEntity
  8
0
  6
CONTINUOUS
 62
               7
100
AcDbLine
 10
-8.5
 20
17.5
 30
0.0
 11
-10.5
 21
17.5
 31
0.0
  0
LINE
  5
15D
100
AcDbEntity
  8
0
  6
CONTINUOUS
 62
               7
100
AcDbLine
 10
1.7999999999999829
 20
10.0
 30
0.0
 11
-8.5
 21
10.0
 31
0.0
  0
LINE
  5
15E
100
AcDbEntity
  8
0
  6
CONTINUOUS
 62
               7
100
AcDbLine
 10
1.7999999999999829
 20
34.0
 30
0.0
 11
-8.5
 21
34.0
 31
0.0
  0
LINE
  5
15F
100
AcDbEntity
  8
0
  6
CONTINUOUS
 62
               7
100
AcDbLine
 10
1.7999999999999829
 20
10.0
 30
0.0
 11
1.7999999999999829
 21
34.0
 31
0.0
  0
CIRCLE
  5
160
100
AcDbEntity
  8
0
  6
CONTINUOUS
 62
               7
100
AcDbCircle
 10
-4.5
 20
22.0
 30
0.0
 40
1.25
  0
CIRCLE
  5
161
100
AcDbEntity
  8
0
  6
CONTINUOUS
 62
               2
100
AcDbCircle
 10
-4.5
 20
22.0
 30
0.0
 40
1.5
  0
CIRCLE
  5
162
100
AcDbEntity
  8
0
  6
CONTINUOUS
 62
               7
100
AcDbCircle
 10
-2.0
 20
14.0
 30
0.0
 40
3.25
  0
LINE
  5
163
100
AcDbEntity
  8
0
  6
CONTINUOUS
 62
               7
100
AcDbLine
 10
-0.5566251622495031
 20
30.000000546114052
 30
0.0
 11
-1.2783128699493034
 21
28.750000556571877
 31
0.0
  0
LINE
  5
164
100
AcDbEntity
  8
0
  6
CONTINUOUS
 62
               7
100
AcDbLine
 10
-1.2783120440430764
 20
31.249999920265282
 30
0.0
 11
-0.5566243363432761
 21
29.999999930723106
 31
0.0
  0
CIRCLE
  5
165
100
AcDbEntity
  8
0
  6
CONTINUOUS
 62
               7
100
AcDbCircle
 10
-2.0
 20
30.0
 30
0.0
 40
2.75
  0
CIRCLE
  5
166
100
AcDbEntity
  8
0
  6
CONTINUOUS
 62
               7
100
AcDbCircle
 10
-2.0000001192092896
 20
30.0
 30
0.0
 40
2.4035892486572266
  0
CIRCLE
  5
167
100
AcDbEntity
  8
0
  6
CONTINUOUS
 62
               7
100
AcDbCircle
 10
-2.0
 20
30.0
 30
0.0
 40
3.25
  0
LINE
  5
168
100
AcDbEntity
  8
0
  6
CONTINUOUS
 62
               7
100
AcDbLine
 10
-3.4433748377504969
 20
30.000000546114052
 30
0.0
 11
-2.7216871300506966
 21
28.750000556571877
 31
0.0
  0
LINE
  5
169
100
AcDbEntity
  8
0
  6
CONTINUOUS
 62
               7
100
AcDbLine
 10
-2.7216879559569236
 20
31.249999920265282
 30
0.0
 11
-3.4433756636567239
 21
29.999999930723106
 31
0.0
  0
LINE
  5
16A
100
AcDbEntity
  8
0
  6
CONTINUOUS
 62
               7
100
AcDbLine
 10
-2.721687912940979
 20
28.75
 30
0.0
 11
-1.278312087059021
 21
28.75
 31
0.0
  0
LINE
  5
16B
100
AcDbEntity
  8
0
  6
CONTINUOUS
 62
               7
100
AcDbLine
 10
-2.7216880321502686
 20
31.25
 30
0.0
 11
-1.2783119678497314
 21
31.25
 31
0.0
  0
LINE
  5
16C
100
AcDbEntity
  8
0
  6
CONTINUOUS
 62
               2
100
AcDbLine
 10
-8.0
 20
8.25
 30
0.0
 11
-8.0
 21
3.75
 31
0.0
  0
LINE
  5
16D
100
AcDbEntity
  8
0
  6
CONTINUOUS
 62
               7
100
AcDbLine
 10
-13.0
 20
8.3000000000000114
 30
0.0
 11
-13.0
 21
0.0
 31
0.0
  0
LINE
  5
16E
100
AcDbEntity
  8
0
  6
CONTINUOUS
 62
               7
100
AcDbLine
 10
-13.0
 20
8.3000000000000114
 30
0.0
 11
4.0
 21
8.3000000000000114
 31
0.0
  0
CIRCLE
  5
16F
100
AcDbEntity
  8
0
  6
CONTINUOUS
 62
               7
100
AcDbCircle
 10
-8.0
 20
6.0
 30
0.0
 40
1.25
  0
CIRCLE
  5
170
100
AcDbEntity
  8
0
  6
CONTINUOUS
 62
               2
100
AcDbCircle
 10
-8.0
 20
6.0
 30
0.0
 40
1.5
  0
LINE
  5
171
100
AcDbEntity
  8
0
  6
CONTINUOUS
 62
               7
100
AcDbLine
 10
-8.0
 20
9.5
 30
0.0
 11
-8.0
 21
8.3000000000000114
 31
0.0
  0
LINE
  5
172
100
AcDbEntity
  8
0
  6
CONTINUOUS
 62
               7
100
AcDbLine
 10
-13.0
 20
0.0
 30
0.0
 11
4.0
 21
0.0
 31
0.0
  0
LINE
  5
173
100
AcDbEntity
  8
0
  6
CONTINUOUS
 62
               2
100
AcDbLine
 10
-10.25
 20
6.0
 30
0.0
 11
-5.75
 21
6.0
 31
0.0
  0
LINE
  5
174
100
AcDbEntity
  8
0
  6
CONTINUOUS
 62
               7
100
AcDbLine
 10
-4.0
 20
4.0
 30
0.0
 11
4.0
 21
4.0
 31
0.0
  0
LINE
  5
175
100
AcDbEntity
  8
0
  6
CONTINUOUS
 62
               7
100
AcDbLine
 10
-4.0
 20
4.0
 30
0.0
 11
-4.0
 21
8.3000000000000114
 31
0.0
  0
LINE
  5
176
100
AcDbEntity
  8
0
  6
CONTINUOUS
 62
               7
100
AcDbLine
 10
2.0
 20
11.000000007980816
 30
0.0
 11
3.1999999999999886
 21
11.000000007980816
 31
0.0
  0
LINE
  5
177
100
AcDbEntity
  8
0
  6
CONTINUOUS
 62
               7
100
AcDbLine
 10
3.1999999999999886
 20
8.3000000000000114
 30
0.0
 11
3.1999999999999886
 21
11.000000007980816
 31
0.0
  0
LINE
  5
178
100
AcDbEntity
  8
0
  6
CONTINUOUS
 62
               7
100
AcDbLine
 10
4.0
 20
0.0
 30
0.0
 11
4.0
 21
8.3000000000000114
 31
0.0
  0
LINE
  5
179
100
AcDbEntity
  8
0
  6
CONTINUOUS
 62
               2
100
AcDbLine
 10
4.5000000000000284
 20
31.5
 30
0.0
 11
-0.4999999999999716
 21
31.5
 31
0.0
  0
LINE
  5
17A
100
AcDbEntity
  8
0
  6
CONTINUOUS
 62
               2
100
AcDbLine
 10
4.5000000000000284
 20
12.5
 30
0.0
 11
-0.4999999999999716
 21
12.5
 31
0.0
  0
LINE
  5
17B
100
AcDbEntity
  8
0
  6
CONTINUOUS
 62
               7
100
AcDbLine
 10
-12.899999999999977
 20
36.0
 30
0.0
 11
-6.6999999999999886
 21
36.0
 31
0.0
  0
LINE
  5
17C
100
AcDbEntity
  8
0
  6
CONTINUOUS
 62
               7
100
AcDbLine
 10
-12.600000000000023
 20
38.0
 30
0.0
 11
-9.3999999999999773
 21
38.0
 31
0.0
  0
LINE
  5
17D
100
AcDbEntity
  8
0
  6
CONTINUOUS
 62
               7
100
AcDbLine
 10
-9.1000000000000227
 20
37.700000000000017
 30
0.0
 11
-9.1000000000000227
 21
36.0
 31
0.0
  0
LINE
  5
17E
100
AcDbEntity
  8
0
  6
CONTINUOUS
 62
               7
100
AcDbLine
 10
-12.899999999999977
 20
37.700000000000017
 30
0.0
 11
-12.899999999999977
 21
36.0
 31
0.0
  0
LINE
  5
17F
100
AcDbEntity
  8
0
  6
CONTINUOUS
 62
               7
100
AcDbLine
 10
-9.3999999999999773
 20
38.0
 30
0.0
 11
-9.1000000000000227
 21
37.700000000000017
 31
0.0
  0
LINE
  5
180
100
AcDbEntity
  8
0
  6
CONTINUOUS
 62
               7
100
AcDbLine
 10
-12.600000000000023
 20
38.0
 30
0.0
 11
-12.899999999999977
 21
37.700000000000017
 31
0.0
  0
LINE
  5
181
100
AcDbEntity
  8
0
  6
CONTINUOUS
 62
               7
100
AcDbLine
 10
-12.899999999999977
 20
37.700000000000017
 30
0.0
 11
-9.1000000000000227
 21
37.700000000000017
 31
0.0
  0
ARC
  5
182
100
AcDbEntity
  8
0
  6
CONTINUOUS
 62
               7
100
AcDbCircle
 10
-10.299999999999955
 20
40.5
 30
0.0
 40
2.0
100
AcDbArc
 50
180.0
 51
270.0
  0
LINE
  5
183
100
AcDbEntity
  8
0
  6
CONTINUOUS
 62
               7
100
AcDbLine
 10
-12.299999999999955
 20
44.500000000000085
 30
0.0
 11
-12.299999999999955
 21
40.5
 31
0.0
  0
LINE
  5
184
100
AcDbEntity
  8
0
  6
CONTINUOUS
 62
               7
100
AcDbLine
 10
-10.799999999999955
 20
44.200000000000074
 30
0.0
 11
-10.799999999999955
 21
44.000000000000057
 31
0.0
  0
LINE
  5
185
100
AcDbEntity
  8
0
  6
CONTINUOUS
 62
               7
100
AcDbLine
 10
-10.799999999999955
 20
44.000000000000057
 30
0.0
 11
-11.299999999999955
 21
43.500000000000057
 31
0.0
  0
ARC
  5
186
100
AcDbEntity
  8
0
  6
CONTINUOUS
 62
               7
100
AcDbCircle
 10
-11.099523973635428
 20
44.200476026364669
 30
0.0
 40
0.2995243519038812
100
AcDbArc
 50
359.90894124989592
 51
90.091058750103045
  0
LINE
  5
187
100
AcDbEntity
  8
0
  6
CONTINUOUS
 62
               7
100
AcDbLine
 10
-11.299999999999955
 20
43.500000000000057
 30
0.0
 11
-11.299999999999955
 21
41.900000000000063
 31
0.0
  0
LINE
  5
188
100
AcDbEntity
  8
0
  6
CONTINUOUS
 62
               7
100
AcDbLine
 10
-11.099999999999966
 20
44.500000000000057
 30
0.0
 11
-12.299999999999955
 21
44.500000000000085
 31
0.0
  0
ARC
  5
189
100
AcDbEntity
  8
0
  6
CONTINUOUS
 62
               7
100
AcDbCircle
 10
-9.1999999999999886
 20
41.900000000000063
 30
0.0
 40
2.1000000111152071
100
AcDbArc
 50
180.0
 51
0.0
  0
LINE
  5
18A
100
AcDbEntity
  8
0
  6
CONTINUOUS
 62
               7
100
AcDbLine
 10
-7.6000000000000227
 20
44.200000000000074
 30
0.0
 11
-7.6000000000000227
 21
44.000000000000057
 31
0.0
  0
LINE
  5
18B
100
AcDbEntity
  8
0
  6
CONTINUOUS
 62
               7
100
AcDbLine
 10
-7.1000000000000227
 20
43.500000000000057
 30
0.0
 11
-7.6000000000000227
 21
44.000000000000057
 31
0.0
  0
ARC
  5
18C
100
AcDbEntity
  8
0
  6
CONTINUOUS
 62
               7
100
AcDbCircle
 10
-7.2993006134913685
 20
44.199300613491431
 30
0.0
 40
0.3007001998472195
100
AcDbArc
 50
90.133262070800924
 51
179.86673792919814
  0
LINE
  5
18D
100
AcDbEntity
  8
0
  6
CONTINUOUS
 62
               7
100
AcDbLine
 10
-7.1000000000000227
 20
43.500000000000057
 30
0.0
 11
-7.1000000000000227
 21
41.900000000000063
 31
0.0
  0
ARC
  5
18E
100
AcDbEntity
  8
0
  6
CONTINUOUS
 62
               7
100
AcDbCircle
 10
-2.1004760263646176
 20
44.200476026364669
 30
0.0
 40
0.2995243519038812
100
AcDbArc
 50
89.908941249896955
 51
180.09105875010405
  0
ARC
  5
18F
100
AcDbEntity
  8
0
  6
CONTINUOUS
 62
               7
100
AcDbCircle
 10
-5.9006993865086201
 20
44.199300613491431
 30
0.0
 40
0.3007001998472195
100
AcDbArc
 50
0.1332620708018593
 51
89.866737929199076
  0
ARC
  5
190
100
AcDbEntity
  8
0
  6
CONTINUOUS
 62
               7
100
AcDbCircle
 10
-4.0
 20
41.900000000000063
 30
0.0
 40
2.1000000111152071
100
AcDbArc
 50
180.0
 51
0.0
  0
LINE
  5
191
100
AcDbEntity
  8
0
  6
CONTINUOUS
 62
               7
100
AcDbLine
 10
-6.1000000000000227
 20
43.500000000000057
 30
0.0
 11
-5.5999999999999659
 21
44.000000000000057
 31
0.0
  0
LINE
  5
192
100
AcDbEntity
  8
0
  6
CONTINUOUS
 62
               7
100
AcDbLine
 10
-2.3999999999999773
 20
44.000000000000057
 30
0.0
 11
-1.8999999999999773
 21
43.500000000000057
 31
0.0
  0
LINE
  5
193
100
AcDbEntity
  8
0
  6
CONTINUOUS
 62
               7
100
AcDbLine
 10
-1.8999999999999773
 20
43.500000000000057
 30
0.0
 11
-1.8999999999999773
 21
41.900000000000063
 31
0.0
  0
LINE
  5
194
100
AcDbEntity
  8
0
  6
CONTINUOUS
 62
               7
100
AcDbLine
 10
-6.1000000000000227
 20
43.500000000000057
 30
0.0
 11
-6.1000000000000227
 21
41.900000000000063
 31
0.0
  0
LINE
  5
195
100
AcDbEntity
  8
0
  6
CONTINUOUS
 62
               7
100
AcDbLine
 10
-7.2999999999999545
 20
44.500000000000057
 30
0.0
 11
-5.9006993865086201
 21
44.500000000000057
 31
0.0
  0
LINE
  5
196
100
AcDbEntity
  8
0
  6
CONTINUOUS
 62
               7
100
AcDbLine
 10
-5.5999999999999659
 20
44.200000000000074
 30
0.0
 11
-5.5999999999999659
 21
44.000000000000057
 31
0.0
  0
LINE
  5
197
100
AcDbEntity
  8
0
  6
CONTINUOUS
 62
               7
100
AcDbLine
 10
-2.3999999999999773
 20
44.200000000000074
 30
0.0
 11
-2.3999999999999773
 21
44.000000000000057
 31
0.0
  0
LINE
  5
198
100
AcDbEntity
  8
0
  6
CONTINUOUS
 62
               7
100
AcDbLine
 10
-2.1000000000000227
 20
44.500000000000057
 30
0.0
 11
-0.8999999999999773
 21
44.500000000000085
 31
0.0
  0
LINE
  5
199
100
AcDbEntity
  8
0
  6
CONTINUOUS
 62
               7
100
AcDbLine
 10
-10.299999999999955
 20
38.5
 30
0.0
 11
-6.6999999999999886
 21
38.5
 31
0.0
  0
LINE
  5
19A
100
AcDbEntity
  8
0
  6
CONTINUOUS
 62
               7
100
AcDbLine
 10
-9.1000000000000227
 20
37.700000000000017
 30
0.0
 11
-6.6999999999999886
 21
37.700000000000017
 31
0.0
  0
LINE
  5
19B
100
AcDbEntity
  8
0
  6
CONTINUOUS
 62
               7
100
AcDbLine
 10
-6.6999999999999886
 20
38.5
 30
0.0
 11
-6.6999999999999886
 21
34.5
 31
0.0
  0
LINE
  5
19C
100
AcDbEntity
  8
0
  6
CONTINUOUS
 62
               7
100
AcDbLine
 10
-0.8999999999999773
 20
44.500000000000085
 30
0.0
 11
-0.8999999999999773
 21
34.5
 31
0.0
  0
LINE
  5
19D
100
AcDbEntity
  8
0
  6
CONTINUOUS
 62
               7
100
AcDbLine
 10
-9.1999999999999886
 20
35.0
 30
0.0
 11
-9.1999999999999886
 21
36.0
 31
0.0
  0
LINE
  5
19E
100
AcDbEntity
  8
0
  6
CONTINUOUS
 62
               7
100
AcDbLine
 10
-12.799999999999955
 20
36.0
 30
0.0
 11
-12.799999999999955
 21
35.0
 31
0.0
  0
LINE
  5
19F
100
AcDbEntity
  8
0
  6
CONTINUOUS
 62
               7
100
AcDbLine
 10
-6.6999999999999886
 20
35.0
 30
0.0
 11
-13.500000000000114
 21
35.0
 31
0.0
  0
LINE
  5
1A0
100
AcDbEntity
  8
0
  6
CONTINUOUS
 62
               2
100
AcDbLine
 10
-9.1999999999999886
 20
45.421064405906037
 30
0.0
 11
-9.1999999999999886
 21
38.762026915600941
 31
0.0
  0
LINE
  5
1A1
100
AcDbEntity
  8
0
  6
CONTINUOUS
 62
               2
100
AcDbLine
 10
-4.0
 20
45.421064405906037
 30
0.0
 11
-4.0
 21
38.762026915600941
 31
0.0
  0
LINE
  5
1A2
100
AcDbEntity
  8
0
  6
CONTINUOUS
 62
               2
100
AcDbLine
 10
0.0
 20
-1.2000000000000028
 30
0.0
 11
0.0
 21
5.2000000000000028
 31
0.0
  0
ENDBLK
  5
1A3
100
AcDbEntity
  8
0
100
AcDbBlockEnd
  0
BLOCK
  5
1A4
100
AcDbEntity
  8
0
100
AcDbBlockBegin
  2
MGALGS10-4
 70
               0
 10
0.0
 20
0.0
 30
0.0
  3
MGALGS10-4
  1

  0
LINE
  5
1A5
100
AcDbEntity
  8
0
  6
CONTINUOUS
 62
               7
100
AcDbLine
 10
-17.00000000253732
 20
-13.299999999999955
 30
0.0
 11
-1.5000000025373197
 21
-13.299999999999955
 31
0.0
  0
LINE
  5
1A6
100
AcDbEntity
  8
0
  6
CONTINUOUS
 62
               7
100
AcDbLine
 10
1.9999999974627372
 20
-6.5
 30
0.0
 11
3.9999999974626803
 21
-6.5
 31
0.0
  0
LINE
  5
1A7
100
AcDbEntity
  8
0
  6
CONTINUOUS
 62
               7
100
AcDbLine
 10
1.9999999974626803
 20
-2.5
 30
0.0
 11
3.9999999974626803
 21
-2.5
 31
0.0
  0
LINE
  5
1A8
100
AcDbEntity
  8
0
  6
CONTINUOUS
 62
               7
100
AcDbLine
 10
-17.00000000253732
 20
-13.799999999999955
 30
0.0
 11
-1.5000000025373197
 21
-13.799999999999955
 31
0.0
  0
LINE
  5
1A9
100
AcDbEntity
  8
0
  6
CONTINUOUS
 62
               7
100
AcDbLine
 10
-4.2000000025371946
 20
-7.1999999999999886
 30
0.0
 11
-0.000000002537206
 21
-7.1999999999999886
 31
0.0
  0
LINE
  5
1AA
100
AcDbEntity
  8
0
  6
PHANTOM
 62
               2
100
AcDbLine
 10
-0.5000000025373197
 20
-8.5
 30
0.0
 11
1.1249999974627372
 21
-8.5
 31
0.0
  0
LINE
  5
1AB
100
AcDbEntity
  8
0
  6
PHANTOM
 62
               2
100
AcDbLine
 10
-0.5000000025373197
 20
-8.1499999999999773
 30
0.0
 11
1.1249999974627372
 21
-8.1499999999999773
 31
0.0
  0
LINE
  5
1AC
100
AcDbEntity
  8
0
  6
CONTINUOUS
 62
               7
100
AcDbLine
 10
-4.2000000025371946
 20
-1.7999999999999545
 30
0.0
 11
-0.000000002537206
 21
-1.7999999999999545
 31
0.0
  0
LINE
  5
1AD
100
AcDbEntity
  8
0
  6
PHANTOM
 62
               2
100
AcDbLine
 10
-5.5250000025372401
 20
-0.5
 30
0.0
 11
1.1249999974627372
 21
-0.5
 31
0.0
  0
LINE
  5
1AE
100
AcDbEntity
  8
0
  6
PHANTOM
 62
               2
100
AcDbLine
 10
-5.5250000025372401
 20
-0.8499999999999659
 30
0.0
 11
1.1249999974627372
 21
-0.8499999999999659
 31
0.0
  0
LINE
  5
1AF
100
AcDbEntity
  8
0
  6
CONTINUOUS
 62
               7
100
AcDbLine
 10
-6.5000000025373197
 20
-8.0
 30
0.0
 11
-0.5000000025373197
 21
-8.0
 31
0.0
  0
LINE
  5
1B0
100
AcDbEntity
  8
0
  6
CONTINUOUS
 62
               7
100
AcDbLine
 10
-5.7000000025371946
 20
0.5
 30
0.0
 11
-5.7000000025371946
 21
-8.0
 31
0.0
  0
LINE
  5
1B1
100
AcDbEntity
  8
0
  6
CONTINUOUS
 62
               7
100
AcDbLine
 10
-4.2000000025371946
 20
-1.1499999999999773
 30
0.0
 11
-5.7000000025371946
 21
-1.1499999999999773
 31
0.0
  0
LINE
  5
1B2
100
AcDbEntity
  8
0
  6
CONTINUOUS
 62
               7
100
AcDbLine
 10
-4.2000000025371946
 20
-1.1499999999999773
 30
0.0
 11
-4.2000000025371946
 21
-7.8499999999999659
 31
0.0
  0
CIRCLE
  5
1B3
100
AcDbEntity
  8
0
  6
CONTINUOUS
 62
               7
100
AcDbCircle
 10
-5.5250000025372401
 20
-0.6749999999999545
 30
0.0
 40
0.175
  0
LINE
  5
1B4
100
AcDbEntity
  8
0
  6
CONTINUOUS
 62
               7
100
AcDbLine
 10
-4.2000000025371946
 20
-7.8499999999999659
 30
0.0
 11
-5.7000000025371946
 21
-7.8499999999999659
 31
0.0
  0
LINE
  5
1B5
100
AcDbEntity
  8
0
  6
CONTINUOUS
 62
               7
100
AcDbLine
 10
-17.00000000253732
 20
-13.799999999999955
 30
0.0
 11
-17.00000000253732
 21
0.5
 31
0.0
  0
LINE
  5
1B6
100
AcDbEntity
  8
0
  6
CONTINUOUS
 62
               7
100
AcDbLine
 10
-6.5000000025373197
 20
-8.0
 30
0.0
 11
-6.5000000025373197
 21
0.5
 31
0.0
  0
LINE
  5
1B7
100
AcDbEntity
  8
0
  6
CONTINUOUS
 62
               7
100
AcDbLine
 10
-17.00000000253732
 20
0.5
 30
0.0
 11
-5.7000000025371946
 21
0.5
 31
0.0
  0
LINE
  5
1B8
100
AcDbEntity
  8
0
  6
CONTINUOUS
 62
               7
100
AcDbLine
 10
-0.5000000025373197
 20
-9.0
 30
0.0
 11
-0.5000000025373197
 21
-8.0
 31
0.0
  0
LINE
  5
1B9
100
AcDbEntity
  8
0
  6
CONTINUOUS
 62
               7
100
AcDbLine
 10
-0.000000002537206
 20
-1.1499999999999773
 30
0.0
 11
1.2999999974627485
 21
-1.1499999999999773
 31
0.0
  0
CIRCLE
  5
1BA
100
AcDbEntity
  8
0
  6
CONTINUOUS
 62
               7
100
AcDbCircle
 10
1.1249999974627372
 20
-0.6749999999999545
 30
0.0
 40
0.175
  0
CIRCLE
  5
1BB
100
AcDbEntity
  8
0
  6
CONTINUOUS
 62
               7
100
AcDbCircle
 10
1.1249999974627372
 20
-8.3249999999999886
 30
0.0
 40
0.175
  0
LINE
  5
1BC
100
AcDbEntity
  8
0
  6
CONTINUOUS
 62
               7
100
AcDbLine
 10
-0.000000002537206
 20
-7.8499999999999659
 30
0.0
 11
1.2999999974627485
 21
-7.8499999999999659
 31
0.0
  0
LINE
  5
1BD
100
AcDbEntity
  8
0
  6
CONTINUOUS
 62
               7
100
AcDbLine
 10
-0.000000002537206
 20
-7.8499999999999659
 30
0.0
 11
-0.000000002537206
 21
-1.1499999999999773
 31
0.0
  0
LINE
  5
1BE
100
AcDbEntity
  8
0
  6
CONTINUOUS
 62
               7
100
AcDbLine
 10
1.2999999974627485
 20
0.3000000000000114
 30
0.0
 11
1.9999999974627372
 21
0.3000000000000114
 31
0.0
  0
LINE
  5
1BF
100
AcDbEntity
  8
0
  6
CONTINUOUS
 62
               7
100
AcDbLine
 10
1.2999999974627485
 20
-6.1703293088489772
 30
0.0
 11
1.9999999974627372
 21
-6.1703293088489772
 31
0.0
  0
LINE
  5
1C0
100
AcDbEntity
  8
0
  6
CONTINUOUS
 62
               2
100
AcDbLine
 10
1.9999999974627372
 20
-6.25
 30
0.0
 11
2.4330126993550039
 21
-6.5
 31
0.0
  0
LINE
  5
1C1
100
AcDbEntity
  8
0
  6
CONTINUOUS
 62
               7
100
AcDbLine
 10
1.2999999974627485
 20
-2.8296706911509659
 30
0.0
 11
1.9999999974627372
 21
-2.8296706911509659
 31
0.0
  0
LINE
  5
1C2
100
AcDbEntity
  8
0
  6
CONTINUOUS
 62
               2
100
AcDbLine
 10
1.9999999974627372
 20
-2.75
 30
0.0
 11
2.4330126993550039
 21
-2.5
 31
0.0
  0
LINE
  5
1C3
100
AcDbEntity
  8
0
  6
CONTINUOUS
 62
               2
100
AcDbLine
 10
1.2999999974627485
 20
-2.8296706911509659
 30
0.0
 11
1.9999999974627372
 21
-6.1703293088489772
 31
0.0
  0
LINE
  5
1C4
100
AcDbEntity
  8
0
  6
CONTINUOUS
 62
               2
100
AcDbLine
 10
1.9999999974627372
 20
-2.8296706911509659
 30
0.0
 11
1.2999999974627485
 21
-6.1703293088489772
 31
0.0
  0
LINE
  5
1C5
100
AcDbEntity
  8
0
  6
CONTINUOUS
 62
               7
100
AcDbLine
 10
1.2999999974627485
 20
-9.0
 30
0.0
 11
1.2999999974627485
 21
0.3000000000000114
 31
0.0
  0
LINE
  5
1C6
100
AcDbEntity
  8
0
  6
CONTINUOUS
 62
               7
100
AcDbLine
 10
1.9999999974627372
 20
-9.0
 30
0.0
 11
1.9999999974627372
 21
0.3000000000000114
 31
0.0
  0
LINE
  5
1C7
100
AcDbEntity
  8
0
  6
CONTINUOUS
 62
               2
100
AcDbLine
 10
-8.367485557217833
 20
-4.5
 30
0.0
 11
5.5695706143485495
 21
-4.5
 31
0.0
  0
LINE
  5
1C8
100
AcDbEntity
  8
0
  6
CONTINUOUS
 62
               7
100
AcDbLine
 10
-1.5
 20
-13.5
 30
0.0
 11
40.0
 21
-13.5
 31
0.0
  0
LINE
  5
1C9
100
AcDbEntity
  8
0
  6
CONTINUOUS
 62
               7
100
AcDbLine
 10
-1.5
 20
-14.0
 30
0.0
 11
-1.5
 21
-9.0
 31
0.0
  0
LINE
  5
1CA
100
AcDbEntity
  8
0
  6
CONTINUOUS
 62
               7
100
AcDbLine
 10
-1.5
 20
-14.0
 30
0.0
 11
40.0
 21
-14.0
 31
0.0
  0
LINE
  5
1CB
100
AcDbEntity
  8
0
  6
CONTINUOUS
 62
               7
100
AcDbLine
 10
4.0
 20
-12.199999999999989
 30
0.0
 11
4.0
 21
4.0
 31
0.0
  0
LINE
  5
1CC
100
AcDbEntity
  8
0
  6
CONTINUOUS
 62
               7
100
AcDbLine
 10
40.0
 20
2.0
 30
0.0
 11
40.0
 21
-14.0
 31
0.0
  0
LINE
  5
1CD
100
AcDbEntity
  8
0
  6
CONTINUOUS
 62
               7
100
AcDbLine
 10
3.9999999974626803
 20
2.0
 30
0.0
 11
44.0
 21
2.0
 31
0.0
  0
LINE
  5
1CE
100
AcDbEntity
  8
0
  6
CONTINUOUS
 62
               7
100
AcDbLine
 10
40.000000023841835
 20
-9.1999999999999886
 30
0.0
 11
40.500000023841835
 21
-9.1999999999999886
 31
0.0
  0
LINE
  5
1CF
100
AcDbEntity
  8
0
  6
CONTINUOUS
 62
               7
100
AcDbLine
 10
40.000000023841835
 20
-13.699999999999989
 30
0.0
 11
40.500000023841835
 21
-13.699999999999989
 31
0.0
  0
LINE
  5
1D0
100
AcDbEntity
  8
0
  6
CONTINUOUS
 62
               7
100
AcDbLine
 10
40.5
 20
-9.1999999999999886
 30
0.0
 11
40.5
 21
-13.699999999999989
 31
0.0
  0
LINE
  5
1D1
100
AcDbEntity
  8
0
  6
CONTINUOUS
 62
               7
100
AcDbLine
 10
41.0
 20
-11.699999999999989
 30
0.0
 11
41.0
 21
-10.299999999999955
 31
0.0
  0
ARC
  5
1D2
100
AcDbEntity
  8
0
  6
CONTINUOUS
 62
               7
100
AcDbCircle
 10
40.699999999999989
 20
-10.299999999999955
 30
0.0
 40
0.3
100
AcDbArc
 50
0.0
 51
90.0
  0
ARC
  5
1D3
100
AcDbEntity
  8
0
  6
CONTINUOUS
 62
               7
100
AcDbCircle
 10
40.699999999999989
 20
-11.699999999999989
 30
0.0
 40
0.3
100
AcDbArc
 50
270.0
 51
0.0
  0
LINE
  5
1D4
100
AcDbEntity
  8
0
  6
CONTINUOUS
 62
               7
100
AcDbLine
 10
40.5
 20
-12.0
 30
0.0
 11
40.699999999999989
 21
-12.0
 31
0.0
  0
LINE
  5
1D5
100
AcDbEntity
  8
0
  6
CONTINUOUS
 62
               7
100
AcDbLine
 10
40.5
 20
-10.0
 30
0.0
 11
40.699999999999989
 21
-10.0
 31
0.0
  0
LINE
  5
1D6
100
AcDbEntity
  8
0
  6
CONTINUOUS
 62
               7
100
AcDbLine
 10
40.0
 20
1.8000000000000114
 30
0.0
 11
45.5
 21
1.8000000000000114
 31
0.0
  0
LINE
  5
1D7
100
AcDbEntity
  8
0
  6
CONTINUOUS
 62
               7
100
AcDbLine
 10
40.0
 20
-8.5
 30
0.0
 11
45.5
 21
-8.5
 31
0.0
  0
LINE
  5
1D8
100
AcDbEntity
  8
0
  6
CONTINUOUS
 62
               7
100
AcDbLine
 10
41.0
 20
-10.5
 30
0.0
 11
45.5
 21
-10.5
 31
0.0
  0
LINE
  5
1D9
100
AcDbEntity
  8
0
  6
CONTINUOUS
 62
               7
100
AcDbLine
 10
45.5
 20
-10.5
 30
0.0
 11
45.5
 21
1.8000000000000114
 31
0.0
  0
LINE
  5
1DA
100
AcDbEntity
  8
0
  6
CONTINUOUS
 62
               2
100
AcDbLine
 10
0.0
 20
-3.25
 30
0.0
 11
0.0
 21
3.25
 31
0.0
  0
LINE
  5
1DB
100
AcDbEntity
  8
0
  6
CONTINUOUS
 62
               2
100
AcDbLine
 10
3.25
 20
0.0
 30
0.0
 11
-3.25
 21
0.0
 31
0.0
  0
CIRCLE
  5
1DC
100
AcDbEntity
  8
0
  6
CONTINUOUS
 62
               7
100
AcDbCircle
 10
48.999999999999972
 20
0.0
 30
0.0
 40
2.25
  0
LINE
  5
1DD
100
AcDbEntity
  8
0
  6
CONTINUOUS
 62
               2
100
AcDbLine
 10
48.999999999999972
 20
-3.25
 30
0.0
 11
48.999999999999972
 21
3.25
 31
0.0
  0
LINE
  5
1DE
100
AcDbEntity
  8
0
  6
CONTINUOUS
 62
               2
100
AcDbLine
 10
52.249999999999972
 20
0.0
 30
0.0
 11
45.75
 21
0.0
 31
0.0
  0
LINE
  5
1DF
100
AcDbEntity
  8
0
  6
CONTINUOUS
 62
               7
100
AcDbLine
 10
-4.0
 20
4.0
 30
0.0
 11
52.999999999999972
 21
4.0
 31
0.0
  0
LINE
  5
1E0
100
AcDbEntity
  8
0
  6
CONTINUOUS
 62
               7
100
AcDbLine
 10
-4.0
 20
-1.7999999999999545
 30
0.0
 11
-4.0
 21
4.0
 31
0.0
  0
LINE
  5
1E1
100
AcDbEntity
  8
0
  6
CONTINUOUS
 62
               7
100
AcDbLine
 10
40.5
 20
-13.0
 30
0.0
 11
52.999999999999972
 21
-13.0
 31
0.0
  0
ARC
  5
1E2
100
AcDbEntity
  8
0
  6
CONTINUOUS
 62
               7
100
AcDbCircle
 10
0.0
 20
0.0
 30
0.0
 40
4.0
100
AcDbArc
 50
321.31781254651048
 51
0.0
  0
LINE
  5
1E3
100
AcDbEntity
  8
0
  6
CONTINUOUS
 62
               7
100
AcDbLine
 10
5.0
 20
2.0
 30
0.0
 11
5.0
 21
3.2000000000000455
 31
0.0
  0
LINE
  5
1E4
100
AcDbEntity
  8
0
  6
CONTINUOUS
 62
               7
100
AcDbLine
 10
45.0
 20
1.8000000000000114
 30
0.0
 11
45.0
 21
4.0
 31
0.0
  0
ARC
  5
1E5
100
AcDbEntity
  8
0
  6
CONTINUOUS
 62
               7
100
AcDbCircle
 10
48.999999999999972
 20
0.0
 30
0.0
 40
4.0
100
AcDbArc
 50
208.95502437185996
 51
270.0
  0
LINE
  5
1E6
100
AcDbEntity
  8
0
  6
CONTINUOUS
 62
               7
100
AcDbLine
 10
48.999999999999972
 20
-4.0
 30
0.0
 11
52.999999999999972
 21
-4.0
 31
0.0
  0
LINE
  5
1E7
100
AcDbEntity
  8
0
  6
CONTINUOUS
 62
               7
100
AcDbLine
 10
52.999999999999972
 20
-13.0
 30
0.0
 11
52.999999999999972
 21
4.0
 31
0.0
  0
LINE
  5
1E8
100
AcDbEntity
  8
0
  6
CONTINUOUS
 62
               7
100
AcDbLine
 10
44.0
 20
1.8000000000000114
 30
0.0
 11
44.0
 21
3.2000000000000455
 31
0.0
  0
LINE
  5
1E9
100
AcDbEntity
  8
0
  6
CONTINUOUS
 62
               7
100
AcDbLine
 10
5.0
 20
3.2000000000000455
 30
0.0
 11
44.0
 21
3.2000000000000455
 31
0.0
  0
ARC
  5
1EA
100
AcDbEntity
  8
0
  6
CONTINUOUS
 62
               7
100
AcDbCircle
 10
0.0
 20
0.0
 30
0.0
 40
2.25
100
AcDbArc
 50
332.7339555492656
 51
233.13010235415527
  0
LINE
  5
1EB
100
AcDbEntity
  8
0
  6
CONTINUOUS
 62
               2
100
AcDbLine
 10
10.99999999746268
 20
1.5
 30
0.0
 11
10.99999999746268
 21
6.5
 31
0.0
  0
LINE
  5
1EC
100
AcDbEntity
  8
0
  6
CONTINUOUS
 62
               2
100
AcDbLine
 10
26.99999999746268
 20
1.5
 30
0.0
 11
26.99999999746268
 21
6.5
 31
0.0
  0
LINE
  5
1ED
100
AcDbEntity
  8
0
  6
CONTINUOUS
 62
               7
100
AcDbLine
 10
38.999999999999972
 20
-8.5
 30
0.0
 11
45.499999999999972
 21
-8.5
 31
0.0
  0
LINE
  5
1EE
100
AcDbEntity
  8
0
  6
CONTINUOUS
 62
               7
100
AcDbLine
 10
-1.5000000000000284
 20
-9.0
 30
0.0
 11
3.9999999999999716
 21
-9.0
 31
0.0
  0
ARC
  5
1EF
100
AcDbEntity
  8
0
  6
CONTINUOUS
 62
               7
100
AcDbCircle
 10
18.999999999999972
 20
-11.0
 30
0.0
 40
1.9000000000000148
100
AcDbArc
 50
219.16671071611958
 51
320.83328928388045
  0
ARC
  5
1F0
100
AcDbEntity
  8
0
  6
CONTINUOUS
 62
               7
100
AcDbCircle
 10
18.999999999999972
 20
-11.0
 30
0.0
 40
1.6000000000000174
100
AcDbArc
 50
228.59037789072786
 51
311.40962210927211
  0
LINE
  5
1F1
100
AcDbEntity
  8
0
  6
CONTINUOUS
 62
               7
100
AcDbLine
 10
16.999999999999972
 20
-12.800000000000011
 30
0.0
 11
18.391723746970086
 21
-12.800000000000011
 31
0.0
  0
LINE
  5
1F2
100
AcDbEntity
  8
0
  6
CONTINUOUS
 62
               7
100
AcDbLine
 10
33.608276253029857
 20
-12.800000000000011
 30
0.0
 11
34.999999999999972
 21
-12.800000000000011
 31
0.0
  0
LINE
  5
1F3
100
AcDbEntity
  8
0
  6
CONTINUOUS
 62
               7
100
AcDbLine
 10
19.608276253029857
 20
-12.800000000000011
 30
0.0
 11
32.391723746970086
 21
-12.800000000000011
 31
0.0
  0
ARC
  5
1F4
100
AcDbEntity
  8
0
  6
CONTINUOUS
 62
               7
100
AcDbCircle
 10
32.999999999999972
 20
-11.0
 30
0.0
 40
1.6000000000000174
100
AcDbArc
 50
228.59037789072786
 51
311.40962210927211
  0
ARC
  5
1F5
100
AcDbEntity
  8
0
  6
CONTINUOUS
 62
               7
100
AcDbCircle
 10
32.999999999999972
 20
-11.0
 30
0.0
 40
1.9000000000000148
100
AcDbArc
 50
219.16671071611958
 51
320.83328928388045
  0
LINE
  5
1F6
100
AcDbEntity
  8
0
  6
CONTINUOUS
 62
               7
100
AcDbLine
 10
34.999999999999972
 20
-12.199999999999989
 30
0.0
 11
34.999999999999972
 21
-12.800000000000011
 31
0.0
  0
LINE
  5
1F7
100
AcDbEntity
  8
0
  6
CONTINUOUS
 62
               7
100
AcDbLine
 10
16.999999999999972
 20
-12.199999999999989
 30
0.0
 11
16.999999999999972
 21
-12.800000000000011
 31
0.0
  0
LINE
  5
1F8
100
AcDbEntity
  8
0
  6
CONTINUOUS
 62
               7
100
AcDbLine
 10
3.9999999999999716
 20
-12.199999999999989
 30
0.0
 11
38.999999999999972
 21
-12.199999999999989
 31
0.0
  0
LINE
  5
1F9
100
AcDbEntity
  8
0
  6
CONTINUOUS
 62
               7
100
AcDbLine
 10
3.9999999999999716
 20
-10.800000000000011
 30
0.0
 11
38.999999999999972
 21
-10.800000000000011
 31
0.0
  0
LINE
  5
1FA
100
AcDbEntity
  8
0
  6
CONTINUOUS
 62
               7
100
AcDbLine
 10
6.9999998632791574
 20
-4.8660254903786608
 30
0.0
 11
7.7500000233842172
 21
-4.4330126744466156
 31
0.0
  0
LINE
  5
1FB
100
AcDbEntity
  8
0
  6
CONTINUOUS
 62
               7
100
AcDbLine
 10
7.750000006632348
 20
-4.433012863593035
 30
0.0
 11
7.7499999879234736
 21
-3.5669872641336156
 31
0.0
  0
LINE
  5
1FC
100
AcDbEntity
  8
0
  6
CONTINUOUS
 62
               7
100
AcDbLine
 10
7.7500001433531622
 20
-3.5669873732143742
 30
0.0
 11
6.9999999645392279
 21
-3.1339745896869999
 31
0.0
  0
LINE
  5
1FD
100
AcDbEntity
  8
0
  6
CONTINUOUS
 62
               7
100
AcDbLine
 10
7.0000001367207858
 20
-3.1339745096213392
 30
0.0
 11
6.2499999766157259
 21
-3.5669873255533844
 31
0.0
  0
LINE
  5
1FE
100
AcDbEntity
  8
0
  6
CONTINUOUS
 62
               7
100
AcDbLine
 10
6.2499999933675952
 20
-3.566987136406965
 30
0.0
 11
6.2500000120764696
 21
-4.4330127358663844
 31
0.0
  0
LINE
  5
1FF
100
AcDbEntity
  8
0
  6
CONTINUOUS
 62
               7
100
AcDbLine
 10
6.2499998566467809
 20
-4.4330126267856258
 30
0.0
 11
7.0000000354607153
 21
-4.8660254103130001
 31
0.0
  0
CIRCLE
  5
200
100
AcDbEntity
  8
0
  6
CONTINUOUS
 62
               7
100
AcDbCircle
 10
6.9999999999999716
 20
-4.0
 30
0.0
 40
1.6000000000000174
  0
CIRCLE
  5
201
100
AcDbEntity
  8
0
  6
CONTINUOUS
 62
               7
100
AcDbCircle
 10
6.9999999999999716
 20
-4.0
 30
0.0
 40
1.9000000000000148
  0
CIRCLE
  5
202
100
AcDbEntity
  8
0
  6
CONTINUOUS
 62
               7
100
AcDbCircle
 10
6.9999999999999716
 20
-4.0
 30
0.0
 40
2.0499999999999998
  0
LINE
  5
203
100
AcDbEntity
  8
0
  6
CONTINUOUS
 62
               7
100
AcDbLine
 10
3.9999999999999716
 20
-2.3999999999999773
 30
0.0
 11
5.71839943820234
 21
-2.3999999999999773
 31
0.0
  0
LINE
  5
204
100
AcDbEntity
  8
0
  6
CONTINUOUS
 62
               7
100
AcDbLine
 10
3.9999999999999716
 20
-5.6000000000000227
 30
0.0
 11
5.71839943820234
 21
-5.6000000000000227
 31
0.0
  0
LINE
  5
205
100
AcDbEntity
  8
0
  6
CONTINUOUS
 62
               7
100
AcDbLine
 10
37.281600561797603
 20
-2.3999999999999773
 30
0.0
 11
38.999999999999972
 21
-2.3999999999999773
 31
0.0
  0
LINE
  5
206
100
AcDbEntity
  8
0
  6
CONTINUOUS
 62
               7
100
AcDbLine
 10
37.281600561797603
 20
-5.6000000000000227
 30
0.0
 11
38.999999999999972
 21
-5.6000000000000227
 31
0.0
  0
LINE
  5
207
100
AcDbEntity
  8
0
  6
CONTINUOUS
 62
               7
100
AcDbLine
 10
36.750000143353162
 20
-4.4330126267856258
 30
0.0
 11
35.999999964539228
 21
-4.8660254103130001
 31
0.0
  0
LINE
  5
208
100
AcDbEntity
  8
0
  6
CONTINUOUS
 62
               7
100
AcDbLine
 10
36.750000006632348
 20
-3.566987136406965
 30
0.0
 11
36.749999987923474
 21
-4.4330127358663844
 31
0.0
  0
LINE
  5
209
100
AcDbEntity
  8
0
  6
CONTINUOUS
 62
               7
100
AcDbLine
 10
35.999999863279157
 20
-3.1339745096213392
 30
0.0
 11
36.750000023384217
 21
-3.5669873255533844
 31
0.0
  0
LINE
  5
20A
100
AcDbEntity
  8
0
  6
CONTINUOUS
 62
               7
100
AcDbLine
 10
35.249999856646781
 20
-3.5669873732143742
 30
0.0
 11
36.000000035460715
 21
-3.1339745896869999
 31
0.0
  0
LINE
  5
20B
100
AcDbEntity
  8
0
  6
CONTINUOUS
 62
               7
100
AcDbLine
 10
35.249999993367595
 20
-4.433012863593035
 30
0.0
 11
35.25000001207647
 21
-3.5669872641336156
 31
0.0
  0
LINE
  5
20C
100
AcDbEntity
  8
0
  6
CONTINUOUS
 62
               7
100
AcDbLine
 10
36.000000136720786
 20
-4.8660254903786608
 30
0.0
 11
35.249999976615726
 21
-4.4330126744466156
 31
0.0
  0
CIRCLE
  5
20D
100
AcDbEntity
  8
0
  6
CONTINUOUS
 62
               7
100
AcDbCircle
 10
35.999999999999972
 20
-4.0
 30
0.0
 40
1.6000000000000174
  0
CIRCLE
  5
20E
100
AcDbEntity
  8
0
  6
CONTINUOUS
 62
               7
100
AcDbCircle
 10
35.999999999999972
 20
-4.0
 30
0.0
 40
2.0499999999999998
  0
CIRCLE
  5
20F
100
AcDbEntity
  8
0
  6
CONTINUOUS
 62
               7
100
AcDbCircle
 10
35.999999999999972
 20
-4.0
 30
0.0
 40
1.9000000000000148
  0
LINE
  5
210
100
AcDbEntity
  8
0
  6
CONTINUOUS
 62
               7
100
AcDbLine
 10
38.999999999999972
 20
-9.0
 30
0.0
 11
39.999999999999972
 21
-9.0
 31
0.0
  0
LINE
  5
211
100
AcDbEntity
  8
0
  6
CONTINUOUS
 62
               7
100
AcDbLine
 10
38.999999999999972
 20
-1.0
 30
0.0
 11
38.999999999999972
 21
-12.199999999999989
 31
0.0
  0
LINE
  5
212
100
AcDbEntity
  8
0
  6
CONTINUOUS
 62
               7
100
AcDbLine
 10
4.0000000235397408
 20
-1.0
 30
0.0
 11
38.999999999999972
 21
-1.0
 31
0.0
  0
LINE
  5
213
100
AcDbEntity
  8
0
  6
CONTINUOUS
 62
               7
100
AcDbLine
 10
8.2816005617976032
 20
-5.6000000000000227
 30
0.0
 11
34.71839943820234
 21
-5.6000000000000227
 31
0.0
  0
LINE
  5
214
100
AcDbEntity
  8
0
  6
CONTINUOUS
 62
               7
100
AcDbLine
 10
8.2816005617976032
 20
-2.3999999999999773
 30
0.0
 11
34.71839943820234
 21
-2.3999999999999773
 31
0.0
  0
LINE
  5
215
100
AcDbEntity
  8
0
  6
CONTINUOUS
 62
               7
100
AcDbLine
 10
3.9999999999999716
 20
-7.6000000000000227
 30
0.0
 11
38.999999999999972
 21
-7.6000000000000227
 31
0.0
  0
LINE
  5
216
100
AcDbEntity
  8
0
  6
CONTINUOUS
 62
               2
100
AcDbLine
 10
-19.50000000253732
 20
-5.0
 30
0.0
 11
-14.50000000253732
 21
-5.0
 31
0.0
  0
LINE
  5
217
100
AcDbEntity
  8
0
  6
PHANTOM
 62
               3
100
AcDbLine
 10
16.298648857191978
 20
14.0
 30
0.0
 11
16.298648857191978
 21
-23.562370927746713
 31
0.0
  0
ENDBLK
  5
218
100
AcDbEntity
  8
0
100
AcDbBlockEnd
  0
BLOCK
  5
219
100
AcDbEntity
  8
0
100
AcDbBlockBegin
  2
MGALGS10-5
 70
               0
 10
0.0
 20
0.0
 30
0.0
  3
MGALGS10-5
  1

  0
LINE
  5
21A
100
AcDbEntity
  8
0
  6
CONTINUOUS
 62
               7
100
AcDbLine
 10
-5.6999999999999318
 20
-0.5
 30
0.0
 11
-5.6999999999999318
 21
8.0
 31
0.0
  0
LINE
  5
21B
100
AcDbEntity
  8
0
  6
CONTINUOUS
 62
               7
100
AcDbLine
 10
-4.1999999999999318
 20
1.1500000000000341
 30
0.0
 11
-5.6999999999999318
 21
1.1500000000000341
 31
0.0
  0
LINE
  5
21C
100
AcDbEntity
  8
0
  6
CONTINUOUS
 62
               7
100
AcDbLine
 10
-4.1999999999999318
 20
1.1500000000000341
 30
0.0
 11
-4.1999999999999318
 21
7.8500000000000227
 31
0.0
  0
CIRCLE
  5
21D
100
AcDbEntity
  8
0
  6
CONTINUOUS
 62
               7
100
AcDbCircle
 10
-5.5249999999999204
 20
0.6750000000000114
 30
0.0
 40
0.175
  0
LINE
  5
21E
100
AcDbEntity
  8
0
  6
CONTINUOUS
 62
               7
100
AcDbLine
 10
-4.1999999999999318
 20
7.8500000000000227
 30
0.0
 11
-5.6999999999999318
 21
7.8500000000000227
 31
0.0
  0
LINE
  5
21F
100
AcDbEntity
  8
0
  6
CONTINUOUS
 62
               7
100
AcDbLine
 10
-17.0
 20
13.800000000000011
 30
0.0
 11
-17.0
 21
-0.5
 31
0.0
  0
LINE
  5
220
100
AcDbEntity
  8
0
  6
CONTINUOUS
 62
               7
100
AcDbLine
 10
-6.5
 20
8.0
 30
0.0
 11
-6.5
 21
-0.5
 31
0.0
  0
LINE
  5
221
100
AcDbEntity
  8
0
  6
CONTINUOUS
 62
               7
100
AcDbLine
 10
-17.0
 20
-0.5
 30
0.0
 11
-5.6999999999999318
 21
-0.5
 31
0.0
  0
LINE
  5
222
100
AcDbEntity
  8
0
  6
CONTINUOUS
 62
               7
100
AcDbLine
 10
-6.5
 20
8.0
 30
0.0
 11
-4.0
 21
8.0
 31
0.0
  0
LINE
  5
223
100
AcDbEntity
  8
0
  6
PHANTOM
 62
               2
100
AcDbLine
 10
-5.5249999999999204
 20
0.8500000000000227
 30
0.0
 11
-4.0
 21
0.8500000000000227
 31
0.0
  0
LINE
  5
224
100
AcDbEntity
  8
0
  6
PHANTOM
 62
               2
100
AcDbLine
 10
-5.5249999999999204
 20
0.5
 30
0.0
 11
-4.0
 21
0.5
 31
0.0
  0
LINE
  5
225
100
AcDbEntity
  8
0
  6
CONTINUOUS
 62
               7
100
AcDbLine
 10
-4.1999999999999318
 20
1.8000000000000114
 30
0.0
 11
-4.0
 21
1.8000000000000114
 31
0.0
  0
LINE
  5
226
100
AcDbEntity
  8
0
  6
CONTINUOUS
 62
               7
100
AcDbLine
 10
-4.1999999999999318
 20
7.2000000000000455
 30
0.0
 11
-4.0
 21
7.2000000000000455
 31
0.0
  0
LINE
  5
227
100
AcDbEntity
  8
0
  6
CONTINUOUS
 62
               7
100
AcDbLine
 10
-17.0
 20
13.800000000000011
 30
0.0
 11
-1.5
 21
13.800000000000011
 31
0.0
  0
LINE
  5
228
100
AcDbEntity
  8
0
  6
CONTINUOUS
 62
               2
100
AcDbLine
 10
-9.7095985875050701
 20
4.5
 30
0.0
 11
1.1340054225198628
 21
4.5
 31
0.0
  0
LINE
  5
229
100
AcDbEntity
  8
0
  6
CONTINUOUS
 62
               7
100
AcDbLine
 10
-17.0
 20
13.300000000000011
 30
0.0
 11
-1.5
 21
13.300000000000011
 31
0.0
  0
LINE
  5
22A
100
AcDbEntity
  8
0
  6
CONTINUOUS
 62
               7
100
AcDbLine
 10
31.500000004768367
 20
4.5773502697635422
 30
0.0
 11
32.500000016689285
 21
5.1547005464721565
 31
0.0
  0
LINE
  5
22B
100
AcDbEntity
  8
0
  6
CONTINUOUS
 62
               7
100
AcDbLine
 10
31.500000001887145
 20
3.4226497352269121
 30
0.0
 11
31.500000001335991
 21
4.5773502876894554
 31
0.0
  0
LINE
  5
22C
100
AcDbEntity
  8
0
  6
CONTINUOUS
 62
               7
100
AcDbLine
 10
32.499999997118778
 20
2.8452994654633699
 30
0.0
 11
31.499999984646706
 21
3.4226497412172989
 31
0.0
  0
LINE
  5
22D
100
AcDbEntity
  8
0
  6
CONTINUOUS
 62
               7
100
AcDbLine
 10
33.499999995231633
 20
3.4226497302365146
 30
0.0
 11
32.499999983310659
 21
2.8452994535279004
 31
0.0
  0
LINE
  5
22E
100
AcDbEntity
  8
0
  6
CONTINUOUS
 62
               7
100
AcDbLine
 10
33.499999998112798
 20
4.5773502647731448
 30
0.0
 11
33.499999998663952
 21
3.4226497123106014
 31
0.0
  0
LINE
  5
22F
100
AcDbEntity
  8
0
  6
CONTINUOUS
 62
               7
100
AcDbLine
 10
32.500000002881166
 20
5.154700534536687
 30
0.0
 11
33.500000015353294
 21
4.5773502587827579
 31
0.0
  0
CIRCLE
  5
230
100
AcDbEntity
  8
0
  6
CONTINUOUS
 62
               7
100
AcDbCircle
 10
32.5
 20
4.0
 30
0.0
 40
2.6000000000000001
  0
CIRCLE
  5
231
100
AcDbEntity
  8
0
  6
CONTINUOUS
 62
               7
100
AcDbCircle
 10
32.5
 20
4.0
 30
0.0
 40
3.5
  0
CIRCLE
  5
232
100
AcDbEntity
  8
0
  6
CONTINUOUS
 62
               7
100
AcDbCircle
 10
32.5
 20
4.0
 30
0.0
 40
4.25
  0
LINE
  5
233
100
AcDbEntity
  8
0
  6
CONTINUOUS
 62
               7
100
AcDbLine
 10
15.500000004768367
 20
4.5773502697635422
 30
0.0
 11
16.500000016689285
 21
5.1547005464721565
 31
0.0
  0
LINE
  5
234
100
AcDbEntity
  8
0
  6
CONTINUOUS
 62
               7
100
AcDbLine
 10
15.500000001887145
 20
3.4226497352269121
 30
0.0
 11
15.500000001335991
 21
4.5773502876894554
 31
0.0
  0
LINE
  5
235
100
AcDbEntity
  8
0
  6
CONTINUOUS
 62
               7
100
AcDbLine
 10
16.499999997118778
 20
2.8452994654633699
 30
0.0
 11
15.499999984646706
 21
3.4226497412172989
 31
0.0
  0
LINE
  5
236
100
AcDbEntity
  8
0
  6
CONTINUOUS
 62
               7
100
AcDbLine
 10
17.499999995231633
 20
3.4226497302365146
 30
0.0
 11
16.499999983310659
 21
2.8452994535279004
 31
0.0
  0
LINE
  5
237
100
AcDbEntity
  8
0
  6
CONTINUOUS
 62
               7
100
AcDbLine
 10
17.499999998112798
 20
4.5773502647731448
 30
0.0
 11
17.499999998663952
 21
3.4226497123106014
 31
0.0
  0
LINE
  5
238
100
AcDbEntity
  8
0
  6
CONTINUOUS
 62
               7
100
AcDbLine
 10
16.500000002881166
 20
5.154700534536687
 30
0.0
 11
17.500000015353294
 21
4.5773502587827579
 31
0.0
  0
CIRCLE
  5
239
100
AcDbEntity
  8
0
  6
CONTINUOUS
 62
               7
100
AcDbCircle
 10
16.5
 20
4.0
 30
0.0
 40
2.6000000000000001
  0
CIRCLE
  5
23A
100
AcDbEntity
  8
0
  6
CONTINUOUS
 62
               7
100
AcDbCircle
 10
16.5
 20
4.0
 30
0.0
 40
3.5
  0
CIRCLE
  5
23B
100
AcDbEntity
  8
0
  6
CONTINUOUS
 62
               7
100
AcDbCircle
 10
16.5
 20
4.0
 30
0.0
 40
4.25
  0
LINE
  5
23C
100
AcDbEntity
  8
0
  6
CONTINUOUS
 62
               7
100
AcDbLine
 10
40.0
 20
13.0
 30
0.0
 11
40.0
 21
14.0
 31
0.0
  0
LINE
  5
23D
100
AcDbEntity
  8
0
  6
CONTINUOUS
 62
               7
100
AcDbLine
 10
-1.5
 20
14.0
 30
0.0
 11
40.0
 21
14.0
 31
0.0
  0
LINE
  5
23E
100
AcDbEntity
  8
0
  6
CONTINUOUS
 62
               7
100
AcDbLine
 10
-1.5
 20
14.0
 30
0.0
 11
-1.5
 21
13.0
 31
0.0
  0
LINE
  5
23F
100
AcDbEntity
  8
0
  6
CONTINUOUS
 62
               7
100
AcDbLine
 10
-1.5
 20
13.5
 30
0.0
 11
40.0
 21
13.5
 31
0.0
  0
LINE
  5
240
100
AcDbEntity
  8
0
  6
CONTINUOUS
 62
               7
100
AcDbLine
 10
40.000000023841835
 20
13.700000000000045
 30
0.0
 11
40.500000023841835
 21
13.700000000000045
 31
0.0
  0
LINE
  5
241
100
AcDbEntity
  8
0
  6
CONTINUOUS
 62
               7
100
AcDbLine
 10
40.5
 20
13.0
 30
0.0
 11
40.5
 21
13.700000000000045
 31
0.0
  0
LINE
  5
242
100
AcDbEntity
  8
0
  6
CONTINUOUS
 62
               2
100
AcDbLine
 10
0.0
 20
3.25
 30
0.0
 11
0.0
 21
-3.25
 31
0.0
  0
LINE
  5
243
100
AcDbEntity
  8
0
  6
CONTINUOUS
 62
               2
100
AcDbLine
 10
3.25
 20
0.0
 30
0.0
 11
-3.25
 21
0.0
 31
0.0
  0
CIRCLE
  5
244
100
AcDbEntity
  8
0
  6
CONTINUOUS
 62
               7
100
AcDbCircle
 10
48.999999999999972
 20
0.0
 30
0.0
 40
2.25
  0
LINE
  5
245
100
AcDbEntity
  8
0
  6
CONTINUOUS
 62
               2
100
AcDbLine
 10
48.999999999999972
 20
3.25
 30
0.0
 11
48.999999999999972
 21
-3.25
 31
0.0
  0
LINE
  5
246
100
AcDbEntity
  8
0
  6
CONTINUOUS
 62
               2
100
AcDbLine
 10
52.249999999999972
 20
0.0
 30
0.0
 11
45.75
 21
0.0
 31
0.0
  0
LINE
  5
247
100
AcDbEntity
  8
0
  6
CONTINUOUS
 62
               7
100
AcDbLine
 10
-4.0
 20
-4.0
 30
0.0
 11
52.999999999999972
 21
-4.0
 31
0.0
  0
LINE
  5
248
100
AcDbEntity
  8
0
  6
CONTINUOUS
 62
               7
100
AcDbLine
 10
-4.0
 20
13.0
 30
0.0
 11
-4.0
 21
-4.0
 31
0.0
  0
LINE
  5
249
100
AcDbEntity
  8
0
  6
CONTINUOUS
 62
               7
100
AcDbLine
 10
-4.0
 20
13.0
 30
0.0
 11
52.999999999999972
 21
13.0
 31
0.0
  0
LINE
  5
24A
100
AcDbEntity
  8
0
  6
CONTINUOUS
 62
               7
100
AcDbLine
 10
52.999999999999972
 20
13.0
 30
0.0
 11
52.999999999999972
 21
-4.0
 31
0.0
  0
CIRCLE
  5
24B
100
AcDbEntity
  8
0
  6
CONTINUOUS
 62
               7
100
AcDbCircle
 10
0.0
 20
0.0
 30
0.0
 40
2.25
  0
LINE
  5
24C
100
AcDbEntity
  8
0
  6
CONTINUOUS
 62
               2
100
AcDbLine
 10
-2.5
 20
10.0
 30
0.0
 11
2.5
 21
10.0
 31
0.0
  0
LINE
  5
24D
100
AcDbEntity
  8
0
  6
CONTINUOUS
 62
               2
100
AcDbLine
 10
0.0
 20
7.5
 30
0.0
 11
0.0
 21
12.5
 31
0.0
  0
CIRCLE
  5
24E
100
AcDbEntity
  8
0
  6
CONTINUOUS
 62
               7
100
AcDbCircle
 10
0.0
 20
10.0
 30
0.0
 40
1.5
  0
LINE
  5
24F
100
AcDbEntity
  8
0
  6
CONTINUOUS
 62
               2
100
AcDbLine
 10
46.499999999999972
 20
10.0
 30
0.0
 11
51.499999999999972
 21
10.0
 31
0.0
  0
LINE
  5
250
100
AcDbEntity
  8
0
  6
CONTINUOUS
 62
               2
100
AcDbLine
 10
48.999999999999972
 20
7.5
 30
0.0
 11
48.999999999999972
 21
12.5
 31
0.0
  0
CIRCLE
  5
251
100
AcDbEntity
  8
0
  6
CONTINUOUS
 62
               7
100
AcDbCircle
 10
48.999999999999972
 20
10.0
 30
0.0
 40
1.5
  0
LINE
  5
252
100
AcDbEntity
  8
0
  6
CONTINUOUS
 62
               2
100
AcDbLine
 10
-19.5
 20
5.0
 30
0.0
 11
-14.5
 21
5.0
 31
0.0
  0
LINE
  5
253
100
AcDbEntity
  8
0
  6
PHANTOM
 62
               3
100
AcDbLine
 10
24.5
 20
24.0
 30
0.0
 11
24.5
 21
-17.257843759997442
 31
0.0
  0
ENDBLK
  5
254
100
AcDbEntity
  8
0
100
AcDbBlockEnd
  0
BLOCK
  5
255
100
AcDbEntity
  8
0
100
AcDbBlockBegin
  2
MGALGS10-6
 70
               0
 10
0.0
 20
0.0
 30
0.0
  3
MGALGS10-6
  1

  0
LINE
  5
256
100
AcDbEntity
  8
0
  6
CONTINUOUS
 62
               7
100
AcDbLine
 10
3.4999999974627087
 20
-27.299999999999955
 30
0.0
 11
3.4999999974627087
 21
-23.999999999999972
 31
0.0
  0
LINE
  5
257
100
AcDbEntity
  8
0
  6
CONTINUOUS
 62
               7
100
AcDbLine
 10
3.4999999974627087
 20
-16.699999999999989
 30
0.0
 11
3.9999999974627087
 21
-16.699999999999989
 31
0.0
  0
LINE
  5
258
100
AcDbEntity
  8
0
  6
CONTINUOUS
 62
               7
100
AcDbLine
 10
3.4999999974627087
 20
-19.735049669418743
 30
0.0
 11
3.9999999974627087
 21
-19.735049669418743
 31
0.0
  0
LINE
  5
259
100
AcDbEntity
  8
0
  6
CONTINUOUS
 62
               7
100
AcDbLine
 10
2.9999999974627087
 20
-17.799999999999955
 30
0.0
 11
2.9999999974627087
 21
-19.199999999999989
 31
0.0
  0
ARC
  5
25A
100
AcDbEntity
  8
0
  6
CONTINUOUS
 62
               7
100
AcDbCircle
 10
3.2999999974627201
 20
-19.199999999999989
 30
0.0
 40
0.3
100
AcDbArc
 50
180.0
 51
270.0
  0
ARC
  5
25B
100
AcDbEntity
  8
0
  6
CONTINUOUS
 62
               7
100
AcDbCircle
 10
3.2999999974627201
 20
-17.799999999999955
 30
0.0
 40
0.3
100
AcDbArc
 50
90.0
 51
180.0
  0
LINE
  5
25C
100
AcDbEntity
  8
0
  6
CONTINUOUS
 62
               7
100
AcDbLine
 10
3.4999999974627087
 20
-17.499999999999972
 30
0.0
 11
3.2999999974627201
 21
-17.499999999999972
 31
0.0
  0
LINE
  5
25D
100
AcDbEntity
  8
0
  6
CONTINUOUS
 62
               7
100
AcDbLine
 10
3.4999999974627087
 20
-19.499999999999972
 30
0.0
 11
3.2999999974627201
 21
-19.499999999999972
 31
0.0
  0
LINE
  5
25E
100
AcDbEntity
  8
0
  6
CONTINUOUS
 62
               7
100
AcDbLine
 10
3.4999999974627087
 20
-27.299999999999955
 30
0.0
 11
3.9999999974627087
 21
-27.299999999999955
 31
0.0
  0
LINE
  5
25F
100
AcDbEntity
  8
0
  6
CONTINUOUS
 62
               7
100
AcDbLine
 10
3.4999999974627087
 20
-24.2649503305812
 30
0.0
 11
3.9999999974627087
 21
-24.2649503305812
 31
0.0
  0
LINE
  5
260
100
AcDbEntity
  8
0
  6
CONTINUOUS
 62
               7
100
AcDbLine
 10
2.9999999974627087
 20
-24.799999999999955
 30
0.0
 11
2.9999999974627087
 21
-26.199999999999989
 31
0.0
  0
ARC
  5
261
100
AcDbEntity
  8
0
  6
CONTINUOUS
 62
               7
100
AcDbCircle
 10
3.2999999974627201
 20
-26.199999999999989
 30
0.0
 40
0.3
100
AcDbArc
 50
180.0
 51
270.0
  0
ARC
  5
262
100
AcDbEntity
  8
0
  6
CONTINUOUS
 62
               7
100
AcDbCircle
 10
3.2999999974627201
 20
-24.799999999999955
 30
0.0
 40
0.3
100
AcDbArc
 50
90.0
 51
180.0
  0
LINE
  5
263
100
AcDbEntity
  8
0
  6
CONTINUOUS
 62
               7
100
AcDbLine
 10
3.4999999974627087
 20
-24.499999999999972
 30
0.0
 11
3.2999999974627201
 21
-24.499999999999972
 31
0.0
  0
LINE
  5
264
100
AcDbEntity
  8
0
  6
CONTINUOUS
 62
               7
100
AcDbLine
 10
3.4999999974627087
 20
-26.499999999999972
 30
0.0
 11
3.2999999974627201
 21
-26.499999999999972
 31
0.0
  0
LINE
  5
265
100
AcDbEntity
  8
0
  6
CONTINUOUS
 62
               7
100
AcDbLine
 10
3.4999999974627087
 20
-19.999999999999972
 30
0.0
 11
3.4999999974627087
 21
-16.699999999999989
 31
0.0
  0
LINE
  5
266
100
AcDbEntity
  8
0
  6
CONTINUOUS
 62
               7
100
AcDbLine
 10
1.9999999974627656
 20
-19.999999999999972
 30
0.0
 11
3.9999999974627087
 21
-19.999999999999972
 31
0.0
  0
LINE
  5
267
100
AcDbEntity
  8
0
  6
CONTINUOUS
 62
               7
100
AcDbLine
 10
1.9999999974627656
 20
-23.999999999999972
 30
0.0
 11
3.9999999974627087
 21
-23.999999999999972
 31
0.0
  0
LINE
  5
268
100
AcDbEntity
  8
0
  6
CONTINUOUS
 62
               7
100
AcDbLine
 10
-1.4999999999999716
 20
-19.299999999999955
 30
0.0
 11
-1.4999999999999716
 21
-18.031373037677383
 31
0.0
  0
LINE
  5
269
100
AcDbEntity
  8
0
  6
CONTINUOUS
 62
               7
100
AcDbLine
 10
-1.4999999999999716
 20
-25.968626966596844
 30
0.0
 11
-0.4999999999999716
 21
-25.968626966596844
 31
0.0
  0
LINE
  5
26A
100
AcDbEntity
  8
0
  6
CONTINUOUS
 62
               7
100
AcDbLine
 10
-1.4999999999999716
 20
-18.031373033403099
 30
0.0
 11
-0.4999999999999716
 21
-18.031373033403099
 31
0.0
  0
LINE
  5
26B
100
AcDbEntity
  8
0
  6
CONTINUOUS
 62
               7
100
AcDbLine
 10
-5.7000000025371662
 20
-26.873397172404452
 30
0.0
 11
-0.4999999999999716
 21
-26.873397172404452
 31
0.0
  0
LINE
  5
26C
100
AcDbEntity
  8
0
  6
CONTINUOUS
 62
               7
100
AcDbLine
 10
-5.7000000025371662
 20
-17.126602827595491
 30
0.0
 11
-0.4999999999999716
 21
-17.126602827595491
 31
0.0
  0
LINE
  5
26D
100
AcDbEntity
  8
0
  6
CONTINUOUS
 62
               7
100
AcDbLine
 10
-1.4999999999999716
 20
-25.96862698970375
 30
0.0
 11
-1.4999999999999716
 21
-24.699999999999989
 31
0.0
  0
LINE
  5
26E
100
AcDbEntity
  8
0
  6
CONTINUOUS
 62
               7
100
AcDbLine
 10
-4.2000000025371662
 20
-24.699999999999989
 30
0.0
 11
-0.0000000025371776
 21
-24.699999999999989
 31
0.0
  0
LINE
  5
26F
100
AcDbEntity
  8
0
  6
CONTINUOUS
 62
               7
100
AcDbLine
 10
-4.2000000025371662
 20
-19.299999999999955
 30
0.0
 11
-0.0000000025371776
 21
-19.299999999999955
 31
0.0
  0
LINE
  5
270
100
AcDbEntity
  8
0
  6
PHANTOM
 62
               2
100
AcDbLine
 10
-5.5250000025372117
 20
-25.999999999999972
 30
0.0
 11
1.1249999974627656
 21
-25.999999999999972
 31
0.0
  0
LINE
  5
271
100
AcDbEntity
  8
0
  6
PHANTOM
 62
               2
100
AcDbLine
 10
-5.5250000025372117
 20
-25.649999999999977
 30
0.0
 11
1.1249999974627656
 21
-25.649999999999977
 31
0.0
  0
CIRCLE
  5
272
100
AcDbEntity
  8
0
  6
CONTINUOUS
 62
               7
100
AcDbCircle
 10
1.1249999974627656
 20
-25.824999999999989
 30
0.0
 40
0.175
  0
LINE
  5
273
100
AcDbEntity
  8
0
  6
CONTINUOUS
 62
               7
100
AcDbLine
 10
-0.0000000025371776
 20
-25.349999999999966
 30
0.0
 11
1.2999999974627769
 21
-25.349999999999966
 31
0.0
  0
CIRCLE
  5
274
100
AcDbEntity
  8
0
  6
CONTINUOUS
 62
               7
100
AcDbCircle
 10
-5.5250000025372117
 20
-25.824999999999989
 30
0.0
 40
0.175
  0
LINE
  5
275
100
AcDbEntity
  8
0
  6
CONTINUOUS
 62
               7
100
AcDbLine
 10
-4.2000000025371662
 20
-25.349999999999966
 30
0.0
 11
-5.7000000025371662
 21
-25.349999999999966
 31
0.0
  0
LINE
  5
276
100
AcDbEntity
  8
0
  6
CONTINUOUS
 62
               7
100
AcDbLine
 10
-6.5000000025372913
 20
-26.999999999999972
 30
0.0
 11
-5.7000000025371662
 21
-26.999999999999972
 31
0.0
  0
LINE
  5
277
100
AcDbEntity
  8
0
  6
CONTINUOUS
 62
               7
100
AcDbLine
 10
-9.5000000025372913
 20
-24.699999999999989
 30
0.0
 11
-6.5000000025373481
 21
-24.699999999999989
 31
0.0
  0
LINE
  5
278
100
AcDbEntity
  8
0
  6
CONTINUOUS
 62
               7
100
AcDbLine
 10
-6.5000000025372913
 20
-16.999999999999972
 30
0.0
 11
-5.7000000025371662
 21
-16.999999999999972
 31
0.0
  0
LINE
  5
279
100
AcDbEntity
  8
0
  6
CONTINUOUS
 62
               7
100
AcDbLine
 10
-0.0000000025371776
 20
-18.649999999999977
 30
0.0
 11
1.2999999974627769
 21
-18.649999999999977
 31
0.0
  0
LINE
  5
27A
100
AcDbEntity
  8
0
  6
CONTINUOUS
 62
               7
100
AcDbLine
 10
-4.2000000025371662
 20
-18.649999999999977
 30
0.0
 11
-5.7000000025371662
 21
-18.649999999999977
 31
0.0
  0
LINE
  5
27B
100
AcDbEntity
  8
0
  6
CONTINUOUS
 62
               7
100
AcDbLine
 10
-4.2000000025371662
 20
-18.649999999999977
 30
0.0
 11
-4.2000000025371662
 21
-25.349999999999966
 31
0.0
  0
LINE
  5
27C
100
AcDbEntity
  8
0
  6
PHANTOM
 62
               2
100
AcDbLine
 10
-5.5250000025372117
 20
-17.999999999999972
 30
0.0
 11
1.1249999974627656
 21
-17.999999999999972
 31
0.0
  0
CIRCLE
  5
27D
100
AcDbEntity
  8
0
  6
CONTINUOUS
 62
               7
100
AcDbCircle
 10
1.1249999974627656
 20
-18.174999999999955
 30
0.0
 40
0.175
  0
CIRCLE
  5
27E
100
AcDbEntity
  8
0
  6
CONTINUOUS
 62
               7
100
AcDbCircle
 10
-5.5250000025372117
 20
-18.174999999999955
 30
0.0
 40
0.175
  0
LINE
  5
27F
100
AcDbEntity
  8
0
  6
PHANTOM
 62
               2
100
AcDbLine
 10
-5.5250000025372117
 20
-18.349999999999966
 30
0.0
 11
1.1249999974627656
 21
-18.349999999999966
 31
0.0
  0
LINE
  5
280
100
AcDbEntity
  8
0
  6
CONTINUOUS
 62
               7
100
AcDbLine
 10
-5.7000000025371662
 20
-16.999999999999972
 30
0.0
 11
-5.7000000025371662
 21
-26.999999999999972
 31
0.0
  0
LINE
  5
281
100
AcDbEntity
  8
0
  6
CONTINUOUS
 62
               7
100
AcDbLine
 10
-0.0000000025371776
 20
-18.649999999999977
 30
0.0
 11
-0.0000000025371776
 21
-25.349999999999966
 31
0.0
  0
LINE
  5
282
100
AcDbEntity
  8
0
  6
CONTINUOUS
 62
               7
100
AcDbLine
 10
-9.5000000025372913
 20
-19.299999999999955
 30
0.0
 11
-6.5000000025373481
 21
-19.299999999999955
 31
0.0
  0
LINE
  5
283
100
AcDbEntity
  8
0
  6
CONTINUOUS
 62
               7
100
AcDbLine
 10
-12.499999999999972
 20
-26.699999999999989
 30
0.0
 11
-12.499999999999972
 21
-17.299999999999955
 31
0.0
  0
LINE
  5
284
100
AcDbEntity
  8
0
  6
CONTINUOUS
 62
               7
100
AcDbLine
 10
-9.4999999999999716
 20
-27.199999999999989
 30
0.0
 11
-9.4999999999999716
 21
-16.799999999999955
 31
0.0
  0
LINE
  5
285
100
AcDbEntity
  8
0
  6
CONTINUOUS
 62
               7
100
AcDbLine
 10
-9.4999999999999716
 20
-18.799999999999983
 30
0.0
 11
-6.5000000025373481
 21
-18.799999999999983
 31
0.0
  0
LINE
  5
286
100
AcDbEntity
  8
0
  6
CONTINUOUS
 62
               7
100
AcDbLine
 10
-9.4999999999999716
 20
-25.19999999999996
 30
0.0
 11
-6.5000000025373481
 21
-25.19999999999996
 31
0.0
  0
LINE
  5
287
100
AcDbEntity
  8
0
  6
CONTINUOUS
 62
               7
100
AcDbLine
 10
-16.999999999999972
 20
-27.199999999999989
 30
0.0
 11
-9.4999999999999716
 21
-27.199999999999989
 31
0.0
  0
LINE
  5
288
100
AcDbEntity
  8
0
  6
CONTINUOUS
 62
               7
100
AcDbLine
 10
-16.999999999999972
 20
-16.799999999999955
 30
0.0
 11
-9.4999999999999716
 21
-16.799999999999955
 31
0.0
  0
LINE
  5
289
100
AcDbEntity
  8
0
  6
CONTINUOUS
 62
               7
100
AcDbLine
 10
-12.499999999999972
 20
-17.299999999999955
 30
0.0
 11
-9.4999999999999716
 21
-17.299999999999955
 31
0.0
  0
LINE
  5
28A
100
AcDbEntity
  8
0
  6
CONTINUOUS
 62
               7
100
AcDbLine
 10
-12.499999999999972
 20
-26.699999999999989
 30
0.0
 11
-9.4999999999999716
 21
-26.699999999999989
 31
0.0
  0
LINE
  5
28B
100
AcDbEntity
  8
0
  6
CONTINUOUS
 62
               7
100
AcDbLine
 10
-0.4999999999999716
 20
-16.599999999999966
 30
0.0
 11
3.9999999974627087
 21
-16.599999999999966
 31
0.0
  0
LINE
  5
28C
100
AcDbEntity
  8
0
  6
CONTINUOUS
 62
               7
100
AcDbLine
 10
-0.4999999999999716
 20
-27.399999999999977
 30
0.0
 11
3.9999999974627087
 21
-27.399999999999977
 31
0.0
  0
LINE
  5
28D
100
AcDbEntity
  8
0
  6
CONTINUOUS
 62
               2
100
AcDbLine
 10
1.9999999974627656
 20
-23.749999999999972
 30
0.0
 11
2.4330126993550323
 21
-23.999999999999972
 31
0.0
  0
LINE
  5
28E
100
AcDbEntity
  8
0
  6
CONTINUOUS
 62
               2
100
AcDbLine
 10
1.9999999974627656
 20
-20.249999999999972
 30
0.0
 11
2.4330126993550323
 21
-19.999999999999972
 31
0.0
  0
LINE
  5
28F
100
AcDbEntity
  8
0
  6
CONTINUOUS
 62
               7
100
AcDbLine
 10
1.2999999974627769
 20
-17.499999999999972
 30
0.0
 11
1.2999999974627769
 21
-26.499999999999972
 31
0.0
  0
LINE
  5
290
100
AcDbEntity
  8
0
  6
CONTINUOUS
 62
               7
100
AcDbLine
 10
1.9999999974627656
 20
-17.499999999999972
 30
0.0
 11
1.9999999974627656
 21
-26.499999999999972
 31
0.0
  0
LINE
  5
291
100
AcDbEntity
  8
0
  6
CONTINUOUS
 62
               7
100
AcDbLine
 10
1.2999999974627769
 20
-17.499999999999972
 30
0.0
 11
1.9999999974627656
 21
-17.499999999999972
 31
0.0
  0
LINE
  5
292
100
AcDbEntity
  8
0
  6
CONTINUOUS
 62
               7
100
AcDbLine
 10
1.2999999974627769
 20
-26.499999999999972
 30
0.0
 11
1.9999999974627656
 21
-26.499999999999972
 31
0.0
  0
LINE
  5
293
100
AcDbEntity
  8
0
  6
CONTINUOUS
 62
               7
100
AcDbLine
 10
-0.4999999999999716
 20
-18.031373033403099
 30
0.0
 11
-0.4999999999999716
 21
-9.0000000136905669
 31
0.0
  0
LINE
  5
294
100
AcDbEntity
  8
0
  6
CONTINUOUS
 62
               7
100
AcDbLine
 10
-0.4999999999999716
 20
-35.000000013690567
 30
0.0
 11
-0.4999999999999716
 21
-25.968626966596844
 31
0.0
  0
LINE
  5
295
100
AcDbEntity
  8
0
  6
CONTINUOUS
 62
               7
100
AcDbLine
 10
-6.5000000025373481
 20
-8.9999999999999716
 30
0.0
 11
-6.5000000025373481
 21
-34.999999999999972
 31
0.0
  0
LINE
  5
296
100
AcDbEntity
  8
0
  6
CONTINUOUS
 62
               7
100
AcDbLine
 10
-16.999999999999972
 20
-8.9999999999999716
 30
0.0
 11
-16.999999999999972
 21
-34.999999999999972
 31
0.0
  0
LINE
  5
297
100
AcDbEntity
  8
0
  6
CONTINUOUS
 62
               7
100
AcDbLine
 10
3.9999999974627087
 20
-18.599999999999966
 30
0.0
 11
40.000000000000028
 21
-18.599999999999966
 31
0.0
  0
LINE
  5
298
100
AcDbEntity
  8
0
  6
CONTINUOUS
 62
               7
100
AcDbLine
 10
3.9999999974627087
 20
-25.399999999999977
 30
0.0
 11
40.000000000000028
 21
-25.399999999999977
 31
0.0
  0
LINE
  5
299
100
AcDbEntity
  8
0
  6
CONTINUOUS
 62
               7
100
AcDbLine
 10
3.9999999974627087
 20
-25.699999999999989
 30
0.0
 11
40.000000000000028
 21
-25.699999999999989
 31
0.0
  0
LINE
  5
29A
100
AcDbEntity
  8
0
  6
CONTINUOUS
 62
               7
100
AcDbLine
 10
3.9999999974627087
 20
-18.299999999999955
 30
0.0
 11
40.000000000000028
 21
-18.299999999999955
 31
0.0
  0
ARC
  5
29B
100
AcDbEntity
  8
0
  6
CONTINUOUS
 62
               2
100
AcDbCircle
 10
26.999999997462709
 20
-12.499999999999972
 30
0.0
 40
2.0
100
AcDbArc
 50
131.40962245493222
 51
48.59037754506781
  0
ARC
  5
29C
100
AcDbEntity
  8
0
  6
CONTINUOUS
 62
               7
100
AcDbCircle
 10
26.999999997462709
 20
-12.499999999999972
 30
0.0
 40
1.7
100
AcDbArc
 50
118.07248750743676
 51
61.927512492563295
  0
CIRCLE
  5
29D
100
AcDbEntity
  8
0
  6
CONTINUOUS
 62
               7
100
AcDbCircle
 10
18.999999997462709
 20
-31.499999999999972
 30
0.0
 40
1.5
  0
LINE
  5
29E
100
AcDbEntity
  8
0
  6
CONTINUOUS
 62
               7
100
AcDbLine
 10
17.499999997462709
 20
-12.999999999999972
 30
0.0
 11
17.499999997462709
 21
-11.999999999999972
 31
0.0
  0
LINE
  5
29F
100
AcDbEntity
  8
0
  6
CONTINUOUS
 62
               7
100
AcDbLine
 10
20.499999997462709
 20
-12.999999999999972
 30
0.0
 11
20.499999997462709
 21
-11.999999999999972
 31
0.0
  0
ARC
  5
2A0
100
AcDbEntity
  8
0
  6
CONTINUOUS
 62
               7
100
AcDbCircle
 10
18.999999997462709
 20
-12.999999999999972
 30
0.0
 40
1.5
100
AcDbArc
 50
180.0
 51
0.0
  0
ARC
  5
2A1
100
AcDbEntity
  8
0
  6
CONTINUOUS
 62
               7
100
AcDbCircle
 10
18.999999997462709
 20
-11.999999999999972
 30
0.0
 40
1.5
100
AcDbArc
 50
138.18968551321353
 51
180.0
  0
CIRCLE
  5
2A2
100
AcDbEntity
  8
0
  6
CONTINUOUS
 62
               7
100
AcDbCircle
 10
10.999999997462709
 20
-31.499999999999972
 30
0.0
 40
1.7
  0
CIRCLE
  5
2A3
100
AcDbEntity
  8
0
  6
CONTINUOUS
 62
               2
100
AcDbCircle
 10
10.999999997462709
 20
-31.499999999999972
 30
0.0
 40
2.0
  0
CIRCLE
  5
2A4
100
AcDbEntity
  8
0
  6
CONTINUOUS
 62
               7
100
AcDbCircle
 10
26.999999997462709
 20
-31.499999999999972
 30
0.0
 40
1.7
  0
CIRCLE
  5
2A5
100
AcDbEntity
  8
0
  6
CONTINUOUS
 62
               2
100
AcDbCircle
 10
26.999999997462709
 20
-31.499999999999972
 30
0.0
 40
2.0
  0
ARC
  5
2A6
100
AcDbEntity
  8
0
  6
CONTINUOUS
 62
               2
100
AcDbCircle
 10
10.999999997462709
 20
-12.499999999999972
 30
0.0
 40
2.0
100
AcDbArc
 50
131.40962245493222
 51
48.59037754506781
  0
ARC
  5
2A7
100
AcDbEntity
  8
0
  6
CONTINUOUS
 62
               7
100
AcDbCircle
 10
10.999999997462709
 20
-12.499999999999972
 30
0.0
 40
1.7
100
AcDbArc
 50
118.07248750743676
 51
61.927512492563295
  0
LINE
  5
2A8
100
AcDbEntity
  8
0
  6
CONTINUOUS
 62
               7
100
AcDbLine
 10
-16.999999999999972
 20
-8.9999999999999716
 30
0.0
 11
5.0000000000000284
 21
-8.9999999999999716
 31
0.0
  0
LINE
  5
2A9
100
AcDbEntity
  8
0
  6
CONTINUOUS
 62
               7
100
AcDbLine
 10
40.000000000000028
 20
-11.000000007980788
 30
0.0
 11
40.000000000000028
 21
-34.999999999999972
 31
0.0
  0
LINE
  5
2AA
100
AcDbEntity
  8
0
  6
CONTINUOUS
 62
               7
100
AcDbLine
 10
3.9999999974627087
 20
-34.499999978616046
 30
0.0
 11
40.000000000000028
 21
-34.499999978616046
 31
0.0
  0
LINE
  5
2AB
100
AcDbEntity
  8
0
  6
CONTINUOUS
 62
               7
100
AcDbLine
 10
3.9999999974627087
 20
-9.4999999999999716
 30
0.0
 11
5.0000000000000284
 21
-9.4999999999999716
 31
0.0
  0
LINE
  5
2AC
100
AcDbEntity
  8
0
  6
CONTINUOUS
 62
               7
100
AcDbLine
 10
3.9999999974627087
 20
-9.4999999999999716
 30
0.0
 11
3.9999999974627087
 21
-44.499999978616103
 31
0.0
  0
LINE
  5
2AD
100
AcDbEntity
  8
0
  6
CENTER
 62
               2
100
AcDbLine
 10
-18.721253657327082
 20
-21.999999999999972
 30
0.0
 11
47.249148963677214
 21
-21.999999999999972
 31
0.0
  0
LINE
  5
2AE
100
AcDbEntity
  8
0
  6
CONTINUOUS
 62
               7
100
AcDbLine
 10
-3.9999999999999716
 20
0.0
 30
0.0
 11
53.0
 21
0.0
 31
0.0
  0
LINE
  5
2AF
100
AcDbEntity
  8
0
  6
CONTINUOUS
 62
               7
100
AcDbLine
 10
5.0000000000000284
 20
-11.000000007980788
 30
0.0
 11
44.000000000000028
 21
-11.000000007980788
 31
0.0
  0
LINE
  5
2B0
100
AcDbEntity
  8
0
  6
CONTINUOUS
 62
               7
100
AcDbLine
 10
53.0
 20
-8.2999999999999829
 30
0.0
 11
53.0
 21
0.0
 31
0.0
  0
LINE
  5
2B1
100
AcDbEntity
  8
0
  6
CONTINUOUS
 62
               7
100
AcDbLine
 10
-3.9999999999999716
 20
-8.2999999999999829
 30
0.0
 11
-3.9999999999999716
 21
0.0
 31
0.0
  0
LINE
  5
2B2
100
AcDbEntity
  8
0
  6
CONTINUOUS
 62
               7
100
AcDbLine
 10
5.0000000000000284
 20
-11.000000007980788
 30
0.0
 11
5.0000000000000284
 21
-8.2999999999999829
 31
0.0
  0
LINE
  5
2B3
100
AcDbEntity
  8
0
  6
CONTINUOUS
 62
               7
100
AcDbLine
 10
44.000000000000028
 20
-11.000000007980788
 30
0.0
 11
44.000000000000028
 21
-8.2999999999999829
 31
0.0
  0
LINE
  5
2B4
100
AcDbEntity
  8
0
  6
CONTINUOUS
 62
               7
100
AcDbLine
 10
-3.9999999999999716
 20
-8.2999999999999829
 30
0.0
 11
53.0
 21
-8.2999999999999829
 31
0.0
  0
LINE
  5
2B5
100
AcDbEntity
  8
0
  6
CONTINUOUS
 62
               7
100
AcDbLine
 10
-3.9999999999999716
 20
-4.0
 30
0.0
 11
4.0000000000000284
 21
-4.0
 31
0.0
  0
LINE
  5
2B6
100
AcDbEntity
  8
0
  6
CONTINUOUS
 62
               7
100
AcDbLine
 10
4.0000000000000284
 20
-8.2999999999999829
 30
0.0
 11
4.0000000000000284
 21
-4.0
 31
0.0
  0
LINE
  5
2B7
100
AcDbEntity
  8
0
  6
CONTINUOUS
 62
               7
100
AcDbLine
 10
53.0
 20
-4.0
 30
0.0
 11
45.000000000000028
 21
-4.0
 31
0.0
  0
LINE
  5
2B8
100
AcDbEntity
  8
0
  6
CONTINUOUS
 62
               7
100
AcDbLine
 10
45.000000000000028
 20
-8.2999999999999829
 30
0.0
 11
45.000000000000028
 21
-4.0
 31
0.0
  0
LINE
  5
2B9
100
AcDbEntity
  8
0
  6
CONTINUOUS
 62
               2
100
AcDbLine
 10
32.500000000000028
 20
-3.8999999999999773
 30
0.0
 11
32.500000000000028
 21
-8.0999999999999659
 31
0.0
  0
LINE
  5
2BA
100
AcDbEntity
  8
0
  6
CONTINUOUS
 62
               2
100
AcDbLine
 10
30.400000000000006
 20
-5.9999999999999432
 30
0.0
 11
34.599999999999994
 21
-5.9999999999999432
 31
0.0
  0
LINE
  5
2BB
100
AcDbEntity
  8
0
  6
CONTINUOUS
 62
               2
100
AcDbLine
 10
16.500000000000028
 20
-3.8999999999999773
 30
0.0
 11
16.500000000000028
 21
-8.0999999999999659
 31
0.0
  0
LINE
  5
2BC
100
AcDbEntity
  8
0
  6
CONTINUOUS
 62
               2
100
AcDbLine
 10
14.400000000000006
 20
-5.9999999999999432
 30
0.0
 11
18.599999999999994
 21
-5.9999999999999432
 31
0.0
  0
LINE
  5
2BD
100
AcDbEntity
  8
0
  6
CONTINUOUS
 62
               7
100
AcDbLine
 10
40.000000000000028
 20
-33.999999999999972
 30
0.0
 11
45.500000000000028
 21
-33.999999999999972
 31
0.0
  0
LINE
  5
2BE
100
AcDbEntity
  8
0
  6
CONTINUOUS
 62
               7
100
AcDbLine
 10
45.500000000000028
 20
-9.9999999999999716
 30
0.0
 11
45.500000000000028
 21
-33.999999999999972
 31
0.0
  0
LINE
  5
2BF
100
AcDbEntity
  8
0
  6
CONTINUOUS
 62
               7
100
AcDbLine
 10
44.000000000000028
 20
-9.9999999999999716
 30
0.0
 11
45.500000000000028
 21
-9.9999999999999716
 31
0.0
  0
CIRCLE
  5
2C0
100
AcDbEntity
  8
0
  6
CONTINUOUS
 62
               7
100
AcDbCircle
 10
16.500000000000028
 20
-5.9999999999999432
 30
0.0
 40
1.1000000000000001
  0
CIRCLE
  5
2C1
100
AcDbEntity
  8
0
  6
CONTINUOUS
 62
               7
100
AcDbCircle
 10
32.500000000000028
 20
-5.9999999999999432
 30
0.0
 40
1.1000000000000001
  0
ARC
  5
2C2
100
AcDbEntity
  8
0
  6
CONTINUOUS
 62
               7
100
AcDbCircle
 10
18.999999997462709
 20
-11.999999999999972
 30
0.0
 40
1.5
100
AcDbArc
 50
0.0
 51
41.810314486786453
  0
LINE
  5
2C3
100
AcDbEntity
  8
0
  6
PHANTOM
 62
               3
100
AcDbLine
 10
24.500000000000028
 20
2.391991210652364
 30
0.0
 11
24.500000000000028
 21
-33.886381247296711
 31
0.0
  0
LINE
  5
2C4
100
AcDbEntity
  8
0
  6
CONTINUOUS
 62
               7
100
AcDbLine
 10
-16.999999999999972
 20
-34.999999978616032
 30
0.0
 11
3.999999998731397
 21
-34.999999978616032
 31
0.0
  0
LINE
  5
2C5
100
AcDbEntity
  8
0
  6
CONTINUOUS
 62
               7
100
AcDbLine
 10
39.000000000000028
 20
-44.499999992306641
 30
0.0
 11
39.000000000000028
 21
-34.499999978616032
 31
0.0
  0
LINE
  5
2C6
100
AcDbEntity
  8
0
  6
CONTINUOUS
 62
               7
100
AcDbLine
 10
33.000000000000028
 20
-38.499999978616032
 30
0.0
 11
33.000000000000028
 21
-34.499999978616032
 31
0.0
  0
LINE
  5
2C7
100
AcDbEntity
  8
0
  6
CONTINUOUS
 62
               7
100
AcDbLine
 10
10.000000000000028
 20
-38.499999978616032
 30
0.0
 11
10.000000000000028
 21
-34.499999978616032
 31
0.0
  0
LINE
  5
2C8
100
AcDbEntity
  8
0
  6
CONTINUOUS
 62
               7
100
AcDbLine
 10
23.999999998731397
 20
-37.699999978616034
 30
0.0
 11
27.999999998731397
 21
-37.699999978616034
 31
0.0
  0
LINE
  5
2C9
100
AcDbEntity
  8
0
  6
CONTINUOUS
 62
               7
100
AcDbLine
 10
17.000000000000028
 20
-35.999999978616032
 30
0.0
 11
33.000000000000028
 21
-35.999999978616032
 31
0.0
  0
LINE
  5
2CA
100
AcDbEntity
  8
0
  6
CONTINUOUS
 62
               7
100
AcDbLine
 10
23.999999998731397
 20
-34.999999978616032
 30
0.0
 11
23.999999998731397
 21
-37.699999978616034
 31
0.0
  0
LINE
  5
2CB
100
AcDbEntity
  8
0
  6
CONTINUOUS
 62
               7
100
AcDbLine
 10
27.999999998731397
 20
-34.999999978616032
 30
0.0
 11
27.999999998731397
 21
-37.699999978616034
 31
0.0
  0
LINE
  5
2CC
100
AcDbEntity
  8
0
  6
CONTINUOUS
 62
               7
100
AcDbLine
 10
17.000000000000028
 20
-34.999999978616032
 30
0.0
 11
17.000000000000028
 21
-35.999999978616032
 31
0.0
  0
LINE
  5
2CD
100
AcDbEntity
  8
0
  6
CONTINUOUS
 62
               7
100
AcDbLine
 10
10.000000000000028
 20
-34.999999978616032
 30
0.0
 11
33.000000000000028
 21
-34.999999978616032
 31
0.0
  0
LINE
  5
2CE
100
AcDbEntity
  8
0
  6
CONTINUOUS
 62
               7
100
AcDbLine
 10
4.0000000235397977
 20
-44.499999978616103
 30
0.0
 11
39.000000000000028
 21
-44.499999978616103
 31
0.0
  0
LINE
  5
2CF
100
AcDbEntity
  8
0
  6
CONTINUOUS
 62
               7
100
AcDbLine
 10
10.000000000000028
 20
-38.499999978616032
 30
0.0
 11
33.000000000000028
 21
-38.499999978616032
 31
0.0
  0
LINE
  5
2D0
100
AcDbEntity
  8
0
  6
CONTINUOUS
 62
               7
100
AcDbLine
 10
20.599999999999994
 20
-37.999999978616032
 30
0.0
 11
20.900000000000006
 21
-37.699999978616034
 31
0.0
  0
LINE
  5
2D1
100
AcDbEntity
  8
0
  6
CONTINUOUS
 62
               7
100
AcDbLine
 10
17.400000000000006
 20
-37.999999978616032
 30
0.0
 11
17.099999999999994
 21
-37.699999978616034
 31
0.0
  0
LINE
  5
2D2
100
AcDbEntity
  8
0
  6
CONTINUOUS
 62
               7
100
AcDbLine
 10
17.400000000000006
 20
-37.999999978616032
 30
0.0
 11
20.599999999999994
 21
-37.999999978616032
 31
0.0
  0
LINE
  5
2D3
100
AcDbEntity
  8
0
  6
CONTINUOUS
 62
               7
100
AcDbLine
 10
17.099999999999994
 20
-37.699999978616034
 30
0.0
 11
20.900000000000006
 21
-37.699999978616034
 31
0.0
  0
LINE
  5
2D4
100
AcDbEntity
  8
0
  6
CONTINUOUS
 62
               7
100
AcDbLine
 10
31.400000000000006
 20
-37.999999978616032
 30
0.0
 11
31.099999999999994
 21
-37.699999978616034
 31
0.0
  0
LINE
  5
2D5
100
AcDbEntity
  8
0
  6
CONTINUOUS
 62
               7
100
AcDbLine
 10
31.400000000000006
 20
-37.999999978616032
 30
0.0
 11
33.000000000000028
 21
-37.999999978616032
 31
0.0
  0
LINE
  5
2D6
100
AcDbEntity
  8
0
  6
CONTINUOUS
 62
               7
100
AcDbLine
 10
31.099999999999994
 20
-37.699999978616034
 30
0.0
 11
33.000000000000028
 21
-37.699999978616034
 31
0.0
  0
LINE
  5
2D7
100
AcDbEntity
  8
0
  6
CONTINUOUS
 62
               7
100
AcDbLine
 10
31.099999999999994
 20
-37.699999978616034
 30
0.0
 11
31.099999999999994
 21
-35.999999978616032
 31
0.0
  0
LINE
  5
2D8
100
AcDbEntity
  8
0
  6
CONTINUOUS
 62
               7
100
AcDbLine
 10
17.099999999999994
 20
-37.699999978616034
 30
0.0
 11
17.099999999999994
 21
-35.999999978616032
 31
0.0
  0
LINE
  5
2D9
100
AcDbEntity
  8
0
  6
CONTINUOUS
 62
               7
100
AcDbLine
 10
20.900000000000006
 20
-37.699999978616034
 30
0.0
 11
20.900000000000006
 21
-35.999999978616032
 31
0.0
  0
LINE
  5
2DA
100
AcDbEntity
  8
0
  6
CONTINUOUS
 62
               7
100
AcDbLine
 10
38.999999989174029
 20
-34.999999978616032
 30
0.0
 11
40.000000000000028
 21
-34.999999978616032
 31
0.0
  0
LINE
  5
2DB
100
AcDbEntity
  8
0
  6
CONTINUOUS
 62
               2
100
AcDbLine
 10
-19.499999999999972
 20
-12.999999999999972
 30
0.0
 11
-14.499999999999972
 21
-12.999999999999972
 31
0.0
  0
LINE
  5
2DC
100
AcDbEntity
  8
0
  6
CONTINUOUS
 62
               2
100
AcDbLine
 10
-19.499999999999972
 20
-30.999999999999972
 30
0.0
 11
-14.499999999999972
 21
-30.999999999999972
 31
0.0
  0
LINE
  5
2DD
100
AcDbEntity
  8
0
  6
CONTINUOUS
 62
               2
100
AcDbLine
 10
0.0
 20
1.2000000000000028
 30
0.0
 11
0.0
 21
-5.2000000000000028
 31
0.0
  0
LINE
  5
2DE
100
AcDbEntity
  8
0
  6
CONTINUOUS
 62
               2
100
AcDbLine
 10
49.0
 20
1.2000000000000028
 30
0.0
 11
49.0
 21
-5.2000000000000028
 31
0.0
  0
LINE
  5
2DF
100
AcDbEntity
  8
0
  6
CONTINUOUS
 62
               2
100
AcDbLine
 10
13.299999997462692
 20
-31.499999999999972
 30
0.0
 11
8.6999999974627258
 21
-31.499999999999972
 31
0.0
  0
LINE
  5
2E0
100
AcDbEntity
  8
0
  6
CONTINUOUS
 62
               2
100
AcDbLine
 10
10.999999997462709
 20
-29.199999999999974
 30
0.0
 11
10.999999997462709
 21
-33.799999999999969
 31
0.0
  0
LINE
  5
2E1
100
AcDbEntity
  8
0
  6
CONTINUOUS
 62
               2
100
AcDbLine
 10
29.299999997462706
 20
-12.499999999999972
 30
0.0
 11
24.699999997462726
 21
-12.499999999999972
 31
0.0
  0
LINE
  5
2E2
100
AcDbEntity
  8
0
  6
CONTINUOUS
 62
               2
100
AcDbLine
 10
26.999999997462709
 20
-10.299999999999969
 30
0.0
 11
26.999999997462709
 21
-14.799999999999969
 31
0.0
  0
LINE
  5
2E3
100
AcDbEntity
  8
0
  6
CONTINUOUS
 62
               2
100
AcDbLine
 10
13.299999997462692
 20
-12.499999999999972
 30
0.0
 11
8.6999999974627258
 21
-12.499999999999972
 31
0.0
  0
LINE
  5
2E4
100
AcDbEntity
  8
0
  6
CONTINUOUS
 62
               2
100
AcDbLine
 10
10.999999997462709
 20
-10.299999999999969
 30
0.0
 11
10.999999997462709
 21
-14.799999999999969
 31
0.0
  0
LINE
  5
2E5
100
AcDbEntity
  8
0
  6
CONTINUOUS
 62
               2
100
AcDbLine
 10
20.799999997462692
 20
-31.499999999999972
 30
0.0
 11
17.199999997462726
 21
-31.499999999999972
 31
0.0
  0
LINE
  5
2E6
100
AcDbEntity
  8
0
  6
CONTINUOUS
 62
               2
100
AcDbLine
 10
18.999999997462709
 20
-29.699999999999974
 30
0.0
 11
18.999999997462709
 21
-33.299999999999969
 31
0.0
  0
LINE
  5
2E7
100
AcDbEntity
  8
0
  6
CONTINUOUS
 62
               2
100
AcDbLine
 10
29.299999997462706
 20
-31.499999999999972
 30
0.0
 11
24.699999997462726
 21
-31.499999999999972
 31
0.0
  0
LINE
  5
2E8
100
AcDbEntity
  8
0
  6
CONTINUOUS
 62
               2
100
AcDbLine
 10
26.999999997462709
 20
-29.199999999999974
 30
0.0
 11
26.999999997462709
 21
-33.799999999999969
 31
0.0
  0
LINE
  5
2E9
100
AcDbEntity
  8
0
  6
CONTINUOUS
 62
               2
100
AcDbLine
 10
18.999999997462709
 20
-10.299999999999969
 30
0.0
 11
18.999999997462709
 21
-14.799999999999969
 31
0.0
  0
LINE
  5
2EA
100
AcDbEntity
  8
0
  6
CONTINUOUS
 62
               2
100
AcDbLine
 10
21.199999997462697
 20
-12.499999999999972
 30
0.0
 11
16.79999999746272
 21
-12.499999999999972
 31
0.0
  0
LINE
  5
2EB
100
AcDbEntity
  8
0
  6
PHANTOM
 62
               3
100
AcDbLine
 10
14.500000000000028
 20
-33.886381247296711
 30
0.0
 11
24.500000000000028
 21
-33.886381247296711
 31
0.0
  0
LINE
  5
2EC
100
AcDbEntity
  8
0
  6
PHANTOM
 62
               3
100
AcDbLine
 10
14.500000000000028
 20
-33.886381247296711
 30
0.0
 11
14.500000000000028
 21
-54.499999978616103
 31
0.0
  0
ENDBLK
  5
2ED
100
AcDbEntity
  8
0
100
AcDbBlockEnd
  0
BLOCK
  5
2EE
100
AcDbEntity
  8
0
100
AcDbBlockBegin
  2
MGALGS10-7
 70
               0
 10
0.0
 20
0.0
 30
0.0
  3
MGALGS10-7
  1

  0
LINE
  5
2EF
100
AcDbEntity
  8
0
  6
CONTINUOUS
 62
               2
100
AcDbLine
 10
49.0
 20
-1.2000000000000028
 30
0.0
 11
49.0
 21
5.2000000000000028
 31
0.0
  0
LINE
  5
2F0
100
AcDbEntity
  8
0
  6
CONTINUOUS
 62
               2
100
AcDbLine
 10
0.0
 20
-1.2000000000000028
 30
0.0
 11
0.0
 21
5.2000000000000028
 31
0.0
  0
LINE
  5
2F1
100
AcDbEntity
  8
0
  6
CONTINUOUS
 62
               2
100
AcDbLine
 10
68.499999999999972
 20
13.0
 30
0.0
 11
63.499999999999972
 21
13.0
 31
0.0
  0
LINE
  5
2F2
100
AcDbEntity
  8
0
  6
CONTINUOUS
 62
               2
100
AcDbLine
 10
68.499999999999972
 20
31.0
 30
0.0
 11
63.499999999999972
 21
31.0
 31
0.0
  0
LINE
  5
2F3
100
AcDbEntity
  8
0
  6
CONTINUOUS
 62
               7
100
AcDbLine
 10
32.00000000126866
 20
35.999999964237219
 30
0.0
 11
32.00000000126866
 21
35.0
 31
0.0
  0
LINE
  5
2F4
100
AcDbEntity
  8
0
  6
CONTINUOUS
 62
               7
100
AcDbLine
 10
28.100000001268626
 20
37.699999986309408
 30
0.0
 11
31.900000001268637
 21
37.699999986309408
 31
0.0
  0
LINE
  5
2F5
100
AcDbEntity
  8
0
  6
CONTINUOUS
 62
               7
100
AcDbLine
 10
28.400000001268637
 20
37.99999998630939
 30
0.0
 11
31.600000001268626
 21
37.99999998630939
 31
0.0
  0
LINE
  5
2F6
100
AcDbEntity
  8
0
  6
CONTINUOUS
 62
               7
100
AcDbLine
 10
28.400000001268637
 20
37.99999998630939
 30
0.0
 11
28.100000001268626
 21
37.699999986309408
 31
0.0
  0
LINE
  5
2F7
100
AcDbEntity
  8
0
  6
CONTINUOUS
 62
               7
100
AcDbLine
 10
31.600000001268626
 20
37.99999998630939
 30
0.0
 11
31.900000001268637
 21
37.699999986309408
 31
0.0
  0
LINE
  5
2F8
100
AcDbEntity
  8
0
  6
CONTINUOUS
 62
               7
100
AcDbLine
 10
28.100000001268626
 20
37.699999986309408
 30
0.0
 11
28.100000001268626
 21
35.99999998630939
 31
0.0
  0
LINE
  5
2F9
100
AcDbEntity
  8
0
  6
CONTINUOUS
 62
               7
100
AcDbLine
 10
31.900000001268637
 20
37.699999986309408
 30
0.0
 11
31.900000001268637
 21
35.99999998630939
 31
0.0
  0
LINE
  5
2FA
100
AcDbEntity
  8
0
  6
CONTINUOUS
 62
               7
100
AcDbLine
 10
14.00000000126866
 20
35.999999964237219
 30
0.0
 11
14.00000000126866
 21
35.0
 31
0.0
  0
LINE
  5
2FB
100
AcDbEntity
  8
0
  6
CONTINUOUS
 62
               7
100
AcDbLine
 10
14.100000001268626
 20
37.699999986309408
 30
0.0
 11
14.100000001268626
 21
35.99999998630939
 31
0.0
  0
LINE
  5
2FC
100
AcDbEntity
  8
0
  6
CONTINUOUS
 62
               7
100
AcDbLine
 10
14.400000001268637
 20
37.99999998630939
 30
0.0
 11
14.100000001268626
 21
37.699999986309408
 31
0.0
  0
LINE
  5
2FD
100
AcDbEntity
  8
0
  6
CONTINUOUS
 62
               7
100
AcDbLine
 10
14.100000001268626
 20
37.699999986309408
 30
0.0
 11
17.900000001268637
 21
37.699999986309408
 31
0.0
  0
LINE
  5
2FE
100
AcDbEntity
  8
0
  6
CONTINUOUS
 62
               7
100
AcDbLine
 10
17.900000001268637
 20
37.699999986309408
 30
0.0
 11
17.900000001268637
 21
35.99999998630939
 31
0.0
  0
LINE
  5
2FF
100
AcDbEntity
  8
0
  6
CONTINUOUS
 62
               7
100
AcDbLine
 10
14.400000001268637
 20
37.99999998630939
 30
0.0
 11
17.600000001268626
 21
37.99999998630939
 31
0.0
  0
LINE
  5
300
100
AcDbEntity
  8
0
  6
CONTINUOUS
 62
               7
100
AcDbLine
 10
17.600000001268626
 20
37.99999998630939
 30
0.0
 11
17.900000001268637
 21
37.699999986309408
 31
0.0
  0
LINE
  5
301
100
AcDbEntity
  8
0
  6
CONTINUOUS
 62
               7
100
AcDbLine
 10
25.00000000126866
 20
37.699999986309393
 30
0.0
 11
25.00000000126866
 21
35.99999998630939
 31
0.0
  0
LINE
  5
302
100
AcDbEntity
  8
0
  6
CONTINUOUS
 62
               7
100
AcDbLine
 10
21.00000000126866
 20
37.699999986309393
 30
0.0
 11
21.00000000126866
 21
35.99999998630939
 31
0.0
  0
LINE
  5
303
100
AcDbEntity
  8
0
  6
CONTINUOUS
 62
               7
100
AcDbLine
 10
25.00000000126866
 20
37.699999986309393
 30
0.0
 11
21.000000001268603
 21
37.699999986309393
 31
0.0
  0
LINE
  5
304
100
AcDbEntity
  8
0
  6
CONTINUOUS
 62
               7
100
AcDbLine
 10
32.00000000126866
 20
35.99999998630939
 30
0.0
 11
14.00000000126866
 21
35.99999998630939
 31
0.0
  0
LINE
  5
305
100
AcDbEntity
  8
0
  6
CONTINUOUS
 62
               7
100
AcDbLine
 10
45.00000000126866
 20
44.50000001369061
 30
0.0
 11
45.00000000126866
 21
35.0
 31
0.0
  0
LINE
  5
306
100
AcDbEntity
  8
0
  6
CONTINUOUS
 62
               7
100
AcDbLine
 10
10.00000000126866
 20
44.50000001369061
 30
0.0
 11
10.00000000126866
 21
35.0
 31
0.0
  0
LINE
  5
307
100
AcDbEntity
  8
0
  6
CONTINUOUS
 62
               7
100
AcDbLine
 10
16.00000000126866
 20
38.5
 30
0.0
 11
16.00000000126866
 21
37.99999998630939
 31
0.0
  0
LINE
  5
308
100
AcDbEntity
  8
0
  6
CONTINUOUS
 62
               7
100
AcDbLine
 10
39.00000000126866
 20
38.50000001369061
 30
0.0
 11
39.00000000126866
 21
35.0
 31
0.0
  0
LINE
  5
309
100
AcDbEntity
  8
0
  6
CONTINUOUS
 62
               7
100
AcDbLine
 10
44.999999977728834
 20
38.5
 30
0.0
 11
10.00000000126866
 21
38.5
 31
0.0
  0
LINE
  5
30A
100
AcDbEntity
  8
0
  6
CONTINUOUS
 62
               7
100
AcDbLine
 10
44.999999977728834
 20
44.500000000000071
 30
0.0
 11
10.00000000126866
 21
44.500000000000071
 31
0.0
  0
LINE
  5
30B
100
AcDbEntity
  8
0
  6
CONTINUOUS
 62
               7
100
AcDbLine
 10
8.4999999999999716
 20
17.5
 30
0.0
 11
3.4999999999999716
 21
17.5
 31
0.0
  0
LINE
  5
30C
100
AcDbEntity
  8
0
  6
CONTINUOUS
 62
               7
100
AcDbLine
 10
8.4999999999999716
 20
26.5
 30
0.0
 11
3.4999999999999716
 21
26.5
 31
0.0
  0
LINE
  5
30D
100
AcDbEntity
  8
0
  6
CONTINUOUS
 62
               7
100
AcDbLine
 10
8.9999999999999716
 20
10.0
 30
0.0
 11
3.4999999999999716
 21
10.0
 31
0.0
  0
LINE
  5
30E
100
AcDbEntity
  8
0
  6
CONTINUOUS
 62
               7
100
AcDbLine
 10
3.4999999999999716
 20
10.0
 30
0.0
 11
3.4999999999999716
 21
34.0
 31
0.0
  0
LINE
  5
30F
100
AcDbEntity
  8
0
  6
CONTINUOUS
 62
               7
100
AcDbLine
 10
8.9999999999999716
 20
34.0
 30
0.0
 11
3.4999999999999716
 21
34.0
 31
0.0
  0
LINE
  5
310
100
AcDbEntity
  8
0
  6
CONTINUOUS
 62
               7
100
AcDbLine
 10
8.9999999999999716
 20
9.5
 30
0.0
 11
4.9999999999999716
 21
9.5
 31
0.0
  0
LINE
  5
311
100
AcDbEntity
  8
0
  6
CONTINUOUS
 62
               7
100
AcDbLine
 10
52.999999999999972
 20
8.3000000000000114
 30
0.0
 11
-4.0
 21
8.3000000000000114
 31
0.0
  0
LINE
  5
312
100
AcDbEntity
  8
0
  6
CONTINUOUS
 62
               7
100
AcDbLine
 10
4.9999999999999716
 20
10.0
 30
0.0
 11
4.9999999999999716
 21
8.3000000000000114
 31
0.0
  0
LINE
  5
313
100
AcDbEntity
  8
0
  6
CONTINUOUS
 62
               7
100
AcDbLine
 10
43.999999999999972
 20
9.0
 30
0.0
 11
43.999999999999972
 21
8.3000000000000114
 31
0.0
  0
LINE
  5
314
100
AcDbEntity
  8
0
  6
CONTINUOUS
 62
               7
100
AcDbLine
 10
52.999999999999972
 20
8.3000000000000114
 30
0.0
 11
52.999999999999972
 21
0.0
 31
0.0
  0
LINE
  5
315
100
AcDbEntity
  8
0
  6
CONTINUOUS
 62
               7
100
AcDbLine
 10
-4.0
 20
8.3000000000000114
 30
0.0
 11
-4.0
 21
0.0
 31
0.0
  0
LINE
  5
316
100
AcDbEntity
  8
0
  6
CONTINUOUS
 62
               7
100
AcDbLine
 10
52.999999999999972
 20
0.0
 30
0.0
 11
-4.0
 21
0.0
 31
0.0
  0
CIRCLE
  5
317
100
AcDbEntity
  8
0
  6
CONTINUOUS
 62
               7
100
AcDbCircle
 10
26.999999999999972
 20
12.5
 30
0.0
 40
1.25
  0
CIRCLE
  5
318
100
AcDbEntity
  8
0
  6
CONTINUOUS
 62
               2
100
AcDbCircle
 10
26.999999999999972
 20
12.5
 30
0.0
 40
1.5
  0
LINE
  5
319
100
AcDbEntity
  8
0
  6
CONTINUOUS
 62
               2
100
AcDbLine
 10
26.999999999999972
 20
15.0
 30
0.0
 11
26.999999999999972
 21
10.0
 31
0.0
  0
CIRCLE
  5
31A
100
AcDbEntity
  8
0
  6
CONTINUOUS
 62
               7
100
AcDbCircle
 10
20.999999999999972
 20
12.5
 30
0.0
 40
2.8999999999999999
  0
LINE
  5
31B
100
AcDbEntity
  8
0
  6
CONTINUOUS
 62
               2
100
AcDbLine
 10
20.999999999999972
 20
16.400000000000034
 30
0.0
 11
20.999999999999972
 21
8.6000000000000227
 31
0.0
  0
LINE
  5
31C
100
AcDbEntity
  8
0
  6
CONTINUOUS
 62
               2
100
AcDbLine
 10
29.499999999999972
 20
12.5
 30
0.0
 11
17.099999999999994
 21
12.5
 31
0.0
  0
LINE
  5
31D
100
AcDbEntity
  8
0
  6
CONTINUOUS
 62
               7
100
AcDbLine
 10
8.4999999999999716
 20
13.500000000000057
 30
0.0
 11
8.2999999999999829
 21
13.500000000000057
 31
0.0
  0
LINE
  5
31E
100
AcDbEntity
  8
0
  6
CONTINUOUS
 62
               7
100
AcDbLine
 10
8.4999999999999716
 20
15.5
 30
0.0
 11
8.2999999999999829
 21
15.5
 31
0.0
  0
ARC
  5
31F
100
AcDbEntity
  8
0
  6
CONTINUOUS
 62
               7
100
AcDbCircle
 10
8.2999999999999829
 20
15.200000000000045
 30
0.0
 40
0.3
100
AcDbArc
 50
90.0
 51
180.0
  0
ARC
  5
320
100
AcDbEntity
  8
0
  6
CONTINUOUS
 62
               7
100
AcDbCircle
 10
8.2999999999999829
 20
13.800000000000011
 30
0.0
 40
0.3
100
AcDbArc
 50
180.0
 51
270.0
  0
LINE
  5
321
100
AcDbEntity
  8
0
  6
CONTINUOUS
 62
               7
100
AcDbLine
 10
7.9999999999999716
 20
15.200000000000045
 30
0.0
 11
7.9999999999999716
 21
13.800000000000011
 31
0.0
  0
LINE
  5
322
100
AcDbEntity
  8
0
  6
CONTINUOUS
 62
               7
100
AcDbLine
 10
8.9999999999999716
 20
12.700000000000045
 30
0.0
 11
8.4999999999999716
 21
12.700000000000045
 31
0.0
  0
LINE
  5
323
100
AcDbEntity
  8
0
  6
CONTINUOUS
 62
               7
100
AcDbLine
 10
8.4999999999999716
 20
28.5
 30
0.0
 11
8.2999999999999829
 21
28.5
 31
0.0
  0
LINE
  5
324
100
AcDbEntity
  8
0
  6
CONTINUOUS
 62
               7
100
AcDbLine
 10
8.4999999999999716
 20
30.5
 30
0.0
 11
8.2999999999999829
 21
30.5
 31
0.0
  0
ARC
  5
325
100
AcDbEntity
  8
0
  6
CONTINUOUS
 62
               7
100
AcDbCircle
 10
8.2999999999999829
 20
30.200000000000045
 30
0.0
 40
0.3
100
AcDbArc
 50
90.0
 51
180.0
  0
ARC
  5
326
100
AcDbEntity
  8
0
  6
CONTINUOUS
 62
               7
100
AcDbCircle
 10
8.2999999999999829
 20
28.800000000000068
 30
0.0
 40
0.3
100
AcDbArc
 50
180.0
 51
270.0
  0
LINE
  5
327
100
AcDbEntity
  8
0
  6
CONTINUOUS
 62
               7
100
AcDbLine
 10
7.9999999999999716
 20
30.200000000000045
 30
0.0
 11
7.9999999999999716
 21
28.800000000000068
 31
0.0
  0
LINE
  5
328
100
AcDbEntity
  8
0
  6
CONTINUOUS
 62
               7
100
AcDbLine
 10
8.9999999999999716
 20
31.300000000000011
 30
0.0
 11
8.4999999999999716
 21
31.300000000000011
 31
0.0
  0
LINE
  5
329
100
AcDbEntity
  8
0
  6
CONTINUOUS
 62
               7
100
AcDbLine
 10
8.4999999999999716
 20
31.300000000000011
 30
0.0
 11
8.4999999999999716
 21
12.700000000000045
 31
0.0
  0
LINE
  5
32A
100
AcDbEntity
  8
0
  6
CONTINUOUS
 62
               7
100
AcDbLine
 10
65.999999999999972
 20
9.0
 30
0.0
 11
8.9999999999999716
 21
9.0
 31
0.0
  0
LINE
  5
32B
100
AcDbEntity
  8
0
  6
CONTINUOUS
 62
               7
100
AcDbLine
 10
8.9999999999999716
 20
9.0
 30
0.0
 11
8.9999999999999716
 21
35.0
 31
0.0
  0
LINE
  5
32C
100
AcDbEntity
  8
0
  6
CONTINUOUS
 62
               7
100
AcDbLine
 10
50.499999999999972
 20
9.0
 30
0.0
 11
50.499999999999972
 21
35.0
 31
0.0
  0
LINE
  5
32D
100
AcDbEntity
  8
0
  6
CENTER
 62
               2
100
AcDbLine
 10
67.721253657327082
 20
22.0
 30
0.0
 11
1.7508510363227856
 21
22.0
 31
0.0
  0
CIRCLE
  5
32E
100
AcDbEntity
  8
0
  6
CONTINUOUS
 62
               7
100
AcDbCircle
 10
42.999999999999972
 20
12.5
 30
0.0
 40
1.25
  0
CIRCLE
  5
32F
100
AcDbEntity
  8
0
  6
CONTINUOUS
 62
               2
100
AcDbCircle
 10
42.999999999999972
 20
12.5
 30
0.0
 40
1.5
  0
LINE
  5
330
100
AcDbEntity
  8
0
  6
CONTINUOUS
 62
               2
100
AcDbLine
 10
42.999999999999972
 20
15.0
 30
0.0
 11
42.999999999999972
 21
10.0
 31
0.0
  0
CIRCLE
  5
331
100
AcDbEntity
  8
0
  6
CONTINUOUS
 62
               7
100
AcDbCircle
 10
26.999999999999972
 20
31.5
 30
0.0
 40
1.25
  0
CIRCLE
  5
332
100
AcDbEntity
  8
0
  6
CONTINUOUS
 62
               2
100
AcDbCircle
 10
26.999999999999972
 20
31.5
 30
0.0
 40
1.5
  0
LINE
  5
333
100
AcDbEntity
  8
0
  6
CONTINUOUS
 62
               2
100
AcDbLine
 10
26.999999999999972
 20
29.0
 30
0.0
 11
26.999999999999972
 21
34.0
 31
0.0
  0
CIRCLE
  5
334
100
AcDbEntity
  8
0
  6
CONTINUOUS
 62
               7
100
AcDbCircle
 10
36.999999999999972
 20
31.5
 30
0.0
 40
2.8999999999999999
  0
LINE
  5
335
100
AcDbEntity
  8
0
  6
CONTINUOUS
 62
               2
100
AcDbLine
 10
36.999999999999972
 20
27.600000000000023
 30
0.0
 11
36.999999999999972
 21
35.400000000000034
 31
0.0
  0
CIRCLE
  5
336
100
AcDbEntity
  8
0
  6
CONTINUOUS
 62
               7
100
AcDbCircle
 10
42.999999999999972
 20
31.5
 30
0.0
 40
1.25
  0
CIRCLE
  5
337
100
AcDbEntity
  8
0
  6
CONTINUOUS
 62
               2
100
AcDbCircle
 10
42.999999999999972
 20
31.5
 30
0.0
 40
1.5
  0
LINE
  5
338
100
AcDbEntity
  8
0
  6
CONTINUOUS
 62
               7
100
AcDbLine
 10
65.999999999999972
 20
35.0
 30
0.0
 11
8.9999999999999716
 21
35.0
 31
0.0
  0
LINE
  5
339
100
AcDbEntity
  8
0
  6
CONTINUOUS
 62
               2
100
AcDbLine
 10
42.999999999999972
 20
29.0
 30
0.0
 11
42.999999999999972
 21
34.0
 31
0.0
  0
LINE
  5
33A
100
AcDbEntity
  8
0
  6
CONTINUOUS
 62
               2
100
AcDbLine
 10
42.999999999999972
 20
19.5
 30
0.0
 11
42.999999999999972
 21
24.5
 31
0.0
  0
CIRCLE
  5
33B
100
AcDbEntity
  8
0
  6
CONTINUOUS
 62
               7
100
AcDbCircle
 10
42.999999999999972
 20
22.0
 30
0.0
 40
1.5
  0
ARC
  5
33C
100
AcDbEntity
  8
0
  6
CONTINUOUS
 62
               7
100
AcDbCircle
 10
27.499999999999972
 20
22.0
 30
0.0
 40
1.5
100
AcDbArc
 50
270.0
 51
90.0
  0
LINE
  5
33D
100
AcDbEntity
  8
0
  6
CONTINUOUS
 62
               2
100
AcDbLine
 10
26.999999999999972
 20
24.300000000000011
 30
0.0
 11
26.999999999999972
 21
19.700000000000045
 31
0.0
  0
ARC
  5
33E
100
AcDbEntity
  8
0
  6
CONTINUOUS
 62
               7
100
AcDbCircle
 10
26.499999999999972
 20
22.0
 30
0.0
 40
1.5
100
AcDbArc
 50
90.0
 51
270.0
  0
LINE
  5
33F
100
AcDbEntity
  8
0
  6
CONTINUOUS
 62
               7
100
AcDbLine
 10
26.499999999999972
 20
23.5
 30
0.0
 11
27.499999999999972
 21
23.5
 31
0.0
  0
LINE
  5
340
100
AcDbEntity
  8
0
  6
CONTINUOUS
 62
               7
100
AcDbLine
 10
26.499999999999972
 20
20.5
 30
0.0
 11
27.499999999999972
 21
20.5
 31
0.0
  0
LINE
  5
341
100
AcDbEntity
  8
0
  6
CONTINUOUS
 62
               2
100
AcDbLine
 10
45.499999999999972
 20
31.5
 30
0.0
 11
33.099999999999994
 21
31.5
 31
0.0
  0
CIRCLE
  5
342
100
AcDbEntity
  8
0
  6
CONTINUOUS
 62
               7
100
AcDbCircle
 10
20.999999999999972
 20
31.5
 30
0.0
 40
2.8999999999999999
  0
LINE
  5
343
100
AcDbEntity
  8
0
  6
CONTINUOUS
 62
               2
100
AcDbLine
 10
20.999999999999972
 20
27.600000000000023
 30
0.0
 11
20.999999999999972
 21
35.400000000000034
 31
0.0
  0
LINE
  5
344
100
AcDbEntity
  8
0
  6
CONTINUOUS
 62
               2
100
AcDbLine
 10
29.499999999999972
 20
31.5
 30
0.0
 11
17.099999999999994
 21
31.5
 31
0.0
  0
CIRCLE
  5
345
100
AcDbEntity
  8
0
  6
CONTINUOUS
 62
               7
100
AcDbCircle
 10
36.999999999999972
 20
12.5
 30
0.0
 40
2.8999999999999999
  0
LINE
  5
346
100
AcDbEntity
  8
0
  6
CONTINUOUS
 62
               2
100
AcDbLine
 10
36.999999999999972
 20
16.400000000000034
 30
0.0
 11
36.999999999999972
 21
8.6000000000000227
 31
0.0
  0
LINE
  5
347
100
AcDbEntity
  8
0
  6
CONTINUOUS
 62
               2
100
AcDbLine
 10
45.499999999999972
 20
12.5
 30
0.0
 11
33.099999999999994
 21
12.5
 31
0.0
  0
LINE
  5
348
100
AcDbEntity
  8
0
  6
CONTINUOUS
 62
               7
100
AcDbLine
 10
65.999999999999972
 20
34.5
 30
0.0
 11
8.9999999999999716
 21
34.5
 31
0.0
  0
LINE
  5
349
100
AcDbEntity
  8
0
  6
CONTINUOUS
 62
               7
100
AcDbLine
 10
65.999999999999972
 20
9.5
 30
0.0
 11
8.9999999999999716
 21
9.5
 31
0.0
  0
LINE
  5
34A
100
AcDbEntity
  8
0
  6
CONTINUOUS
 62
               7
100
AcDbLine
 10
65.999999999999972
 20
9.0
 30
0.0
 11
65.999999999999972
 21
35.0
 31
0.0
  0
LINE
  5
34B
100
AcDbEntity
  8
0
  6
CONTINUOUS
 62
               7
100
AcDbLine
 10
65.50000019073488
 20
10.75
 30
0.0
 11
62.700000000000017
 21
10.75
 31
0.0
  0
LINE
  5
34C
100
AcDbEntity
  8
0
  6
CONTINUOUS
 62
               7
100
AcDbLine
 10
65.49999976533158
 20
10.750000338950485
 30
0.0
 11
65.699999765331626
 21
11.096410624521127
 31
0.0
  0
LINE
  5
34D
100
AcDbEntity
  8
0
  6
CONTINUOUS
 62
               7
100
AcDbLine
 10
65.50000019073488
 20
16.25
 30
0.0
 11
65.50000019073488
 21
10.75
 31
0.0
  0
LINE
  5
34E
100
AcDbEntity
  8
0
  6
CONTINUOUS
 62
               7
100
AcDbLine
 10
65.700000000000017
 20
15.903589248657227
 30
0.0
 11
65.700000000000017
 21
11.096410751342773
 31
0.0
  0
LINE
  5
34F
100
AcDbEntity
  8
0
  6
CONTINUOUS
 62
               7
100
AcDbLine
 10
65.499999031749752
 20
16.250000205027732
 30
0.0
 11
65.699999389377723
 21
15.903589578029596
 31
0.0
  0
LINE
  5
350
100
AcDbEntity
  8
0
  6
CONTINUOUS
 62
               7
100
AcDbLine
 10
65.50000019073488
 20
16.25
 30
0.0
 11
62.700000000000017
 21
16.25
 31
0.0
  0
LINE
  5
351
100
AcDbEntity
  8
0
  6
CONTINUOUS
 62
               7
100
AcDbLine
 10
65.999999999999972
 20
16.5
 30
0.0
 11
62.700000000000017
 21
16.5
 31
0.0
  0
LINE
  5
352
100
AcDbEntity
  8
0
  6
CONTINUOUS
 62
               7
100
AcDbLine
 10
65.999999999999972
 20
10.5
 30
0.0
 11
62.700000000000017
 21
10.5
 31
0.0
  0
LINE
  5
353
100
AcDbEntity
  8
0
  6
CONTINUOUS
 62
               7
100
AcDbLine
 10
62.700000000000017
 20
10.499999986309433
 30
0.0
 11
62.700000000000017
 21
16.499999986309433
 31
0.0
  0
LINE
  5
354
100
AcDbEntity
  8
0
  6
CONTINUOUS
 62
               7
100
AcDbLine
 10
62.700000000000017
 20
33.500000013690624
 30
0.0
 11
62.700000000000017
 21
27.500000013690624
 31
0.0
  0
LINE
  5
355
100
AcDbEntity
  8
0
  6
CONTINUOUS
 62
               7
100
AcDbLine
 10
65.999999999999972
 20
33.5
 30
0.0
 11
62.700000000000017
 21
33.5
 31
0.0
  0
LINE
  5
356
100
AcDbEntity
  8
0
  6
CONTINUOUS
 62
               7
100
AcDbLine
 10
65.999999999999972
 20
27.5
 30
0.0
 11
62.700000000000017
 21
27.5
 31
0.0
  0
LINE
  5
357
100
AcDbEntity
  8
0
  6
CONTINUOUS
 62
               7
100
AcDbLine
 10
65.50000019073488
 20
27.75
 30
0.0
 11
62.700000000000017
 21
27.75
 31
0.0
  0
LINE
  5
358
100
AcDbEntity
  8
0
  6
CONTINUOUS
 62
               7
100
AcDbLine
 10
65.499999031749752
 20
27.749999794972268
 30
0.0
 11
65.699999389377723
 21
28.096410421970404
 31
0.0
  0
LINE
  5
359
100
AcDbEntity
  8
0
  6
CONTINUOUS
 62
               7
100
AcDbLine
 10
65.700000000000017
 20
28.096410751342773
 30
0.0
 11
65.700000000000017
 21
32.903589248657227
 31
0.0
  0
LINE
  5
35A
100
AcDbEntity
  8
0
  6
CONTINUOUS
 62
               7
100
AcDbLine
 10
65.50000019073488
 20
27.75
 30
0.0
 11
65.50000019073488
 21
33.25
 31
0.0
  0
LINE
  5
35B
100
AcDbEntity
  8
0
  6
CONTINUOUS
 62
               7
100
AcDbLine
 10
65.49999976533158
 20
33.249999661049628
 30
0.0
 11
65.699999765331626
 21
32.90358937547893
 31
0.0
  0
LINE
  5
35C
100
AcDbEntity
  8
0
  6
CONTINUOUS
 62
               7
100
AcDbLine
 10
65.50000019073488
 20
33.25
 30
0.0
 11
62.700000000000017
 21
33.25
 31
0.0
  0
LINE
  5
35D
100
AcDbEntity
  8
0
  6
PHANTOM
 62
               3
100
AcDbLine
 10
32.701351142807994
 20
47.937629072253287
 30
0.0
 11
32.701351142807994
 21
-9.5
 31
0.0
  0
ENDBLK
  5
35E
100
AcDbEntity
  8
0
100
AcDbBlockEnd
  0
BLOCK
  5
35F
100
AcDbEntity
  8
0
100
AcDbBlockBegin
  2
MGALGS10-8
 70
               0
 10
0.0
 20
0.0
 30
0.0
  3
MGALGS10-8
  1

  0
LINE
  5
360
100
AcDbEntity
  8
0
  6
CONTINUOUS
 62
               2
100
AcDbLine
 10
0.0
 20
-1.2000000000000028
 30
0.0
 11
0.0
 21
5.2000000000000028
 31
0.0
  0
LINE
  5
361
100
AcDbEntity
  8
0
  6
CONTINUOUS
 62
               2
100
AcDbLine
 10
4.0
 20
45.421064405906037
 30
0.0
 11
4.0
 21
38.762026915600941
 31
0.0
  0
LINE
  5
362
100
AcDbEntity
  8
0
  6
CONTINUOUS
 62
               2
100
AcDbLine
 10
9.1999999999999886
 20
45.421064405906037
 30
0.0
 11
9.1999999999999886
 21
38.762026915600941
 31
0.0
  0
LINE
  5
363
100
AcDbEntity
  8
0
  6
CONTINUOUS
 62
               7
100
AcDbLine
 10
6.6999999999999886
 20
35.0
 30
0.0
 11
13.500000000000114
 21
35.0
 31
0.0
  0
LINE
  5
364
100
AcDbEntity
  8
0
  6
CONTINUOUS
 62
               7
100
AcDbLine
 10
12.799999999999955
 20
36.0
 30
0.0
 11
12.799999999999955
 21
35.0
 31
0.0
  0
LINE
  5
365
100
AcDbEntity
  8
0
  6
CONTINUOUS
 62
               7
100
AcDbLine
 10
9.1999999999999886
 20
35.0
 30
0.0
 11
9.1999999999999886
 21
36.0
 31
0.0
  0
LINE
  5
366
100
AcDbEntity
  8
0
  6
CONTINUOUS
 62
               7
100
AcDbLine
 10
0.8999999999999773
 20
44.500000000000085
 30
0.0
 11
0.8999999999999773
 21
34.5
 31
0.0
  0
LINE
  5
367
100
AcDbEntity
  8
0
  6
CONTINUOUS
 62
               7
100
AcDbLine
 10
6.6999999999999886
 20
38.5
 30
0.0
 11
6.6999999999999886
 21
34.5
 31
0.0
  0
LINE
  5
368
100
AcDbEntity
  8
0
  6
CONTINUOUS
 62
               7
100
AcDbLine
 10
9.1000000000000227
 20
37.700000000000017
 30
0.0
 11
6.6999999999999886
 21
37.700000000000017
 31
0.0
  0
LINE
  5
369
100
AcDbEntity
  8
0
  6
CONTINUOUS
 62
               7
100
AcDbLine
 10
10.299999999999955
 20
38.5
 30
0.0
 11
6.6999999999999886
 21
38.5
 31
0.0
  0
LINE
  5
36A
100
AcDbEntity
  8
0
  6
CONTINUOUS
 62
               7
100
AcDbLine
 10
2.1000000000000227
 20
44.500000000000057
 30
0.0
 11
0.8999999999999773
 21
44.500000000000085
 31
0.0
  0
LINE
  5
36B
100
AcDbEntity
  8
0
  6
CONTINUOUS
 62
               7
100
AcDbLine
 10
2.3999999999999773
 20
44.200000000000074
 30
0.0
 11
2.3999999999999773
 21
44.000000000000057
 31
0.0
  0
LINE
  5
36C
100
AcDbEntity
  8
0
  6
CONTINUOUS
 62
               7
100
AcDbLine
 10
5.5999999999999659
 20
44.200000000000074
 30
0.0
 11
5.5999999999999659
 21
44.000000000000057
 31
0.0
  0
LINE
  5
36D
100
AcDbEntity
  8
0
  6
CONTINUOUS
 62
               7
100
AcDbLine
 10
7.2999999999999545
 20
44.500000000000057
 30
0.0
 11
5.9006993865086201
 21
44.500000000000057
 31
0.0
  0
LINE
  5
36E
100
AcDbEntity
  8
0
  6
CONTINUOUS
 62
               7
100
AcDbLine
 10
6.1000000000000227
 20
43.500000000000057
 30
0.0
 11
6.1000000000000227
 21
41.900000000000063
 31
0.0
  0
LINE
  5
36F
100
AcDbEntity
  8
0
  6
CONTINUOUS
 62
               7
100
AcDbLine
 10
1.8999999999999773
 20
43.500000000000057
 30
0.0
 11
1.8999999999999773
 21
41.900000000000063
 31
0.0
  0
LINE
  5
370
100
AcDbEntity
  8
0
  6
CONTINUOUS
 62
               7
100
AcDbLine
 10
2.3999999999999773
 20
44.000000000000057
 30
0.0
 11
1.8999999999999773
 21
43.500000000000057
 31
0.0
  0
LINE
  5
371
100
AcDbEntity
  8
0
  6
CONTINUOUS
 62
               7
100
AcDbLine
 10
6.1000000000000227
 20
43.500000000000057
 30
0.0
 11
5.5999999999999659
 21
44.000000000000057
 31
0.0
  0
ARC
  5
372
100
AcDbEntity
  8
0
  6
CONTINUOUS
 62
               7
100
AcDbCircle
 10
4.0
 20
41.900000000000063
 30
0.0
 40
2.1000000111152071
100
AcDbArc
 50
180.0
 51
0.0
  0
ARC
  5
373
100
AcDbEntity
  8
0
  6
CONTINUOUS
 62
               7
100
AcDbCircle
 10
5.9006993865086201
 20
44.199300613491431
 30
0.0
 40
0.3007001998472195
100
AcDbArc
 50
90.133262070800924
 51
179.86673792919814
  0
ARC
  5
374
100
AcDbEntity
  8
0
  6
CONTINUOUS
 62
               7
100
AcDbCircle
 10
2.1004760263646176
 20
44.200476026364669
 30
0.0
 40
0.2995243519038812
100
AcDbArc
 50
359.90894124989592
 51
90.091058750103045
  0
LINE
  5
375
100
AcDbEntity
  8
0
  6
CONTINUOUS
 62
               7
100
AcDbLine
 10
7.1000000000000227
 20
43.500000000000057
 30
0.0
 11
7.1000000000000227
 21
41.900000000000063
 31
0.0
  0
ARC
  5
376
100
AcDbEntity
  8
0
  6
CONTINUOUS
 62
               7
100
AcDbCircle
 10
7.2993006134913685
 20
44.199300613491431
 30
0.0
 40
0.3007001998472195
100
AcDbArc
 50
0.1332620708018593
 51
89.866737929199076
  0
LINE
  5
377
100
AcDbEntity
  8
0
  6
CONTINUOUS
 62
               7
100
AcDbLine
 10
7.1000000000000227
 20
43.500000000000057
 30
0.0
 11
7.6000000000000227
 21
44.000000000000057
 31
0.0
  0
LINE
  5
378
100
AcDbEntity
  8
0
  6
CONTINUOUS
 62
               7
100
AcDbLine
 10
7.6000000000000227
 20
44.200000000000074
 30
0.0
 11
7.6000000000000227
 21
44.000000000000057
 31
0.0
  0
ARC
  5
379
100
AcDbEntity
  8
0
  6
CONTINUOUS
 62
               7
100
AcDbCircle
 10
9.1999999999999886
 20
41.900000000000063
 30
0.0
 40
2.1000000111152071
100
AcDbArc
 50
180.0
 51
0.0
  0
LINE
  5
37A
100
AcDbEntity
  8
0
  6
CONTINUOUS
 62
               7
100
AcDbLine
 10
11.099999999999966
 20
44.500000000000057
 30
0.0
 11
12.299999999999955
 21
44.500000000000085
 31
0.0
  0
LINE
  5
37B
100
AcDbEntity
  8
0
  6
CONTINUOUS
 62
               7
100
AcDbLine
 10
11.299999999999955
 20
43.500000000000057
 30
0.0
 11
11.299999999999955
 21
41.900000000000063
 31
0.0
  0
ARC
  5
37C
100
AcDbEntity
  8
0
  6
CONTINUOUS
 62
               7
100
AcDbCircle
 10
11.099523973635428
 20
44.200476026364669
 30
0.0
 40
0.2995243519038812
100
AcDbArc
 50
89.908941249896955
 51
180.09105875010405
  0
LINE
  5
37D
100
AcDbEntity
  8
0
  6
CONTINUOUS
 62
               7
100
AcDbLine
 10
10.799999999999955
 20
44.000000000000057
 30
0.0
 11
11.299999999999955
 21
43.500000000000057
 31
0.0
  0
LINE
  5
37E
100
AcDbEntity
  8
0
  6
CONTINUOUS
 62
               7
100
AcDbLine
 10
10.799999999999955
 20
44.200000000000074
 30
0.0
 11
10.799999999999955
 21
44.000000000000057
 31
0.0
  0
LINE
  5
37F
100
AcDbEntity
  8
0
  6
CONTINUOUS
 62
               7
100
AcDbLine
 10
12.299999999999955
 20
44.500000000000085
 30
0.0
 11
12.299999999999955
 21
40.5
 31
0.0
  0
ARC
  5
380
100
AcDbEntity
  8
0
  6
CONTINUOUS
 62
               7
100
AcDbCircle
 10
10.299999999999955
 20
40.5
 30
0.0
 40
2.0
100
AcDbArc
 50
270.0
 51
0.0
  0
LINE
  5
381
100
AcDbEntity
  8
0
  6
CONTINUOUS
 62
               7
100
AcDbLine
 10
12.899999999999977
 20
37.700000000000017
 30
0.0
 11
9.1000000000000227
 21
37.700000000000017
 31
0.0
  0
LINE
  5
382
100
AcDbEntity
  8
0
  6
CONTINUOUS
 62
               7
100
AcDbLine
 10
12.600000000000023
 20
38.0
 30
0.0
 11
12.899999999999977
 21
37.700000000000017
 31
0.0
  0
LINE
  5
383
100
AcDbEntity
  8
0
  6
CONTINUOUS
 62
               7
100
AcDbLine
 10
9.3999999999999773
 20
38.0
 30
0.0
 11
9.1000000000000227
 21
37.700000000000017
 31
0.0
  0
LINE
  5
384
100
AcDbEntity
  8
0
  6
CONTINUOUS
 62
               7
100
AcDbLine
 10
12.899999999999977
 20
37.700000000000017
 30
0.0
 11
12.899999999999977
 21
36.0
 31
0.0
  0
LINE
  5
385
100
AcDbEntity
  8
0
  6
CONTINUOUS
 62
               7
100
AcDbLine
 10
9.1000000000000227
 20
37.700000000000017
 30
0.0
 11
9.1000000000000227
 21
36.0
 31
0.0
  0
LINE
  5
386
100
AcDbEntity
  8
0
  6
CONTINUOUS
 62
               7
100
AcDbLine
 10
12.600000000000023
 20
38.0
 30
0.0
 11
9.3999999999999773
 21
38.0
 31
0.0
  0
LINE
  5
387
100
AcDbEntity
  8
0
  6
CONTINUOUS
 62
               7
100
AcDbLine
 10
12.899999999999977
 20
36.0
 30
0.0
 11
6.6999999999999886
 21
36.0
 31
0.0
  0
LINE
  5
388
100
AcDbEntity
  8
0
  6
CONTINUOUS
 62
               2
100
AcDbLine
 10
-4.5000000000000284
 20
12.5
 30
0.0
 11
0.4999999999999716
 21
12.5
 31
0.0
  0
LINE
  5
389
100
AcDbEntity
  8
0
  6
CONTINUOUS
 62
               2
100
AcDbLine
 10
-4.5000000000000284
 20
31.5
 30
0.0
 11
0.4999999999999716
 21
31.5
 31
0.0
  0
LINE
  5
38A
100
AcDbEntity
  8
0
  6
CONTINUOUS
 62
               7
100
AcDbLine
 10
-4.0
 20
0.0
 30
0.0
 11
-4.0
 21
8.3000000000000114
 31
0.0
  0
LINE
  5
38B
100
AcDbEntity
  8
0
  6
CONTINUOUS
 62
               7
100
AcDbLine
 10
-3.1999999999999886
 20
8.3000000000000114
 30
0.0
 11
-3.1999999999999886
 21
11.000000007980816
 31
0.0
  0
LINE
  5
38C
100
AcDbEntity
  8
0
  6
CONTINUOUS
 62
               7
100
AcDbLine
 10
-2.0
 20
11.000000007980816
 30
0.0
 11
-3.1999999999999886
 21
11.000000007980816
 31
0.0
  0
LINE
  5
38D
100
AcDbEntity
  8
0
  6
CONTINUOUS
 62
               7
100
AcDbLine
 10
4.0
 20
4.0
 30
0.0
 11
4.0
 21
8.3000000000000114
 31
0.0
  0
LINE
  5
38E
100
AcDbEntity
  8
0
  6
CONTINUOUS
 62
               7
100
AcDbLine
 10
4.0
 20
4.0
 30
0.0
 11
-4.0
 21
4.0
 31
0.0
  0
LINE
  5
38F
100
AcDbEntity
  8
0
  6
CONTINUOUS
 62
               2
100
AcDbLine
 10
10.25
 20
6.0
 30
0.0
 11
5.75
 21
6.0
 31
0.0
  0
LINE
  5
390
100
AcDbEntity
  8
0
  6
CONTINUOUS
 62
               7
100
AcDbLine
 10
13.0
 20
0.0
 30
0.0
 11
-4.0
 21
0.0
 31
0.0
  0
LINE
  5
391
100
AcDbEntity
  8
0
  6
CONTINUOUS
 62
               7
100
AcDbLine
 10
8.0
 20
9.5
 30
0.0
 11
8.0
 21
8.3000000000000114
 31
0.0
  0
CIRCLE
  5
392
100
AcDbEntity
  8
0
  6
CONTINUOUS
 62
               2
100
AcDbCircle
 10
8.0
 20
6.0
 30
0.0
 40
1.5
  0
CIRCLE
  5
393
100
AcDbEntity
  8
0
  6
CONTINUOUS
 62
               7
100
AcDbCircle
 10
8.0
 20
6.0
 30
0.0
 40
1.25
  0
LINE
  5
394
100
AcDbEntity
  8
0
  6
CONTINUOUS
 62
               7
100
AcDbLine
 10
13.0
 20
8.3000000000000114
 30
0.0
 11
-4.0
 21
8.3000000000000114
 31
0.0
  0
LINE
  5
395
100
AcDbEntity
  8
0
  6
CONTINUOUS
 62
               7
100
AcDbLine
 10
13.0
 20
8.3000000000000114
 30
0.0
 11
13.0
 21
0.0
 31
0.0
  0
LINE
  5
396
100
AcDbEntity
  8
0
  6
CONTINUOUS
 62
               2
100
AcDbLine
 10
8.0
 20
8.25
 30
0.0
 11
8.0
 21
3.75
 31
0.0
  0
LINE
  5
397
100
AcDbEntity
  8
0
  6
CONTINUOUS
 62
               7
100
AcDbLine
 10
2.7216880321502686
 20
31.25
 30
0.0
 11
1.2783119678497314
 21
31.25
 31
0.0
  0
LINE
  5
398
100
AcDbEntity
  8
0
  6
CONTINUOUS
 62
               7
100
AcDbLine
 10
2.721687912940979
 20
28.75
 30
0.0
 11
1.278312087059021
 21
28.75
 31
0.0
  0
LINE
  5
399
100
AcDbEntity
  8
0
  6
CONTINUOUS
 62
               7
100
AcDbLine
 10
2.7216879559569236
 20
31.249999920265282
 30
0.0
 11
3.4433756636567239
 21
29.999999930723106
 31
0.0
  0
LINE
  5
39A
100
AcDbEntity
  8
0
  6
CONTINUOUS
 62
               7
100
AcDbLine
 10
3.4433748377504969
 20
30.000000546114052
 30
0.0
 11
2.7216871300506966
 21
28.750000556571877
 31
0.0
  0
CIRCLE
  5
39B
100
AcDbEntity
  8
0
  6
CONTINUOUS
 62
               7
100
AcDbCircle
 10
2.0
 20
30.0
 30
0.0
 40
3.25
  0
CIRCLE
  5
39C
100
AcDbEntity
  8
0
  6
CONTINUOUS
 62
               7
100
AcDbCircle
 10
2.0000001192092896
 20
30.0
 30
0.0
 40
2.4035892486572266
  0
CIRCLE
  5
39D
100
AcDbEntity
  8
0
  6
CONTINUOUS
 62
               7
100
AcDbCircle
 10
2.0
 20
30.0
 30
0.0
 40
2.75
  0
LINE
  5
39E
100
AcDbEntity
  8
0
  6
CONTINUOUS
 62
               7
100
AcDbLine
 10
1.2783120440430764
 20
31.249999920265282
 30
0.0
 11
0.5566243363432761
 21
29.999999930723106
 31
0.0
  0
LINE
  5
39F
100
AcDbEntity
  8
0
  6
CONTINUOUS
 62
               7
100
AcDbLine
 10
0.5566251622495031
 20
30.000000546114052
 30
0.0
 11
1.2783128699493034
 21
28.750000556571877
 31
0.0
  0
CIRCLE
  5
3A0
100
AcDbEntity
  8
0
  6
CONTINUOUS
 62
               7
100
AcDbCircle
 10
2.0
 20
14.0
 30
0.0
 40
3.25
  0
CIRCLE
  5
3A1
100
AcDbEntity
  8
0
  6
CONTINUOUS
 62
               2
100
AcDbCircle
 10
4.5
 20
22.0
 30
0.0
 40
1.5
  0
CIRCLE
  5
3A2
100
AcDbEntity
  8
0
  6
CONTINUOUS
 62
               7
100
AcDbCircle
 10
4.5
 20
22.0
 30
0.0
 40
1.25
  0
LINE
  5
3A3
100
AcDbEntity
  8
0
  6
CONTINUOUS
 62
               7
100
AcDbLine
 10
-1.7999999999999829
 20
10.0
 30
0.0
 11
-1.7999999999999829
 21
34.0
 31
0.0
  0
LINE
  5
3A4
100
AcDbEntity
  8
0
  6
CONTINUOUS
 62
               7
100
AcDbLine
 10
-1.7999999999999829
 20
34.0
 30
0.0
 11
8.5
 21
34.0
 31
0.0
  0
LINE
  5
3A5
100
AcDbEntity
  8
0
  6
CONTINUOUS
 62
               7
100
AcDbLine
 10
-1.7999999999999829
 20
10.0
 30
0.0
 11
8.5
 21
10.0
 31
0.0
  0
LINE
  5
3A6
100
AcDbEntity
  8
0
  6
CONTINUOUS
 62
               7
100
AcDbLine
 10
8.5
 20
17.5
 30
0.0
 11
10.5
 21
17.5
 31
0.0
  0
LINE
  5
3A7
100
AcDbEntity
  8
0
  6
CONTINUOUS
 62
               7
100
AcDbLine
 10
10.5
 20
26.5
 30
0.0
 11
10.5
 21
17.5
 31
0.0
  0
LINE
  5
3A8
100
AcDbEntity
  8
0
  6
CONTINUOUS
 62
               7
100
AcDbLine
 10
8.5
 20
26.5
 30
0.0
 11
10.5
 21
26.5
 31
0.0
  0
CIRCLE
  5
3A9
100
AcDbEntity
  8
0
  6
CONTINUOUS
 62
               7
100
AcDbCircle
 10
2.0000001192092896
 20
14.0
 30
0.0
 40
2.4035892486572266
  0
CIRCLE
  5
3AA
100
AcDbEntity
  8
0
  6
CONTINUOUS
 62
               7
100
AcDbCircle
 10
2.0
 20
14.0
 30
0.0
 40
2.75
  0
LINE
  5
3AB
100
AcDbEntity
  8
0
  6
CONTINUOUS
 62
               7
100
AcDbLine
 10
1.2783120440430764
 20
12.750000079734718
 30
0.0
 11
0.5566243363432761
 21
14.000000069276894
 31
0.0
  0
LINE
  5
3AC
100
AcDbEntity
  8
0
  6
CONTINUOUS
 62
               7
100
AcDbLine
 10
3.4433748377504969
 20
13.999999453886062
 30
0.0
 11
2.7216871300506966
 21
15.249999443428237
 31
0.0
  0
LINE
  5
3AD
100
AcDbEntity
  8
0
  6
CONTINUOUS
 62
               7
100
AcDbLine
 10
0.5566251622495031
 20
13.999999453886062
 30
0.0
 11
1.2783128699493034
 21
15.249999443428237
 31
0.0
  0
LINE
  5
3AE
100
AcDbEntity
  8
0
  6
CONTINUOUS
 62
               7
100
AcDbLine
 10
2.7216879559569236
 20
12.750000079734718
 30
0.0
 11
3.4433756636567239
 21
14.000000069276894
 31
0.0
  0
LINE
  5
3AF
100
AcDbEntity
  8
0
  6
CONTINUOUS
 62
               7
100
AcDbLine
 10
2.721687912940979
 20
15.25
 30
0.0
 11
1.278312087059021
 21
15.25
 31
0.0
  0
LINE
  5
3B0
100
AcDbEntity
  8
0
  6
CONTINUOUS
 62
               7
100
AcDbLine
 10
2.7216880321502686
 20
12.75
 30
0.0
 11
1.2783119678497314
 21
12.75
 31
0.0
  0
LINE
  5
3B1
100
AcDbEntity
  8
0
  6
CONTINUOUS
 62
               7
100
AcDbLine
 10
9.1999999999999886
 20
16.600000000000023
 30
0.0
 11
9.0
 21
16.600000000000023
 31
0.0
  0
LINE
  5
3B2
100
AcDbEntity
  8
0
  6
CONTINUOUS
 62
               7
100
AcDbLine
 10
9.1999999999999886
 20
27.400000000000034
 30
0.0
 11
9.0
 21
27.400000000000034
 31
0.0
  0
LINE
  5
3B3
100
AcDbEntity
  8
0
  6
CONTINUOUS
 62
               7
100
AcDbLine
 10
11.199999999999989
 20
27.100000000000023
 30
0.0
 11
11.199999999999989
 21
16.900000000000034
 31
0.0
  0
LINE
  5
3B4
100
AcDbEntity
  8
0
  6
CONTINUOUS
 62
               7
100
AcDbLine
 10
9.1999999999999886
 20
27.100000000000023
 30
0.0
 11
11.199999999999989
 21
27.100000000000023
 31
0.0
  0
LINE
  5
3B5
100
AcDbEntity
  8
0
  6
CONTINUOUS
 62
               7
100
AcDbLine
 10
9.1999999999999886
 20
31.300000000000011
 30
0.0
 11
9.1999999999999886
 21
27.100000000000023
 31
0.0
  0
LINE
  5
3B6
100
AcDbEntity
  8
0
  6
CONTINUOUS
 62
               7
100
AcDbLine
 10
9.1999999999999886
 20
16.900000000000034
 30
0.0
 11
11.199999999999989
 21
16.900000000000034
 31
0.0
  0
LINE
  5
3B7
100
AcDbEntity
  8
0
  6
CONTINUOUS
 62
               7
100
AcDbLine
 10
9.1999999999999886
 20
12.700000000000045
 30
0.0
 11
9.1999999999999886
 21
16.900000000000034
 31
0.0
  0
LINE
  5
3B8
100
AcDbEntity
  8
0
  6
CONTINUOUS
 62
               7
100
AcDbLine
 10
9.1999999999999886
 20
12.700000000000045
 30
0.0
 11
13.699999999999989
 21
12.700000000000045
 31
0.0
  0
LINE
  5
3B9
100
AcDbEntity
  8
0
  6
CONTINUOUS
 62
               7
100
AcDbLine
 10
9.1999999999999886
 20
31.300000000000011
 30
0.0
 11
13.699999999999989
 21
31.300000000000011
 31
0.0
  0
LINE
  5
3BA
100
AcDbEntity
  8
0
  6
CONTINUOUS
 62
               7
100
AcDbLine
 10
13.699999999999989
 20
12.700000000000045
 30
0.0
 11
13.699999999999989
 21
31.300000000000011
 31
0.0
  0
LINE
  5
3BB
100
AcDbEntity
  8
0
  6
CONTINUOUS
 62
               7
100
AcDbLine
 10
-0.5
 20
34.5
 30
0.0
 11
-0.5
 21
35.0
 31
0.0
  0
ARC
  5
3BC
100
AcDbEntity
  8
0
  6
CONTINUOUS
 62
               7
100
AcDbCircle
 10
10.0
 20
27.082650060048081
 30
0.0
 40
0.4
100
AcDbArc
 50
249.51268488527725
 51
290.48731511472278
  0
ARC
  5
3BD
100
AcDbEntity
  8
0
  6
CONTINUOUS
 62
               7
100
AcDbCircle
 10
10.070000000000022
 20
27.270000000000039
 30
0.0
 40
0.6000000000000001
100
AcDbArc
 50
206.74368395040338
 51
249.51268488527725
  0
ARC
  5
3BE
100
AcDbEntity
  8
0
  6
CONTINUOUS
 62
               7
100
AcDbCircle
 10
9.9299999999999784
 20
27.270000000000039
 30
0.0
 40
0.6000000000000001
100
AcDbArc
 50
290.48731511472278
 51
333.25631604959665
  0
LINE
  5
3BF
100
AcDbEntity
  8
0
  6
CONTINUOUS
 62
               7
100
AcDbLine
 10
10.800000000000011
 20
27.0
 30
0.0
 11
10.465817132984768
 21
27.0
 31
0.0
  0
ARC
  5
3C0
100
AcDbEntity
  8
0
  6
CONTINUOUS
 62
               7
100
AcDbCircle
 10
10.0
 20
27.200000000000045
 30
0.0
 40
0.5
100
AcDbArc
 50
191.53695903281417
 51
348.4630409671858
  0
LINE
  5
3C1
100
AcDbEntity
  8
0
  6
CONTINUOUS
 62
               7
100
AcDbLine
 10
9.5341828670152324
 20
27.0
 30
0.0
 11
8.5
 21
27.0
 31
0.0
  0
LINE
  5
3C2
100
AcDbEntity
  8
0
  6
CONTINUOUS
 62
               7
100
AcDbLine
 10
9.0
 20
35.0
 30
0.0
 11
9.0
 21
27.400000000000034
 31
0.0
  0
LINE
  5
3C3
100
AcDbEntity
  8
0
  6
CONTINUOUS
 62
               7
100
AcDbLine
 10
10.799999999999983
 20
17.0
 30
0.0
 11
10.800000000000011
 21
27.0
 31
0.0
  0
LINE
  5
3C4
100
AcDbEntity
  8
0
  6
CONTINUOUS
 62
               7
100
AcDbLine
 10
8.5
 20
17.5
 30
0.0
 11
8.5
 21
9.5
 31
0.0
  0
LINE
  5
3C5
100
AcDbEntity
  8
0
  6
CONTINUOUS
 62
               7
100
AcDbLine
 10
-0.5
 20
35.0
 30
0.0
 11
0.8999999999999773
 21
35.0
 31
0.0
  0
LINE
  5
3C6
100
AcDbEntity
  8
0
  6
CONTINUOUS
 62
               7
100
AcDbLine
 10
8.0
 20
9.0
 30
0.0
 11
13.500000000000142
 21
9.0
 31
0.0
  0
LINE
  5
3C7
100
AcDbEntity
  8
0
  6
CONTINUOUS
 62
               7
100
AcDbLine
 10
-2.0
 20
9.5
 30
0.0
 11
8.5
 21
9.5
 31
0.0
  0
LINE
  5
3C8
100
AcDbEntity
  8
0
  6
CONTINUOUS
 62
               7
100
AcDbLine
 10
-2.0
 20
34.5
 30
0.0
 11
8.5
 21
34.5
 31
0.0
  0
LINE
  5
3C9
100
AcDbEntity
  8
0
  6
CONTINUOUS
 62
               7
100
AcDbLine
 10
14.0
 20
34.5
 30
0.0
 11
14.0
 21
9.5
 31
0.0
  0
LINE
  5
3CA
100
AcDbEntity
  8
0
  6
CONTINUOUS
 62
               7
100
AcDbLine
 10
8.5
 20
34.499999978616074
 30
0.0
 11
8.5
 21
26.5
 31
0.0
  0
LINE
  5
3CB
100
AcDbEntity
  8
0
  6
CONTINUOUS
 62
               2
100
AcDbLine
 10
4.5
 20
24.5
 30
0.0
 11
4.5
 21
19.5
 31
0.0
  0
LINE
  5
3CC
100
AcDbEntity
  8
0
  6
CENTER
 62
               2
100
AcDbLine
 10
-2.9560299056583688
 20
22.0
 30
0.0
 11
15.366814659256335
 21
22.0
 31
0.0
  0
LINE
  5
3CD
100
AcDbEntity
  8
0
  6
CONTINUOUS
 62
               7
100
AcDbLine
 10
10.434314575050735
 20
28.934314575050792
 30
0.0
 11
11.565685424949237
 21
30.065685424949265
 31
0.0
  0
LINE
  5
3CE
100
AcDbEntity
  8
0
  6
CONTINUOUS
 62
               7
100
AcDbLine
 10
10.434314575050735
 20
30.065685424949265
 30
0.0
 11
11.565685424949237
 21
28.934314575050792
 31
0.0
  0
CIRCLE
  5
3CF
100
AcDbEntity
  8
0
  6
CONTINUOUS
 62
               7
100
AcDbCircle
 10
11.0
 20
29.5
 30
0.0
 40
1.0
  0
LINE
  5
3D0
100
AcDbEntity
  8
0
  6
CONTINUOUS
 62
               7
100
AcDbLine
 10
10.434314575050763
 20
13.934314575050792
 30
0.0
 11
11.565685424949265
 21
15.065685424949265
 31
0.0
  0
LINE
  5
3D1
100
AcDbEntity
  8
0
  6
CONTINUOUS
 62
               7
100
AcDbLine
 10
10.434314575050763
 20
15.065685424949265
 30
0.0
 11
11.565685424949265
 21
13.934314575050792
 31
0.0
  0
CIRCLE
  5
3D2
100
AcDbEntity
  8
0
  6
CONTINUOUS
 62
               7
100
AcDbCircle
 10
11.0
 20
14.5
 30
0.0
 40
1.0
  0
LINE
  5
3D3
100
AcDbEntity
  8
0
  6
CONTINUOUS
 62
               7
100
AcDbLine
 10
14.0
 20
9.5
 30
0.0
 11
13.500000000000142
 21
9.0
 31
0.0
  0
LINE
  5
3D4
100
AcDbEntity
  8
0
  6
CONTINUOUS
 62
               7
100
AcDbLine
 10
14.0
 20
34.5
 30
0.0
 11
13.500000000000114
 21
35.0
 31
0.0
  0
LINE
  5
3D5
100
AcDbEntity
  8
0
  6
CONTINUOUS
 62
               7
100
AcDbLine
 10
9.0
 20
9.0
 30
0.0
 11
9.0
 21
16.600000000000023
 31
0.0
  0
LINE
  5
3D6
100
AcDbEntity
  8
0
  6
CONTINUOUS
 62
               7
100
AcDbLine
 10
-2.0
 20
25.700000000000045
 30
0.0
 11
-2.0
 21
34.5
 31
0.0
  0
LINE
  5
3D7
100
AcDbEntity
  8
0
  6
CONTINUOUS
 62
               7
100
AcDbLine
 10
-2.0
 20
9.5
 30
0.0
 11
-2.0
 21
18.300000000000011
 31
0.0
  0
LINE
  5
3D8
100
AcDbEntity
  8
0
  6
CONTINUOUS
 62
               7
100
AcDbLine
 10
9.5341828670152324
 20
17.0
 30
0.0
 11
8.5
 21
17.0
 31
0.0
  0
ARC
  5
3D9
100
AcDbEntity
  8
0
  6
CONTINUOUS
 62
               7
100
AcDbCircle
 10
10.0
 20
16.800000000000068
 30
0.0
 40
0.5
100
AcDbArc
 50
11.536959032814144
 51
168.46304096718586
  0
LINE
  5
3DA
100
AcDbEntity
  8
0
  6
CONTINUOUS
 62
               7
100
AcDbLine
 10
10.800000000000011
 20
17.0
 30
0.0
 11
10.465817132984768
 21
17.0
 31
0.0
  0
ARC
  5
3DB
100
AcDbEntity
  8
0
  6
CONTINUOUS
 62
               7
100
AcDbCircle
 10
9.9299999999999784
 20
16.730000000000018
 30
0.0
 40
0.6000000000000001
100
AcDbArc
 50
26.743683950403376
 51
69.512684885277267
  0
ARC
  5
3DC
100
AcDbEntity
  8
0
  6
CONTINUOUS
 62
               7
100
AcDbCircle
 10
10.070000000000022
 20
16.730000000000018
 30
0.0
 40
0.6000000000000001
100
AcDbArc
 50
110.48731511472275
 51
153.25631604959662
  0
ARC
  5
3DD
100
AcDbEntity
  8
0
  6
CONTINUOUS
 62
               7
100
AcDbCircle
 10
10.0
 20
16.917349939951976
 30
0.0
 40
0.4
100
AcDbArc
 50
69.512684885277253
 51
110.48731511472275
  0
LINE
  5
3DE
100
AcDbEntity
  8
0
  6
CONTINUOUS
 62
               7
100
AcDbLine
 10
-1.7999999999999829
 20
18.5
 30
0.0
 11
-2.0
 21
18.300000000000011
 31
0.0
  0
LINE
  5
3DF
100
AcDbEntity
  8
0
  6
CONTINUOUS
 62
               7
100
AcDbLine
 10
-1.7999999999999829
 20
25.5
 30
0.0
 11
-2.0
 21
25.700000000000045
 31
0.0
  0
ENDBLK
  5
3E0
100
AcDbEntity
  8
0
100
AcDbBlockEnd
  0
BLOCK
  5
3E1
100
AcDbEntity
  8
0
100
AcDbBlockBegin
  2
MGALGS10-9
 70
               0
 10
0.0
 20
0.0
 30
0.0
  3
MGALGS10-9
  1

  0
LINE
  5
3E2
100
AcDbEntity
  8
0
  6
CONTINUOUS
 62
               2
100
AcDbLine
 10
0.0
 20
-1.2000000000000028
 30
0.0
 11
0.0
 21
5.2000000000000028
 31
0.0
  0
LINE
  5
3E3
100
AcDbEntity
  8
0
  6
CONTINUOUS
 62
               2
100
AcDbLine
 10
-9.1999999999999318
 20
45.421064405906037
 30
0.0
 11
-9.1999999999999318
 21
38.762026915600941
 31
0.0
  0
LINE
  5
3E4
100
AcDbEntity
  8
0
  6
CONTINUOUS
 62
               2
100
AcDbLine
 10
-3.9999999999999432
 20
45.421064405906037
 30
0.0
 11
-3.9999999999999432
 21
38.762026915600941
 31
0.0
  0
LINE
  5
3E5
100
AcDbEntity
  8
0
  6
CONTINUOUS
 62
               7
100
AcDbLine
 10
-12.899999999999949
 20
36.0
 30
0.0
 11
-6.6999999999999318
 21
36.0
 31
0.0
  0
LINE
  5
3E6
100
AcDbEntity
  8
0
  6
CONTINUOUS
 62
               7
100
AcDbLine
 10
-12.599999999999937
 20
38.0
 30
0.0
 11
-9.3999999999999773
 21
38.0
 31
0.0
  0
LINE
  5
3E7
100
AcDbEntity
  8
0
  6
CONTINUOUS
 62
               7
100
AcDbLine
 10
-9.0999999999999091
 20
37.700000000000017
 30
0.0
 11
-9.0999999999999091
 21
36.0
 31
0.0
  0
LINE
  5
3E8
100
AcDbEntity
  8
0
  6
CONTINUOUS
 62
               7
100
AcDbLine
 10
-12.899999999999949
 20
37.700000000000017
 30
0.0
 11
-12.899999999999949
 21
36.0
 31
0.0
  0
LINE
  5
3E9
100
AcDbEntity
  8
0
  6
CONTINUOUS
 62
               7
100
AcDbLine
 10
-9.3999999999999773
 20
38.0
 30
0.0
 11
-9.0999999999999091
 21
37.700000000000017
 31
0.0
  0
LINE
  5
3EA
100
AcDbEntity
  8
0
  6
CONTINUOUS
 62
               7
100
AcDbLine
 10
-12.599999999999937
 20
38.0
 30
0.0
 11
-12.899999999999949
 21
37.700000000000017
 31
0.0
  0
LINE
  5
3EB
100
AcDbEntity
  8
0
  6
CONTINUOUS
 62
               7
100
AcDbLine
 10
-12.899999999999949
 20
37.700000000000017
 30
0.0
 11
-9.0999999999999091
 21
37.700000000000017
 31
0.0
  0
LINE
  5
3EC
100
AcDbEntity
  8
0
  6
CONTINUOUS
 62
               7
100
AcDbLine
 10
-12.799999999999926
 20
36.0
 30
0.0
 11
-12.799999999999926
 21
35.0
 31
0.0
  0
LINE
  5
3ED
100
AcDbEntity
  8
0
  6
CONTINUOUS
 62
               7
100
AcDbLine
 10
-9.1999999999999318
 20
35.0
 30
0.0
 11
-9.1999999999999318
 21
36.0
 31
0.0
  0
LINE
  5
3EE
100
AcDbEntity
  8
0
  6
CONTINUOUS
 62
               7
100
AcDbLine
 10
-9.0999999999999091
 20
37.700000000000003
 30
0.0
 11
-6.6999999999999318
 21
37.700000000000003
 31
0.0
  0
LINE
  5
3EF
100
AcDbEntity
  8
0
  6
CONTINUOUS
 62
               7
100
AcDbLine
 10
-10.299999999999983
 20
38.5
 30
0.0
 11
-6.6999999999999318
 21
38.5
 31
0.0
  0
LINE
  5
3F0
100
AcDbEntity
  8
0
  6
CONTINUOUS
 62
               7
100
AcDbLine
 10
-2.1000000000000227
 20
44.500000000000057
 30
0.0
 11
-0.8999999999999773
 21
44.500000000000071
 31
0.0
  0
LINE
  5
3F1
100
AcDbEntity
  8
0
  6
CONTINUOUS
 62
               7
100
AcDbLine
 10
-2.3999999999999773
 20
44.20000000000006
 30
0.0
 11
-2.3999999999999773
 21
44.000000000000057
 31
0.0
  0
LINE
  5
3F2
100
AcDbEntity
  8
0
  6
CONTINUOUS
 62
               7
100
AcDbLine
 10
-5.5999999999999091
 20
44.20000000000006
 30
0.0
 11
-5.5999999999999091
 21
44.000000000000057
 31
0.0
  0
LINE
  5
3F3
100
AcDbEntity
  8
0
  6
CONTINUOUS
 62
               7
100
AcDbLine
 10
-7.2999999999999545
 20
44.500000000000057
 30
0.0
 11
-5.9006993865085633
 21
44.500000000000057
 31
0.0
  0
LINE
  5
3F4
100
AcDbEntity
  8
0
  6
CONTINUOUS
 62
               7
100
AcDbLine
 10
-6.0999999999999091
 20
43.500000000000057
 30
0.0
 11
-6.0999999999999091
 21
41.900000000000063
 31
0.0
  0
LINE
  5
3F5
100
AcDbEntity
  8
0
  6
CONTINUOUS
 62
               7
100
AcDbLine
 10
-1.8999999999999773
 20
43.500000000000057
 30
0.0
 11
-1.8999999999999773
 21
41.900000000000063
 31
0.0
  0
LINE
  5
3F6
100
AcDbEntity
  8
0
  6
CONTINUOUS
 62
               7
100
AcDbLine
 10
-2.3999999999999773
 20
44.000000000000057
 30
0.0
 11
-1.8999999999999773
 21
43.500000000000057
 31
0.0
  0
LINE
  5
3F7
100
AcDbEntity
  8
0
  6
CONTINUOUS
 62
               7
100
AcDbLine
 10
-6.0999999999999091
 20
43.500000000000057
 30
0.0
 11
-5.5999999999999091
 21
44.000000000000057
 31
0.0
  0
ARC
  5
3F8
100
AcDbEntity
  8
0
  6
CONTINUOUS
 62
               7
100
AcDbCircle
 10
-4.0
 20
41.900000000000063
 30
0.0
 40
2.1000000111152071
100
AcDbArc
 50
180.00000000000006
 51
0.0000000000000509
  0
ARC
  5
3F9
100
AcDbEntity
  8
0
  6
CONTINUOUS
 62
               7
100
AcDbCircle
 10
-5.9006993865085633
 20
44.199300613491431
 30
0.0
 40
0.3007001998472195
100
AcDbArc
 50
0.1332620708018593
 51
89.866737929199076
  0
ARC
  5
3FA
100
AcDbEntity
  8
0
  6
CONTINUOUS
 62
               7
100
AcDbCircle
 10
-2.1004760263645039
 20
44.200476026364655
 30
0.0
 40
0.2995243519038812
100
AcDbArc
 50
89.908941249896955
 51
180.09105875010405
  0
LINE
  5
3FB
100
AcDbEntity
  8
0
  6
CONTINUOUS
 62
               7
100
AcDbLine
 10
-7.0999999999999091
 20
43.500000000000057
 30
0.0
 11
-7.0999999999999091
 21
41.900000000000063
 31
0.0
  0
ARC
  5
3FC
100
AcDbEntity
  8
0
  6
CONTINUOUS
 62
               7
100
AcDbCircle
 10
-7.2993006134913685
 20
44.199300613491431
 30
0.0
 40
0.3007001998472195
100
AcDbArc
 50
90.133262070800967
 51
179.86673792919819
  0
LINE
  5
3FD
100
AcDbEntity
  8
0
  6
CONTINUOUS
 62
               7
100
AcDbLine
 10
-7.0999999999999091
 20
43.500000000000057
 30
0.0
 11
-7.5999999999999091
 21
44.000000000000057
 31
0.0
  0
LINE
  5
3FE
100
AcDbEntity
  8
0
  6
CONTINUOUS
 62
               7
100
AcDbLine
 10
-7.5999999999999091
 20
44.20000000000006
 30
0.0
 11
-7.5999999999999091
 21
44.000000000000057
 31
0.0
  0
ARC
  5
3FF
100
AcDbEntity
  8
0
  6
CONTINUOUS
 62
               7
100
AcDbCircle
 10
-9.1999999999999318
 20
41.900000000000063
 30
0.0
 40
2.1000000111152071
100
AcDbArc
 50
180.0
 51
0.0
  0
LINE
  5
400
100
AcDbEntity
  8
0
  6
CONTINUOUS
 62
               7
100
AcDbLine
 10
-11.099999999999937
 20
44.500000000000057
 30
0.0
 11
-12.299999999999983
 21
44.500000000000057
 31
0.0
  0
LINE
  5
401
100
AcDbEntity
  8
0
  6
CONTINUOUS
 62
               7
100
AcDbLine
 10
-11.299999999999983
 20
43.500000000000057
 30
0.0
 11
-11.299999999999983
 21
41.900000000000063
 31
0.0
  0
ARC
  5
402
100
AcDbEntity
  8
0
  6
CONTINUOUS
 62
               7
100
AcDbCircle
 10
-11.099523973635343
 20
44.20047602636464
 30
0.0
 40
0.2995243519038812
100
AcDbArc
 50
359.90894124989597
 51
90.091058750103088
  0
LINE
  5
403
100
AcDbEntity
  8
0
  6
CONTINUOUS
 62
               7
100
AcDbLine
 10
-10.799999999999983
 20
44.000000000000057
 30
0.0
 11
-11.299999999999983
 21
43.500000000000057
 31
0.0
  0
LINE
  5
404
100
AcDbEntity
  8
0
  6
CONTINUOUS
 62
               7
100
AcDbLine
 10
-10.799999999999983
 20
44.200000000000045
 30
0.0
 11
-10.799999999999983
 21
44.000000000000057
 31
0.0
  0
LINE
  5
405
100
AcDbEntity
  8
0
  6
CONTINUOUS
 62
               7
100
AcDbLine
 10
-12.299999999999983
 20
44.500000000000057
 30
0.0
 11
-12.299999999999983
 21
40.5
 31
0.0
  0
ARC
  5
406
100
AcDbEntity
  8
0
  6
CONTINUOUS
 62
               7
100
AcDbCircle
 10
-10.299999999999983
 20
40.5
 30
0.0
 40
2.0
100
AcDbArc
 50
180.00000000000006
 51
270.00000000000006
  0
LINE
  5
407
100
AcDbEntity
  8
0
  6
CONTINUOUS
 62
               7
100
AcDbLine
 10
-6.6999999999999318
 20
38.5
 30
0.0
 11
-6.6999999999999318
 21
35.0
 31
0.0
  0
LINE
  5
408
100
AcDbEntity
  8
0
  6
CONTINUOUS
 62
               7
100
AcDbLine
 10
-0.8999999999999773
 20
44.500000000000071
 30
0.0
 11
-0.8999999999999773
 21
35.0
 31
0.0
  0
LINE
  5
409
100
AcDbEntity
  8
0
  6
CONTINUOUS
 62
               2
100
AcDbLine
 10
4.5
 20
12.5
 30
0.0
 11
-0.5
 21
12.5
 31
0.0
  0
LINE
  5
40A
100
AcDbEntity
  8
0
  6
CONTINUOUS
 62
               2
100
AcDbLine
 10
4.5
 20
31.5
 30
0.0
 11
-0.5
 21
31.5
 31
0.0
  0
LINE
  5
40B
100
AcDbEntity
  8
0
  6
CONTINUOUS
 62
               7
100
AcDbLine
 10
-8.7500000051903157
 20
6.4330127264257726
 30
0.0
 11
-8.7499999944669753
 21
5.5669872600069539
 31
0.0
  0
LINE
  5
40C
100
AcDbEntity
  8
0
  6
CONTINUOUS
 62
               7
100
AcDbLine
 10
-7.9999999813484806
 20
6.8660254205462365
 30
0.0
 11
-8.7500000302297849
 21
6.4330126780500905
 31
0.0
  0
LINE
  5
40D
100
AcDbEntity
  8
0
  6
CONTINUOUS
 62
               7
100
AcDbLine
 10
-7.249999976158108
 20
6.4330126941204071
 30
0.0
 11
-8.0000000357627528
 21
6.8660254180431366
 31
0.0
  0
LINE
  5
40E
100
AcDbEntity
  8
0
  6
CONTINUOUS
 62
               7
100
AcDbLine
 10
-7.2499999948096274
 20
5.5669872735742274
 30
0.0
 11
-7.2500000055329679
 21
6.4330127399930461
 31
0.0
  0
CIRCLE
  5
40F
100
AcDbEntity
  8
0
  6
CONTINUOUS
 62
               7
100
AcDbCircle
 10
-8.0
 20
6.0
 30
0.0
 40
1.5
  0
LINE
  5
410
100
AcDbEntity
  8
0
  6
CONTINUOUS
 62
               7
100
AcDbLine
 10
-8.7500000238418352
 20
5.5669873058795929
 30
0.0
 11
-7.9999999642371904
 21
5.1339745819568634
 31
0.0
  0
LINE
  5
411
100
AcDbEntity
  8
0
  6
CONTINUOUS
 62
               7
100
AcDbLine
 10
-8.0000000186514626
 20
5.1339745794538203
 30
0.0
 11
-7.2499999697701583
 21
5.5669873219499095
 31
0.0
  0
CIRCLE
  5
412
100
AcDbEntity
  8
0
  6
CONTINUOUS
 62
               2
100
AcDbCircle
 10
-8.0
 20
6.0
 30
0.0
 40
1.25
  0
LINE
  5
413
100
AcDbEntity
  8
0
  6
CONTINUOUS
 62
               7
100
AcDbLine
 10
4.0
 20
0.0
 30
0.0
 11
4.0
 21
8.3000000000000114
 31
0.0
  0
LINE
  5
414
100
AcDbEntity
  8
0
  6
CONTINUOUS
 62
               7
100
AcDbLine
 10
3.2000000000000455
 20
8.3000000000000114
 30
0.0
 11
3.2000000000000455
 21
11.000000007980816
 31
0.0
  0
LINE
  5
415
100
AcDbEntity
  8
0
  6
CONTINUOUS
 62
               7
100
AcDbLine
 10
2.0
 20
11.000000007980816
 30
0.0
 11
3.2000000000000455
 21
11.000000007980816
 31
0.0
  0
LINE
  5
416
100
AcDbEntity
  8
0
  6
CONTINUOUS
 62
               7
100
AcDbLine
 10
-4.0
 20
4.0
 30
0.0
 11
-4.0
 21
8.3000000000000114
 31
0.0
  0
LINE
  5
417
100
AcDbEntity
  8
0
  6
CONTINUOUS
 62
               7
100
AcDbLine
 10
-4.0
 20
4.0
 30
0.0
 11
4.0
 21
4.0
 31
0.0
  0
LINE
  5
418
100
AcDbEntity
  8
0
  6
CONTINUOUS
 62
               7
100
AcDbLine
 10
-13.0
 20
0.0
 30
0.0
 11
4.0
 21
0.0
 31
0.0
  0
LINE
  5
419
100
AcDbEntity
  8
0
  6
CONTINUOUS
 62
               7
100
AcDbLine
 10
-8.0
 20
9.0
 30
0.0
 11
-8.0
 21
8.3000000000000114
 31
0.0
  0
LINE
  5
41A
100
AcDbEntity
  8
0
  6
CONTINUOUS
 62
               7
100
AcDbLine
 10
-13.0
 20
8.3000000000000114
 30
0.0
 11
4.0
 21
8.3000000000000114
 31
0.0
  0
LINE
  5
41B
100
AcDbEntity
  8
0
  6
CONTINUOUS
 62
               7
100
AcDbLine
 10
-13.0
 20
8.3000000000000114
 30
0.0
 11
-13.0
 21
0.0
 31
0.0
  0
LINE
  5
41C
100
AcDbEntity
  8
0
  6
CONTINUOUS
 62
               7
100
AcDbLine
 10
0.5
 20
9.0
 30
0.0
 11
-13.5
 21
9.0
 31
0.0
  0
LINE
  5
41D
100
AcDbEntity
  8
0
  6
CONTINUOUS
 62
               7
100
AcDbLine
 10
2.0
 20
9.5
 30
0.0
 11
0.5
 21
9.5
 31
0.0
  0
LINE
  5
41E
100
AcDbEntity
  8
0
  6
CONTINUOUS
 62
               7
100
AcDbLine
 10
2.0
 20
34.5
 30
0.0
 11
0.5
 21
34.5
 31
0.0
  0
LINE
  5
41F
100
AcDbEntity
  8
0
  6
CONTINUOUS
 62
               7
100
AcDbLine
 10
-14.0
 20
34.5
 30
0.0
 11
-14.0
 21
9.4999999999998863
 31
0.0
  0
LINE
  5
420
100
AcDbEntity
  8
0
  6
CONTINUOUS
 62
               2
100
AcDbLine
 10
-4.5
 20
28.0
 30
0.0
 11
-4.5
 21
16.0
 31
0.0
  0
LINE
  5
421
100
AcDbEntity
  8
0
  6
CENTER
 62
               2
100
AcDbLine
 10
2.9560299056583972
 20
22.0
 30
0.0
 11
-15.366814659256306
 21
22.0
 31
0.0
  0
CIRCLE
  5
422
100
AcDbEntity
  8
0
  6
CONTINUOUS
 62
               7
100
AcDbCircle
 10
-10.99999988079071
 20
13.5
 30
0.0
 40
2.4035892486572266
  0
CIRCLE
  5
423
100
AcDbEntity
  8
0
  6
CONTINUOUS
 62
               7
100
AcDbCircle
 10
-11.0
 20
13.5
 30
0.0
 40
2.75
  0
LINE
  5
424
100
AcDbEntity
  8
0
  6
CONTINUOUS
 62
               7
100
AcDbLine
 10
-11.721687955956895
 20
12.250000079734718
 30
0.0
 11
-12.443375663656695
 21
13.500000069276894
 31
0.0
  0
LINE
  5
425
100
AcDbEntity
  8
0
  6
CONTINUOUS
 62
               7
100
AcDbLine
 10
-9.5566251622494747
 20
13.499999453886062
 30
0.0
 11
-10.278312869949275
 21
14.749999443428237
 31
0.0
  0
LINE
  5
426
100
AcDbEntity
  8
0
  6
CONTINUOUS
 62
               7
100
AcDbLine
 10
-12.443374837750468
 20
13.499999453886062
 30
0.0
 11
-11.721687130050668
 21
14.749999443428237
 31
0.0
  0
LINE
  5
427
100
AcDbEntity
  8
0
  6
CONTINUOUS
 62
               7
100
AcDbLine
 10
-10.278312044043048
 20
12.250000079734718
 30
0.0
 11
-9.5566243363432477
 21
13.500000069276894
 31
0.0
  0
LINE
  5
428
100
AcDbEntity
  8
0
  6
CONTINUOUS
 62
               7
100
AcDbLine
 10
-10.278312087059021
 20
14.75
 30
0.0
 11
-11.721687912940979
 21
14.75
 31
0.0
  0
LINE
  5
429
100
AcDbEntity
  8
0
  6
CONTINUOUS
 62
               7
100
AcDbLine
 10
-10.278311967849731
 20
12.25
 30
0.0
 11
-11.721688032150269
 21
12.25
 31
0.0
  0
ARC
  5
42A
100
AcDbEntity
  8
0
  6
CONTINUOUS
 62
               7
100
AcDbCircle
 10
-11.0
 20
13.5
 30
0.0
 40
3.0
100
AcDbArc
 50
270.0
 51
90.0
  0
LINE
  5
42B
100
AcDbEntity
  8
0
  6
CONTINUOUS
 62
               7
100
AcDbLine
 10
-13.799999999999955
 20
34.5
 30
0.0
 11
-13.799999999999955
 21
9.5
 31
0.0
  0
LINE
  5
42C
100
AcDbEntity
  8
0
  6
CONTINUOUS
 62
               7
100
AcDbLine
 10
0.5
 20
35.0
 30
0.0
 11
0.5
 21
25.200000000000045
 31
0.0
  0
LINE
  5
42D
100
AcDbEntity
  8
0
  6
CONTINUOUS
 62
               2
100
AcDbLine
 10
-3.5
 20
25.250000000000057
 30
0.0
 11
-5.5
 21
25.250000000000057
 31
0.0
  0
LINE
  5
42E
100
AcDbEntity
  8
0
  6
CONTINUOUS
 62
               2
100
AcDbLine
 10
-3.5
 20
18.75
 30
0.0
 11
-5.5
 21
18.75
 31
0.0
  0
CIRCLE
  5
42F
100
AcDbEntity
  8
0
  6
CONTINUOUS
 62
               7
100
AcDbCircle
 10
-4.5
 20
25.250000000000057
 30
0.0
 40
0.6
  0
CIRCLE
  5
430
100
AcDbEntity
  8
0
  6
CONTINUOUS
 62
               7
100
AcDbCircle
 10
-4.5
 20
18.75
 30
0.0
 40
0.6
  0
CIRCLE
  5
431
100
AcDbEntity
  8
0
  6
CONTINUOUS
 62
               7
100
AcDbCircle
 10
-5.0
 20
13.0
 30
0.0
 40
1.25
  0
LINE
  5
432
100
AcDbEntity
  8
0
  6
CONTINUOUS
 62
               2
100
AcDbLine
 10
-2.5
 20
13.0
 30
0.0
 11
-7.4999999999999432
 21
13.0
 31
0.0
  0
CIRCLE
  5
433
100
AcDbEntity
  8
0
  6
CONTINUOUS
 62
               2
100
AcDbCircle
 10
-5.0
 20
13.0
 30
0.0
 40
1.5
  0
LINE
  5
434
100
AcDbEntity
  8
0
  6
CONTINUOUS
 62
               2
100
AcDbLine
 10
-5.0
 20
15.5
 30
0.0
 11
-5.0
 21
10.5
 31
0.0
  0
LINE
  5
435
100
AcDbEntity
  8
0
  6
CONTINUOUS
 62
               7
100
AcDbLine
 10
-11.0
 20
16.5
 30
0.0
 11
-13.799999999999955
 21
16.5
 31
0.0
  0
LINE
  5
436
100
AcDbEntity
  8
0
  6
CONTINUOUS
 62
               7
100
AcDbLine
 10
-11.0
 20
10.5
 30
0.0
 11
-13.799999999999955
 21
10.5
 31
0.0
  0
CIRCLE
  5
437
100
AcDbEntity
  8
0
  6
CONTINUOUS
 62
               7
100
AcDbCircle
 10
-10.99999988079071
 20
30.5
 30
0.0
 40
2.4035892486572266
  0
CIRCLE
  5
438
100
AcDbEntity
  8
0
  6
CONTINUOUS
 62
               7
100
AcDbCircle
 10
-11.0
 20
30.5
 30
0.0
 40
2.75
  0
LINE
  5
439
100
AcDbEntity
  8
0
  6
CONTINUOUS
 62
               7
100
AcDbLine
 10
-11.721687955956895
 20
31.749999920265282
 30
0.0
 11
-12.443375663656695
 21
30.499999930723106
 31
0.0
  0
LINE
  5
43A
100
AcDbEntity
  8
0
  6
CONTINUOUS
 62
               7
100
AcDbLine
 10
-12.443374837750468
 20
30.500000546114052
 30
0.0
 11
-11.721687130050668
 21
29.250000556571877
 31
0.0
  0
ARC
  5
43B
100
AcDbEntity
  8
0
  6
CONTINUOUS
 62
               7
100
AcDbCircle
 10
-11.0
 20
30.5
 30
0.0
 40
3.0
100
AcDbArc
 50
270.0
 51
90.0
  0
LINE
  5
43C
100
AcDbEntity
  8
0
  6
CONTINUOUS
 62
               7
100
AcDbLine
 10
-11.0
 20
27.5
 30
0.0
 11
-13.799999999999955
 21
27.5
 31
0.0
  0
LINE
  5
43D
100
AcDbEntity
  8
0
  6
CONTINUOUS
 62
               7
100
AcDbLine
 10
-11.0
 20
33.5
 30
0.0
 11
-13.799999999999955
 21
33.5
 31
0.0
  0
LINE
  5
43E
100
AcDbEntity
  8
0
  6
CONTINUOUS
 62
               7
100
AcDbLine
 10
-10.278311967849731
 20
31.75
 30
0.0
 11
-11.721688032150269
 21
31.75
 31
0.0
  0
LINE
  5
43F
100
AcDbEntity
  8
0
  6
CONTINUOUS
 62
               7
100
AcDbLine
 10
-10.278312087059021
 20
29.25
 30
0.0
 11
-11.721687912940979
 21
29.25
 31
0.0
  0
LINE
  5
440
100
AcDbEntity
  8
0
  6
CONTINUOUS
 62
               7
100
AcDbLine
 10
-10.278312044043048
 20
31.749999920265282
 30
0.0
 11
-9.5566243363432477
 21
30.499999930723106
 31
0.0
  0
LINE
  5
441
100
AcDbEntity
  8
0
  6
CONTINUOUS
 62
               7
100
AcDbLine
 10
-9.5566251622494747
 20
30.500000546114052
 30
0.0
 11
-10.278312869949275
 21
29.250000556571877
 31
0.0
  0
LINE
  5
442
100
AcDbEntity
  8
0
  6
CONTINUOUS
 62
               2
100
AcDbLine
 10
-2.5
 20
31.0
 30
0.0
 11
-7.4999999999999432
 21
31.0
 31
0.0
  0
CIRCLE
  5
443
100
AcDbEntity
  8
0
  6
CONTINUOUS
 62
               2
100
AcDbCircle
 10
-5.0
 20
31.0
 30
0.0
 40
1.5
  0
LINE
  5
444
100
AcDbEntity
  8
0
  6
CONTINUOUS
 62
               2
100
AcDbLine
 10
-5.0
 20
28.5
 30
0.0
 11
-5.0
 21
33.5
 31
0.0
  0
CIRCLE
  5
445
100
AcDbEntity
  8
0
  6
CONTINUOUS
 62
               7
100
AcDbCircle
 10
-5.0
 20
31.0
 30
0.0
 40
1.25
  0
LINE
  5
446
100
AcDbEntity
  8
0
  6
CONTINUOUS
 62
               7
100
AcDbLine
 10
0.5
 20
35.0
 30
0.0
 11
-13.5
 21
35.0
 31
0.0
  0
LINE
  5
447
100
AcDbEntity
  8
0
  6
CONTINUOUS
 62
               7
100
AcDbLine
 10
-13.299999999999955
 20
35.0
 30
0.0
 11
-13.799999999999955
 21
34.5
 31
0.0
  0
LINE
  5
448
100
AcDbEntity
  8
0
  6
CONTINUOUS
 62
               7
100
AcDbLine
 10
-14.0
 20
34.5
 30
0.0
 11
-13.5
 21
35.0
 31
0.0
  0
LINE
  5
449
100
AcDbEntity
  8
0
  6
CONTINUOUS
 62
               7
100
AcDbLine
 10
-13.799999999999955
 20
9.5
 30
0.0
 11
-13.300000000000068
 21
9.0
 31
0.0
  0
LINE
  5
44A
100
AcDbEntity
  8
0
  6
CONTINUOUS
 62
               7
100
AcDbLine
 10
-13.5
 20
9.0
 30
0.0
 11
-14.0
 21
9.4999999999998863
 31
0.0
  0
LINE
  5
44B
100
AcDbEntity
  8
0
  6
CONTINUOUS
 62
               7
100
AcDbLine
 10
0.5
 20
18.800000000000011
 30
0.0
 11
0.5
 21
9.0
 31
0.0
  0
LINE
  5
44C
100
AcDbEntity
  8
0
  6
CONTINUOUS
 62
               7
100
AcDbLine
 10
2.0
 20
18.300000000000011
 30
0.0
 11
2.0
 21
9.5
 31
0.0
  0
LINE
  5
44D
100
AcDbEntity
  8
0
  6
CONTINUOUS
 62
               7
100
AcDbLine
 10
2.0
 20
34.5
 30
0.0
 11
2.0
 21
25.700000000000045
 31
0.0
  0
LINE
  5
44E
100
AcDbEntity
  8
0
  6
CONTINUOUS
 62
               7
100
AcDbLine
 10
1.7000000000000455
 20
25.400000000000034
 30
0.0
 11
2.0
 21
25.700000000000045
 31
0.0
  0
LINE
  5
44F
100
AcDbEntity
  8
0
  6
CONTINUOUS
 62
               7
100
AcDbLine
 10
1.7000000000000455
 20
18.600000000000023
 30
0.0
 11
2.0
 21
18.300000000000011
 31
0.0
  0
LINE
  5
450
100
AcDbEntity
  8
0
  6
CONTINUOUS
 62
               7
100
AcDbLine
 10
1.7000000000000455
 20
25.400000000000034
 30
0.0
 11
1.7000000000000455
 21
18.600000000000023
 31
0.0
  0
CIRCLE
  5
451
100
AcDbEntity
  8
0
  6
CONTINUOUS
 62
               7
100
AcDbCircle
 10
-4.5
 20
22.0
 30
0.0
 40
4.7000000000000002
  0
CIRCLE
  5
452
100
AcDbEntity
  8
0
  6
CONTINUOUS
 62
               7
100
AcDbCircle
 10
-4.5
 20
22.0
 30
0.0
 40
1.7
  0
ARC
  5
453
100
AcDbEntity
  8
0
  6
CONTINUOUS
 62
               7
100
AcDbCircle
 10
-4.5
 20
22.0
 30
0.0
 40
5.2000000000000028
100
AcDbArc
 50
90.0
 51
270.0
  0
ARC
  5
454
100
AcDbEntity
  8
0
  6
CONTINUOUS
 62
               7
100
AcDbCircle
 10
-4.5
 20
22.0
 30
0.0
 40
5.0
100
AcDbArc
 50
320.20818050044272
 51
39.791819499557263
  0
LINE
  5
455
100
AcDbEntity
  8
0
  6
CONTINUOUS
 62
               7
100
AcDbLine
 10
0.5
 20
18.800000000000011
 30
0.0
 11
-1.0576171043882709
 21
18.800000000000011
 31
0.0
  0
LINE
  5
456
100
AcDbEntity
  8
0
  6
CONTINUOUS
 62
               7
100
AcDbLine
 10
0.5
 20
25.200000000000045
 30
0.0
 11
-1.0576171043882709
 21
25.200000000000045
 31
0.0
  0
LINE
  5
457
100
AcDbEntity
  8
0
  6
CONTINUOUS
 62
               7
100
AcDbLine
 10
-4.5
 20
16.800000000000011
 30
0.0
 11
0.5
 21
16.800000000000011
 31
0.0
  0
LINE
  5
458
100
AcDbEntity
  8
0
  6
CONTINUOUS
 62
               7
100
AcDbLine
 10
-4.5
 20
27.200000000000045
 30
0.0
 11
0.5
 21
27.200000000000045
 31
0.0
  0
ENDBLK
  5
459
100
AcDbEntity
  8
0
100
AcDbBlockEnd
  0
BLOCK
  5
45A
100
AcDbEntity
  8
0
100
AcDbBlockBegin
  2
MGALGS10-10
 70
               0
 10
0.0
 20
0.0
 30
0.0
  3
MGALGS10-10
  1

  0
LINE
  5
45B
100
AcDbEntity
  8
0
  6
CONTINUOUS
 62
               2
100
AcDbLine
 10
68.500000002537291
 20
-5.0
 30
0.0
 11
63.500000002537291
 21
-5.0
 31
0.0
  0
LINE
  5
45C
100
AcDbEntity
  8
0
  6
CONTINUOUS
 62
               7
100
AcDbLine
 10
45.0
 20
-7.6000000000000227
 30
0.0
 11
10.0
 21
-7.6000000000000227
 31
0.0
  0
LINE
  5
45D
100
AcDbEntity
  8
0
  6
CONTINUOUS
 62
               7
100
AcDbLine
 10
40.718399438202368
 20
-2.3999999999999773
 30
0.0
 11
14.281600561797632
 21
-2.3999999999999773
 31
0.0
  0
LINE
  5
45E
100
AcDbEntity
  8
0
  6
CONTINUOUS
 62
               7
100
AcDbLine
 10
40.718399438202368
 20
-5.6000000000000227
 30
0.0
 11
14.281600561797632
 21
-5.6000000000000227
 31
0.0
  0
LINE
  5
45F
100
AcDbEntity
  8
0
  6
CONTINUOUS
 62
               7
100
AcDbLine
 10
44.999999976460231
 20
-1.0
 30
0.0
 11
10.0
 21
-1.0
 31
0.0
  0
LINE
  5
460
100
AcDbEntity
  8
0
  6
CONTINUOUS
 62
               7
100
AcDbLine
 10
10.0
 20
-1.0
 30
0.0
 11
10.0
 21
-12.199999999999989
 31
0.0
  0
LINE
  5
461
100
AcDbEntity
  8
0
  6
CONTINUOUS
 62
               7
100
AcDbLine
 10
10.0
 20
-9.0
 30
0.0
 11
9.0
 21
-9.0
 31
0.0
  0
CIRCLE
  5
462
100
AcDbEntity
  8
0
  6
CONTINUOUS
 62
               7
100
AcDbCircle
 10
13.0
 20
-4.0
 30
0.0
 40
1.9000000000000148
  0
CIRCLE
  5
463
100
AcDbEntity
  8
0
  6
CONTINUOUS
 62
               7
100
AcDbCircle
 10
13.0
 20
-4.0
 30
0.0
 40
2.0499999999999998
  0
CIRCLE
  5
464
100
AcDbEntity
  8
0
  6
CONTINUOUS
 62
               7
100
AcDbCircle
 10
13.0
 20
-4.0
 30
0.0
 40
1.6000000000000174
  0
LINE
  5
465
100
AcDbEntity
  8
0
  6
CONTINUOUS
 62
               7
100
AcDbLine
 10
12.999999863279186
 20
-4.8660254903786608
 30
0.0
 11
13.750000023384246
 21
-4.4330126744466156
 31
0.0
  0
LINE
  5
466
100
AcDbEntity
  8
0
  6
CONTINUOUS
 62
               7
100
AcDbLine
 10
13.750000006632376
 20
-4.433012863593035
 30
0.0
 11
13.749999987923502
 21
-3.5669872641336156
 31
0.0
  0
LINE
  5
467
100
AcDbEntity
  8
0
  6
CONTINUOUS
 62
               7
100
AcDbLine
 10
13.750000143353191
 20
-3.5669873732143742
 30
0.0
 11
12.999999964539256
 21
-3.1339745896869999
 31
0.0
  0
LINE
  5
468
100
AcDbEntity
  8
0
  6
CONTINUOUS
 62
               7
100
AcDbLine
 10
13.000000136720814
 20
-3.1339745096213392
 30
0.0
 11
12.249999976615754
 21
-3.5669873255533844
 31
0.0
  0
LINE
  5
469
100
AcDbEntity
  8
0
  6
CONTINUOUS
 62
               7
100
AcDbLine
 10
12.249999993367624
 20
-3.566987136406965
 30
0.0
 11
12.250000012076498
 21
-4.4330127358663844
 31
0.0
  0
LINE
  5
46A
100
AcDbEntity
  8
0
  6
CONTINUOUS
 62
               7
100
AcDbLine
 10
12.249999856646809
 20
-4.4330126267856258
 30
0.0
 11
13.000000035460744
 21
-4.8660254103130001
 31
0.0
  0
LINE
  5
46B
100
AcDbEntity
  8
0
  6
CONTINUOUS
 62
               7
100
AcDbLine
 10
11.718399438202368
 20
-5.6000000000000227
 30
0.0
 11
10.0
 21
-5.6000000000000227
 31
0.0
  0
LINE
  5
46C
100
AcDbEntity
  8
0
  6
CONTINUOUS
 62
               7
100
AcDbLine
 10
11.718399438202368
 20
-2.3999999999999773
 30
0.0
 11
10.0
 21
-2.3999999999999773
 31
0.0
  0
LINE
  5
46D
100
AcDbEntity
  8
0
  6
CONTINUOUS
 62
               7
100
AcDbLine
 10
45.0
 20
-5.6000000000000227
 30
0.0
 11
43.281600561797632
 21
-5.6000000000000227
 31
0.0
  0
LINE
  5
46E
100
AcDbEntity
  8
0
  6
CONTINUOUS
 62
               7
100
AcDbLine
 10
45.0
 20
-2.3999999999999773
 30
0.0
 11
43.281600561797632
 21
-2.3999999999999773
 31
0.0
  0
CIRCLE
  5
46F
100
AcDbEntity
  8
0
  6
CONTINUOUS
 62
               7
100
AcDbCircle
 10
42.0
 20
-4.0
 30
0.0
 40
2.0499999999999998
  0
CIRCLE
  5
470
100
AcDbEntity
  8
0
  6
CONTINUOUS
 62
               7
100
AcDbCircle
 10
42.0
 20
-4.0
 30
0.0
 40
1.9000000000000148
  0
CIRCLE
  5
471
100
AcDbEntity
  8
0
  6
CONTINUOUS
 62
               7
100
AcDbCircle
 10
42.0
 20
-4.0
 30
0.0
 40
1.6000000000000174
  0
LINE
  5
472
100
AcDbEntity
  8
0
  6
CONTINUOUS
 62
               7
100
AcDbLine
 10
42.750000143353191
 20
-4.4330126267856258
 30
0.0
 11
41.999999964539256
 21
-4.8660254103130001
 31
0.0
  0
LINE
  5
473
100
AcDbEntity
  8
0
  6
CONTINUOUS
 62
               7
100
AcDbLine
 10
42.750000006632376
 20
-3.566987136406965
 30
0.0
 11
42.749999987923502
 21
-4.4330127358663844
 31
0.0
  0
LINE
  5
474
100
AcDbEntity
  8
0
  6
CONTINUOUS
 62
               7
100
AcDbLine
 10
41.999999863279186
 20
-3.1339745096213392
 30
0.0
 11
42.750000023384246
 21
-3.5669873255533844
 31
0.0
  0
LINE
  5
475
100
AcDbEntity
  8
0
  6
CONTINUOUS
 62
               7
100
AcDbLine
 10
41.249999856646809
 20
-3.5669873732143742
 30
0.0
 11
42.000000035460744
 21
-3.1339745896869999
 31
0.0
  0
LINE
  5
476
100
AcDbEntity
  8
0
  6
CONTINUOUS
 62
               7
100
AcDbLine
 10
41.249999993367624
 20
-4.433012863593035
 30
0.0
 11
41.250000012076498
 21
-3.5669872641336156
 31
0.0
  0
LINE
  5
477
100
AcDbEntity
  8
0
  6
CONTINUOUS
 62
               7
100
AcDbLine
 10
42.000000136720814
 20
-4.8660254903786608
 30
0.0
 11
41.249999976615754
 21
-4.4330126744466156
 31
0.0
  0
LINE
  5
478
100
AcDbEntity
  8
0
  6
CONTINUOUS
 62
               7
100
AcDbLine
 10
45.0
 20
-10.800000000000011
 30
0.0
 11
10.0
 21
-10.800000000000011
 31
0.0
  0
LINE
  5
479
100
AcDbEntity
  8
0
  6
CONTINUOUS
 62
               7
100
AcDbLine
 10
45.0
 20
-12.199999999999989
 30
0.0
 11
10.0
 21
-12.199999999999989
 31
0.0
  0
LINE
  5
47A
100
AcDbEntity
  8
0
  6
CONTINUOUS
 62
               7
100
AcDbLine
 10
32.0
 20
-12.199999999999989
 30
0.0
 11
32.0
 21
-12.800000000000011
 31
0.0
  0
LINE
  5
47B
100
AcDbEntity
  8
0
  6
CONTINUOUS
 62
               7
100
AcDbLine
 10
14.0
 20
-12.199999999999989
 30
0.0
 11
14.0
 21
-12.800000000000011
 31
0.0
  0
ARC
  5
47C
100
AcDbEntity
  8
0
  6
CONTINUOUS
 62
               7
100
AcDbCircle
 10
16.0
 20
-11.0
 30
0.0
 40
1.9000000000000148
100
AcDbArc
 50
219.16671071611958
 51
320.83328928388045
  0
ARC
  5
47D
100
AcDbEntity
  8
0
  6
CONTINUOUS
 62
               7
100
AcDbCircle
 10
16.0
 20
-11.0
 30
0.0
 40
1.6000000000000174
100
AcDbArc
 50
228.59037789072789
 51
311.40962210927216
  0
LINE
  5
47E
100
AcDbEntity
  8
0
  6
CONTINUOUS
 62
               7
100
AcDbLine
 10
29.391723746970115
 20
-12.800000000000011
 30
0.0
 11
16.608276253029885
 21
-12.800000000000011
 31
0.0
  0
LINE
  5
47F
100
AcDbEntity
  8
0
  6
CONTINUOUS
 62
               7
100
AcDbLine
 10
15.391723746970115
 20
-12.800000000000011
 30
0.0
 11
14.0
 21
-12.800000000000011
 31
0.0
  0
LINE
  5
480
100
AcDbEntity
  8
0
  6
CONTINUOUS
 62
               7
100
AcDbLine
 10
32.0
 20
-12.800000000000011
 30
0.0
 11
30.608276253029885
 21
-12.800000000000011
 31
0.0
  0
ARC
  5
481
100
AcDbEntity
  8
0
  6
CONTINUOUS
 62
               7
100
AcDbCircle
 10
30.0
 20
-11.0
 30
0.0
 40
1.6000000000000174
100
AcDbArc
 50
228.59037789072789
 51
311.40962210927216
  0
ARC
  5
482
100
AcDbEntity
  8
0
  6
CONTINUOUS
 62
               7
100
AcDbCircle
 10
30.0
 20
-11.0
 30
0.0
 40
1.9000000000000148
100
AcDbArc
 50
219.16671071611958
 51
320.83328928388045
  0
LINE
  5
483
100
AcDbEntity
  8
0
  6
CONTINUOUS
 62
               7
100
AcDbLine
 10
50.5
 20
-9.0
 30
0.0
 11
45.0
 21
-9.0
 31
0.0
  0
LINE
  5
484
100
AcDbEntity
  8
0
  6
CONTINUOUS
 62
               7
100
AcDbLine
 10
10.0
 20
-8.5
 30
0.0
 11
3.5
 21
-8.5
 31
0.0
  0
LINE
  5
485
100
AcDbEntity
  8
0
  6
CONTINUOUS
 62
               2
100
AcDbLine
 10
22.000000002537291
 20
1.5
 30
0.0
 11
22.000000002537291
 21
6.5
 31
0.0
  0
LINE
  5
486
100
AcDbEntity
  8
0
  6
CONTINUOUS
 62
               2
100
AcDbLine
 10
38.000000002537291
 20
1.5
 30
0.0
 11
38.000000002537291
 21
6.5
 31
0.0
  0
ARC
  5
487
100
AcDbEntity
  8
0
  6
CONTINUOUS
 62
               7
100
AcDbCircle
 10
48.999999999999972
 20
0.0
 30
0.0
 40
2.25
100
AcDbArc
 50
306.86989764584473
 51
207.26604445073437
  0
LINE
  5
488
100
AcDbEntity
  8
0
  6
CONTINUOUS
 62
               7
100
AcDbLine
 10
43.999999999999972
 20
3.2000000000000455
 30
0.0
 11
4.9999999999999716
 21
3.2000000000000455
 31
0.0
  0
LINE
  5
489
100
AcDbEntity
  8
0
  6
CONTINUOUS
 62
               7
100
AcDbLine
 10
4.9999999999999716
 20
1.8000000000000114
 30
0.0
 11
4.9999999999999716
 21
3.2000000000000455
 31
0.0
  0
LINE
  5
48A
100
AcDbEntity
  8
0
  6
CONTINUOUS
 62
               7
100
AcDbLine
 10
-4.0
 20
-13.0
 30
0.0
 11
-4.0
 21
4.0
 31
0.0
  0
LINE
  5
48B
100
AcDbEntity
  8
0
  6
CONTINUOUS
 62
               7
100
AcDbLine
 10
0.0
 20
-4.0
 30
0.0
 11
-4.0
 21
-4.0
 31
0.0
  0
ARC
  5
48C
100
AcDbEntity
  8
0
  6
CONTINUOUS
 62
               7
100
AcDbCircle
 10
0.0
 20
0.0
 30
0.0
 40
4.0
100
AcDbArc
 50
270.0
 51
331.04497562814004
  0
LINE
  5
48D
100
AcDbEntity
  8
0
  6
CONTINUOUS
 62
               7
100
AcDbLine
 10
3.9999999999999716
 20
1.8000000000000114
 30
0.0
 11
3.9999999999999716
 21
4.0
 31
0.0
  0
LINE
  5
48E
100
AcDbEntity
  8
0
  6
CONTINUOUS
 62
               7
100
AcDbLine
 10
43.999999999999972
 20
2.0
 30
0.0
 11
43.999999999999972
 21
3.2000000000000455
 31
0.0
  0
ARC
  5
48F
100
AcDbEntity
  8
0
  6
CONTINUOUS
 62
               7
100
AcDbCircle
 10
48.999999999999972
 20
0.0
 30
0.0
 40
4.0
100
AcDbArc
 50
180.0
 51
218.68218745348949
  0
LINE
  5
490
100
AcDbEntity
  8
0
  6
CONTINUOUS
 62
               7
100
AcDbLine
 10
8.4999999999999716
 20
-13.0
 30
0.0
 11
-4.0
 21
-13.0
 31
0.0
  0
LINE
  5
491
100
AcDbEntity
  8
0
  6
CONTINUOUS
 62
               7
100
AcDbLine
 10
52.999999999999972
 20
-1.7999999999999545
 30
0.0
 11
52.999999999999972
 21
4.0
 31
0.0
  0
LINE
  5
492
100
AcDbEntity
  8
0
  6
CONTINUOUS
 62
               7
100
AcDbLine
 10
52.999999999999972
 20
4.0
 30
0.0
 11
-4.0
 21
4.0
 31
0.0
  0
LINE
  5
493
100
AcDbEntity
  8
0
  6
CONTINUOUS
 62
               2
100
AcDbLine
 10
-3.25
 20
0.0
 30
0.0
 11
3.2499999999999716
 21
0.0
 31
0.0
  0
LINE
  5
494
100
AcDbEntity
  8
0
  6
CONTINUOUS
 62
               2
100
AcDbLine
 10
0.0
 20
-3.25
 30
0.0
 11
0.0
 21
3.25
 31
0.0
  0
CIRCLE
  5
495
100
AcDbEntity
  8
0
  6
CONTINUOUS
 62
               7
100
AcDbCircle
 10
0.0
 20
0.0
 30
0.0
 40
2.25
  0
LINE
  5
496
100
AcDbEntity
  8
0
  6
CONTINUOUS
 62
               2
100
AcDbLine
 10
45.749999999999972
 20
0.0
 30
0.0
 11
52.249999999999972
 21
0.0
 31
0.0
  0
LINE
  5
497
100
AcDbEntity
  8
0
  6
CONTINUOUS
 62
               2
100
AcDbLine
 10
48.999999999999972
 20
-3.25
 30
0.0
 11
48.999999999999972
 21
3.25
 31
0.0
  0
LINE
  5
498
100
AcDbEntity
  8
0
  6
CONTINUOUS
 62
               7
100
AcDbLine
 10
3.4999999999999716
 20
-10.5
 30
0.0
 11
3.4999999999999716
 21
1.8000000000000114
 31
0.0
  0
LINE
  5
499
100
AcDbEntity
  8
0
  6
CONTINUOUS
 62
               7
100
AcDbLine
 10
7.9999999999999716
 20
-10.5
 30
0.0
 11
3.4999999999999716
 21
-10.5
 31
0.0
  0
LINE
  5
49A
100
AcDbEntity
  8
0
  6
CONTINUOUS
 62
               7
100
AcDbLine
 10
8.9999999999999716
 20
-8.5
 30
0.0
 11
3.4999999999999716
 21
-8.5
 31
0.0
  0
LINE
  5
49B
100
AcDbEntity
  8
0
  6
CONTINUOUS
 62
               7
100
AcDbLine
 10
8.9999999999999716
 20
1.8000000000000114
 30
0.0
 11
3.4999999999999716
 21
1.8000000000000114
 31
0.0
  0
LINE
  5
49C
100
AcDbEntity
  8
0
  6
CONTINUOUS
 62
               7
100
AcDbLine
 10
8.4999999999999716
 20
-10.0
 30
0.0
 11
8.2999999999999829
 21
-10.0
 31
0.0
  0
LINE
  5
49D
100
AcDbEntity
  8
0
  6
CONTINUOUS
 62
               7
100
AcDbLine
 10
8.4999999999999716
 20
-12.0
 30
0.0
 11
8.2999999999999829
 21
-12.0
 31
0.0
  0
ARC
  5
49E
100
AcDbEntity
  8
0
  6
CONTINUOUS
 62
               7
100
AcDbCircle
 10
8.2999999999999829
 20
-11.699999999999989
 30
0.0
 40
0.3
100
AcDbArc
 50
180.0
 51
270.0
  0
ARC
  5
49F
100
AcDbEntity
  8
0
  6
CONTINUOUS
 62
               7
100
AcDbCircle
 10
8.2999999999999829
 20
-10.299999999999955
 30
0.0
 40
0.3
100
AcDbArc
 50
90.0
 51
180.0
  0
LINE
  5
4A0
100
AcDbEntity
  8
0
  6
CONTINUOUS
 62
               7
100
AcDbLine
 10
7.9999999999999716
 20
-11.699999999999989
 30
0.0
 11
7.9999999999999716
 21
-10.299999999999955
 31
0.0
  0
LINE
  5
4A1
100
AcDbEntity
  8
0
  6
CONTINUOUS
 62
               7
100
AcDbLine
 10
8.4999999999999716
 20
-9.1999999999999886
 30
0.0
 11
8.4999999999999716
 21
-13.699999999999989
 31
0.0
  0
LINE
  5
4A2
100
AcDbEntity
  8
0
  6
CONTINUOUS
 62
               7
100
AcDbLine
 10
8.9999999761581364
 20
-13.699999999999989
 30
0.0
 11
8.4999999761581364
 21
-13.699999999999989
 31
0.0
  0
LINE
  5
4A3
100
AcDbEntity
  8
0
  6
CONTINUOUS
 62
               7
100
AcDbLine
 10
8.9999999761581364
 20
-9.1999999999999886
 30
0.0
 11
8.4999999761581364
 21
-9.1999999999999886
 31
0.0
  0
LINE
  5
4A4
100
AcDbEntity
  8
0
  6
CONTINUOUS
 62
               7
100
AcDbLine
 10
45.000000002537291
 20
2.0
 30
0.0
 11
4.9999999999999716
 21
2.0
 31
0.0
  0
LINE
  5
4A5
100
AcDbEntity
  8
0
  6
CONTINUOUS
 62
               7
100
AcDbLine
 10
8.9999999999999716
 20
2.0
 30
0.0
 11
8.9999999999999716
 21
-14.0
 31
0.0
  0
LINE
  5
4A6
100
AcDbEntity
  8
0
  6
CONTINUOUS
 62
               7
100
AcDbLine
 10
44.999999999999972
 20
-12.199999999999989
 30
0.0
 11
44.999999999999972
 21
4.0
 31
0.0
  0
LINE
  5
4A7
100
AcDbEntity
  8
0
  6
CONTINUOUS
 62
               7
100
AcDbLine
 10
50.499999999999972
 20
-14.0
 30
0.0
 11
8.9999999999999716
 21
-14.0
 31
0.0
  0
LINE
  5
4A8
100
AcDbEntity
  8
0
  6
CONTINUOUS
 62
               7
100
AcDbLine
 10
50.499999999999972
 20
-14.0
 30
0.0
 11
50.499999999999972
 21
-9.0
 31
0.0
  0
LINE
  5
4A9
100
AcDbEntity
  8
0
  6
CONTINUOUS
 62
               7
100
AcDbLine
 10
50.499999999999972
 20
-13.5
 30
0.0
 11
8.9999999999999716
 21
-13.5
 31
0.0
  0
LINE
  5
4AA
100
AcDbEntity
  8
0
  6
CONTINUOUS
 62
               2
100
AcDbLine
 10
57.367485557217805
 20
-4.5
 30
0.0
 11
43.430429385651422
 21
-4.5
 31
0.0
  0
LINE
  5
4AB
100
AcDbEntity
  8
0
  6
CONTINUOUS
 62
               7
100
AcDbLine
 10
47.000000002537234
 20
-9.0
 30
0.0
 11
47.000000002537234
 21
0.3000000000000114
 31
0.0
  0
LINE
  5
4AC
100
AcDbEntity
  8
0
  6
CONTINUOUS
 62
               7
100
AcDbLine
 10
47.700000002537223
 20
-9.0
 30
0.0
 11
47.700000002537223
 21
0.3000000000000114
 31
0.0
  0
LINE
  5
4AD
100
AcDbEntity
  8
0
  6
CONTINUOUS
 62
               2
100
AcDbLine
 10
47.000000002537234
 20
-2.8296706911509659
 30
0.0
 11
47.700000002537223
 21
-6.1703293088489772
 31
0.0
  0
LINE
  5
4AE
100
AcDbEntity
  8
0
  6
CONTINUOUS
 62
               2
100
AcDbLine
 10
47.700000002537223
 20
-2.8296706911509659
 30
0.0
 11
47.000000002537234
 21
-6.1703293088489772
 31
0.0
  0
LINE
  5
4AF
100
AcDbEntity
  8
0
  6
CONTINUOUS
 62
               2
100
AcDbLine
 10
47.000000002537234
 20
-2.75
 30
0.0
 11
46.566987300644968
 21
-2.5
 31
0.0
  0
LINE
  5
4B0
100
AcDbEntity
  8
0
  6
CONTINUOUS
 62
               7
100
AcDbLine
 10
47.700000002537223
 20
-2.8296706911509659
 30
0.0
 11
47.000000002537234
 21
-2.8296706911509659
 31
0.0
  0
LINE
  5
4B1
100
AcDbEntity
  8
0
  6
CONTINUOUS
 62
               2
100
AcDbLine
 10
47.000000002537234
 20
-6.25
 30
0.0
 11
46.566987300644968
 21
-6.5
 31
0.0
  0
LINE
  5
4B2
100
AcDbEntity
  8
0
  6
CONTINUOUS
 62
               7
100
AcDbLine
 10
47.700000002537223
 20
-6.1703293088489772
 30
0.0
 11
47.000000002537234
 21
-6.1703293088489772
 31
0.0
  0
LINE
  5
4B3
100
AcDbEntity
  8
0
  6
CONTINUOUS
 62
               7
100
AcDbLine
 10
47.700000002537223
 20
0.3000000000000114
 30
0.0
 11
47.000000002537234
 21
0.3000000000000114
 31
0.0
  0
LINE
  5
4B4
100
AcDbEntity
  8
0
  6
CONTINUOUS
 62
               7
100
AcDbLine
 10
49.000000002537178
 20
-7.8499999999999659
 30
0.0
 11
49.000000002537178
 21
-1.1499999999999773
 31
0.0
  0
LINE
  5
4B5
100
AcDbEntity
  8
0
  6
CONTINUOUS
 62
               7
100
AcDbLine
 10
49.000000002537178
 20
-7.8499999999999659
 30
0.0
 11
47.700000002537223
 21
-7.8499999999999659
 31
0.0
  0
CIRCLE
  5
4B6
100
AcDbEntity
  8
0
  6
CONTINUOUS
 62
               7
100
AcDbCircle
 10
47.875000002537234
 20
-8.3249999999999886
 30
0.0
 40
0.175
  0
CIRCLE
  5
4B7
100
AcDbEntity
  8
0
  6
CONTINUOUS
 62
               7
100
AcDbCircle
 10
47.875000002537234
 20
-0.6749999999999545
 30
0.0
 40
0.175
  0
LINE
  5
4B8
100
AcDbEntity
  8
0
  6
CONTINUOUS
 62
               7
100
AcDbLine
 10
49.000000002537178
 20
-1.1499999999999773
 30
0.0
 11
47.700000002537223
 21
-1.1499999999999773
 31
0.0
  0
LINE
  5
4B9
100
AcDbEntity
  8
0
  6
CONTINUOUS
 62
               7
100
AcDbLine
 10
49.500000002537291
 20
-9.0
 30
0.0
 11
49.500000002537291
 21
-8.0
 31
0.0
  0
LINE
  5
4BA
100
AcDbEntity
  8
0
  6
CONTINUOUS
 62
               7
100
AcDbLine
 10
66.000000002537291
 20
0.5
 30
0.0
 11
54.700000002537166
 21
0.5
 31
0.0
  0
LINE
  5
4BB
100
AcDbEntity
  8
0
  6
CONTINUOUS
 62
               7
100
AcDbLine
 10
55.500000002537291
 20
-8.0
 30
0.0
 11
55.500000002537291
 21
0.5
 31
0.0
  0
LINE
  5
4BC
100
AcDbEntity
  8
0
  6
CONTINUOUS
 62
               7
100
AcDbLine
 10
66.000000002537291
 20
-13.799999999999955
 30
0.0
 11
66.000000002537291
 21
0.5
 31
0.0
  0
LINE
  5
4BD
100
AcDbEntity
  8
0
  6
CONTINUOUS
 62
               7
100
AcDbLine
 10
53.200000002537166
 20
-7.8499999999999659
 30
0.0
 11
54.700000002537166
 21
-7.8499999999999659
 31
0.0
  0
CIRCLE
  5
4BE
100
AcDbEntity
  8
0
  6
CONTINUOUS
 62
               7
100
AcDbCircle
 10
54.525000002537212
 20
-0.6749999999999545
 30
0.0
 40
0.175
  0
LINE
  5
4BF
100
AcDbEntity
  8
0
  6
CONTINUOUS
 62
               7
100
AcDbLine
 10
53.200000002537166
 20
-1.1499999999999773
 30
0.0
 11
53.200000002537166
 21
-7.8499999999999659
 31
0.0
  0
LINE
  5
4C0
100
AcDbEntity
  8
0
  6
CONTINUOUS
 62
               7
100
AcDbLine
 10
53.200000002537166
 20
-1.1499999999999773
 30
0.0
 11
54.700000002537166
 21
-1.1499999999999773
 31
0.0
  0
LINE
  5
4C1
100
AcDbEntity
  8
0
  6
CONTINUOUS
 62
               7
100
AcDbLine
 10
54.700000002537166
 20
0.5
 30
0.0
 11
54.700000002537166
 21
-8.0
 31
0.0
  0
LINE
  5
4C2
100
AcDbEntity
  8
0
  6
CONTINUOUS
 62
               7
100
AcDbLine
 10
55.500000002537291
 20
-8.0
 30
0.0
 11
49.500000002537291
 21
-8.0
 31
0.0
  0
LINE
  5
4C3
100
AcDbEntity
  8
0
  6
PHANTOM
 62
               2
100
AcDbLine
 10
54.525000002537212
 20
-0.8499999999999659
 30
0.0
 11
47.875000002537234
 21
-0.8499999999999659
 31
0.0
  0
LINE
  5
4C4
100
AcDbEntity
  8
0
  6
PHANTOM
 62
               2
100
AcDbLine
 10
54.525000002537212
 20
-0.5
 30
0.0
 11
47.875000002537234
 21
-0.5
 31
0.0
  0
LINE
  5
4C5
100
AcDbEntity
  8
0
  6
CONTINUOUS
 62
               7
100
AcDbLine
 10
53.200000002537166
 20
-1.7999999999999545
 30
0.0
 11
49.000000002537178
 21
-1.7999999999999545
 31
0.0
  0
LINE
  5
4C6
100
AcDbEntity
  8
0
  6
PHANTOM
 62
               2
100
AcDbLine
 10
49.500000002537291
 20
-8.1499999999999773
 30
0.0
 11
47.875000002537234
 21
-8.1499999999999773
 31
0.0
  0
LINE
  5
4C7
100
AcDbEntity
  8
0
  6
PHANTOM
 62
               2
100
AcDbLine
 10
49.500000002537291
 20
-8.5
 30
0.0
 11
47.875000002537234
 21
-8.5
 31
0.0
  0
LINE
  5
4C8
100
AcDbEntity
  8
0
  6
CONTINUOUS
 62
               7
100
AcDbLine
 10
53.200000002537166
 20
-7.1999999999999886
 30
0.0
 11
49.000000002537178
 21
-7.1999999999999886
 31
0.0
  0
LINE
  5
4C9
100
AcDbEntity
  8
0
  6
CONTINUOUS
 62
               7
100
AcDbLine
 10
66.000000002537291
 20
-13.799999999999955
 30
0.0
 11
50.500000002537291
 21
-13.799999999999955
 31
0.0
  0
LINE
  5
4CA
100
AcDbEntity
  8
0
  6
CONTINUOUS
 62
               7
100
AcDbLine
 10
47.000000002537291
 20
-2.5
 30
0.0
 11
45.000000002537291
 21
-2.5
 31
0.0
  0
LINE
  5
4CB
100
AcDbEntity
  8
0
  6
CONTINUOUS
 62
               7
100
AcDbLine
 10
47.000000002537234
 20
-6.5
 30
0.0
 11
45.000000002537291
 21
-6.5
 31
0.0
  0
LINE
  5
4CC
100
AcDbEntity
  8
0
  6
CONTINUOUS
 62
               7
100
AcDbLine
 10
66.000000002537291
 20
-13.299999999999955
 30
0.0
 11
50.500000002537291
 21
-13.299999999999955
 31
0.0
  0
LINE
  5
4CD
100
AcDbEntity
  8
0
  6
PHANTOM
 62
               3
100
AcDbLine
 10
32.701351142807994
 20
14.0
 30
0.0
 11
32.701351142807994
 21
-23.562370927746713
 31
0.0
  0
ENDBLK
  5
4CE
100
AcDbEntity
  8
0
100
AcDbBlockEnd
  0
BLOCK
  5
4CF
100
AcDbEntity
  8
0
100
AcDbBlockBegin
  2
MGALGS10-11
 70
               0
 10
0.0
 20
0.0
 30
0.0
  3
MGALGS10-11
  1

  0
LINE
  5
4D0
100
AcDbEntity
  8
0
  6
CONTINUOUS
 62
               2
100
AcDbLine
 10
68.499999999999972
 20
5.0
 30
0.0
 11
63.499999999999972
 21
5.0
 31
0.0
  0
CIRCLE
  5
4D1
100
AcDbEntity
  8
0
  6
CONTINUOUS
 62
               7
100
AcDbCircle
 10
0.0
 20
10.0
 30
0.0
 40
1.5
  0
LINE
  5
4D2
100
AcDbEntity
  8
0
  6
CONTINUOUS
 62
               2
100
AcDbLine
 10
0.0
 20
7.5
 30
0.0
 11
0.0
 21
12.5
 31
0.0
  0
LINE
  5
4D3
100
AcDbEntity
  8
0
  6
CONTINUOUS
 62
               2
100
AcDbLine
 10
2.5
 20
10.0
 30
0.0
 11
-2.5
 21
10.0
 31
0.0
  0
CIRCLE
  5
4D4
100
AcDbEntity
  8
0
  6
CONTINUOUS
 62
               7
100
AcDbCircle
 10
48.999999999999972
 20
10.0
 30
0.0
 40
1.5
  0
LINE
  5
4D5
100
AcDbEntity
  8
0
  6
CONTINUOUS
 62
               2
100
AcDbLine
 10
48.999999999999972
 20
7.5
 30
0.0
 11
48.999999999999972
 21
12.5
 31
0.0
  0
LINE
  5
4D6
100
AcDbEntity
  8
0
  6
CONTINUOUS
 62
               2
100
AcDbLine
 10
51.499999999999972
 20
10.0
 30
0.0
 11
46.499999999999972
 21
10.0
 31
0.0
  0
CIRCLE
  5
4D7
100
AcDbEntity
  8
0
  6
CONTINUOUS
 62
               7
100
AcDbCircle
 10
48.999999999999972
 20
0.0
 30
0.0
 40
2.25
  0
LINE
  5
4D8
100
AcDbEntity
  8
0
  6
CONTINUOUS
 62
               7
100
AcDbLine
 10
-4.0
 20
13.0
 30
0.0
 11
-4.0
 21
-4.0
 31
0.0
  0
LINE
  5
4D9
100
AcDbEntity
  8
0
  6
CONTINUOUS
 62
               7
100
AcDbLine
 10
52.999999999999972
 20
13.0
 30
0.0
 11
-4.0
 21
13.0
 31
0.0
  0
LINE
  5
4DA
100
AcDbEntity
  8
0
  6
CONTINUOUS
 62
               7
100
AcDbLine
 10
52.999999999999972
 20
13.0
 30
0.0
 11
52.999999999999972
 21
-4.0
 31
0.0
  0
LINE
  5
4DB
100
AcDbEntity
  8
0
  6
CONTINUOUS
 62
               7
100
AcDbLine
 10
52.999999999999972
 20
-4.0
 30
0.0
 11
-4.0
 21
-4.0
 31
0.0
  0
LINE
  5
4DC
100
AcDbEntity
  8
0
  6
CONTINUOUS
 62
               2
100
AcDbLine
 10
-3.25
 20
0.0
 30
0.0
 11
3.2499999999999716
 21
0.0
 31
0.0
  0
LINE
  5
4DD
100
AcDbEntity
  8
0
  6
CONTINUOUS
 62
               2
100
AcDbLine
 10
0.0
 20
3.25
 30
0.0
 11
0.0
 21
-3.25
 31
0.0
  0
CIRCLE
  5
4DE
100
AcDbEntity
  8
0
  6
CONTINUOUS
 62
               7
100
AcDbCircle
 10
0.0
 20
0.0
 30
0.0
 40
2.25
  0
LINE
  5
4DF
100
AcDbEntity
  8
0
  6
CONTINUOUS
 62
               2
100
AcDbLine
 10
45.749999999999972
 20
0.0
 30
0.0
 11
52.249999999999972
 21
0.0
 31
0.0
  0
LINE
  5
4E0
100
AcDbEntity
  8
0
  6
CONTINUOUS
 62
               2
100
AcDbLine
 10
48.999999999999972
 20
3.25
 30
0.0
 11
48.999999999999972
 21
-3.25
 31
0.0
  0
LINE
  5
4E1
100
AcDbEntity
  8
0
  6
CONTINUOUS
 62
               7
100
AcDbLine
 10
8.4999999999999716
 20
13.0
 30
0.0
 11
8.4999999999999716
 21
13.700000000000045
 31
0.0
  0
LINE
  5
4E2
100
AcDbEntity
  8
0
  6
CONTINUOUS
 62
               7
100
AcDbLine
 10
8.9999999761581364
 20
13.700000000000045
 30
0.0
 11
8.4999999761581364
 21
13.700000000000045
 31
0.0
  0
LINE
  5
4E3
100
AcDbEntity
  8
0
  6
CONTINUOUS
 62
               7
100
AcDbLine
 10
50.499999999999972
 20
13.5
 30
0.0
 11
8.9999999999999716
 21
13.5
 31
0.0
  0
LINE
  5
4E4
100
AcDbEntity
  8
0
  6
CONTINUOUS
 62
               7
100
AcDbLine
 10
50.499999999999972
 20
14.0
 30
0.0
 11
50.499999999999972
 21
13.0
 31
0.0
  0
LINE
  5
4E5
100
AcDbEntity
  8
0
  6
CONTINUOUS
 62
               7
100
AcDbLine
 10
50.499999999999972
 20
14.0
 30
0.0
 11
8.9999999999999716
 21
14.0
 31
0.0
  0
LINE
  5
4E6
100
AcDbEntity
  8
0
  6
CONTINUOUS
 62
               7
100
AcDbLine
 10
8.9999999999999716
 20
13.0
 30
0.0
 11
8.9999999999999716
 21
14.0
 31
0.0
  0
CIRCLE
  5
4E7
100
AcDbEntity
  8
0
  6
CONTINUOUS
 62
               7
100
AcDbCircle
 10
32.499999999999972
 20
4.0
 30
0.0
 40
4.25
  0
CIRCLE
  5
4E8
100
AcDbEntity
  8
0
  6
CONTINUOUS
 62
               7
100
AcDbCircle
 10
32.499999999999972
 20
4.0
 30
0.0
 40
3.5
  0
CIRCLE
  5
4E9
100
AcDbEntity
  8
0
  6
CONTINUOUS
 62
               7
100
AcDbCircle
 10
32.499999999999972
 20
4.0
 30
0.0
 40
2.6000000000000001
  0
LINE
  5
4EA
100
AcDbEntity
  8
0
  6
CONTINUOUS
 62
               7
100
AcDbLine
 10
32.499999997118806
 20
5.154700534536687
 30
0.0
 11
31.499999984646678
 21
4.5773502587827579
 31
0.0
  0
LINE
  5
4EB
100
AcDbEntity
  8
0
  6
CONTINUOUS
 62
               7
100
AcDbLine
 10
31.500000001887173
 20
4.5773502647731448
 30
0.0
 11
31.500000001336019
 21
3.4226497123106014
 31
0.0
  0
LINE
  5
4EC
100
AcDbEntity
  8
0
  6
CONTINUOUS
 62
               7
100
AcDbLine
 10
31.500000004768339
 20
3.4226497302365146
 30
0.0
 11
32.500000016689313
 21
2.8452994535279004
 31
0.0
  0
LINE
  5
4ED
100
AcDbEntity
  8
0
  6
CONTINUOUS
 62
               7
100
AcDbLine
 10
32.500000002881194
 20
2.8452994654633699
 30
0.0
 11
33.500000015353265
 21
3.4226497412172989
 31
0.0
  0
LINE
  5
4EE
100
AcDbEntity
  8
0
  6
CONTINUOUS
 62
               7
100
AcDbLine
 10
33.499999998112827
 20
3.4226497352269121
 30
0.0
 11
33.499999998663981
 21
4.5773502876894554
 31
0.0
  0
LINE
  5
4EF
100
AcDbEntity
  8
0
  6
CONTINUOUS
 62
               7
100
AcDbLine
 10
33.499999995231605
 20
4.5773502697635422
 30
0.0
 11
32.499999983310687
 21
5.1547005464721565
 31
0.0
  0
CIRCLE
  5
4F0
100
AcDbEntity
  8
0
  6
CONTINUOUS
 62
               7
100
AcDbCircle
 10
16.499999999999972
 20
4.0
 30
0.0
 40
4.25
  0
CIRCLE
  5
4F1
100
AcDbEntity
  8
0
  6
CONTINUOUS
 62
               7
100
AcDbCircle
 10
16.499999999999972
 20
4.0
 30
0.0
 40
3.5
  0
CIRCLE
  5
4F2
100
AcDbEntity
  8
0
  6
CONTINUOUS
 62
               7
100
AcDbCircle
 10
16.499999999999972
 20
4.0
 30
0.0
 40
2.6000000000000001
  0
LINE
  5
4F3
100
AcDbEntity
  8
0
  6
CONTINUOUS
 62
               7
100
AcDbLine
 10
16.499999997118806
 20
5.154700534536687
 30
0.0
 11
15.499999984646678
 21
4.5773502587827579
 31
0.0
  0
LINE
  5
4F4
100
AcDbEntity
  8
0
  6
CONTINUOUS
 62
               7
100
AcDbLine
 10
15.500000001887173
 20
4.5773502647731448
 30
0.0
 11
15.500000001336019
 21
3.4226497123106014
 31
0.0
  0
LINE
  5
4F5
100
AcDbEntity
  8
0
  6
CONTINUOUS
 62
               7
100
AcDbLine
 10
15.500000004768339
 20
3.4226497302365146
 30
0.0
 11
16.500000016689313
 21
2.8452994535279004
 31
0.0
  0
LINE
  5
4F6
100
AcDbEntity
  8
0
  6
CONTINUOUS
 62
               7
100
AcDbLine
 10
16.500000002881194
 20
2.8452994654633699
 30
0.0
 11
17.500000015353265
 21
3.4226497412172989
 31
0.0
  0
LINE
  5
4F7
100
AcDbEntity
  8
0
  6
CONTINUOUS
 62
               7
100
AcDbLine
 10
17.499999998112827
 20
3.4226497352269121
 30
0.0
 11
17.499999998663981
 21
4.5773502876894554
 31
0.0
  0
LINE
  5
4F8
100
AcDbEntity
  8
0
  6
CONTINUOUS
 62
               7
100
AcDbLine
 10
17.499999995231605
 20
4.5773502697635422
 30
0.0
 11
16.499999983310687
 21
5.1547005464721565
 31
0.0
  0
LINE
  5
4F9
100
AcDbEntity
  8
0
  6
CONTINUOUS
 62
               7
100
AcDbLine
 10
65.999999999999972
 20
13.300000000000011
 30
0.0
 11
50.499999999999972
 21
13.300000000000011
 31
0.0
  0
LINE
  5
4FA
100
AcDbEntity
  8
0
  6
CONTINUOUS
 62
               2
100
AcDbLine
 10
58.709598587505042
 20
4.5
 30
0.0
 11
47.865994577480109
 21
4.5
 31
0.0
  0
LINE
  5
4FB
100
AcDbEntity
  8
0
  6
CONTINUOUS
 62
               7
100
AcDbLine
 10
65.999999999999972
 20
13.800000000000011
 30
0.0
 11
50.499999999999972
 21
13.800000000000011
 31
0.0
  0
LINE
  5
4FC
100
AcDbEntity
  8
0
  6
CONTINUOUS
 62
               7
100
AcDbLine
 10
53.199999999999903
 20
7.2000000000000455
 30
0.0
 11
52.999999999999972
 21
7.2000000000000455
 31
0.0
  0
LINE
  5
4FD
100
AcDbEntity
  8
0
  6
CONTINUOUS
 62
               7
100
AcDbLine
 10
53.199999999999903
 20
1.8000000000000114
 30
0.0
 11
52.999999999999972
 21
1.8000000000000114
 31
0.0
  0
LINE
  5
4FE
100
AcDbEntity
  8
0
  6
PHANTOM
 62
               2
100
AcDbLine
 10
54.524999999999892
 20
0.5
 30
0.0
 11
52.999999999999972
 21
0.5
 31
0.0
  0
LINE
  5
4FF
100
AcDbEntity
  8
0
  6
PHANTOM
 62
               2
100
AcDbLine
 10
54.524999999999892
 20
0.8500000000000227
 30
0.0
 11
52.999999999999972
 21
0.8500000000000227
 31
0.0
  0
LINE
  5
500
100
AcDbEntity
  8
0
  6
CONTINUOUS
 62
               7
100
AcDbLine
 10
55.499999999999972
 20
8.0
 30
0.0
 11
52.999999999999972
 21
8.0
 31
0.0
  0
LINE
  5
501
100
AcDbEntity
  8
0
  6
CONTINUOUS
 62
               7
100
AcDbLine
 10
65.999999999999972
 20
-0.5
 30
0.0
 11
54.699999999999903
 21
-0.5
 31
0.0
  0
LINE
  5
502
100
AcDbEntity
  8
0
  6
CONTINUOUS
 62
               7
100
AcDbLine
 10
55.499999999999972
 20
8.0
 30
0.0
 11
55.499999999999972
 21
-0.5
 31
0.0
  0
LINE
  5
503
100
AcDbEntity
  8
0
  6
CONTINUOUS
 62
               7
100
AcDbLine
 10
65.999999999999972
 20
13.800000000000011
 30
0.0
 11
65.999999999999972
 21
-0.5
 31
0.0
  0
LINE
  5
504
100
AcDbEntity
  8
0
  6
CONTINUOUS
 62
               7
100
AcDbLine
 10
53.199999999999903
 20
7.8500000000000227
 30
0.0
 11
54.699999999999903
 21
7.8500000000000227
 31
0.0
  0
CIRCLE
  5
505
100
AcDbEntity
  8
0
  6
CONTINUOUS
 62
               7
100
AcDbCircle
 10
54.524999999999892
 20
0.6750000000000114
 30
0.0
 40
0.175
  0
LINE
  5
506
100
AcDbEntity
  8
0
  6
CONTINUOUS
 62
               7
100
AcDbLine
 10
53.199999999999903
 20
1.1500000000000341
 30
0.0
 11
53.199999999999903
 21
7.8500000000000227
 31
0.0
  0
LINE
  5
507
100
AcDbEntity
  8
0
  6
CONTINUOUS
 62
               7
100
AcDbLine
 10
53.199999999999903
 20
1.1500000000000341
 30
0.0
 11
54.699999999999903
 21
1.1500000000000341
 31
0.0
  0
LINE
  5
508
100
AcDbEntity
  8
0
  6
CONTINUOUS
 62
               7
100
AcDbLine
 10
54.699999999999903
 20
-0.5
 30
0.0
 11
54.699999999999903
 21
8.0
 31
0.0
  0
LINE
  5
509
100
AcDbEntity
  8
0
  6
PHANTOM
 62
               3
100
AcDbLine
 10
24.499999999999972
 20
24.0
 30
0.0
 11
24.499999999999972
 21
-12.257843759997442
 31
0.0
  0
ENDBLK
  5
50A
100
AcDbEntity
  8
0
100
AcDbBlockEnd
  0
BLOCK
  5
50B
100
AcDbEntity
  8
0
100
AcDbBlockBegin
  2
MGALGS10-12
 70
               0
 10
0.0
 20
0.0
 30
0.0
  3
MGALGS10-12
  1

  0
LINE
  5
50C
100
AcDbEntity
  8
0
  6
CONTINUOUS
 62
               7
100
AcDbLine
 10
44.999999976460202
 20
-44.499999978616103
 30
0.0
 11
9.9999999999999716
 21
-44.499999978616103
 31
0.0
  0
LINE
  5
50D
100
AcDbEntity
  8
0
  6
PHANTOM
 62
               3
100
AcDbLine
 10
34.499999999999972
 20
-33.886381247296711
 30
0.0
 11
24.499999999999972
 21
-33.886381247296711
 31
0.0
  0
LINE
  5
50E
100
AcDbEntity
  8
0
  6
CONTINUOUS
 62
               2
100
AcDbLine
 10
27.800000002537303
 20
-12.499999999999972
 30
0.0
 11
32.20000000253728
 21
-12.499999999999972
 31
0.0
  0
LINE
  5
50F
100
AcDbEntity
  8
0
  6
CONTINUOUS
 62
               2
100
AcDbLine
 10
30.000000002537291
 20
-10.299999999999969
 30
0.0
 11
30.000000002537291
 21
-14.799999999999969
 31
0.0
  0
LINE
  5
510
100
AcDbEntity
  8
0
  6
CONTINUOUS
 62
               2
100
AcDbLine
 10
22.000000002537291
 20
-29.199999999999974
 30
0.0
 11
22.000000002537291
 21
-33.799999999999969
 31
0.0
  0
LINE
  5
511
100
AcDbEntity
  8
0
  6
CONTINUOUS
 62
               2
100
AcDbLine
 10
19.700000002537308
 20
-31.499999999999972
 30
0.0
 11
24.300000002537274
 21
-31.499999999999972
 31
0.0
  0
LINE
  5
512
100
AcDbEntity
  8
0
  6
CONTINUOUS
 62
               2
100
AcDbLine
 10
30.000000002537291
 20
-29.699999999999974
 30
0.0
 11
30.000000002537291
 21
-33.299999999999969
 31
0.0
  0
LINE
  5
513
100
AcDbEntity
  8
0
  6
CONTINUOUS
 62
               2
100
AcDbLine
 10
28.200000002537308
 20
-31.499999999999972
 30
0.0
 11
31.800000002537274
 21
-31.499999999999972
 31
0.0
  0
LINE
  5
514
100
AcDbEntity
  8
0
  6
CONTINUOUS
 62
               2
100
AcDbLine
 10
38.000000002537291
 20
-10.299999999999969
 30
0.0
 11
38.000000002537291
 21
-14.799999999999969
 31
0.0
  0
LINE
  5
515
100
AcDbEntity
  8
0
  6
CONTINUOUS
 62
               2
100
AcDbLine
 10
35.700000002537308
 20
-12.499999999999972
 30
0.0
 11
40.300000002537274
 21
-12.499999999999972
 31
0.0
  0
LINE
  5
516
100
AcDbEntity
  8
0
  6
CONTINUOUS
 62
               2
100
AcDbLine
 10
22.000000002537291
 20
-10.299999999999969
 30
0.0
 11
22.000000002537291
 21
-14.799999999999969
 31
0.0
  0
LINE
  5
517
100
AcDbEntity
  8
0
  6
CONTINUOUS
 62
               2
100
AcDbLine
 10
19.700000002537308
 20
-12.499999999999972
 30
0.0
 11
24.300000002537274
 21
-12.499999999999972
 31
0.0
  0
LINE
  5
518
100
AcDbEntity
  8
0
  6
CONTINUOUS
 62
               2
100
AcDbLine
 10
38.000000002537291
 20
-29.199999999999974
 30
0.0
 11
38.000000002537291
 21
-33.799999999999969
 31
0.0
  0
LINE
  5
519
100
AcDbEntity
  8
0
  6
CONTINUOUS
 62
               2
100
AcDbLine
 10
35.700000002537308
 20
-31.499999999999972
 30
0.0
 11
40.300000002537274
 21
-31.499999999999972
 31
0.0
  0
LINE
  5
51A
100
AcDbEntity
  8
0
  6
CONTINUOUS
 62
               2
100
AcDbLine
 10
0.0
 20
1.2000000000000028
 30
0.0
 11
0.0
 21
-5.2000000000000028
 31
0.0
  0
LINE
  5
51B
100
AcDbEntity
  8
0
  6
CONTINUOUS
 62
               2
100
AcDbLine
 10
49.0
 20
1.2000000000000028
 30
0.0
 11
49.0
 21
-5.2000000000000028
 31
0.0
  0
LINE
  5
51C
100
AcDbEntity
  8
0
  6
CONTINUOUS
 62
               2
100
AcDbLine
 10
68.499999999999972
 20
-30.999999999999972
 30
0.0
 11
63.499999999999972
 21
-30.999999999999972
 31
0.0
  0
LINE
  5
51D
100
AcDbEntity
  8
0
  6
CONTINUOUS
 62
               2
100
AcDbLine
 10
68.499999999999972
 20
-12.999999999999972
 30
0.0
 11
63.499999999999972
 21
-12.999999999999972
 31
0.0
  0
LINE
  5
51E
100
AcDbEntity
  8
0
  6
CONTINUOUS
 62
               7
100
AcDbLine
 10
10.000000010825971
 20
-34.999999978616032
 30
0.0
 11
8.9999999999999716
 21
-34.999999978616032
 31
0.0
  0
LINE
  5
51F
100
AcDbEntity
  8
0
  6
CONTINUOUS
 62
               7
100
AcDbLine
 10
28.099999999999994
 20
-37.699999978616034
 30
0.0
 11
28.099999999999994
 21
-35.999999978616032
 31
0.0
  0
LINE
  5
520
100
AcDbEntity
  8
0
  6
CONTINUOUS
 62
               7
100
AcDbLine
 10
31.900000000000006
 20
-37.699999978616034
 30
0.0
 11
31.900000000000006
 21
-35.999999978616032
 31
0.0
  0
LINE
  5
521
100
AcDbEntity
  8
0
  6
CONTINUOUS
 62
               7
100
AcDbLine
 10
17.900000000000006
 20
-37.699999978616034
 30
0.0
 11
17.900000000000006
 21
-35.999999978616032
 31
0.0
  0
LINE
  5
522
100
AcDbEntity
  8
0
  6
CONTINUOUS
 62
               7
100
AcDbLine
 10
17.900000000000006
 20
-37.699999978616034
 30
0.0
 11
15.999999999999972
 21
-37.699999978616034
 31
0.0
  0
LINE
  5
523
100
AcDbEntity
  8
0
  6
CONTINUOUS
 62
               7
100
AcDbLine
 10
17.599999999999994
 20
-37.999999978616032
 30
0.0
 11
15.999999999999972
 21
-37.999999978616032
 31
0.0
  0
LINE
  5
524
100
AcDbEntity
  8
0
  6
CONTINUOUS
 62
               7
100
AcDbLine
 10
17.599999999999994
 20
-37.999999978616032
 30
0.0
 11
17.900000000000006
 21
-37.699999978616034
 31
0.0
  0
LINE
  5
525
100
AcDbEntity
  8
0
  6
CONTINUOUS
 62
               7
100
AcDbLine
 10
31.900000000000006
 20
-37.699999978616034
 30
0.0
 11
28.099999999999994
 21
-37.699999978616034
 31
0.0
  0
LINE
  5
526
100
AcDbEntity
  8
0
  6
CONTINUOUS
 62
               7
100
AcDbLine
 10
31.599999999999994
 20
-37.999999978616032
 30
0.0
 11
28.400000000000006
 21
-37.999999978616032
 31
0.0
  0
LINE
  5
527
100
AcDbEntity
  8
0
  6
CONTINUOUS
 62
               7
100
AcDbLine
 10
31.599999999999994
 20
-37.999999978616032
 30
0.0
 11
31.900000000000006
 21
-37.699999978616034
 31
0.0
  0
LINE
  5
528
100
AcDbEntity
  8
0
  6
CONTINUOUS
 62
               7
100
AcDbLine
 10
28.400000000000006
 20
-37.999999978616032
 30
0.0
 11
28.099999999999994
 21
-37.699999978616034
 31
0.0
  0
LINE
  5
529
100
AcDbEntity
  8
0
  6
CONTINUOUS
 62
               7
100
AcDbLine
 10
38.999999999999972
 20
-38.499999978616032
 30
0.0
 11
15.999999999999972
 21
-38.499999978616032
 31
0.0
  0
LINE
  5
52A
100
AcDbEntity
  8
0
  6
CONTINUOUS
 62
               7
100
AcDbLine
 10
38.999999999999972
 20
-34.999999978616032
 30
0.0
 11
15.999999999999972
 21
-34.999999978616032
 31
0.0
  0
LINE
  5
52B
100
AcDbEntity
  8
0
  6
CONTINUOUS
 62
               7
100
AcDbLine
 10
31.999999999999972
 20
-34.999999978616032
 30
0.0
 11
31.999999999999972
 21
-35.999999978616032
 31
0.0
  0
LINE
  5
52C
100
AcDbEntity
  8
0
  6
CONTINUOUS
 62
               7
100
AcDbLine
 10
21.000000001268603
 20
-34.999999978616032
 30
0.0
 11
21.000000001268603
 21
-37.699999978616034
 31
0.0
  0
LINE
  5
52D
100
AcDbEntity
  8
0
  6
CONTINUOUS
 62
               7
100
AcDbLine
 10
25.000000001268603
 20
-34.999999978616032
 30
0.0
 11
25.000000001268603
 21
-37.699999978616034
 31
0.0
  0
LINE
  5
52E
100
AcDbEntity
  8
0
  6
CONTINUOUS
 62
               7
100
AcDbLine
 10
31.999999999999972
 20
-35.999999978616032
 30
0.0
 11
15.999999999999972
 21
-35.999999978616032
 31
0.0
  0
LINE
  5
52F
100
AcDbEntity
  8
0
  6
CONTINUOUS
 62
               7
100
AcDbLine
 10
25.000000001268603
 20
-37.699999978616034
 30
0.0
 11
21.000000001268603
 21
-37.699999978616034
 31
0.0
  0
LINE
  5
530
100
AcDbEntity
  8
0
  6
CONTINUOUS
 62
               7
100
AcDbLine
 10
38.999999999999972
 20
-38.499999978616032
 30
0.0
 11
38.999999999999972
 21
-34.499999978616032
 31
0.0
  0
LINE
  5
531
100
AcDbEntity
  8
0
  6
CONTINUOUS
 62
               7
100
AcDbLine
 10
15.999999999999972
 20
-38.499999978616032
 30
0.0
 11
15.999999999999972
 21
-34.499999978616032
 31
0.0
  0
LINE
  5
532
100
AcDbEntity
  8
0
  6
CONTINUOUS
 62
               7
100
AcDbLine
 10
65.999999999999972
 20
-34.999999978616032
 30
0.0
 11
45.000000001268603
 21
-34.999999978616032
 31
0.0
  0
LINE
  5
533
100
AcDbEntity
  8
0
  6
PHANTOM
 62
               3
100
AcDbLine
 10
24.499999999999972
 20
7.391991210652364
 30
0.0
 11
24.499999999999972
 21
-33.886381247296711
 31
0.0
  0
ARC
  5
534
100
AcDbEntity
  8
0
  6
CONTINUOUS
 62
               7
100
AcDbCircle
 10
30.000000002537291
 20
-11.999999999999972
 30
0.0
 40
1.5
100
AcDbArc
 50
138.18968551321353
 51
180.0
  0
CIRCLE
  5
535
100
AcDbEntity
  8
0
  6
CONTINUOUS
 62
               7
100
AcDbCircle
 10
16.499999999999972
 20
-5.9999999999999432
 30
0.0
 40
1.1000000000000001
  0
CIRCLE
  5
536
100
AcDbEntity
  8
0
  6
CONTINUOUS
 62
               7
100
AcDbCircle
 10
32.499999999999972
 20
-5.9999999999999432
 30
0.0
 40
1.1000000000000001
  0
LINE
  5
537
100
AcDbEntity
  8
0
  6
CONTINUOUS
 62
               7
100
AcDbLine
 10
4.9999999999999716
 20
-9.9999999999999716
 30
0.0
 11
3.4999999999999716
 21
-9.9999999999999716
 31
0.0
  0
LINE
  5
538
100
AcDbEntity
  8
0
  6
CONTINUOUS
 62
               7
100
AcDbLine
 10
3.4999999999999716
 20
-9.9999999999999716
 30
0.0
 11
3.4999999999999716
 21
-33.999999999999972
 31
0.0
  0
LINE
  5
539
100
AcDbEntity
  8
0
  6
CONTINUOUS
 62
               7
100
AcDbLine
 10
8.9999999999999716
 20
-33.999999999999972
 30
0.0
 11
3.4999999999999716
 21
-33.999999999999972
 31
0.0
  0
LINE
  5
53A
100
AcDbEntity
  8
0
  6
CONTINUOUS
 62
               2
100
AcDbLine
 10
34.599999999999994
 20
-5.9999999999999432
 30
0.0
 11
30.400000000000006
 21
-5.9999999999999432
 31
0.0
  0
LINE
  5
53B
100
AcDbEntity
  8
0
  6
CONTINUOUS
 62
               2
100
AcDbLine
 10
32.499999999999972
 20
-3.8999999999999773
 30
0.0
 11
32.499999999999972
 21
-8.0999999999999659
 31
0.0
  0
LINE
  5
53C
100
AcDbEntity
  8
0
  6
CONTINUOUS
 62
               2
100
AcDbLine
 10
18.599999999999994
 20
-5.9999999999999432
 30
0.0
 11
14.400000000000006
 21
-5.9999999999999432
 31
0.0
  0
LINE
  5
53D
100
AcDbEntity
  8
0
  6
CONTINUOUS
 62
               2
100
AcDbLine
 10
16.499999999999972
 20
-3.8999999999999773
 30
0.0
 11
16.499999999999972
 21
-8.0999999999999659
 31
0.0
  0
LINE
  5
53E
100
AcDbEntity
  8
0
  6
CONTINUOUS
 62
               7
100
AcDbLine
 10
3.9999999999999716
 20
-8.2999999999999829
 30
0.0
 11
3.9999999999999716
 21
-4.0
 31
0.0
  0
LINE
  5
53F
100
AcDbEntity
  8
0
  6
CONTINUOUS
 62
               7
100
AcDbLine
 10
-4.0
 20
-4.0
 30
0.0
 11
3.9999999999999716
 21
-4.0
 31
0.0
  0
LINE
  5
540
100
AcDbEntity
  8
0
  6
CONTINUOUS
 62
               7
100
AcDbLine
 10
44.999999999999972
 20
-8.2999999999999829
 30
0.0
 11
44.999999999999972
 21
-4.0
 31
0.0
  0
LINE
  5
541
100
AcDbEntity
  8
0
  6
CONTINUOUS
 62
               7
100
AcDbLine
 10
52.999999999999972
 20
-4.0
 30
0.0
 11
44.999999999999972
 21
-4.0
 31
0.0
  0
LINE
  5
542
100
AcDbEntity
  8
0
  6
CONTINUOUS
 62
               7
100
AcDbLine
 10
52.999999999999972
 20
-8.2999999999999829
 30
0.0
 11
-4.0
 21
-8.2999999999999829
 31
0.0
  0
LINE
  5
543
100
AcDbEntity
  8
0
  6
CONTINUOUS
 62
               7
100
AcDbLine
 10
4.9999999999999716
 20
-11.000000007980788
 30
0.0
 11
4.9999999999999716
 21
-8.2999999999999829
 31
0.0
  0
LINE
  5
544
100
AcDbEntity
  8
0
  6
CONTINUOUS
 62
               7
100
AcDbLine
 10
43.999999999999972
 20
-11.000000007980788
 30
0.0
 11
43.999999999999972
 21
-8.2999999999999829
 31
0.0
  0
LINE
  5
545
100
AcDbEntity
  8
0
  6
CONTINUOUS
 62
               7
100
AcDbLine
 10
52.999999999999972
 20
-8.2999999999999829
 30
0.0
 11
52.999999999999972
 21
0.0
 31
0.0
  0
LINE
  5
546
100
AcDbEntity
  8
0
  6
CONTINUOUS
 62
               7
100
AcDbLine
 10
-4.0
 20
-8.2999999999999829
 30
0.0
 11
-4.0
 21
0.0
 31
0.0
  0
LINE
  5
547
100
AcDbEntity
  8
0
  6
CONTINUOUS
 62
               7
100
AcDbLine
 10
43.999999999999972
 20
-11.000000007980788
 30
0.0
 11
4.9999999999999716
 21
-11.000000007980788
 31
0.0
  0
LINE
  5
548
100
AcDbEntity
  8
0
  6
CONTINUOUS
 62
               7
100
AcDbLine
 10
52.999999999999972
 20
0.0
 30
0.0
 11
-4.0
 21
0.0
 31
0.0
  0
LINE
  5
549
100
AcDbEntity
  8
0
  6
CENTER
 62
               2
100
AcDbLine
 10
67.721253657327082
 20
-21.999999999999972
 30
0.0
 11
1.7508510363227856
 21
-21.999999999999972
 31
0.0
  0
LINE
  5
54A
100
AcDbEntity
  8
0
  6
CONTINUOUS
 62
               7
100
AcDbLine
 10
45.000000002537291
 20
-9.4999999999999716
 30
0.0
 11
43.999999999999972
 21
-9.4999999999999716
 31
0.0
  0
LINE
  5
54B
100
AcDbEntity
  8
0
  6
CONTINUOUS
 62
               7
100
AcDbLine
 10
45.000000002537291
 20
-34.499999978616046
 30
0.0
 11
8.9999999999999716
 21
-34.499999978616046
 31
0.0
  0
LINE
  5
54C
100
AcDbEntity
  8
0
  6
CONTINUOUS
 62
               7
100
AcDbLine
 10
8.9999999999999716
 20
-11.000000007980788
 30
0.0
 11
8.9999999999999716
 21
-34.999999999999972
 31
0.0
  0
LINE
  5
54D
100
AcDbEntity
  8
0
  6
CONTINUOUS
 62
               7
100
AcDbLine
 10
65.999999999999972
 20
-8.9999999999999716
 30
0.0
 11
43.999999999999972
 21
-8.9999999999999716
 31
0.0
  0
ARC
  5
54E
100
AcDbEntity
  8
0
  6
CONTINUOUS
 62
               7
100
AcDbCircle
 10
38.000000002537291
 20
-12.499999999999972
 30
0.0
 40
1.7
100
AcDbArc
 50
118.0724875074367
 51
61.927512492563238
  0
ARC
  5
54F
100
AcDbEntity
  8
0
  6
CONTINUOUS
 62
               2
100
AcDbCircle
 10
38.000000002537291
 20
-12.499999999999972
 30
0.0
 40
2.0
100
AcDbArc
 50
131.40962245493222
 51
48.590377545067781
  0
CIRCLE
  5
550
100
AcDbEntity
  8
0
  6
CONTINUOUS
 62
               2
100
AcDbCircle
 10
22.000000002537291
 20
-31.499999999999972
 30
0.0
 40
2.0
  0
CIRCLE
  5
551
100
AcDbEntity
  8
0
  6
CONTINUOUS
 62
               7
100
AcDbCircle
 10
22.000000002537291
 20
-31.499999999999972
 30
0.0
 40
1.7
  0
CIRCLE
  5
552
100
AcDbEntity
  8
0
  6
CONTINUOUS
 62
               2
100
AcDbCircle
 10
38.000000002537291
 20
-31.499999999999972
 30
0.0
 40
2.0
  0
CIRCLE
  5
553
100
AcDbEntity
  8
0
  6
CONTINUOUS
 62
               7
100
AcDbCircle
 10
38.000000002537291
 20
-31.499999999999972
 30
0.0
 40
1.7
  0
ARC
  5
554
100
AcDbEntity
  8
0
  6
CONTINUOUS
 62
               7
100
AcDbCircle
 10
30.000000002537291
 20
-11.999999999999972
 30
0.0
 40
1.5
100
AcDbArc
 50
0.0
 51
41.810314486786481
  0
ARC
  5
555
100
AcDbEntity
  8
0
  6
CONTINUOUS
 62
               7
100
AcDbCircle
 10
30.000000002537291
 20
-12.999999999999972
 30
0.0
 40
1.5
100
AcDbArc
 50
180.0
 51
0.0
  0
LINE
  5
556
100
AcDbEntity
  8
0
  6
CONTINUOUS
 62
               7
100
AcDbLine
 10
28.500000002537291
 20
-12.999999999999972
 30
0.0
 11
28.500000002537291
 21
-11.999999999999972
 31
0.0
  0
LINE
  5
557
100
AcDbEntity
  8
0
  6
CONTINUOUS
 62
               7
100
AcDbLine
 10
31.500000002537291
 20
-12.999999999999972
 30
0.0
 11
31.500000002537291
 21
-11.999999999999972
 31
0.0
  0
CIRCLE
  5
558
100
AcDbEntity
  8
0
  6
CONTINUOUS
 62
               7
100
AcDbCircle
 10
30.000000002537291
 20
-31.499999999999972
 30
0.0
 40
1.5
  0
ARC
  5
559
100
AcDbEntity
  8
0
  6
CONTINUOUS
 62
               7
100
AcDbCircle
 10
22.000000002537291
 20
-12.499999999999972
 30
0.0
 40
1.7
100
AcDbArc
 50
118.0724875074367
 51
61.927512492563238
  0
ARC
  5
55A
100
AcDbEntity
  8
0
  6
CONTINUOUS
 62
               2
100
AcDbCircle
 10
22.000000002537291
 20
-12.499999999999972
 30
0.0
 40
2.0
100
AcDbArc
 50
131.40962245493222
 51
48.590377545067781
  0
LINE
  5
55B
100
AcDbEntity
  8
0
  6
CONTINUOUS
 62
               7
100
AcDbLine
 10
45.000000002537291
 20
-18.299999999999955
 30
0.0
 11
8.9999999999999716
 21
-18.299999999999955
 31
0.0
  0
LINE
  5
55C
100
AcDbEntity
  8
0
  6
CONTINUOUS
 62
               7
100
AcDbLine
 10
45.000000002537291
 20
-25.699999999999989
 30
0.0
 11
8.9999999999999716
 21
-25.699999999999989
 31
0.0
  0
LINE
  5
55D
100
AcDbEntity
  8
0
  6
CONTINUOUS
 62
               7
100
AcDbLine
 10
45.000000002537291
 20
-25.399999999999977
 30
0.0
 11
8.9999999999999716
 21
-25.399999999999977
 31
0.0
  0
LINE
  5
55E
100
AcDbEntity
  8
0
  6
CONTINUOUS
 62
               7
100
AcDbLine
 10
45.000000002537291
 20
-18.599999999999966
 30
0.0
 11
8.9999999999999716
 21
-18.599999999999966
 31
0.0
  0
LINE
  5
55F
100
AcDbEntity
  8
0
  6
CONTINUOUS
 62
               7
100
AcDbLine
 10
65.999999999999972
 20
-8.9999999999999716
 30
0.0
 11
65.999999999999972
 21
-34.999999999999972
 31
0.0
  0
LINE
  5
560
100
AcDbEntity
  8
0
  6
CONTINUOUS
 62
               7
100
AcDbLine
 10
55.500000002537348
 20
-8.9999999999999716
 30
0.0
 11
55.500000002537348
 21
-34.999999999999972
 31
0.0
  0
LINE
  5
561
100
AcDbEntity
  8
0
  6
CONTINUOUS
 62
               7
100
AcDbLine
 10
49.499999999999972
 20
-35.000000013690567
 30
0.0
 11
49.499999999999972
 21
-25.968626966596844
 31
0.0
  0
LINE
  5
562
100
AcDbEntity
  8
0
  6
CONTINUOUS
 62
               7
100
AcDbLine
 10
49.499999999999972
 20
-18.031373033403099
 30
0.0
 11
49.499999999999972
 21
-9.0000000136905669
 31
0.0
  0
LINE
  5
563
100
AcDbEntity
  8
0
  6
CONTINUOUS
 62
               7
100
AcDbLine
 10
47.700000002537223
 20
-26.499999999999972
 30
0.0
 11
47.000000002537234
 21
-26.499999999999972
 31
0.0
  0
LINE
  5
564
100
AcDbEntity
  8
0
  6
CONTINUOUS
 62
               7
100
AcDbLine
 10
47.700000002537223
 20
-17.499999999999972
 30
0.0
 11
47.000000002537234
 21
-17.499999999999972
 31
0.0
  0
LINE
  5
565
100
AcDbEntity
  8
0
  6
CONTINUOUS
 62
               7
100
AcDbLine
 10
47.000000002537234
 20
-17.499999999999972
 30
0.0
 11
47.000000002537234
 21
-26.499999999999972
 31
0.0
  0
LINE
  5
566
100
AcDbEntity
  8
0
  6
CONTINUOUS
 62
               7
100
AcDbLine
 10
47.700000002537223
 20
-17.499999999999972
 30
0.0
 11
47.700000002537223
 21
-26.499999999999972
 31
0.0
  0
LINE
  5
567
100
AcDbEntity
  8
0
  6
CONTINUOUS
 62
               2
100
AcDbLine
 10
47.000000002537234
 20
-20.249999999999972
 30
0.0
 11
46.566987300644968
 21
-19.999999999999972
 31
0.0
  0
LINE
  5
568
100
AcDbEntity
  8
0
  6
CONTINUOUS
 62
               2
100
AcDbLine
 10
47.000000002537234
 20
-23.749999999999972
 30
0.0
 11
46.566987300644968
 21
-23.999999999999972
 31
0.0
  0
LINE
  5
569
100
AcDbEntity
  8
0
  6
CONTINUOUS
 62
               7
100
AcDbLine
 10
49.499999999999972
 20
-27.399999999999977
 30
0.0
 11
45.000000002537291
 21
-27.399999999999977
 31
0.0
  0
LINE
  5
56A
100
AcDbEntity
  8
0
  6
CONTINUOUS
 62
               7
100
AcDbLine
 10
49.499999999999972
 20
-16.599999999999966
 30
0.0
 11
45.000000002537291
 21
-16.599999999999966
 31
0.0
  0
LINE
  5
56B
100
AcDbEntity
  8
0
  6
CONTINUOUS
 62
               7
100
AcDbLine
 10
61.499999999999972
 20
-26.699999999999989
 30
0.0
 11
58.499999999999972
 21
-26.699999999999989
 31
0.0
  0
LINE
  5
56C
100
AcDbEntity
  8
0
  6
CONTINUOUS
 62
               7
100
AcDbLine
 10
61.499999999999972
 20
-17.299999999999955
 30
0.0
 11
58.499999999999972
 21
-17.299999999999955
 31
0.0
  0
LINE
  5
56D
100
AcDbEntity
  8
0
  6
CONTINUOUS
 62
               7
100
AcDbLine
 10
65.999999999999972
 20
-16.799999999999955
 30
0.0
 11
58.499999999999972
 21
-16.799999999999955
 31
0.0
  0
LINE
  5
56E
100
AcDbEntity
  8
0
  6
CONTINUOUS
 62
               7
100
AcDbLine
 10
65.999999999999972
 20
-27.199999999999989
 30
0.0
 11
58.499999999999972
 21
-27.199999999999989
 31
0.0
  0
LINE
  5
56F
100
AcDbEntity
  8
0
  6
CONTINUOUS
 62
               7
100
AcDbLine
 10
58.499999999999972
 20
-25.19999999999996
 30
0.0
 11
55.500000002537348
 21
-25.19999999999996
 31
0.0
  0
LINE
  5
570
100
AcDbEntity
  8
0
  6
CONTINUOUS
 62
               7
100
AcDbLine
 10
58.499999999999972
 20
-18.799999999999983
 30
0.0
 11
55.500000002537348
 21
-18.799999999999983
 31
0.0
  0
LINE
  5
571
100
AcDbEntity
  8
0
  6
CONTINUOUS
 62
               7
100
AcDbLine
 10
58.499999999999972
 20
-27.199999999999989
 30
0.0
 11
58.499999999999972
 21
-16.799999999999955
 31
0.0
  0
LINE
  5
572
100
AcDbEntity
  8
0
  6
CONTINUOUS
 62
               7
100
AcDbLine
 10
61.499999999999972
 20
-26.699999999999989
 30
0.0
 11
61.499999999999972
 21
-17.299999999999955
 31
0.0
  0
LINE
  5
573
100
AcDbEntity
  8
0
  6
CONTINUOUS
 62
               7
100
AcDbLine
 10
58.500000002537291
 20
-19.299999999999955
 30
0.0
 11
55.500000002537348
 21
-19.299999999999955
 31
0.0
  0
LINE
  5
574
100
AcDbEntity
  8
0
  6
CONTINUOUS
 62
               7
100
AcDbLine
 10
49.000000002537178
 20
-18.649999999999977
 30
0.0
 11
49.000000002537178
 21
-25.349999999999966
 31
0.0
  0
LINE
  5
575
100
AcDbEntity
  8
0
  6
CONTINUOUS
 62
               7
100
AcDbLine
 10
54.700000002537166
 20
-16.999999999999972
 30
0.0
 11
54.700000002537166
 21
-26.999999999999972
 31
0.0
  0
LINE
  5
576
100
AcDbEntity
  8
0
  6
PHANTOM
 62
               2
100
AcDbLine
 10
54.525000002537212
 20
-18.349999999999966
 30
0.0
 11
47.875000002537234
 21
-18.349999999999966
 31
0.0
  0
CIRCLE
  5
577
100
AcDbEntity
  8
0
  6
CONTINUOUS
 62
               7
100
AcDbCircle
 10
54.525000002537212
 20
-18.174999999999955
 30
0.0
 40
0.175
  0
CIRCLE
  5
578
100
AcDbEntity
  8
0
  6
CONTINUOUS
 62
               7
100
AcDbCircle
 10
47.875000002537234
 20
-18.174999999999955
 30
0.0
 40
0.175
  0
LINE
  5
579
100
AcDbEntity
  8
0
  6
PHANTOM
 62
               2
100
AcDbLine
 10
54.525000002537212
 20
-17.999999999999972
 30
0.0
 11
47.875000002537234
 21
-17.999999999999972
 31
0.0
  0
LINE
  5
57A
100
AcDbEntity
  8
0
  6
CONTINUOUS
 62
               7
100
AcDbLine
 10
53.200000002537166
 20
-18.649999999999977
 30
0.0
 11
53.200000002537166
 21
-25.349999999999966
 31
0.0
  0
LINE
  5
57B
100
AcDbEntity
  8
0
  6
CONTINUOUS
 62
               7
100
AcDbLine
 10
53.200000002537166
 20
-18.649999999999977
 30
0.0
 11
54.700000002537166
 21
-18.649999999999977
 31
0.0
  0
LINE
  5
57C
100
AcDbEntity
  8
0
  6
CONTINUOUS
 62
               7
100
AcDbLine
 10
49.000000002537178
 20
-18.649999999999977
 30
0.0
 11
47.700000002537223
 21
-18.649999999999977
 31
0.0
  0
LINE
  5
57D
100
AcDbEntity
  8
0
  6
CONTINUOUS
 62
               7
100
AcDbLine
 10
55.500000002537291
 20
-16.999999999999972
 30
0.0
 11
54.700000002537166
 21
-16.999999999999972
 31
0.0
  0
LINE
  5
57E
100
AcDbEntity
  8
0
  6
CONTINUOUS
 62
               7
100
AcDbLine
 10
58.500000002537291
 20
-24.699999999999989
 30
0.0
 11
55.500000002537348
 21
-24.699999999999989
 31
0.0
  0
LINE
  5
57F
100
AcDbEntity
  8
0
  6
CONTINUOUS
 62
               7
100
AcDbLine
 10
55.500000002537291
 20
-26.999999999999972
 30
0.0
 11
54.700000002537166
 21
-26.999999999999972
 31
0.0
  0
LINE
  5
580
100
AcDbEntity
  8
0
  6
CONTINUOUS
 62
               7
100
AcDbLine
 10
53.200000002537166
 20
-25.349999999999966
 30
0.0
 11
54.700000002537166
 21
-25.349999999999966
 31
0.0
  0
CIRCLE
  5
581
100
AcDbEntity
  8
0
  6
CONTINUOUS
 62
               7
100
AcDbCircle
 10
54.525000002537212
 20
-25.824999999999989
 30
0.0
 40
0.175
  0
LINE
  5
582
100
AcDbEntity
  8
0
  6
CONTINUOUS
 62
               7
100
AcDbLine
 10
49.000000002537178
 20
-25.349999999999966
 30
0.0
 11
47.700000002537223
 21
-25.349999999999966
 31
0.0
  0
CIRCLE
  5
583
100
AcDbEntity
  8
0
  6
CONTINUOUS
 62
               7
100
AcDbCircle
 10
47.875000002537234
 20
-25.824999999999989
 30
0.0
 40
0.175
  0
LINE
  5
584
100
AcDbEntity
  8
0
  6
PHANTOM
 62
               2
100
AcDbLine
 10
54.525000002537212
 20
-25.649999999999977
 30
0.0
 11
47.875000002537234
 21
-25.649999999999977
 31
0.0
  0
LINE
  5
585
100
AcDbEntity
  8
0
  6
PHANTOM
 62
               2
100
AcDbLine
 10
54.525000002537212
 20
-25.999999999999972
 30
0.0
 11
47.875000002537234
 21
-25.999999999999972
 31
0.0
  0
LINE
  5
586
100
AcDbEntity
  8
0
  6
CONTINUOUS
 62
               7
100
AcDbLine
 10
53.200000002537166
 20
-19.299999999999955
 30
0.0
 11
49.000000002537178
 21
-19.299999999999955
 31
0.0
  0
LINE
  5
587
100
AcDbEntity
  8
0
  6
CONTINUOUS
 62
               7
100
AcDbLine
 10
53.200000002537166
 20
-24.699999999999989
 30
0.0
 11
49.000000002537178
 21
-24.699999999999989
 31
0.0
  0
LINE
  5
588
100
AcDbEntity
  8
0
  6
CONTINUOUS
 62
               7
100
AcDbLine
 10
50.499999999999972
 20
-25.96862698970375
 30
0.0
 11
50.499999999999972
 21
-24.699999999999989
 31
0.0
  0
LINE
  5
589
100
AcDbEntity
  8
0
  6
CONTINUOUS
 62
               7
100
AcDbLine
 10
54.700000002537166
 20
-17.126602827595491
 30
0.0
 11
49.499999999999972
 21
-17.126602827595491
 31
0.0
  0
LINE
  5
58A
100
AcDbEntity
  8
0
  6
CONTINUOUS
 62
               7
100
AcDbLine
 10
54.700000002537166
 20
-26.873397172404452
 30
0.0
 11
49.499999999999972
 21
-26.873397172404452
 31
0.0
  0
LINE
  5
58B
100
AcDbEntity
  8
0
  6
CONTINUOUS
 62
               7
100
AcDbLine
 10
50.499999999999972
 20
-18.031373033403099
 30
0.0
 11
49.499999999999972
 21
-18.031373033403099
 31
0.0
  0
LINE
  5
58C
100
AcDbEntity
  8
0
  6
CONTINUOUS
 62
               7
100
AcDbLine
 10
50.499999999999972
 20
-25.968626966596844
 30
0.0
 11
49.499999999999972
 21
-25.968626966596844
 31
0.0
  0
LINE
  5
58D
100
AcDbEntity
  8
0
  6
CONTINUOUS
 62
               7
100
AcDbLine
 10
50.499999999999972
 20
-19.299999999999955
 30
0.0
 11
50.499999999999972
 21
-18.031373037677383
 31
0.0
  0
LINE
  5
58E
100
AcDbEntity
  8
0
  6
CONTINUOUS
 62
               7
100
AcDbLine
 10
47.000000002537234
 20
-23.999999999999972
 30
0.0
 11
45.000000002537291
 21
-23.999999999999972
 31
0.0
  0
LINE
  5
58F
100
AcDbEntity
  8
0
  6
CONTINUOUS
 62
               7
100
AcDbLine
 10
47.000000002537234
 20
-19.999999999999972
 30
0.0
 11
45.000000002537291
 21
-19.999999999999972
 31
0.0
  0
LINE
  5
590
100
AcDbEntity
  8
0
  6
CONTINUOUS
 62
               7
100
AcDbLine
 10
45.500000002537291
 20
-19.999999999999972
 30
0.0
 11
45.500000002537291
 21
-16.699999999999989
 31
0.0
  0
LINE
  5
591
100
AcDbEntity
  8
0
  6
CONTINUOUS
 62
               7
100
AcDbLine
 10
45.500000002537291
 20
-26.499999999999972
 30
0.0
 11
45.70000000253728
 21
-26.499999999999972
 31
0.0
  0
LINE
  5
592
100
AcDbEntity
  8
0
  6
CONTINUOUS
 62
               7
100
AcDbLine
 10
45.500000002537291
 20
-24.499999999999972
 30
0.0
 11
45.70000000253728
 21
-24.499999999999972
 31
0.0
  0
ARC
  5
593
100
AcDbEntity
  8
0
  6
CONTINUOUS
 62
               7
100
AcDbCircle
 10
45.70000000253728
 20
-24.799999999999955
 30
0.0
 40
0.3
100
AcDbArc
 50
0.0
 51
90.0
  0
ARC
  5
594
100
AcDbEntity
  8
0
  6
CONTINUOUS
 62
               7
100
AcDbCircle
 10
45.70000000253728
 20
-26.199999999999989
 30
0.0
 40
0.3
100
AcDbArc
 50
270.0
 51
0.0
  0
LINE
  5
595
100
AcDbEntity
  8
0
  6
CONTINUOUS
 62
               7
100
AcDbLine
 10
46.000000002537291
 20
-24.799999999999955
 30
0.0
 11
46.000000002537291
 21
-26.199999999999989
 31
0.0
  0
LINE
  5
596
100
AcDbEntity
  8
0
  6
CONTINUOUS
 62
               7
100
AcDbLine
 10
45.500000002537291
 20
-24.2649503305812
 30
0.0
 11
45.000000002537291
 21
-24.2649503305812
 31
0.0
  0
LINE
  5
597
100
AcDbEntity
  8
0
  6
CONTINUOUS
 62
               7
100
AcDbLine
 10
45.500000002537291
 20
-27.299999999999955
 30
0.0
 11
45.000000002537291
 21
-27.299999999999955
 31
0.0
  0
LINE
  5
598
100
AcDbEntity
  8
0
  6
CONTINUOUS
 62
               7
100
AcDbLine
 10
45.500000002537291
 20
-19.499999999999972
 30
0.0
 11
45.70000000253728
 21
-19.499999999999972
 31
0.0
  0
LINE
  5
599
100
AcDbEntity
  8
0
  6
CONTINUOUS
 62
               7
100
AcDbLine
 10
45.500000002537291
 20
-17.499999999999972
 30
0.0
 11
45.70000000253728
 21
-17.499999999999972
 31
0.0
  0
ARC
  5
59A
100
AcDbEntity
  8
0
  6
CONTINUOUS
 62
               7
100
AcDbCircle
 10
45.70000000253728
 20
-17.799999999999955
 30
0.0
 40
0.3
100
AcDbArc
 50
0.0
 51
90.0
  0
ARC
  5
59B
100
AcDbEntity
  8
0
  6
CONTINUOUS
 62
               7
100
AcDbCircle
 10
45.70000000253728
 20
-19.199999999999989
 30
0.0
 40
0.3
100
AcDbArc
 50
270.0
 51
0.0
  0
LINE
  5
59C
100
AcDbEntity
  8
0
  6
CONTINUOUS
 62
               7
100
AcDbLine
 10
46.000000002537291
 20
-17.799999999999955
 30
0.0
 11
46.000000002537291
 21
-19.199999999999989
 31
0.0
  0
LINE
  5
59D
100
AcDbEntity
  8
0
  6
CONTINUOUS
 62
               7
100
AcDbLine
 10
45.500000002537291
 20
-19.735049669418743
 30
0.0
 11
45.000000002537291
 21
-19.735049669418743
 31
0.0
  0
LINE
  5
59E
100
AcDbEntity
  8
0
  6
CONTINUOUS
 62
               7
100
AcDbLine
 10
45.500000002537291
 20
-16.699999999999989
 30
0.0
 11
45.000000002537291
 21
-16.699999999999989
 31
0.0
  0
LINE
  5
59F
100
AcDbEntity
  8
0
  6
CONTINUOUS
 62
               7
100
AcDbLine
 10
45.500000002537291
 20
-27.299999999999955
 30
0.0
 11
45.500000002537291
 21
-23.999999999999972
 31
0.0
  0
LINE
  5
5A0
100
AcDbEntity
  8
0
  6
CONTINUOUS
 62
               7
100
AcDbLine
 10
45.000000002537291
 20
-9.4999999999999716
 30
0.0
 11
45.000000002537291
 21
-44.499999978616103
 31
0.0
  0
LINE
  5
5A1
100
AcDbEntity
  8
0
  6
CONTINUOUS
 62
               7
100
AcDbLine
 10
9.9999999999999716
 20
-44.499999992306641
 30
0.0
 11
9.9999999999999716
 21
-34.499999978616032
 31
0.0
  0
LINE
  5
5A2
100
AcDbEntity
  8
0
  6
PHANTOM
 62
               3
100
AcDbLine
 10
34.499999999999972
 20
-33.886381247296711
 30
0.0
 11
34.499999999999972
 21
-54.499999978616103
 31
0.0
  0
ENDBLK
  5
5A3
100
AcDbEntity
  8
0
100
AcDbBlockEnd
  0
BLOCK
  5
5A4
100
AcDbEntity
  8
0
100
AcDbBlockBegin
  2
MGALGS10-13
 70
               0
 10
0.0
 20
0.0
 30
0.0
  3
MGALGS10-13
  1

  0
LINE
  5
5A5
100
AcDbEntity
  8
0
  6
CONTINUOUS
 62
               4
100
AcDbLine
 10
27.25
 20
-3.6000000000000227
 30
0.0
 11
30.5
 21
-3.6000000000000227
 31
0.0
  0
LINE
  5
5A6
100
AcDbEntity
  8
0
  6
CONTINUOUS
 62
               4
100
AcDbLine
 10
25.75
 20
-1.0
 30
0.0
 11
30.5
 21
-1.0
 31
0.0
  0
LINE
  5
5A7
100
AcDbEntity
  8
0
  6
CONTINUOUS
 62
               4
100
AcDbLine
 10
22.0
 20
-3.6000000000000227
 30
0.0
 11
25.75
 21
-3.6000000000000227
 31
0.0
  0
LINE
  5
5A8
100
AcDbEntity
  8
0
  6
CONTINUOUS
 62
               4
100
AcDbLine
 10
22.0
 20
-1.0
 30
0.0
 11
24.25
 21
-1.0
 31
0.0
  0
LINE
  5
5A9
100
AcDbEntity
  8
0
  6
CONTINUOUS
 62
               4
100
AcDbLine
 10
0.0
 20
-0.4499999999999318
 30
0.0
 11
22.0
 21
-0.4499999999999318
 31
0.0
  0
LINE
  5
5AA
100
AcDbEntity
  8
0
  6
CONTINUOUS
 62
               4
100
AcDbLine
 10
0.0
 20
-1.0
 30
0.0
 11
22.0
 21
-1.0
 31
0.0
  0
LINE
  5
5AB
100
AcDbEntity
  8
0
  6
CONTINUOUS
 62
               4
100
AcDbLine
 10
0.75
 20
0.5
 30
0.0
 11
3.25
 21
0.5
 31
0.0
  0
LINE
  5
5AC
100
AcDbEntity
  8
0
  6
CONTINUOUS
 62
               4
100
AcDbLine
 10
3.25
 20
0.5
 30
0.0
 11
3.25
 21
0.0
 31
0.0
  0
LINE
  5
5AD
100
AcDbEntity
  8
0
  6
CONTINUOUS
 62
               2
100
AcDbLine
 10
3.0199999999999818
 20
0.5
 30
0.0
 11
3.0199999999999818
 21
0.0
 31
0.0
  0
LINE
  5
5AE
100
AcDbEntity
  8
0
  6
CONTINUOUS
 62
               2
100
AcDbLine
 10
0.9700000000000273
 20
0.5
 30
0.0
 11
0.9700000000000273
 21
0.0
 31
0.0
  0
LINE
  5
5AF
100
AcDbEntity
  8
0
  6
CONTINUOUS
 62
               4
100
AcDbLine
 10
0.75
 20
0.5
 30
0.0
 11
0.75
 21
0.0
 31
0.0
  0
LINE
  5
5B0
100
AcDbEntity
  8
0
  6
CONTINUOUS
 62
               4
100
AcDbLine
 10
0.75
 20
-3.7699999999999818
 30
0.0
 11
3.25
 21
-3.7699999999999818
 31
0.0
  0
LINE
  5
5B1
100
AcDbEntity
  8
0
  6
CONTINUOUS
 62
               4
100
AcDbLine
 10
3.25
 20
-2.5900000000000318
 30
0.0
 11
3.25
 21
-3.7699999999999818
 31
0.0
  0
LINE
  5
5B2
100
AcDbEntity
  8
0
  6
CONTINUOUS
 62
               2
100
AcDbLine
 10
3.0199999999999818
 20
-2.5900000000000318
 30
0.0
 11
3.0199999999999818
 21
-4.0
 31
0.0
  0
LINE
  5
5B3
100
AcDbEntity
  8
0
  6
CONTINUOUS
 62
               2
100
AcDbLine
 10
0.9700000000000273
 20
-2.5900000000000318
 30
0.0
 11
0.9700000000000273
 21
-4.0
 31
0.0
  0
LINE
  5
5B4
100
AcDbEntity
  8
0
  6
CONTINUOUS
 62
               4
100
AcDbLine
 10
0.75
 20
-2.5900000000000318
 30
0.0
 11
0.75
 21
-3.7699999999999818
 31
0.0
  0
LINE
  5
5B5
100
AcDbEntity
  8
0
  6
CONTINUOUS
 62
               4
100
AcDbLine
 10
0.9700000000000273
 20
-4.0
 30
0.0
 11
0.75
 21
-3.7699999999999818
 31
0.0
  0
LINE
  5
5B6
100
AcDbEntity
  8
0
  6
CONTINUOUS
 62
               4
100
AcDbLine
 10
3.0199999999999818
 20
-4.0
 30
0.0
 11
3.25
 21
-3.7699999999999818
 31
0.0
  0
LINE
  5
5B7
100
AcDbEntity
  8
0
  6
CONTINUOUS
 62
               4
100
AcDbLine
 10
0.9700000000000273
 20
-4.0
 30
0.0
 11
3.0199999999999818
 21
-4.0
 31
0.0
  0
LINE
  5
5B8
100
AcDbEntity
  8
0
  6
CONTINUOUS
 62
               2
100
AcDbLine
 10
23.75
 20
-0.1299999999999955
 30
0.0
 11
26.25
 21
-4.4599999999999227
 31
0.0
  0
LINE
  5
5B9
100
AcDbEntity
  8
0
  6
CONTINUOUS
 62
               2
100
AcDbLine
 10
25.25
 20
-0.1299999999999955
 30
0.0
 11
27.75
 21
-4.4599999999999227
 31
0.0
  0
LINE
  5
5BA
100
AcDbEntity
  8
0
  6
CONTINUOUS
 62
               2
100
AcDbLine
 10
32.730000000000018
 20
-0.1299999999999955
 30
0.0
 11
35.230000000000018
 21
-4.4599999999999227
 31
0.0
  0
LINE
  5
5BB
100
AcDbEntity
  8
0
  6
CENTER
 62
               2
100
AcDbLine
 10
20.67999999999995
 20
-2.3000000000000682
 30
0.0
 11
30.5
 21
-2.3000000000000682
 31
0.0
  0
LINE
  5
5BC
100
AcDbEntity
  8
0
  6
CONTINUOUS
 62
               2
100
AcDbLine
 10
34.230000000000018
 20
-0.1299999999999955
 30
0.0
 11
36.730000000000018
 21
-4.4599999999999227
 31
0.0
  0
LINE
  5
5BD
100
AcDbEntity
  8
0
  6
CONTINUOUS
 62
               4
100
AcDbLine
 10
37.5
 20
-3.0
 30
0.0
 11
40.5
 21
-3.0
 31
0.0
  0
LINE
  5
5BE
100
AcDbEntity
  8
0
  6
CONTINUOUS
 62
               4
100
AcDbLine
 10
37.5
 20
-2.5
 30
0.0
 11
40.5
 21
-2.5
 31
0.0
  0
LINE
  5
5BF
100
AcDbEntity
  8
0
  6
CONTINUOUS
 62
               4
100
AcDbLine
 10
37.5
 20
-2.1000000000000227
 30
0.0
 11
40.5
 21
-2.1000000000000227
 31
0.0
  0
LINE
  5
5C0
100
AcDbEntity
  8
0
  6
CONTINUOUS
 62
               4
100
AcDbLine
 10
37.5
 20
-1.6000000000000227
 30
0.0
 11
40.5
 21
-1.6000000000000227
 31
0.0
  0
LINE
  5
5C1
100
AcDbEntity
  8
0
  6
CONTINUOUS
 62
               4
100
AcDbLine
 10
34.959999999999923
 20
-1.3999999999999773
 30
0.0
 11
37.5
 21
-1.3999999999999773
 31
0.0
  0
LINE
  5
5C2
100
AcDbEntity
  8
0
  6
CONTINUOUS
 62
               4
100
AcDbLine
 10
30.5
 20
-1.3999999999999773
 30
0.0
 11
33.459999999999923
 21
-1.3999999999999773
 31
0.0
  0
LINE
  5
5C3
100
AcDbEntity
  8
0
  6
CONTINUOUS
 62
               4
100
AcDbLine
 10
36.0
 20
-3.1999999999999318
 30
0.0
 11
37.5
 21
-3.1999999999999318
 31
0.0
  0
LINE
  5
5C4
100
AcDbEntity
  8
0
  6
CONTINUOUS
 62
               4
100
AcDbLine
 10
35.480000000000018
 20
-2.3000000000000682
 30
0.0
 11
37.5
 21
-2.3000000000000682
 31
0.0
  0
LINE
  5
5C5
100
AcDbEntity
  8
0
  6
CONTINUOUS
 62
               4
100
AcDbLine
 10
30.5
 20
-2.3000000000000682
 30
0.0
 11
33.980000000000018
 21
-2.3000000000000682
 31
0.0
  0
LINE
  5
5C6
100
AcDbEntity
  8
0
  6
CONTINUOUS
 62
               4
100
AcDbLine
 10
30.5
 20
-3.1999999999999318
 30
0.0
 11
34.5
 21
-3.1999999999999318
 31
0.0
  0
LINE
  5
5C7
100
AcDbEntity
  8
0
  6
CONTINUOUS
 62
               4
100
AcDbLine
 10
37.5
 20
-1.3999999999999773
 30
0.0
 11
37.5
 21
-3.1999999999999318
 31
0.0
  0
LINE
  5
5C8
100
AcDbEntity
  8
0
  6
CONTINUOUS
 62
               4
100
AcDbLine
 10
40.5
 20
-2.5
 30
0.0
 11
40.5
 21
-3.0
 31
0.0
  0
LINE
  5
5C9
100
AcDbEntity
  8
0
  6
CONTINUOUS
 62
               4
100
AcDbLine
 10
40.5
 20
-1.6000000000000227
 30
0.0
 11
40.5
 21
-2.1000000000000227
 31
0.0
  0
LINE
  5
5CA
100
AcDbEntity
  8
0
  6
CENTER
 62
               2
100
AcDbLine
 10
28.819999999999936
 20
-2.75
 30
0.0
 11
40.75
 21
-2.75
 31
0.0
  0
LINE
  5
5CB
100
AcDbEntity
  8
0
  6
CENTER
 62
               2
100
AcDbLine
 10
28.769999999999982
 20
-1.8500000000000227
 30
0.0
 11
40.699999999999932
 21
-1.8500000000000227
 31
0.0
  0
LINE
  5
5CC
100
AcDbEntity
  8
0
  6
CONTINUOUS
 62
               4
100
AcDbLine
 10
30.5
 20
-1.0
 30
0.0
 11
30.5
 21
-3.6000000000000227
 31
0.0
  0
LINE
  5
5CD
100
AcDbEntity
  8
0
  6
CONTINUOUS
 62
               4
100
AcDbLine
 10
4.25
 20
-3.0400000000000773
 30
0.0
 11
4.6999999999999318
 21
-3.0400000000000773
 31
0.0
  0
LINE
  5
5CE
100
AcDbEntity
  8
0
  6
CONTINUOUS
 62
               4
100
AcDbLine
 10
4.1999999999999318
 20
-3.8000000000000682
 30
0.0
 11
4.6999999999999318
 21
-3.8000000000000682
 31
0.0
  0
LINE
  5
5CF
100
AcDbEntity
  8
0
  6
CONTINUOUS
 62
               4
100
AcDbLine
 10
4.1999999999999318
 20
-1.8000000000000682
 30
0.0
 11
4.1999999999999318
 21
-3.8000000000000682
 31
0.0
  0
LINE
  5
5D0
100
AcDbEntity
  8
0
  6
CONTINUOUS
 62
               4
100
AcDbLine
 10
0.0
 20
-2.6000000000000227
 30
0.0
 11
4.0
 21
-2.6000000000000227
 31
0.0
  0
LINE
  5
5D1
100
AcDbEntity
  8
0
  6
CONTINUOUS
 62
               4
100
AcDbLine
 10
0.0
 20
-1.8000000000000682
 30
0.0
 11
0.0
 21
-2.6000000000000227
 31
0.0
  0
LINE
  5
5D2
100
AcDbEntity
  8
0
  6
CONTINUOUS
 62
               4
100
AcDbLine
 10
4.0
 20
-1.8000000000000682
 30
0.0
 11
4.0
 21
-2.6000000000000227
 31
0.0
  0
LINE
  5
5D3
100
AcDbEntity
  8
0
  6
CONTINUOUS
 62
               4
100
AcDbLine
 10
4.25
 20
-1.8000000000000682
 30
0.0
 11
4.25
 21
-3.0400000000000773
 31
0.0
  0
LINE
  5
5D4
100
AcDbEntity
  8
0
  6
CENTER
 62
               2
100
AcDbLine
 10
2.0
 20
0.8000000000000682
 30
0.0
 11
2.0
 21
-5.42999999999995
 31
0.0
  0
LINE
  5
5D5
100
AcDbEntity
  8
0
  6
CONTINUOUS
 62
               4
100
AcDbLine
 10
0.0
 20
-1.8000000000000682
 30
0.0
 11
4.25
 21
-1.8000000000000682
 31
0.0
  0
LINE
  5
5D6
100
AcDbEntity
  8
0
  6
CONTINUOUS
 62
               4
100
AcDbLine
 10
4.6999999999999318
 20
-3.0400000000000773
 30
0.0
 11
4.6999999999999318
 21
-4.6000000000000227
 31
0.0
  0
LINE
  5
5D7
100
AcDbEntity
  8
0
  6
CONTINUOUS
 62
               4
100
AcDbLine
 10
0.0
 20
-1.8000000000000682
 30
0.0
 11
0.0
 21
0.0
 31
0.0
  0
LINE
  5
5D8
100
AcDbEntity
  8
0
  6
CONTINUOUS
 62
               4
100
AcDbLine
 10
22.0
 20
0.0
 30
0.0
 11
22.0
 21
-4.6000000000000227
 31
0.0
  0
LINE
  5
5D9
100
AcDbEntity
  8
0
  6
CONTINUOUS
 62
               4
100
AcDbLine
 10
4.6999999999999318
 20
-4.6000000000000227
 30
0.0
 11
22.0
 21
-4.6000000000000227
 31
0.0
  0
LINE
  5
5DA
100
AcDbEntity
  8
0
  6
CONTINUOUS
 62
               4
100
AcDbLine
 10
0.0
 20
0.0
 30
0.0
 11
22.0
 21
0.0
 31
0.0
  0
ENDBLK
  5
5DB
100
AcDbEntity
  8
0
100
AcDbBlockEnd
  0
BLOCK
  5
5DC
100
AcDbEntity
  8
0
100
AcDbBlockBegin
  2
MGALGS10-14
 70
               0
 10
0.0
 20
0.0
 30
0.0
  3
MGALGS10-14
  1

  0
ARC
  5
5DD
100
AcDbEntity
  8
0
  6
CONTINUOUS
 62
               4
100
AcDbCircle
 10
-0.0000022888195872
 20
-2.5499977111803673
 30
0.0
 40
2.0500022888209148
100
AcDbArc
 50
270.00006397051652
 51
359.99993602948348
  0
ARC
  5
5DE
100
AcDbEntity
  8
0
  6
CONTINUOUS
 62
               4
100
AcDbCircle
 10
0.0000022888195872
 20
-2.5499977111803673
 30
0.0
 40
2.0500022888209148
100
AcDbArc
 50
180.00006397051652
 51
269.99993602948348
  0
LINE
  5
5DF
100
AcDbEntity
  8
0
  6
CONTINUOUS
 62
               4
100
AcDbLine
 10
-1.25
 20
0.5
 30
0.0
 11
1.25
 21
0.5
 31
0.0
  0
LINE
  5
5E0
100
AcDbEntity
  8
0
  6
CONTINUOUS
 62
               4
100
AcDbLine
 10
1.25
 20
0.5
 30
0.0
 11
1.25
 21
0.0
 31
0.0
  0
LINE
  5
5E1
100
AcDbEntity
  8
0
  6
CONTINUOUS
 62
               2
100
AcDbLine
 10
1.0199999999999818
 20
0.5
 30
0.0
 11
1.0199999999999818
 21
0.0
 31
0.0
  0
LINE
  5
5E2
100
AcDbEntity
  8
0
  6
CONTINUOUS
 62
               2
100
AcDbLine
 10
-1.0199999999999818
 20
0.5
 30
0.0
 11
-1.0199999999999818
 21
0.0
 31
0.0
  0
LINE
  5
5E3
100
AcDbEntity
  8
0
  6
CONTINUOUS
 62
               4
100
AcDbLine
 10
-1.25
 20
0.5
 30
0.0
 11
-1.25
 21
0.0
 31
0.0
  0
LINE
  5
5E4
100
AcDbEntity
  8
0
  6
CONTINUOUS
 62
               4
100
AcDbLine
 10
-1.25
 20
-3.7699999999999818
 30
0.0
 11
1.25
 21
-3.7699999999999818
 31
0.0
  0
LINE
  5
5E5
100
AcDbEntity
  8
0
  6
CONTINUOUS
 62
               4
100
AcDbLine
 10
1.25
 20
-2.5900000000000318
 30
0.0
 11
1.25
 21
-3.7699999999999818
 31
0.0
  0
LINE
  5
5E6
100
AcDbEntity
  8
0
  6
CONTINUOUS
 62
               2
100
AcDbLine
 10
1.0199999999999818
 20
-2.5900000000000318
 30
0.0
 11
1.0199999999999818
 21
-4.0
 31
0.0
  0
LINE
  5
5E7
100
AcDbEntity
  8
0
  6
CONTINUOUS
 62
               2
100
AcDbLine
 10
-1.0199999999999818
 20
-2.5900000000000318
 30
0.0
 11
-1.0199999999999818
 21
-4.0
 31
0.0
  0
LINE
  5
5E8
100
AcDbEntity
  8
0
  6
CONTINUOUS
 62
               4
100
AcDbLine
 10
-1.25
 20
-2.5900000000000318
 30
0.0
 11
-1.25
 21
-3.7699999999999818
 31
0.0
  0
LINE
  5
5E9
100
AcDbEntity
  8
0
  6
CONTINUOUS
 62
               4
100
AcDbLine
 10
-1.0199999999999818
 20
-4.0
 30
0.0
 11
-1.25
 21
-3.7699999999999818
 31
0.0
  0
LINE
  5
5EA
100
AcDbEntity
  8
0
  6
CONTINUOUS
 62
               4
100
AcDbLine
 10
1.0199999999999818
 20
-4.0
 30
0.0
 11
1.25
 21
-3.7699999999999818
 31
0.0
  0
LINE
  5
5EB
100
AcDbEntity
  8
0
  6
CONTINUOUS
 62
               4
100
AcDbLine
 10
-1.0199999999999818
 20
-4.0
 30
0.0
 11
1.0199999999999818
 21
-4.0
 31
0.0
  0
LINE
  5
5EC
100
AcDbEntity
  8
0
  6
CONTINUOUS
 62
               4
100
AcDbLine
 10
-2.0499999999999545
 20
-2.5900000000000318
 30
0.0
 11
2.0499999999999545
 21
-2.5900000000000318
 31
0.0
  0
LINE
  5
5ED
100
AcDbEntity
  8
0
  6
CONTINUOUS
 62
               4
100
AcDbLine
 10
-2.0499999999999545
 20
-1.8000000000000682
 30
0.0
 11
2.0499999999999545
 21
-1.8000000000000682
 31
0.0
  0
LINE
  5
5EE
100
AcDbEntity
  8
0
  6
CONTINUOUS
 62
               4
100
AcDbLine
 10
2.0499999999999545
 20
-1.0
 30
0.0
 11
2.0499999999999545
 21
-2.5500000000000682
 31
0.0
  0
LINE
  5
5EF
100
AcDbEntity
  8
0
  6
CONTINUOUS
 62
               4
100
AcDbLine
 10
2.0499999999999545
 20
-1.0
 30
0.0
 11
1.5
 21
-0.4499999999999318
 31
0.0
  0
LINE
  5
5F0
100
AcDbEntity
  8
0
  6
CONTINUOUS
 62
               4
100
AcDbLine
 10
1.5
 20
0.0
 30
0.0
 11
1.5
 21
-0.4499999999999318
 31
0.0
  0
LINE
  5
5F1
100
AcDbEntity
  8
0
  6
CONTINUOUS
 62
               4
100
AcDbLine
 10
-1.5
 20
0.0
 30
0.0
 11
1.5
 21
0.0
 31
0.0
  0
LINE
  5
5F2
100
AcDbEntity
  8
0
  6
CONTINUOUS
 62
               4
100
AcDbLine
 10
-1.5
 20
0.0
 30
0.0
 11
-1.5
 21
-0.4499999999999318
 31
0.0
  0
LINE
  5
5F3
100
AcDbEntity
  8
0
  6
CONTINUOUS
 62
               4
100
AcDbLine
 10
-2.0499999999999545
 20
-1.0
 30
0.0
 11
-1.5
 21
-0.4499999999999318
 31
0.0
  0
LINE
  5
5F4
100
AcDbEntity
  8
0
  6
CONTINUOUS
 62
               4
100
AcDbLine
 10
-2.0499999999999545
 20
-1.0
 30
0.0
 11
-2.0499999999999545
 21
-2.5500000000000682
 31
0.0
  0
LINE
  5
5F5
100
AcDbEntity
  8
0
  6
CENTER
 62
               2
100
AcDbLine
 10
0.0
 20
2.0500000000000682
 30
0.0
 11
0.0
 21
-6.6599999999999682
 31
0.0
  0
ENDBLK
  5
5F6
100
AcDbEntity
  8
0
100
AcDbBlockEnd
  0
BLOCK
  5
5F7
100
AcDbEntity
  8
0
100
AcDbBlockBegin
  2
MGALGS10-15
 70
               0
 10
0.0
 20
0.0
 30
0.0
  3
MGALGS10-15
  1

  0
CIRCLE
  5
5F8
100
AcDbEntity
  8
0
  6
CONTINUOUS
 62
               4
100
AcDbCircle
 10
2.0000152587890625
 20
0.0
 30
0.0
 40
1.3999996185302734
  0
CIRCLE
  5
5F9
100
AcDbEntity
  8
0
  6
CONTINUOUS
 62
               4
100
AcDbCircle
 10
2.0000152587890625
 20
0.0
 30
0.0
 40
1.25
  0
LINE
  5
5FA
100
AcDbEntity
  8
0
  6
CONTINUOUS
 62
               4
100
AcDbLine
 10
22.0
 20
-1.3000000000000114
 30
0.0
 11
25.090000000000032
 21
-1.3000000000000114
 31
0.0
  0
LINE
  5
5FB
100
AcDbEntity
  8
0
  6
CONTINUOUS
 62
               4
100
AcDbLine
 10
22.0
 20
1.3000000000000114
 30
0.0
 11
23.580000000000041
 21
1.3000000000000114
 31
0.0
  0
LINE
  5
5FC
100
AcDbEntity
  8
0
  6
CONTINUOUS
 62
               2
100
AcDbLine
 10
23.080000000000041
 20
2.1599999999999682
 30
0.0
 11
25.580000000000041
 21
-2.1599999999999682
 31
0.0
  0
LINE
  5
5FD
100
AcDbEntity
  8
0
  6
CONTINUOUS
 62
               4
100
AcDbLine
 10
1.3000000000000682
 20
-1.0600000000000023
 30
0.0
 11
2.9399999999999409
 21
0.5600000000000023
 31
0.0
  0
LINE
  5
5FE
100
AcDbEntity
  8
0
  6
CONTINUOUS
 62
               4
100
AcDbLine
 10
0.9499999999999318
 20
-0.7100000000000364
 30
0.0
 11
2.67999999999995
 21
1.0199999999999818
 31
0.0
  0
LINE
  5
5FF
100
AcDbEntity
  8
0
  6
CENTER
 62
               2
100
AcDbLine
 10
2.0
 20
2.8300000000000409
 30
0.0
 11
2.0
 21
-2.75
 31
0.0
  0
LINE
  5
600
100
AcDbEntity
  8
0
  6
CONTINUOUS
 62
               4
100
AcDbLine
 10
22.0
 20
2.0500000000000114
 30
0.0
 11
22.0
 21
-2.0500000000000114
 31
0.0
  0
LINE
  5
601
100
AcDbEntity
  8
0
  6
CONTINUOUS
 62
               4
100
AcDbLine
 10
0.0
 20
2.0500000000000114
 30
0.0
 11
0.0
 21
-2.0500000000000114
 31
0.0
  0
LINE
  5
602
100
AcDbEntity
  8
0
  6
CONTINUOUS
 62
               4
100
AcDbLine
 10
0.0
 20
2.0500000000000114
 30
0.0
 11
22.0
 21
2.0500000000000114
 31
0.0
  0
LINE
  5
603
100
AcDbEntity
  8
0
  6
CONTINUOUS
 62
               4
100
AcDbLine
 10
0.0
 20
-2.0500000000000114
 30
0.0
 11
22.0
 21
-2.0500000000000114
 31
0.0
  0
LINE
  5
604
100
AcDbEntity
  8
0
  6
CONTINUOUS
 62
               4
100
AcDbLine
 10
0.0
 20
1.5
 30
0.0
 11
22.0
 21
1.5
 31
0.0
  0
LINE
  5
605
100
AcDbEntity
  8
0
  6
CONTINUOUS
 62
               4
100
AcDbLine
 10
0.0
 20
-1.5
 30
0.0
 11
22.0
 21
-1.5
 31
0.0
  0
LINE
  5
606
100
AcDbEntity
  8
0
  6
CENTER
 62
               2
100
AcDbLine
 10
-2.8000000000000682
 20
0.0
 30
0.0
 11
27.399999999999977
 21
0.0
 31
0.0
  0
ENDBLK
  5
607
100
AcDbEntity
  8
0
100
AcDbBlockEnd
  0
BLOCK
  5
608
100
AcDbEntity
  8
0
100
AcDbBlockBegin
  2
MGALGS10-16
 70
               0
 10
0.0
 20
0.0
 30
0.0
  3
MGALGS10-16
  1

  0
LINE
  5
609
100
AcDbEntity
  8
0
  6
CONTINUOUS
 62
               4
100
AcDbLine
 10
0.0
 20
0.0
 30
0.0
 11
16.099999999999909
 21
-0.000000000000004
 31
0.0
  0
LINE
  5
60A
100
AcDbEntity
  8
0
  6
CONTINUOUS
 62
               4
100
AcDbLine
 10
4.6999999999998181
 20
-4.6000000000000236
 30
0.0
 11
22.0
 21
-4.6000000000000281
 31
0.0
  0
LINE
  5
60B
100
AcDbEntity
  8
0
  6
CONTINUOUS
 62
               4
100
AcDbLine
 10
22.0
 20
6.8999999999999719
 30
0.0
 11
22.0
 21
-4.6000000000000281
 31
0.0
  0
LINE
  5
60C
100
AcDbEntity
  8
0
  6
CONTINUOUS
 62
               4
100
AcDbLine
 10
0.0
 20
-2.6000000000000227
 30
0.0
 11
0.0
 21
0.0
 31
0.0
  0
LINE
  5
60D
100
AcDbEntity
  8
0
  6
CONTINUOUS
 62
               4
100
AcDbLine
 10
4.6999999999998181
 20
-2.98000000000002
 30
0.0
 11
4.6999999999998181
 21
-4.6000000000000236
 31
0.0
  0
LINE
  5
60E
100
AcDbEntity
  8
0
  6
CENTER
 62
               2
100
AcDbLine
 10
2.0
 20
0.7300000000000178
 30
0.0
 11
2.0
 21
-5.16999999999996
 31
0.0
  0
LINE
  5
60F
100
AcDbEntity
  8
0
  6
CONTINUOUS
 62
               4
100
AcDbLine
 10
16.099999999999909
 20
6.8999999999999737
 30
0.0
 11
16.099999999999909
 21
-0.000000000000004
 31
0.0
  0
LINE
  5
610
100
AcDbEntity
  8
0
  6
CONTINUOUS
 62
               4
100
AcDbLine
 10
0.0
 20
-1.8000000000000682
 30
0.0
 11
4.2699999999999818
 21
-1.8000000000000691
 31
0.0
  0
LINE
  5
611
100
AcDbEntity
  8
0
  6
CONTINUOUS
 62
               4
100
AcDbLine
 10
0.0
 20
-2.6000000000000227
 30
0.0
 11
4.0
 21
-2.6000000000000236
 31
0.0
  0
LINE
  5
612
100
AcDbEntity
  8
0
  6
CONTINUOUS
 62
               4
100
AcDbLine
 10
4.0
 20
-1.8000000000000691
 30
0.0
 11
4.0
 21
-2.6000000000000236
 31
0.0
  0
LINE
  5
613
100
AcDbEntity
  8
0
  6
CONTINUOUS
 62
               4
100
AcDbLine
 10
16.099999999999909
 20
6.8999999999999737
 30
0.0
 11
22.0
 21
6.8999999999999719
 31
0.0
  0
LINE
  5
614
100
AcDbEntity
  8
0
  6
CONTINUOUS
 62
               4
100
AcDbLine
 10
4.1999999999998181
 20
-3.8000000000000691
 30
0.0
 11
4.6999999999998181
 21
-3.80000000000007
 31
0.0
  0
LINE
  5
615
100
AcDbEntity
  8
0
  6
CONTINUOUS
 62
               4
100
AcDbLine
 10
4.1999999999998181
 20
-1.8000000000000691
 30
0.0
 11
4.1999999999998181
 21
-3.8000000000000691
 31
0.0
  0
LINE
  5
616
100
AcDbEntity
  8
0
  6
CONTINUOUS
 62
               4
100
AcDbLine
 10
4.2699999999999818
 20
-2.9800000000000191
 30
0.0
 11
4.6999999999998181
 21
-2.98000000000002
 31
0.0
  0
LINE
  5
617
100
AcDbEntity
  8
0
  6
CONTINUOUS
 62
               4
100
AcDbLine
 10
4.2699999999999818
 20
-1.8000000000000691
 30
0.0
 11
4.2699999999999818
 21
-2.9800000000000191
 31
0.0
  0
LINE
  5
618
100
AcDbEntity
  8
0
  6
CONTINUOUS
 62
               4
100
AcDbLine
 10
0.0
 20
-1.0
 30
0.0
 11
22.0
 21
-1.0000000000000053
 31
0.0
  0
LINE
  5
619
100
AcDbEntity
  8
0
  6
CONTINUOUS
 62
               4
100
AcDbLine
 10
0.0
 20
-0.4499999999999318
 30
0.0
 11
22.0
 21
-0.4499999999999371
 31
0.0
  0
LINE
  5
61A
100
AcDbEntity
  8
0
  6
CONTINUOUS
 62
               4
100
AcDbLine
 10
16.099999999999909
 20
1.1499999999999733
 30
0.0
 11
22.0
 21
1.1499999999999719
 31
0.0
  0
LINE
  5
61B
100
AcDbEntity
  8
0
  6
CONTINUOUS
 62
               4
100
AcDbLine
 10
16.099999999999909
 20
0.3999999999999733
 30
0.0
 11
22.0
 21
0.3999999999999719
 31
0.0
  0
LINE
  5
61C
100
AcDbEntity
  8
0
  6
CONTINUOUS
 62
               4
100
AcDbLine
 10
16.099999999999909
 20
5.3999999999999737
 30
0.0
 11
22.0
 21
5.3999999999999719
 31
0.0
  0
LINE
  5
61D
100
AcDbEntity
  8
0
  6
CONTINUOUS
 62
               4
100
AcDbLine
 10
18.099999999999913
 20
15.399999999999974
 30
0.0
 11
20.699999999999822
 21
15.399999999999972
 31
0.0
  0
LINE
  5
61E
100
AcDbEntity
  8
0
  6
CENTER
 62
               2
100
AcDbLine
 10
18.949999999999822
 20
13.669999999999954
 30
0.0
 11
18.949999999999825
 21
25.600000000000019
 31
0.0
  0
LINE
  5
61F
100
AcDbEntity
  8
0
  6
CENTER
 62
               2
100
AcDbLine
 10
19.849999999999913
 20
13.720000000000022
 30
0.0
 11
19.849999999999916
 21
25.649999999999974
 31
0.0
  0
LINE
  5
620
100
AcDbEntity
  8
0
  6
CONTINUOUS
 62
               4
100
AcDbLine
 10
18.699999999999825
 20
25.399999999999974
 30
0.0
 11
19.199999999999825
 21
25.399999999999974
 31
0.0
  0
LINE
  5
621
100
AcDbEntity
  8
0
  6
CONTINUOUS
 62
               4
100
AcDbLine
 10
19.599999999999916
 20
25.399999999999974
 30
0.0
 11
20.099999999999916
 21
25.399999999999974
 31
0.0
  0
LINE
  5
622
100
AcDbEntity
  8
0
  6
CONTINUOUS
 62
               4
100
AcDbLine
 10
18.500000000000007
 20
22.399999999999974
 30
0.0
 11
20.299999999999962
 21
22.399999999999974
 31
0.0
  0
LINE
  5
623
100
AcDbEntity
  8
0
  6
CONTINUOUS
 62
               4
100
AcDbLine
 10
20.299999999999958
 20
15.399999999999972
 30
0.0
 11
20.299999999999958
 21
19.399999999999974
 31
0.0
  0
LINE
  5
624
100
AcDbEntity
  8
0
  6
CONTINUOUS
 62
               4
100
AcDbLine
 10
19.399999999999867
 20
15.399999999999972
 30
0.0
 11
19.399999999999867
 21
18.879999999999992
 31
0.0
  0
LINE
  5
625
100
AcDbEntity
  8
0
  6
CONTINUOUS
 62
               4
100
AcDbLine
 10
19.399999999999867
 20
20.379999999999992
 30
0.0
 11
19.399999999999871
 21
22.399999999999974
 31
0.0
  0
LINE
  5
626
100
AcDbEntity
  8
0
  6
CONTINUOUS
 62
               4
100
AcDbLine
 10
20.299999999999958
 20
20.899999999999974
 30
0.0
 11
20.299999999999962
 21
22.399999999999974
 31
0.0
  0
LINE
  5
627
100
AcDbEntity
  8
0
  6
CONTINUOUS
 62
               4
100
AcDbLine
 10
18.500000000000004
 20
15.399999999999972
 30
0.0
 11
18.500000000000004
 21
18.36000000000001
 31
0.0
  0
LINE
  5
628
100
AcDbEntity
  8
0
  6
CONTINUOUS
 62
               4
100
AcDbLine
 10
18.500000000000004
 20
19.86000000000001
 30
0.0
 11
18.500000000000007
 21
22.399999999999974
 31
0.0
  0
LINE
  5
629
100
AcDbEntity
  8
0
  6
CONTINUOUS
 62
               4
100
AcDbLine
 10
18.699999999999825
 20
22.399999999999974
 30
0.0
 11
18.699999999999825
 21
25.399999999999974
 31
0.0
  0
LINE
  5
62A
100
AcDbEntity
  8
0
  6
CONTINUOUS
 62
               4
100
AcDbLine
 10
19.199999999999825
 20
22.399999999999974
 30
0.0
 11
19.199999999999825
 21
25.399999999999974
 31
0.0
  0
LINE
  5
62B
100
AcDbEntity
  8
0
  6
CONTINUOUS
 62
               4
100
AcDbLine
 10
19.599999999999916
 20
22.399999999999974
 30
0.0
 11
19.599999999999916
 21
25.399999999999974
 31
0.0
  0
LINE
  5
62C
100
AcDbEntity
  8
0
  6
CONTINUOUS
 62
               4
100
AcDbLine
 10
20.099999999999916
 20
22.399999999999974
 30
0.0
 11
20.099999999999916
 21
25.399999999999974
 31
0.0
  0
LINE
  5
62D
100
AcDbEntity
  8
0
  6
CONTINUOUS
 62
               2
100
AcDbLine
 10
17.240000000000013
 20
19.129999999999992
 30
0.0
 11
21.56999999999994
 21
21.629999999999992
 31
0.0
  0
LINE
  5
62E
100
AcDbEntity
  8
0
  6
CENTER
 62
               2
100
AcDbLine
 10
19.399999999999864
 20
5.5800000000000365
 30
0.0
 11
19.399999999999867
 21
15.399999999999972
 31
0.0
  0
LINE
  5
62F
100
AcDbEntity
  8
0
  6
CONTINUOUS
 62
               2
100
AcDbLine
 10
17.240000000000013
 20
17.629999999999992
 30
0.0
 11
21.56999999999994
 21
20.129999999999992
 31
0.0
  0
LINE
  5
630
100
AcDbEntity
  8
0
  6
CONTINUOUS
 62
               2
100
AcDbLine
 10
17.240000000000013
 20
10.149999999999974
 30
0.0
 11
21.56999999999994
 21
12.649999999999972
 31
0.0
  0
LINE
  5
631
100
AcDbEntity
  8
0
  6
CONTINUOUS
 62
               2
100
AcDbLine
 10
17.240000000000013
 20
8.6499999999999737
 30
0.0
 11
21.56999999999994
 21
11.149999999999972
 31
0.0
  0
LINE
  5
632
100
AcDbEntity
  8
0
  6
CONTINUOUS
 62
               4
100
AcDbLine
 10
0.9700000000000273
 20
-4.0
 30
0.0
 11
3.0199999999999818
 21
-4.0000000000000009
 31
0.0
  0
LINE
  5
633
100
AcDbEntity
  8
0
  6
CONTINUOUS
 62
               4
100
AcDbLine
 10
3.0199999999999818
 20
-4.0000000000000009
 30
0.0
 11
3.25
 21
-3.7699999999999827
 31
0.0
  0
LINE
  5
634
100
AcDbEntity
  8
0
  6
CONTINUOUS
 62
               4
100
AcDbLine
 10
0.9700000000000273
 20
-4.0
 30
0.0
 11
0.75
 21
-3.7699999999999818
 31
0.0
  0
LINE
  5
635
100
AcDbEntity
  8
0
  6
CONTINUOUS
 62
               4
100
AcDbLine
 10
0.75
 20
-2.6000000000000227
 30
0.0
 11
0.75
 21
-3.7699999999999818
 31
0.0
  0
LINE
  5
636
100
AcDbEntity
  8
0
  6
CONTINUOUS
 62
               2
100
AcDbLine
 10
0.9700000000000273
 20
-2.6000000000000227
 30
0.0
 11
0.9700000000000273
 21
-4.0
 31
0.0
  0
LINE
  5
637
100
AcDbEntity
  8
0
  6
CONTINUOUS
 62
               2
100
AcDbLine
 10
3.0199999999999818
 20
-2.6000000000000236
 30
0.0
 11
3.0199999999999818
 21
-4.0000000000000009
 31
0.0
  0
LINE
  5
638
100
AcDbEntity
  8
0
  6
CONTINUOUS
 62
               4
100
AcDbLine
 10
3.25
 20
-2.6000000000000236
 30
0.0
 11
3.25
 21
-3.7699999999999827
 31
0.0
  0
LINE
  5
639
100
AcDbEntity
  8
0
  6
CONTINUOUS
 62
               4
100
AcDbLine
 10
0.75
 20
-3.7699999999999818
 30
0.0
 11
3.25
 21
-3.7699999999999827
 31
0.0
  0
LINE
  5
63A
100
AcDbEntity
  8
0
  6
CONTINUOUS
 62
               4
100
AcDbLine
 10
0.75
 20
0.4999999999999998
 30
0.0
 11
0.75
 21
-0.0000000000000002
 31
0.0
  0
LINE
  5
63B
100
AcDbEntity
  8
0
  6
CONTINUOUS
 62
               2
100
AcDbLine
 10
0.9700000000000273
 20
0.4999999999999998
 30
0.0
 11
0.9700000000000273
 21
-0.0000000000000002
 31
0.0
  0
LINE
  5
63C
100
AcDbEntity
  8
0
  6
CONTINUOUS
 62
               2
100
AcDbLine
 10
3.0199999999999818
 20
0.4999999999999993
 30
0.0
 11
3.0199999999999818
 21
-0.0000000000000007
 31
0.0
  0
LINE
  5
63D
100
AcDbEntity
  8
0
  6
CONTINUOUS
 62
               4
100
AcDbLine
 10
3.25
 20
0.4999999999999991
 30
0.0
 11
3.25
 21
-0.0000000000000009
 31
0.0
  0
LINE
  5
63E
100
AcDbEntity
  8
0
  6
CONTINUOUS
 62
               4
100
AcDbLine
 10
0.75
 20
0.4999999999999998
 30
0.0
 11
3.25
 21
0.4999999999999991
 31
0.0
  0
LINE
  5
63F
100
AcDbEntity
  8
0
  6
CONTINUOUS
 62
               4
100
AcDbLine
 10
20.699999999999818
 20
6.8999999999999719
 30
0.0
 11
20.699999999999822
 21
10.649999999999972
 31
0.0
  0
LINE
  5
640
100
AcDbEntity
  8
0
  6
CONTINUOUS
 62
               4
100
AcDbLine
 10
18.099999999999909
 20
6.8999999999999728
 30
0.0
 11
18.099999999999913
 21
9.1499999999999737
 31
0.0
  0
LINE
  5
641
100
AcDbEntity
  8
0
  6
CONTINUOUS
 62
               4
100
AcDbLine
 10
18.099999999999913
 20
10.649999999999974
 30
0.0
 11
18.099999999999913
 21
15.399999999999974
 31
0.0
  0
LINE
  5
642
100
AcDbEntity
  8
0
  6
CONTINUOUS
 62
               4
100
AcDbLine
 10
20.699999999999822
 20
12.149999999999972
 30
0.0
 11
20.699999999999822
 21
15.399999999999972
 31
0.0
  0
ENDBLK
  5
643
100
AcDbEntity
  8
0
100
AcDbBlockEnd
  0
BLOCK
  5
644
100
AcDbEntity
  8
0
100
AcDbBlockBegin
  2
MGALGS10-17
 70
               0
 10
0.0
 20
0.0
 30
0.0
  3
MGALGS10-17
  1

  0
LINE
  5
645
100
AcDbEntity
  8
0
  6
CONTINUOUS
 62
               4
100
AcDbLine
 10
-2.25
 20
5.3999999999999773
 30
0.0
 11
2.25
 21
5.3999999999999773
 31
0.0
  0
LINE
  5
646
100
AcDbEntity
  8
0
  6
CONTINUOUS
 62
               4
100
AcDbLine
 10
-2.25
 20
6.8999999999999773
 30
0.0
 11
-2.25
 21
1.1499999999999773
 31
0.0
  0
LINE
  5
647
100
AcDbEntity
  8
0
  6
CONTINUOUS
 62
               4
100
AcDbLine
 10
-1.5
 20
0.3999999999999773
 30
0.0
 11
-2.25
 21
1.1499999999999773
 31
0.0
  0
LINE
  5
648
100
AcDbEntity
  8
0
  6
CONTINUOUS
 62
               4
100
AcDbLine
 10
-1.5
 20
-0.4500000000000455
 30
0.0
 11
-1.5
 21
0.3999999999999773
 31
0.0
  0
LINE
  5
649
100
AcDbEntity
  8
0
  6
CONTINUOUS
 62
               4
100
AcDbLine
 10
-2.0500000000001819
 20
-1.0
 30
0.0
 11
-1.5
 21
-0.4500000000000455
 31
0.0
  0
LINE
  5
64A
100
AcDbEntity
  8
0
  6
CONTINUOUS
 62
               4
100
AcDbLine
 10
-2.0500000000001819
 20
-1.0
 30
0.0
 11
-2.0500000000001819
 21
-2.5499999999999545
 31
0.0
  0
LINE
  5
64B
100
AcDbEntity
  8
0
  6
CONTINUOUS
 62
               4
100
AcDbLine
 10
2.0499999999999545
 20
-1.0
 30
0.0
 11
2.0499999999999545
 21
-2.5499999999999545
 31
0.0
  0
LINE
  5
64C
100
AcDbEntity
  8
0
  6
CONTINUOUS
 62
               4
100
AcDbLine
 10
2.0499999999999545
 20
-1.0
 30
0.0
 11
1.5
 21
-0.4500000000000455
 31
0.0
  0
LINE
  5
64D
100
AcDbEntity
  8
0
  6
CONTINUOUS
 62
               4
100
AcDbLine
 10
1.5
 20
-0.4500000000000455
 30
0.0
 11
1.5
 21
0.3999999999999773
 31
0.0
  0
LINE
  5
64E
100
AcDbEntity
  8
0
  6
CONTINUOUS
 62
               4
100
AcDbLine
 10
1.5
 20
0.3999999999999773
 30
0.0
 11
2.25
 21
1.1499999999999773
 31
0.0
  0
LINE
  5
64F
100
AcDbEntity
  8
0
  6
CONTINUOUS
 62
               4
100
AcDbLine
 10
2.25
 20
6.8999999999999773
 30
0.0
 11
2.25
 21
1.1499999999999773
 31
0.0
  0
LINE
  5
650
100
AcDbEntity
  8
0
  6
CENTER
 62
               2
100
AcDbLine
 10
0.0
 20
12.559999999999945
 30
0.0
 11
0.0
 21
-6.0599999999999454
 31
0.0
  0
LINE
  5
651
100
AcDbEntity
  8
0
  6
CONTINUOUS
 62
               4
100
AcDbLine
 10
-1.5
 20
0.0
 30
0.0
 11
1.5
 21
0.0
 31
0.0
  0
LINE
  5
652
100
AcDbEntity
  8
0
  6
CONTINUOUS
 62
               4
100
AcDbLine
 10
-2.0500000000001819
 20
-1.7999999999999545
 30
0.0
 11
2.0499999999999545
 21
-1.7999999999999545
 31
0.0
  0
LINE
  5
653
100
AcDbEntity
  8
0
  6
CONTINUOUS
 62
               4
100
AcDbLine
 10
-2.0500000000001819
 20
-2.6000000000000227
 30
0.0
 11
2.0499999999999545
 21
-2.6000000000000227
 31
0.0
  0
LINE
  5
654
100
AcDbEntity
  8
0
  6
CONTINUOUS
 62
               4
100
AcDbLine
 10
-2.25
 20
6.8999999999999773
 30
0.0
 11
2.25
 21
6.8999999999999773
 31
0.0
  0
LINE
  5
655
100
AcDbEntity
  8
0
  6
CONTINUOUS
 62
               2
100
AcDbLine
 10
-2.1600000000000819
 20
8.6499999999999773
 30
0.0
 11
2.1599999999998545
 21
11.149999999999977
 31
0.0
  0
LINE
  5
656
100
AcDbEntity
  8
0
  6
CONTINUOUS
 62
               4
100
AcDbLine
 10
-1.0199999999999818
 20
-4.0
 30
0.0
 11
1.0199999999999818
 21
-4.0
 31
0.0
  0
LINE
  5
657
100
AcDbEntity
  8
0
  6
CONTINUOUS
 62
               4
100
AcDbLine
 10
1.0199999999999818
 20
-4.0
 30
0.0
 11
1.25
 21
-3.7699999999999818
 31
0.0
  0
LINE
  5
658
100
AcDbEntity
  8
0
  6
CONTINUOUS
 62
               4
100
AcDbLine
 10
-1.0199999999999818
 20
-4.0
 30
0.0
 11
-1.25
 21
-3.7699999999999818
 31
0.0
  0
LINE
  5
659
100
AcDbEntity
  8
0
  6
CONTINUOUS
 62
               4
100
AcDbLine
 10
-1.25
 20
-2.6000000000000227
 30
0.0
 11
-1.25
 21
-3.7699999999999818
 31
0.0
  0
LINE
  5
65A
100
AcDbEntity
  8
0
  6
CONTINUOUS
 62
               2
100
AcDbLine
 10
-1.0199999999999818
 20
-2.6000000000000227
 30
0.0
 11
-1.0199999999999818
 21
-4.0
 31
0.0
  0
LINE
  5
65B
100
AcDbEntity
  8
0
  6
CONTINUOUS
 62
               2
100
AcDbLine
 10
1.0199999999999818
 20
-2.6000000000000227
 30
0.0
 11
1.0199999999999818
 21
-4.0
 31
0.0
  0
LINE
  5
65C
100
AcDbEntity
  8
0
  6
CONTINUOUS
 62
               4
100
AcDbLine
 10
1.25
 20
-2.6000000000000227
 30
0.0
 11
1.25
 21
-3.7699999999999818
 31
0.0
  0
LINE
  5
65D
100
AcDbEntity
  8
0
  6
CONTINUOUS
 62
               4
100
AcDbLine
 10
-1.25
 20
-3.7699999999999818
 30
0.0
 11
1.25
 21
-3.7699999999999818
 31
0.0
  0
LINE
  5
65E
100
AcDbEntity
  8
0
  6
CONTINUOUS
 62
               4
100
AcDbLine
 10
-1.25
 20
0.5
 30
0.0
 11
-1.25
 21
0.0
 31
0.0
  0
LINE
  5
65F
100
AcDbEntity
  8
0
  6
CONTINUOUS
 62
               2
100
AcDbLine
 10
-1.0199999999999818
 20
0.5
 30
0.0
 11
-1.0199999999999818
 21
0.0
 31
0.0
  0
LINE
  5
660
100
AcDbEntity
  8
0
  6
CONTINUOUS
 62
               2
100
AcDbLine
 10
1.0199999999999818
 20
0.5
 30
0.0
 11
1.0199999999999818
 21
0.0
 31
0.0
  0
LINE
  5
661
100
AcDbEntity
  8
0
  6
CONTINUOUS
 62
               4
100
AcDbLine
 10
1.25
 20
0.5
 30
0.0
 11
1.25
 21
0.0
 31
0.0
  0
LINE
  5
662
100
AcDbEntity
  8
0
  6
CONTINUOUS
 62
               4
100
AcDbLine
 10
-1.25
 20
0.5
 30
0.0
 11
1.25
 21
0.5
 31
0.0
  0
LINE
  5
663
100
AcDbEntity
  8
0
  6
CONTINUOUS
 62
               4
100
AcDbLine
 10
-1.3000000000001819
 20
9.1499999999999773
 30
0.0
 11
-1.3000000000001819
 21
6.8999999999999773
 31
0.0
  0
LINE
  5
664
100
AcDbEntity
  8
0
  6
CONTINUOUS
 62
               4
100
AcDbLine
 10
1.2999999999999545
 20
10.649999999999977
 30
0.0
 11
1.2999999999999545
 21
6.8999999999999773
 31
0.0
  0
ARC
  5
665
100
AcDbEntity
  8
0
  6
CONTINUOUS
 62
               4
100
AcDbCircle
 10
0.0000022888195872
 20
-2.5499977111803673
 30
0.0
 40
2.0500022888209148
100
AcDbArc
 50
180.00006397051652
 51
269.99993602948348
  0
ARC
  5
666
100
AcDbEntity
  8
0
  6
CONTINUOUS
 62
               4
100
AcDbCircle
 10
-0.0000022888198146
 20
-2.5499977111803673
 30
0.0
 40
2.0500022888209148
100
AcDbArc
 50
270.00006397051652
 51
359.99993602948348
  0
ENDBLK
  5
667
100
AcDbEntity
  8
0
100
AcDbBlockEnd
  0
BLOCK
  5
668
100
AcDbEntity
  8
0
100
AcDbBlockBegin
  2
MGALGS10-18
 70
               0
 10
0.0
 20
0.0
 30
0.0
  3
MGALGS10-18
  1

  0
LINE
  5
669
100
AcDbEntity
  8
0
  6
CENTER
 62
               2
100
AcDbLine
 10
-1.3199999999999363
 20
0.0
 30
0.0
 11
23.579999999999927
 21
0.0
 31
0.0
  0
LINE
  5
66A
100
AcDbEntity
  8
0
  6
CONTINUOUS
 62
               4
100
AcDbLine
 10
0.0
 20
-1.5
 30
0.0
 11
16.559999999999945
 21
-1.5
 31
0.0
  0
LINE
  5
66B
100
AcDbEntity
  8
0
  6
CONTINUOUS
 62
               4
100
AcDbLine
 10
0.0
 20
1.5
 30
0.0
 11
16.559999999999945
 21
1.5
 31
0.0
  0
LINE
  5
66C
100
AcDbEntity
  8
0
  6
CONTINUOUS
 62
               4
100
AcDbLine
 10
0.0
 20
-2.0500000000000114
 30
0.0
 11
16.910000000000082
 21
-2.0500000000000114
 31
0.0
  0
LINE
  5
66D
100
AcDbEntity
  8
0
  6
CONTINUOUS
 62
               4
100
AcDbLine
 10
0.0
 20
2.0500000000000114
 30
0.0
 11
16.910000000000082
 21
2.0500000000000114
 31
0.0
  0
LINE
  5
66E
100
AcDbEntity
  8
0
  6
CONTINUOUS
 62
               4
100
AcDbLine
 10
0.0
 20
2.0500000000000114
 30
0.0
 11
0.0
 21
-2.0500000000000114
 31
0.0
  0
LINE
  5
66F
100
AcDbEntity
  8
0
  6
CENTER
 62
               2
100
AcDbLine
 10
2.0
 20
2.8300000000000409
 30
0.0
 11
2.0
 21
-2.75
 31
0.0
  0
LINE
  5
670
100
AcDbEntity
  8
0
  6
CONTINUOUS
 62
               4
100
AcDbLine
 10
17.079999999999927
 20
2.25
 30
0.0
 11
22.0
 21
2.25
 31
0.0
  0
LINE
  5
671
100
AcDbEntity
  8
0
  6
CONTINUOUS
 62
               4
100
AcDbLine
 10
17.079999999999927
 20
-2.25
 30
0.0
 11
22.0
 21
-2.25
 31
0.0
  0
LINE
  5
672
100
AcDbEntity
  8
0
  6
CONTINUOUS
 62
               4
100
AcDbLine
 10
22.0
 20
2.25
 30
0.0
 11
22.0
 21
-2.25
 31
0.0
  0
LINE
  5
673
100
AcDbEntity
  8
0
  6
CONTINUOUS
 62
               4
100
AcDbLine
 10
1.3500000000001364
 20
-1.0699999999999932
 30
0.0
 11
3.0700000000001637
 21
0.6399999999999864
 31
0.0
  0
LINE
  5
674
100
AcDbEntity
  8
0
  6
CONTINUOUS
 62
               4
100
AcDbLine
 10
0.9300000000000637
 20
-0.6399999999999864
 30
0.0
 11
2.6400000000001
 21
1.0699999999999932
 31
0.0
  0
ARC
  5
675
100
AcDbEntity
  8
0
  6
CONTINUOUS
 62
               4
100
AcDbCircle
 10
19.5
 20
0.0
 30
0.0
 40
3.3043758866085451
100
AcDbArc
 50
137.08479304051025
 51
222.91520695948975
  0
CIRCLE
  5
676
100
AcDbEntity
  8
0
  6
CONTINUOUS
 62
               4
100
AcDbCircle
 10
2.0
 20
0.0
 30
0.0
 40
1.25
  0
CIRCLE
  5
677
100
AcDbEntity
  8
0
  6
CONTINUOUS
 62
               4
100
AcDbCircle
 10
2.0
 20
0.0
 30
0.0
 40
1.3999996185302734
  0
CIRCLE
  5
678
100
AcDbEntity
  8
0
  6
CONTINUOUS
 62
               4
100
AcDbCircle
 10
19.4073486328125
 20
0.0
 30
0.0
 40
1.2999992370605469
  0
CIRCLE
  5
679
100
AcDbEntity
  8
0
  6
CONTINUOUS
 62
               4
100
AcDbCircle
 10
19.729156494140625
 20
-0.34100341796875
 30
0.0
 40
0.449999988079071
  0
CIRCLE
  5
67A
100
AcDbEntity
  8
0
  6
CONTINUOUS
 62
               4
100
AcDbCircle
 10
19.117279052734375
 20
0.3181533813476563
 30
0.0
 40
0.449999988079071
  0
CIRCLE
  5
67B
100
AcDbEntity
  8
0
  6
CONTINUOUS
 62
               4
100
AcDbCircle
 10
19.729156494140625
 20
-0.34100341796875
 30
0.0
 40
0.25
  0
CIRCLE
  5
67C
100
AcDbEntity
  8
0
  6
CONTINUOUS
 62
               4
100
AcDbCircle
 10
19.117279052734375
 20
0.3181533813476563
 30
0.0
 40
0.25
  0
ENDBLK
  5
67D
100
AcDbEntity
  8
0
100
AcDbBlockEnd
  0
BLOCK
  5
67E
100
AcDbEntity
  8
0
100
AcDbBlockBegin
  2
MGALGS10-19
 70
               0
 10
0.0
 20
0.0
 30
0.0
  3
MGALGS10-19
  1

  0
LINE
  5
67F
100
AcDbEntity
  8
0
  6
CONTINUOUS
 62
               2
100
AcDbLine
 10
0.9500000000000455
 20
0.600135997275288
 30
0.0
 11
0.9500000000000455
 21
0.0
 31
0.0
  0
LINE
  5
680
100
AcDbEntity
  8
0
  6
CONTINUOUS
 62
               4
100
AcDbLine
 10
0.7514285714287325
 20
0.4001359972752425
 30
0.0
 11
0.9514285714285506
 21
0.600135997275288
 31
0.0
  0
LINE
  5
681
100
AcDbEntity
  8
0
  6
CONTINUOUS
 62
               4
100
AcDbLine
 10
0.7514285714287325
 20
0.0
 30
0.0
 11
0.7514285714287325
 21
0.4001359972752425
 31
0.0
  0
LINE
  5
682
100
AcDbEntity
  8
0
  6
CONTINUOUS
 62
               2
100
AcDbLine
 10
0.9500000000000455
 20
-2.5998640027247575
 30
0.0
 11
0.9500000000000455
 21
-4.0984354312961386
 31
0.0
  0
LINE
  5
683
100
AcDbEntity
  8
0
  6
CONTINUOUS
 62
               4
100
AcDbLine
 10
0.0
 20
-1.7998640027246893
 30
0.0
 11
0.0
 21
0.0
 31
0.0
  0
LINE
  5
684
100
AcDbEntity
  8
0
  6
CONTINUOUS
 62
               4
100
AcDbLine
 10
0.0
 20
-1.7998640027246893
 30
0.0
 11
0.0
 21
-2.6000000027247552
 31
0.0
  0
LINE
  5
685
100
AcDbEntity
  8
0
  6
CONTINUOUS
 62
               4
100
AcDbLine
 10
0.7514285714287325
 20
-2.5998640027247575
 30
0.0
 11
0.7514285714287325
 21
-3.899864002724712
 31
0.0
  0
LINE
  5
686
100
AcDbEntity
  8
0
  6
CONTINUOUS
 62
               4
100
AcDbLine
 10
1.2514285714287325
 20
-4.399864002724712
 30
0.0
 11
0.7514285714287325
 21
-3.899864002724712
 31
0.0
  0
LINE
  5
687
100
AcDbEntity
  8
0
  6
CONTINUOUS
 62
               2
100
AcDbLine
 10
27.730000000000018
 20
-0.3299995223463839
 30
0.0
 11
30.230000000000018
 21
-4.6599995223464248
 31
0.0
  0
LINE
  5
688
100
AcDbEntity
  8
0
  6
CONTINUOUS
 62
               2
100
AcDbLine
 10
26.230000000000018
 20
-0.3299995223463839
 30
0.0
 11
28.730000000000018
 21
-4.6599995223464248
 31
0.0
  0
LINE
  5
689
100
AcDbEntity
  8
0
  6
CONTINUOUS
 62
               2
100
AcDbLine
 10
18.75
 20
-0.3299995223463839
 30
0.0
 11
21.25
 21
-4.6599995223464248
 31
0.0
  0
LINE
  5
68A
100
AcDbEntity
  8
0
  6
CONTINUOUS
 62
               2
100
AcDbLine
 10
17.25
 20
-0.3299995223463839
 30
0.0
 11
19.75
 21
-4.6599995223464248
 31
0.0
  0
LINE
  5
68B
100
AcDbEntity
  8
0
  6
CENTER
 62
               2
100
AcDbLine
 10
22.269999995231728
 20
-1.8499995223463657
 30
0.0
 11
34.199999995231792
 21
-1.8499995223463657
 31
0.0
  0
LINE
  5
68C
100
AcDbEntity
  8
0
  6
CENTER
 62
               2
100
AcDbLine
 10
22.319999995231683
 20
-3.1499995223464339
 30
0.0
 11
34.199999995231792
 21
-3.1499995223464339
 31
0.0
  0
LINE
  5
68D
100
AcDbEntity
  8
0
  6
CONTINUOUS
 62
               4
100
AcDbLine
 10
33.999999995231747
 20
-1.5599995146297942
 30
0.0
 11
33.999999995231747
 21
-2.1399995234853577
 31
0.0
  0
LINE
  5
68E
100
AcDbEntity
  8
0
  6
CONTINUOUS
 62
               4
100
AcDbLine
 10
30.999999995231747
 20
-1.559999522346402
 30
0.0
 11
34.000000000212594
 21
-1.559999522346402
 31
0.0
  0
LINE
  5
68F
100
AcDbEntity
  8
0
  6
CONTINUOUS
 62
               4
100
AcDbLine
 10
30.999999995231747
 20
-2.139999522346443
 30
0.0
 11
34.000000000212594
 21
-2.139999522346443
 31
0.0
  0
LINE
  5
690
100
AcDbEntity
  8
0
  6
CONTINUOUS
 62
               4
100
AcDbLine
 10
30.999999995231747
 20
-2.3499995223463657
 30
0.0
 11
30.999999995231747
 21
-1.3499995223463657
 31
0.0
  0
LINE
  5
691
100
AcDbEntity
  8
0
  6
CONTINUOUS
 62
               4
100
AcDbLine
 10
28.896281755196469
 20
-2.3499995223463657
 30
0.0
 11
30.999999995231747
 21
-2.3499995223463657
 31
0.0
  0
LINE
  5
692
100
AcDbEntity
  8
0
  6
CONTINUOUS
 62
               4
100
AcDbLine
 10
28.318914549653755
 20
-1.3499995223463657
 30
0.0
 11
30.999999995231747
 21
-1.3499995223463657
 31
0.0
  0
LINE
  5
693
100
AcDbEntity
  8
0
  6
CONTINUOUS
 62
               4
100
AcDbLine
 10
23.999999995231747
 20
-2.3499995223463657
 30
0.0
 11
27.396281755196469
 21
-2.3499995223463657
 31
0.0
  0
LINE
  5
694
100
AcDbEntity
  8
0
  6
CONTINUOUS
 62
               4
100
AcDbLine
 10
23.999999995231747
 20
-1.3499995223463657
 30
0.0
 11
26.818914549653528
 21
-1.3499995223463657
 31
0.0
  0
LINE
  5
695
100
AcDbEntity
  8
0
  6
CONTINUOUS
 62
               4
100
AcDbLine
 10
30.999999995231747
 20
-3.4399995223463975
 30
0.0
 11
34.000000000212594
 21
-3.4399995223463975
 31
0.0
  0
LINE
  5
696
100
AcDbEntity
  8
0
  6
CONTINUOUS
 62
               4
100
AcDbLine
 10
30.999999995231747
 20
-2.8599995223464703
 30
0.0
 11
34.000000000212594
 21
-2.8599995223464703
 31
0.0
  0
LINE
  5
697
100
AcDbEntity
  8
0
  6
CONTINUOUS
 62
               4
100
AcDbLine
 10
33.999999995231747
 20
-3.4399995300630053
 30
0.0
 11
33.999999995231747
 21
-2.8599995212074418
 31
0.0
  0
LINE
  5
698
100
AcDbEntity
  8
0
  6
CONTINUOUS
 62
               4
100
AcDbLine
 10
29.069491916859079
 20
-2.6499995223464339
 30
0.0
 11
30.999999995231747
 21
-2.6499995223464339
 31
0.0
  0
LINE
  5
699
100
AcDbEntity
  8
0
  6
CONTINUOUS
 62
               4
100
AcDbLine
 10
29.64685912240202
 20
-3.6499995223464339
 30
0.0
 11
30.999999995231747
 21
-3.6499995223464339
 31
0.0
  0
LINE
  5
69A
100
AcDbEntity
  8
0
  6
CONTINUOUS
 62
               4
100
AcDbLine
 10
30.999999995231747
 20
-2.6499995223464339
 30
0.0
 11
30.999999995231747
 21
-3.6499995223464339
 31
0.0
  0
LINE
  5
69B
100
AcDbEntity
  8
0
  6
CONTINUOUS
 62
               4
100
AcDbLine
 10
23.999999995231747
 20
-2.6499995223464339
 30
0.0
 11
27.569491916859079
 21
-2.6499995223464339
 31
0.0
  0
LINE
  5
69C
100
AcDbEntity
  8
0
  6
CONTINUOUS
 62
               4
100
AcDbLine
 10
23.999999995231747
 20
-3.6499995223464339
 30
0.0
 11
28.146859122401793
 21
-3.6499995223464339
 31
0.0
  0
LINE
  5
69D
100
AcDbEntity
  8
0
  6
CONTINUOUS
 62
               2
100
AcDbLine
 10
3.0500000000001819
 20
0.600135997275288
 30
0.0
 11
3.0500000000001819
 21
0.0
 31
0.0
  0
LINE
  5
69E
100
AcDbEntity
  8
0
  6
CONTINUOUS
 62
               4
100
AcDbLine
 10
3.0514285714286871
 20
0.600135997275288
 30
0.0
 11
3.2514285714287325
 21
0.4001359972752425
 31
0.0
  0
LINE
  5
69F
100
AcDbEntity
  8
0
  6
CONTINUOUS
 62
               4
100
AcDbLine
 10
3.2514285714287325
 20
0.4001359972752425
 30
0.0
 11
3.2514285714287325
 21
0.0
 31
0.0
  0
LINE
  5
6A0
100
AcDbEntity
  8
0
  6
CONTINUOUS
 62
               2
100
AcDbLine
 10
3.0500000000001819
 20
-2.5998640027247575
 30
0.0
 11
3.0500000000001819
 21
-4.1012925741532626
 31
0.0
  0
LINE
  5
6A1
100
AcDbEntity
  8
0
  6
CENTER
 62
               2
100
AcDbLine
 10
6.0
 20
-6.0904161991768433
 30
0.0
 11
6.0
 21
-3.6810090657418186
 31
0.0
  0
LINE
  5
6A2
100
AcDbEntity
  8
0
  6
CENTER
 62
               2
100
AcDbLine
 10
2.0
 20
1.2864823084402133
 30
0.0
 11
2.0
 21
-5.0670362493540324
 31
0.0
  0
LINE
  5
6A3
100
AcDbEntity
  8
0
  6
CONTINUOUS
 62
               4
100
AcDbLine
 10
4.0
 20
-1.800000002724687
 30
0.0
 11
4.0
 21
-2.6000000027247552
 31
0.0
  0
LINE
  5
6A4
100
AcDbEntity
  8
0
  6
CONTINUOUS
 62
               4
100
AcDbLine
 10
3.2514285714287325
 20
-3.899864002724712
 30
0.0
 11
2.7514285714287325
 21
-4.399864002724712
 31
0.0
  0
LINE
  5
6A5
100
AcDbEntity
  8
0
  6
CONTINUOUS
 62
               4
100
AcDbLine
 10
3.2514285714287325
 20
-2.5998640027247575
 30
0.0
 11
3.2514285714287325
 21
-3.899864002724712
 31
0.0
  0
LINE
  5
6A6
100
AcDbEntity
  8
0
  6
CONTINUOUS
 62
               4
100
AcDbLine
 10
4.3000000000001819
 20
-1.800000002724687
 30
0.0
 11
4.3000000000001819
 21
-4.5999995223463657
 31
0.0
  0
LINE
  5
6A7
100
AcDbEntity
  8
0
  6
CONTINUOUS
 62
               4
100
AcDbLine
 10
15.5
 20
-4.5999995223463657
 30
0.0
 11
15.5
 21
0.0
 31
0.0
  0
LINE
  5
6A8
100
AcDbEntity
  8
0
  6
CONTINUOUS
 62
               4
100
AcDbLine
 10
23.999999995231747
 20
-1.1999995223463884
 30
0.0
 11
23.999999995231747
 21
-3.7999995223464111
 31
0.0
  0
LINE
  5
6A9
100
AcDbEntity
  8
0
  6
CONTINUOUS
 62
               4
100
AcDbLine
 10
4.2999999986377588
 20
-4.5999995223463657
 30
0.0
 11
15.499999995231747
 21
-4.5999995223463657
 31
0.0
  0
LINE
  5
6AA
100
AcDbEntity
  8
0
  6
CONTINUOUS
 62
               4
100
AcDbLine
 10
15.5
 20
-1.1999995223463884
 30
0.0
 11
17.752309468822205
 21
-1.1999995223463884
 31
0.0
  0
LINE
  5
6AB
100
AcDbEntity
  8
0
  6
CONTINUOUS
 62
               4
100
AcDbLine
 10
15.5
 20
-3.7999995223464111
 30
0.0
 11
19.253464203233307
 21
-3.7999995223464111
 31
0.0
  0
LINE
  5
6AC
100
AcDbEntity
  8
0
  6
CONTINUOUS
 62
               4
100
AcDbLine
 10
19.252309468822205
 20
-1.1999995223463884
 30
0.0
 11
23.999999995231747
 21
-1.1999995223463884
 31
0.0
  0
LINE
  5
6AD
100
AcDbEntity
  8
0
  6
CONTINUOUS
 62
               4
100
AcDbLine
 10
20.753464203233307
 20
-3.7999995223464111
 30
0.0
 11
23.999999995231747
 21
-3.7999995223464111
 31
0.0
  0
LINE
  5
6AE
100
AcDbEntity
  8
0
  6
CENTER
 62
               2
100
AcDbLine
 10
14.651603608812593
 20
-2.4999995223463429
 30
0.0
 11
33.252631006551155
 21
-2.4999995223463429
 31
0.0
  0
LINE
  5
6AF
100
AcDbEntity
  8
0
  6
CONTINUOUS
 62
               4
100
AcDbLine
 10
-0.0000000047682533
 20
0.0
 30
0.0
 11
15.5
 21
0.0
 31
0.0
  0
LINE
  5
6B0
100
AcDbEntity
  8
0
  6
CONTINUOUS
 62
               4
100
AcDbLine
 10
-0.0000000047682533
 20
-0.5499999965938969
 30
0.0
 11
15.5
 21
-0.5499999965938969
 31
0.0
  0
LINE
  5
6B1
100
AcDbEntity
  8
0
  6
CONTINUOUS
 62
               4
100
AcDbLine
 10
-0.0000000047682533
 20
-1.1000000027247552
 30
0.0
 11
15.5
 21
-1.1000000027247552
 31
0.0
  0
LINE
  5
6B2
100
AcDbEntity
  8
0
  6
CONTINUOUS
 62
               4
100
AcDbLine
 10
-0.0000000047682533
 20
-2.6000000027247552
 30
0.0
 11
3.9999999952317467
 21
-2.6000000027247552
 31
0.0
  0
LINE
  5
6B3
100
AcDbEntity
  8
0
  6
CONTINUOUS
 62
               4
100
AcDbLine
 10
-0.0000000047682533
 20
-1.800000002724687
 30
0.0
 11
4.2999999986377588
 21
-1.800000002724687
 31
0.0
  0
LINE
  5
6B4
100
AcDbEntity
  8
0
  6
CONTINUOUS
 62
               4
100
AcDbLine
 10
1.2514285714287325
 20
-4.399864002724712
 30
0.0
 11
2.7514285714287325
 21
-4.399864002724712
 31
0.0
  0
LINE
  5
6B5
100
AcDbEntity
  8
0
  6
CONTINUOUS
 62
               2
100
AcDbLine
 10
0.7514285714287325
 20
-3.899864002724712
 30
0.0
 11
3.2514285714287325
 21
-3.899864002724712
 31
0.0
  0
LINE
  5
6B6
100
AcDbEntity
  8
0
  6
CONTINUOUS
 62
               4
100
AcDbLine
 10
0.9514285714285506
 20
0.600135997275288
 30
0.0
 11
3.0514285714286871
 21
0.600135997275288
 31
0.0
  0
LINE
  5
6B7
100
AcDbEntity
  8
0
  6
CONTINUOUS
 62
               4
100
AcDbLine
 10
0.7514285714287325
 20
0.4001359972752425
 30
0.0
 11
3.2514285714287325
 21
0.4001359972752425
 31
0.0
  0
ENDBLK
  5
6B8
100
AcDbEntity
  8
0
100
AcDbBlockEnd
  0
BLOCK
  5
6B9
100
AcDbEntity
  8
0
100
AcDbBlockBegin
  2
MGALGS10-20
 70
               0
 10
0.0
 20
0.0
 30
0.0
  3
MGALGS10-20
  1

  0
LINE
  5
6BA
100
AcDbEntity
  8
0
  6
CONTINUOUS
 62
               2
100
AcDbLine
 10
-1.0499999999999545
 20
0.0000000019073922
 30
0.0
 11
-1.0499999989097688
 21
0.6001360019074127
 31
0.0
  0
LINE
  5
6BB
100
AcDbEntity
  8
0
  6
CONTINUOUS
 62
               2
100
AcDbLine
 10
-1.0500000074424314
 20
-4.0970068552353949
 30
0.0
 11
-1.0500000047230209
 21
-2.599999998092517
 31
0.0
  0
LINE
  5
6BC
100
AcDbEntity
  8
0
  6
CONTINUOUS
 62
               4
100
AcDbLine
 10
-1.249999999273129
 20
0.40013600227068
 30
0.0
 11
-1.0499999989097688
 21
0.6001360019074127
 31
0.0
  0
LINE
  5
6BD
100
AcDbEntity
  8
0
  6
CONTINUOUS
 62
               4
100
AcDbLine
 10
-1.25
 20
0.0000000022707051
 30
0.0
 11
-1.249999999273129
 21
0.40013600227068
 31
0.0
  0
LINE
  5
6BE
100
AcDbEntity
  8
0
  6
CONTINUOUS
 62
               4
100
AcDbLine
 10
-2.0500000019981748
 20
-1.0999999962759528
 30
0.0
 11
-2.0500000046293501
 21
-2.5484354248473817
 31
0.0
  0
LINE
  5
6BF
100
AcDbEntity
  8
0
  6
CONTINUOUS
 62
               4
100
AcDbLine
 10
-2.0500000019981748
 20
-1.0999999962759528
 30
0.0
 11
-1.50142857242502
 21
-0.5485714258440082
 31
0.0
  0
LINE
  5
6C0
100
AcDbEntity
  8
0
  6
CONTINUOUS
 62
               4
100
AcDbLine
 10
-1.2500000047230664
 20
-2.5999999977292041
 30
0.0
 11
-1.2500000070791621
 21
-3.8970068548720374
 31
0.0
  0
LINE
  5
6C1
100
AcDbEntity
  8
0
  6
CONTINUOUS
 62
               4
100
AcDbLine
 10
-1.5000000009939072
 20
-0.5471354139417599
 30
0.0
 11
-1.5
 21
0.0000000054496921
 31
0.0
  0
LINE
  5
6C2
100
AcDbEntity
  8
0
  6
CONTINUOUS
 62
               2
100
AcDbLine
 10
1.0500000000001819
 20
-0.0000000019073922
 30
0.0
 11
1.0500000010903676
 21
0.6001359980926282
 31
0.0
  0
LINE
  5
6C3
100
AcDbEntity
  8
0
  6
CONTINUOUS
 62
               2
100
AcDbLine
 10
1.049999992557705
 20
-4.0970068590501798
 30
0.0
 11
1.0499999952771155
 21
-2.6000000019073011
 31
0.0
  0
LINE
  5
6C4
100
AcDbEntity
  8
0
  6
CONTINUOUS
 62
               4
100
AcDbLine
 10
-0.7471428651353982
 20
-4.399863998642747
 30
0.0
 11
0.7471428491503538
 21
-4.3998640013572121
 31
0.0
  0
LINE
  5
6C5
100
AcDbEntity
  8
0
  6
CENTER
 62
               2
100
AcDbLine
 10
-0.0000000092045944
 20
-5.0670362466291863
 30
0.0
 11
0.0000000023369786
 21
1.2864823111649457
 31
0.0
  0
LINE
  5
6C6
100
AcDbEntity
  8
0
  6
CONTINUOUS
 62
               4
100
AcDbLine
 10
1.0500000010903676
 20
0.6001359980926282
 30
0.0
 11
1.250000000726871
 21
0.4001359977292699
 31
0.0
  0
LINE
  5
6C7
100
AcDbEntity
  8
0
  6
CONTINUOUS
 62
               4
100
AcDbLine
 10
1.250000000726871
 20
0.4001359977292699
 30
0.0
 11
1.25
 21
-0.0000000022707051
 31
0.0
  0
LINE
  5
6C8
100
AcDbEntity
  8
0
  6
CONTINUOUS
 62
               4
100
AcDbLine
 10
2.0499999980019616
 20
-1.1000000037238653
 30
0.0
 11
2.0499999953707864
 21
-2.5484354322952942
 31
0.0
  0
LINE
  5
6C9
100
AcDbEntity
  8
0
  6
CONTINUOUS
 62
               4
100
AcDbLine
 10
1.2499999952771788
 20
-2.59986400227073
 30
0.0
 11
1.2499999929208379
 21
-3.8970068594134464
 31
0.0
  0
LINE
  5
6CA
100
AcDbEntity
  8
0
  6
CONTINUOUS
 62
               4
100
AcDbLine
 10
1.4999999990008916
 20
-0.5500000027248007
 30
0.0
 11
1.5
 21
0.0000000000000001
 31
0.0
  0
LINE
  5
6CB
100
AcDbEntity
  8
0
  6
CONTINUOUS
 62
               4
100
AcDbLine
 10
1.4999999928702152
 20
-0.5499999965940106
 30
0.0
 11
2.0499999980019616
 21
-1.1000000037238653
 31
0.0
  0
LINE
  5
6CC
100
AcDbEntity
  8
0
  6
CONTINUOUS
 62
               4
100
AcDbLine
 10
1.2499999929208379
 20
-3.8970068594134464
 30
0.0
 11
0.7471428491503538
 21
-4.3998640013572121
 31
0.0
  0
LINE
  5
6CD
100
AcDbEntity
  8
0
  6
CONTINUOUS
 62
               4
100
AcDbLine
 10
-1.0499999989097688
 20
0.6001360019074127
 30
0.0
 11
1.0500000010903676
 21
0.6001359980926282
 31
0.0
  0
LINE
  5
6CE
100
AcDbEntity
  8
0
  6
CONTINUOUS
 62
               4
100
AcDbLine
 10
-1.249999999273129
 20
0.40013600227068
 30
0.0
 11
1.250000000726871
 21
0.4001359977292699
 31
0.0
  0
LINE
  5
6CF
100
AcDbEntity
  8
0
  6
CONTINUOUS
 62
               4
100
AcDbLine
 10
-1.5014285714285052
 20
0.0000000027274412
 30
0.0
 11
1.5
 21
-0.000000002724846
 31
0.0
  0
LINE
  5
6D0
100
AcDbEntity
  8
0
  6
CONTINUOUS
 62
               4
100
AcDbLine
 10
-1.2500000070791621
 20
-3.8970068548720374
 30
0.0
 11
1.2499999929208379
 21
-3.8970068594134464
 31
0.0
  0
ARC
  5
6D1
100
AcDbEntity
  8
0
  6
CONTINUOUS
 62
               4
100
AcDbCircle
 10
-0.0000000046322377
 20
-2.5499989233983342
 30
0.0
 40
2.050000596223347
100
AcDbArc
 50
179.95630153623205
 51
359.99999989591851
  0
LINE
  5
6D2
100
AcDbEntity
  8
0
  6
CONTINUOUS
 62
               4
100
AcDbLine
 10
-2.0500000032697692
 20
-1.7999999962759983
 30
0.0
 11
2.0499999967303673
 21
-1.8000000037239108
 31
0.0
  0
LINE
  5
6D3
100
AcDbEntity
  8
0
  6
CONTINUOUS
 62
               4
100
AcDbLine
 10
-2.0500000047230209
 20
-2.5999999962759528
 30
0.0
 11
2.0493907186029752
 21
-2.6000000037227586
 31
0.0
  0
LINE
  5
6D4
100
AcDbEntity
  8
0
  6
CONTINUOUS
 62
               4
100
AcDbLine
 10
-0.7471428651353982
 20
-4.399863998642747
 30
0.0
 11
-1.2500000070791621
 21
-3.8970068548720374
 31
0.0
  0
ENDBLK
  5
6D5
100
AcDbEntity
  8
0
100
AcDbBlockEnd
  0
BLOCK
  5
6D6
100
AcDbEntity
  8
0
100
AcDbBlockBegin
  2
MGALGS10-21
 70
               0
 10
0.0
 20
0.0
 30
0.0
  3
MGALGS10-21
  1

  0
LINE
  5
6D7
100
AcDbEntity
  8
0
  6
CENTER
 62
               2
100
AcDbLine
 10
-1.4104017530169131
 20
0.0
 30
0.0
 11
21.502886840796009
 21
0.0
 31
0.0
  0
LINE
  5
6D8
100
AcDbEntity
  8
0
  6
CONTINUOUS
 62
               2
100
AcDbLine
 10
17.250000004768253
 20
2.1700000000000159
 30
0.0
 11
19.750000004768253
 21
-2.1599999999999682
 31
0.0
  0
LINE
  5
6D9
100
AcDbEntity
  8
0
  6
CONTINUOUS
 62
               4
100
AcDbLine
 10
15.500000004768253
 20
-1.3000000000000114
 30
0.0
 11
19.25346420800156
 21
-1.3000000000000114
 31
0.0
  0
LINE
  5
6DA
100
AcDbEntity
  8
0
  6
CONTINUOUS
 62
               4
100
AcDbLine
 10
15.500000004768253
 20
1.3000000000000114
 30
0.0
 11
17.752309473590458
 21
1.3000000000000114
 31
0.0
  0
LINE
  5
6DB
100
AcDbEntity
  8
0
  6
CENTER
 62
               2
100
AcDbLine
 10
2.0000000047682533
 20
2.9428571428571786
 30
0.0
 11
2.0000000047682533
 21
-3.2999846734234666
 31
0.0
  0
LINE
  5
6DC
100
AcDbEntity
  8
0
  6
CONTINUOUS
 62
               4
100
AcDbLine
 10
3.9000000047683443
 20
-1.5
 30
0.0
 11
3.9000000047683443
 21
1.5
 31
0.0
  0
LINE
  5
6DD
100
AcDbEntity
  8
0
  6
CONTINUOUS
 62
               4
100
AcDbLine
 10
10.400000004768344
 20
-1.5
 30
0.0
 11
10.400000004768344
 21
1.5
 31
0.0
  0
LINE
  5
6DE
100
AcDbEntity
  8
0
  6
CONTINUOUS
 62
               4
100
AcDbLine
 10
8.0000000047682533
 20
-0.6000000000000227
 30
0.0
 11
8.0000000047682533
 21
0.8999999999999773
 31
0.0
  0
LINE
  5
6DF
100
AcDbEntity
  8
0
  6
CONTINUOUS
 62
               4
100
AcDbLine
 10
9.6000000047683898
 20
-0.6000000000000227
 30
0.0
 11
9.6000000047683898
 21
0.8999999999999773
 31
0.0
  0
LINE
  5
6E0
100
AcDbEntity
  8
0
  6
CONTINUOUS
 62
               4
100
AcDbLine
 10
0.0
 20
-2.0500000000000114
 30
0.0
 11
0.0
 21
2.0500000000000114
 31
0.0
  0
LINE
  5
6E1
100
AcDbEntity
  8
0
  6
CONTINUOUS
 62
               4
100
AcDbLine
 10
15.500000004768253
 20
-2.0500000000000114
 30
0.0
 11
15.500000004768253
 21
2.0500000000000114
 31
0.0
  0
LINE
  5
6E2
100
AcDbEntity
  8
0
  6
CONTINUOUS
 62
               4
100
AcDbLine
 10
0.0
 20
1.5
 30
0.0
 11
15.500000004768253
 21
1.5
 31
0.0
  0
LINE
  5
6E3
100
AcDbEntity
  8
0
  6
CONTINUOUS
 62
               4
100
AcDbLine
 10
0.0
 20
-1.5
 30
0.0
 11
15.500000004768253
 21
-1.5
 31
0.0
  0
CIRCLE
  5
6E4
100
AcDbEntity
  8
0
  6
CONTINUOUS
 62
               4
100
AcDbCircle
 10
2.0000000047682533
 20
0.0
 30
0.0
 40
1.3999999999999997
  0
CIRCLE
  5
6E5
100
AcDbEntity
  8
0
  6
CONTINUOUS
 62
               4
100
AcDbCircle
 10
2.0000000047682533
 20
0.0
 30
0.0
 40
1.25
  0
CIRCLE
  5
6E6
100
AcDbEntity
  8
0
  6
CONTINUOUS
 62
               2
100
AcDbCircle
 10
2.0000000047682533
 20
0.0
 30
0.0
 40
1.05
  0
LINE
  5
6E7
100
AcDbEntity
  8
0
  6
CONTINUOUS
 62
               4
100
AcDbLine
 10
0.9571978986753038
 20
-0.6892486978790089
 30
0.0
 11
2.6892487026473191
 21
1.0428021060930632
 31
0.0
  0
LINE
  5
6E8
100
AcDbEntity
  8
0
  6
CONTINUOUS
 62
               4
100
AcDbLine
 10
1.3107513189315796
 20
-1.0428020722525844
 30
0.0
 11
3.0428021124430416
 21
0.6892487212589913
 31
0.0
  0
LINE
  5
6E9
100
AcDbEntity
  8
0
  6
CONTINUOUS
 62
               4
100
AcDbLine
 10
8.0000000047682533
 20
0.8999999999999773
 30
0.0
 11
9.6000000047683898
 21
0.8999999999999773
 31
0.0
  0
LINE
  5
6EA
100
AcDbEntity
  8
0
  6
CONTINUOUS
 62
               4
100
AcDbLine
 10
8.0000000047682533
 20
-0.6000000000000227
 30
0.0
 11
9.6000000047683898
 21
-0.6000000000000227
 31
0.0
  0
LINE
  5
6EB
100
AcDbEntity
  8
0
  6
CONTINUOUS
 62
               4
100
AcDbLine
 10
0.0
 20
2.0500000000000114
 30
0.0
 11
15.500000004768253
 21
2.0500000000000114
 31
0.0
  0
LINE
  5
6EC
100
AcDbEntity
  8
0
  6
CONTINUOUS
 62
               4
100
AcDbLine
 10
0.0
 20
-2.0500000000000114
 30
0.0
 11
15.500000004768253
 21
-2.0500000000000114
 31
0.0
  0
ENDBLK
  5
6ED
100
AcDbEntity
  8
0
100
AcDbBlockEnd
  0
BLOCK
  5
6EE
100
AcDbEntity
  8
0
100
AcDbBlockBegin
  2
MGALGS10-22
 70
               0
 10
0.0
 20
0.0
 30
0.0
  3
MGALGS10-22
  1

  0
LINE
  5
6EF
100
AcDbEntity
  8
0
  6
CONTINUOUS
 62
               4
100
AcDbLine
 10
11.200000000000045
 20
9.6445121127279663
 30
0.0
 11
11.200000000000045
 21
14.397976315961273
 31
0.0
  0
LINE
  5
6F0
100
AcDbEntity
  8
0
  6
CONTINUOUS
 62
               4
100
AcDbLine
 10
13.800000000000182
 20
11.145666847139069
 30
0.0
 11
13.800000000000182
 21
14.397976315961273
 31
0.0
  0
LINE
  5
6F1
100
AcDbEntity
  8
0
  6
CONTINUOUS
 62
               2
100
AcDbLine
 10
10.340000000000146
 20
16.627976315961291
 30
0.0
 11
14.670000000000073
 21
19.127976315961291
 31
0.0
  0
LINE
  5
6F2
100
AcDbEntity
  8
0
  6
CONTINUOUS
 62
               2
100
AcDbLine
 10
10.340000000000146
 20
18.127976315961291
 30
0.0
 11
14.670000000000073
 21
20.627976315961291
 31
0.0
  0
LINE
  5
6F3
100
AcDbEntity
  8
0
  6
CONTINUOUS
 62
               2
100
AcDbLine
 10
10.340000000000146
 20
7.647976315961273
 30
0.0
 11
14.670000000000073
 21
10.147976315961273
 31
0.0
  0
LINE
  5
6F4
100
AcDbEntity
  8
0
  6
CONTINUOUS
 62
               2
100
AcDbLine
 10
10.340000000000146
 20
9.147976315961273
 30
0.0
 11
14.670000000000073
 21
11.647976315961273
 31
0.0
  0
LINE
  5
6F5
100
AcDbEntity
  8
0
  6
CONTINUOUS
 62
               4
100
AcDbLine
 10
10.400000005449783
 20
0.9479762348988743
 30
0.0
 11
12.050955663295554
 21
1.4979762296661647
 31
0.0
  0
LINE
  5
6F6
100
AcDbEntity
  8
0
  6
CONTINUOUS
 62
               4
100
AcDbLine
 10
12.050955663295554
 20
1.4979762296661647
 30
0.0
 11
12.050955663295554
 21
5.897976315961273
 31
0.0
  0
LINE
  5
6F7
100
AcDbEntity
  8
0
  6
CONTINUOUS
 62
               4
100
AcDbLine
 10
12.949044336704901
 20
4.8979763118740038
 30
0.0
 11
12.949044336704901
 21
5.8979763118740038
 31
0.0
  0
LINE
  5
6F8
100
AcDbEntity
  8
0
  6
CONTINUOUS
 62
               4
100
AcDbLine
 10
12.949044336704901
 20
4.897976315961273
 30
0.0
 11
15.0
 21
4.897976315961273
 31
0.0
  0
LINE
  5
6F9
100
AcDbEntity
  8
0
  6
CONTINUOUS
 62
               4
100
AcDbLine
 10
14.600000000000136
 20
4.897976315961273
 30
0.0
 11
14.600000000000136
 21
5.897976315961273
 31
0.0
  0
LINE
  5
6FA
100
AcDbEntity
  8
0
  6
CONTINUOUS
 62
               4
100
AcDbLine
 10
10.400000000000091
 20
-0.0020236840388179
 30
0.0
 11
10.400000000000091
 21
5.897976315961273
 31
0.0
  0
LINE
  5
6FB
100
AcDbEntity
  8
0
  6
CONTINUOUS
 62
               4
100
AcDbLine
 10
10.400000000000091
 20
5.897976315961273
 30
0.0
 11
14.600000000000136
 21
5.897976315961273
 31
0.0
  0
LINE
  5
6FC
100
AcDbEntity
  8
0
  6
CONTINUOUS
 62
               4
100
AcDbLine
 10
15.0
 20
3.897976315961273
 30
0.0
 11
10.400000000000091
 21
3.897976315961273
 31
0.0
  0
LINE
  5
6FD
100
AcDbEntity
  8
0
  6
CENTER
 62
               2
100
AcDbLine
 10
12.5
 20
5.3933952003748118
 30
0.0
 11
12.5
 21
17.186465534727631
 31
0.0
  0
LINE
  5
6FE
100
AcDbEntity
  8
0
  6
CONTINUOUS
 62
               2
100
AcDbLine
 10
0.9500000000000455
 20
0.5979763159613185
 30
0.0
 11
0.9500000000000455
 21
-0.0020236840388179
 31
0.0
  0
LINE
  5
6FF
100
AcDbEntity
  8
0
  6
CONTINUOUS
 62
               2
100
AcDbLine
 10
3.0500000000001819
 20
0.5979763159613185
 30
0.0
 11
3.0500000000001819
 21
-0.0020236840388179
 31
0.0
  0
LINE
  5
700
100
AcDbEntity
  8
0
  6
CONTINUOUS
 62
               4
100
AcDbLine
 10
0.7514285714287325
 20
0.397976315961273
 30
0.0
 11
3.2514285714287325
 21
0.397976315961273
 31
0.0
  0
LINE
  5
701
100
AcDbEntity
  8
0
  6
CONTINUOUS
 62
               4
100
AcDbLine
 10
3.0514285714286871
 20
0.5979763159613185
 30
0.0
 11
3.2514285714287325
 21
0.397976315961273
 31
0.0
  0
LINE
  5
702
100
AcDbEntity
  8
0
  6
CONTINUOUS
 62
               4
100
AcDbLine
 10
0.7514285714287325
 20
0.397976315961273
 30
0.0
 11
0.951428571428778
 21
0.5979763159613185
 31
0.0
  0
LINE
  5
703
100
AcDbEntity
  8
0
  6
CONTINUOUS
 62
               4
100
AcDbLine
 10
3.2514285714287325
 20
0.397976315961273
 30
0.0
 11
3.2514285714287325
 21
-0.0020236840388179
 31
0.0
  0
LINE
  5
704
100
AcDbEntity
  8
0
  6
CONTINUOUS
 62
               4
100
AcDbLine
 10
0.7514285714287325
 20
-0.0020236840388179
 30
0.0
 11
0.7514285714287325
 21
0.397976315961273
 31
0.0
  0
LINE
  5
705
100
AcDbEntity
  8
0
  6
CONTINUOUS
 62
               2
100
AcDbLine
 10
0.9500000000000455
 20
-2.602023684038727
 30
0.0
 11
0.9500000000000455
 21
-4.1005951126102218
 31
0.0
  0
LINE
  5
706
100
AcDbEntity
  8
0
  6
CONTINUOUS
 62
               2
100
AcDbLine
 10
3.0500000000001819
 20
-2.602023684038727
 30
0.0
 11
3.0500000000001819
 21
-4.1034522554673458
 31
0.0
  0
LINE
  5
707
100
AcDbEntity
  8
0
  6
CONTINUOUS
 62
               4
100
AcDbLine
 10
0.951428571428778
 20
0.5979763159613185
 30
0.0
 11
3.0514285714286871
 21
0.5979763159613185
 31
0.0
  0
LINE
  5
708
100
AcDbEntity
  8
0
  6
CENTER
 62
               2
100
AcDbLine
 10
6.0
 20
-6.0925758804909265
 30
0.0
 11
6.0
 21
-3.6831687470557881
 31
0.0
  0
LINE
  5
709
100
AcDbEntity
  8
0
  6
CONTINUOUS
 62
               4
100
AcDbLine
 10
0.0
 20
-1.8020236840387724
 30
0.0
 11
0.0
 21
0.0
 31
0.0
  0
LINE
  5
70A
100
AcDbEntity
  8
0
  6
CENTER
 62
               2
100
AcDbLine
 10
2.0
 20
1.2843226271262438
 30
0.0
 11
2.0
 21
-5.0691959306681156
 31
0.0
  0
LINE
  5
70B
100
AcDbEntity
  8
0
  6
CONTINUOUS
 62
               4
100
AcDbLine
 10
4.0
 20
-1.8020236840387724
 30
0.0
 11
4.0
 21
-2.602023684038727
 31
0.0
  0
LINE
  5
70C
100
AcDbEntity
  8
0
  6
CONTINUOUS
 62
               4
100
AcDbLine
 10
0.0
 20
-1.8020236840387724
 30
0.0
 11
0.0
 21
-2.602023684038727
 31
0.0
  0
LINE
  5
70D
100
AcDbEntity
  8
0
  6
CONTINUOUS
 62
               4
100
AcDbLine
 10
0.7514285714287325
 20
-2.602023684038727
 30
0.0
 11
0.7514285714287325
 21
-3.9020236840386815
 31
0.0
  0
LINE
  5
70E
100
AcDbEntity
  8
0
  6
CONTINUOUS
 62
               2
100
AcDbLine
 10
0.7514285714287325
 20
-3.9020236840386815
 30
0.0
 11
3.2514285714287325
 21
-3.9020236840386815
 31
0.0
  0
LINE
  5
70F
100
AcDbEntity
  8
0
  6
CONTINUOUS
 62
               4
100
AcDbLine
 10
1.2514285714287325
 20
-4.4020236840386815
 30
0.0
 11
0.7514285714287325
 21
-3.9020236840386815
 31
0.0
  0
LINE
  5
710
100
AcDbEntity
  8
0
  6
CONTINUOUS
 62
               4
100
AcDbLine
 10
1.2514285714287325
 20
-4.4020236840386815
 30
0.0
 11
2.7514285714287325
 21
-4.4020236840386815
 31
0.0
  0
LINE
  5
711
100
AcDbEntity
  8
0
  6
CONTINUOUS
 62
               4
100
AcDbLine
 10
3.2514285714287325
 20
-3.9020236840386815
 30
0.0
 11
2.7514285714287325
 21
-4.4020236840386815
 31
0.0
  0
LINE
  5
712
100
AcDbEntity
  8
0
  6
CONTINUOUS
 62
               4
100
AcDbLine
 10
3.2514285714287325
 20
-2.602023684038727
 30
0.0
 11
3.2514285714287325
 21
-3.9020236840386815
 31
0.0
  0
LINE
  5
713
100
AcDbEntity
  8
0
  6
CONTINUOUS
 62
               4
100
AcDbLine
 10
4.3000000000001819
 20
-1.8000000000000682
 30
0.0
 11
4.3000000000001819
 21
-4.6000000000000227
 31
0.0
  0
LINE
  5
714
100
AcDbEntity
  8
0
  6
CONTINUOUS
 62
               4
100
AcDbLine
 10
15.0
 20
-4.6000000000000227
 30
0.0
 11
15.0
 21
4.897976315961273
 31
0.0
  0
LINE
  5
715
100
AcDbEntity
  8
0
  6
CONTINUOUS
 62
               4
100
AcDbLine
 10
11.200000000000045
 20
14.397976315961273
 30
0.0
 11
13.800000000000182
 21
14.397976315961273
 31
0.0
  0
LINE
  5
716
100
AcDbEntity
  8
0
  6
CONTINUOUS
 62
               4
100
AcDbLine
 10
11.200000000000045
 20
5.897976315961273
 30
0.0
 11
11.200000000000045
 21
8.1445121127279663
 31
0.0
  0
LINE
  5
717
100
AcDbEntity
  8
0
  6
CONTINUOUS
 62
               4
100
AcDbLine
 10
13.800000000000182
 20
5.897976315961273
 30
0.0
 11
13.800000000000182
 21
9.6456668471390685
 31
0.0
  0
LINE
  5
718
100
AcDbEntity
  8
0
  6
CONTINUOUS
 62
               4
100
AcDbLine
 10
4.2999999986377588
 20
-4.6000000000000227
 30
0.0
 11
14.999999995231747
 21
-4.6000000000000227
 31
0.0
  0
LINE
  5
719
100
AcDbEntity
  8
0
  6
CONTINUOUS
 62
               4
100
AcDbLine
 10
-0.0000000047682533
 20
0.0
 30
0.0
 11
14.999999995231747
 21
0.0
 31
0.0
  0
LINE
  5
71A
100
AcDbEntity
  8
0
  6
CONTINUOUS
 62
               4
100
AcDbLine
 10
0.0
 20
-1.8000000000000682
 30
0.0
 11
4.3000000000001819
 21
-1.8000000000000682
 31
0.0
  0
LINE
  5
71B
100
AcDbEntity
  8
0
  6
CONTINUOUS
 62
               4
100
AcDbLine
 10
-0.0000000047682533
 20
-2.6000000000000227
 30
0.0
 11
3.9999999952317467
 21
-2.6000000000000227
 31
0.0
  0
LINE
  5
71C
100
AcDbEntity
  8
0
  6
CONTINUOUS
 62
               4
100
AcDbLine
 10
-0.0000000047682533
 20
-1.1000000082564156
 30
0.0
 11
14.999999995231747
 21
-1.1000000082564156
 31
0.0
  0
LINE
  5
71D
100
AcDbEntity
  8
0
  6
CONTINUOUS
 62
               4
100
AcDbLine
 10
-0.0000000047682533
 20
-0.5500000000000682
 30
0.0
 11
15.0
 21
-0.5500000000000682
 31
0.0
  0
LINE
  5
71E
100
AcDbEntity
  8
0
  6
CONTINUOUS
 62
               4
100
AcDbLine
 10
10.399999988419722
 20
0.9479762301306209
 30
0.0
 11
14.999999995231747
 21
0.9479762301306209
 31
0.0
  0
LINE
  5
71F
100
AcDbEntity
  8
0
  6
CONTINUOUS
 62
               4
100
AcDbLine
 10
10.400000005449783
 20
1.4979762335365194
 30
0.0
 11
15.0
 21
1.4979762335365194
 31
0.0
  0
LINE
  5
720
100
AcDbEntity
  8
0
  6
CONTINUOUS
 62
               4
100
AcDbLine
 10
12.350000000000136
 20
14.397976315961273
 30
0.0
 11
12.350000000000136
 21
17.788484399102117
 31
0.0
  0
LINE
  5
721
100
AcDbEntity
  8
0
  6
CONTINUOUS
 62
               4
100
AcDbLine
 10
12.650000000000091
 20
14.397976315961273
 30
0.0
 11
12.650000000000091
 21
17.961694560764954
 31
0.0
  0
LINE
  5
722
100
AcDbEntity
  8
0
  6
CONTINUOUS
 62
               4
100
AcDbLine
 10
13.650000000000091
 20
14.397976315961273
 30
0.0
 11
13.650000000000091
 21
18.539061766307668
 31
0.0
  0
LINE
  5
723
100
AcDbEntity
  8
0
  6
CONTINUOUS
 62
               4
100
AcDbLine
 10
11.350000000000136
 20
14.397976315961273
 30
0.0
 11
11.350000000000136
 21
17.211117193559403
 31
0.0
  0
LINE
  5
724
100
AcDbEntity
  8
0
  6
CONTINUOUS
 62
               4
100
AcDbLine
 10
11.350000002043771
 20
21.397976315961273
 30
0.0
 11
12.350000000000136
 21
21.397976315961273
 31
0.0
  0
LINE
  5
725
100
AcDbEntity
  8
0
  6
CONTINUOUS
 62
               4
100
AcDbLine
 10
12.650000000000091
 20
21.397976315961273
 30
0.0
 11
13.650000005449783
 21
21.397976315961273
 31
0.0
  0
LINE
  5
726
100
AcDbEntity
  8
0
  6
CONTINUOUS
 62
               4
100
AcDbLine
 10
12.650000000000091
 20
19.461694560764954
 30
0.0
 11
12.650000000000091
 21
21.397976315961273
 31
0.0
  0
LINE
  5
727
100
AcDbEntity
  8
0
  6
CONTINUOUS
 62
               4
100
AcDbLine
 10
13.650000000000091
 20
20.039061766307668
 30
0.0
 11
13.650000000000091
 21
21.397976315961273
 31
0.0
  0
LINE
  5
728
100
AcDbEntity
  8
0
  6
CONTINUOUS
 62
               4
100
AcDbLine
 10
11.350000000000136
 20
18.711117193559403
 30
0.0
 11
11.350000000000136
 21
21.397976315961273
 31
0.0
  0
LINE
  5
729
100
AcDbEntity
  8
0
  6
CONTINUOUS
 62
               4
100
AcDbLine
 10
12.350000000000136
 20
19.288484399102117
 30
0.0
 11
12.350000000000136
 21
21.397976315961273
 31
0.0
  0
LINE
  5
72A
100
AcDbEntity
  8
0
  6
CENTER
 62
               2
100
AcDbLine
 10
11.84999999727529
 20
12.667976315961255
 30
0.0
 11
11.84999999727529
 21
24.597976315961262
 31
0.0
  0
LINE
  5
72B
100
AcDbEntity
  8
0
  6
CENTER
 62
               2
100
AcDbLine
 10
13.150000002724937
 20
12.667976315961255
 30
0.0
 11
13.150000002724937
 21
24.647976315961216
 31
0.0
  0
LINE
  5
72C
100
AcDbEntity
  8
0
  6
CONTINUOUS
 62
               4
100
AcDbLine
 10
12.860000002724973
 20
21.397976315961273
 30
0.0
 11
12.860000002724973
 21
24.397976315961216
 31
0.0
  0
LINE
  5
72D
100
AcDbEntity
  8
0
  6
CONTINUOUS
 62
               4
100
AcDbLine
 10
13.440000002724901
 20
21.397976315961273
 30
0.0
 11
13.440000002724901
 21
24.397976315961216
 31
0.0
  0
LINE
  5
72E
100
AcDbEntity
  8
0
  6
CONTINUOUS
 62
               4
100
AcDbLine
 10
12.860000009536861
 20
24.397976315961216
 30
0.0
 11
13.440000001362478
 21
24.397976315961216
 31
0.0
  0
LINE
  5
72F
100
AcDbEntity
  8
0
  6
CONTINUOUS
 62
               4
100
AcDbLine
 10
12.139999990463366
 20
24.397976315961216
 30
0.0
 11
11.55999999863775
 21
24.397976315961216
 31
0.0
  0
LINE
  5
730
100
AcDbEntity
  8
0
  6
CONTINUOUS
 62
               4
100
AcDbLine
 10
12.139999997275254
 20
21.397976315961273
 30
0.0
 11
12.139999997275254
 21
24.397976315961216
 31
0.0
  0
LINE
  5
731
100
AcDbEntity
  8
0
  6
CONTINUOUS
 62
               4
100
AcDbLine
 10
11.559999997275327
 20
21.397976315961273
 30
0.0
 11
11.559999997275327
 21
24.397976315961216
 31
0.0
  0
ENDBLK
  5
732
100
AcDbEntity
  8
0
100
AcDbBlockEnd
  0
BLOCK
  5
733
100
AcDbEntity
  8
0
100
AcDbBlockBegin
  2
MGALGS10-23
 70
               0
 10
0.0
 20
0.0
 30
0.0
  3
MGALGS10-23
  1

  0
LINE
  5
734
100
AcDbEntity
  8
0
  6
CONTINUOUS
 62
               2
100
AcDbLine
 10
-2.1599999999998545
 20
7.647976229666142
 30
0.0
 11
2.1700000000000728
 21
10.147976229666142
 31
0.0
  0
LINE
  5
735
100
AcDbEntity
  8
0
  6
CONTINUOUS
 62
               4
100
AcDbLine
 10
-2.0499999999999545
 20
5.897976229666142
 30
0.0
 11
2.0499999999999545
 21
5.897976229666142
 31
0.0
  0
LINE
  5
736
100
AcDbEntity
  8
0
  6
CONTINUOUS
 62
               4
100
AcDbLine
 10
-2.0499999999999545
 20
3.897976229666142
 30
0.0
 11
2.0499999999999545
 21
3.897976229666142
 31
0.0
  0
LINE
  5
737
100
AcDbEntity
  8
0
  6
CONTINUOUS
 62
               4
100
AcDbLine
 10
-1.0499999999999545
 20
0.5979763159613185
 30
0.0
 11
1.0499999999999545
 21
0.5979763159613185
 31
0.0
  0
LINE
  5
738
100
AcDbEntity
  8
0
  6
CONTINUOUS
 62
               4
100
AcDbLine
 10
-1.25
 20
0.397976315961273
 30
0.0
 11
-1.0499999999999545
 21
0.5979763159613185
 31
0.0
  0
LINE
  5
739
100
AcDbEntity
  8
0
  6
CONTINUOUS
 62
               4
100
AcDbLine
 10
1.0499999999999545
 20
0.5979763159613185
 30
0.0
 11
1.25
 21
0.397976315961273
 31
0.0
  0
LINE
  5
73A
100
AcDbEntity
  8
0
  6
CONTINUOUS
 62
               4
100
AcDbLine
 10
-1.25
 20
0.397976315961273
 30
0.0
 11
1.25
 21
0.397976315961273
 31
0.0
  0
LINE
  5
73B
100
AcDbEntity
  8
0
  6
CONTINUOUS
 62
               4
100
AcDbLine
 10
1.25
 20
0.397976315961273
 30
0.0
 11
1.25
 21
0.0
 31
0.0
  0
LINE
  5
73C
100
AcDbEntity
  8
0
  6
CONTINUOUS
 62
               4
100
AcDbLine
 10
-1.25
 20
0.0
 30
0.0
 11
-1.25
 21
0.397976315961273
 31
0.0
  0
LINE
  5
73D
100
AcDbEntity
  8
0
  6
CONTINUOUS
 62
               4
100
AcDbLine
 10
-2.0479763159612503
 20
-1.102023684038727
 30
0.0
 11
-1.5
 21
-0.5511933247652223
 31
0.0
  0
LINE
  5
73E
100
AcDbEntity
  8
0
  6
CONTINUOUS
 62
               4
100
AcDbLine
 10
2.0499999999999545
 20
-1.1000000000000227
 30
0.0
 11
1.5
 21
-0.5500000000000682
 31
0.0
  0
LINE
  5
73F
100
AcDbEntity
  8
0
  6
CONTINUOUS
 62
               4
100
AcDbLine
 10
1.25
 20
-2.6000000000000227
 30
0.0
 11
1.25
 21
-3.8991665411816712
 31
0.0
  0
LINE
  5
740
100
AcDbEntity
  8
0
  6
CONTINUOUS
 62
               4
100
AcDbLine
 10
-1.25
 20
-2.6000000000000227
 30
0.0
 11
-1.25
 21
-3.8991665411816712
 31
0.0
  0
LINE
  5
741
100
AcDbEntity
  8
0
  6
CONTINUOUS
 62
               4
100
AcDbLine
 10
-1.25
 20
-3.8991665411816712
 30
0.0
 11
1.25
 21
-3.8991665411816712
 31
0.0
  0
LINE
  5
742
100
AcDbEntity
  8
0
  6
CONTINUOUS
 62
               4
100
AcDbLine
 10
1.25
 20
-3.8991665411816712
 30
0.0
 11
0.7471428571429897
 21
-4.4020236840386815
 31
0.0
  0
LINE
  5
743
100
AcDbEntity
  8
0
  6
CONTINUOUS
 62
               4
100
AcDbLine
 10
-0.7471428571427623
 20
-4.4020236840386815
 30
0.0
 11
-1.25
 21
-3.8991665411816712
 31
0.0
  0
LINE
  5
744
100
AcDbEntity
  8
0
  6
CONTINUOUS
 62
               4
100
AcDbLine
 10
2.0005951126101991
 20
-1.8000000000000682
 30
0.0
 11
2.0005951126101991
 21
-2.602023684038727
 31
0.0
  0
LINE
  5
745
100
AcDbEntity
  8
0
  6
CONTINUOUS
 62
               4
100
AcDbLine
 10
-1.9994048873898009
 20
-1.8000000000000682
 30
0.0
 11
-1.9994048873898009
 21
-2.602023684038727
 31
0.0
  0
LINE
  5
746
100
AcDbEntity
  8
0
  6
CONTINUOUS
 62
               4
100
AcDbLine
 10
-0.7471428571427623
 20
-4.4020236840386815
 30
0.0
 11
0.7471428571429897
 21
-4.4020236840386815
 31
0.0
  0
LINE
  5
747
100
AcDbEntity
  8
0
  6
CONTINUOUS
 62
               4
100
AcDbLine
 10
-2.0499999999999545
 20
-2.5505951126101536
 30
0.0
 11
-2.0499999999999545
 21
-1.102023684038727
 31
0.0
  0
LINE
  5
748
100
AcDbEntity
  8
0
  6
CONTINUOUS
 62
               4
100
AcDbLine
 10
2.0499999999999545
 20
-2.6411128569469611
 30
0.0
 11
2.0499999999999545
 21
-1.1000000082564156
 31
0.0
  0
ARC
  5
749
100
AcDbEntity
  8
0
  6
CONTINUOUS
 62
               4
100
AcDbCircle
 10
0.0
 20
-2.5500000000000682
 30
0.0
 40
2.0499999999999994
100
AcDbArc
 50
180.0
 51
0.0
  0
LINE
  5
74A
100
AcDbEntity
  8
0
  6
CONTINUOUS
 62
               4
100
AcDbLine
 10
-2.0499999999999545
 20
1.4979762281690228
 30
0.0
 11
-2.0499999999999545
 21
5.897976229666142
 31
0.0
  0
LINE
  5
74B
100
AcDbEntity
  8
0
  6
CONTINUOUS
 62
               4
100
AcDbLine
 10
2.0499999999999545
 20
1.4979762320921282
 30
0.0
 11
2.0499999999999545
 21
5.897976229666142
 31
0.0
  0
LINE
  5
74C
100
AcDbEntity
  8
0
  6
CONTINUOUS
 62
               4
100
AcDbLine
 10
1.5
 20
0.9479762320920599
 30
0.0
 11
2.0500000014444595
 21
1.4979762335365194
 31
0.0
  0
LINE
  5
74D
100
AcDbEntity
  8
0
  6
CONTINUOUS
 62
               4
100
AcDbLine
 10
-2.0500000053675649
 20
1.4979762335365194
 30
0.0
 11
-1.5
 21
0.9479762281690682
 31
0.0
  0
LINE
  5
74E
100
AcDbEntity
  8
0
  6
CONTINUOUS
 62
               4
100
AcDbLine
 10
-1.5
 20
-0.5511933238987012
 30
0.0
 11
-1.5
 21
0.9479762301306209
 31
0.0
  0
LINE
  5
74F
100
AcDbEntity
  8
0
  6
CONTINUOUS
 62
               4
100
AcDbLine
 10
1.5
 20
-0.5500000048504035
 30
0.0
 11
1.5
 21
0.9479762301306209
 31
0.0
  0
LINE
  5
750
100
AcDbEntity
  8
0
  6
CONTINUOUS
 62
               4
100
AcDbLine
 10
-1.5000000019615527
 20
0.0
 30
0.0
 11
1.4999999980384473
 21
0.0
 31
0.0
  0
LINE
  5
751
100
AcDbEntity
  8
0
  6
CONTINUOUS
 62
               4
100
AcDbLine
 10
-2.0499999999999545
 20
-1.8000000000000682
 30
0.0
 11
2.0499999999999545
 21
-1.8000000000000682
 31
0.0
  0
LINE
  5
752
100
AcDbEntity
  8
0
  6
CONTINUOUS
 62
               4
100
AcDbLine
 10
-1.9994048873898009
 20
-2.6000000000000227
 30
0.0
 11
2.0005951126101991
 21
-2.6000000000000227
 31
0.0
  0
LINE
  5
753
100
AcDbEntity
  8
0
  6
CONTINUOUS
 62
               4
100
AcDbLine
 10
-1.2999999999999545
 20
5.897976229666142
 30
0.0
 11
-1.2999999999999545
 21
8.1445120264329489
 31
0.0
  0
LINE
  5
754
100
AcDbEntity
  8
0
  6
CONTINUOUS
 62
               4
100
AcDbLine
 10
1.2999999999999545
 20
5.897976229666142
 30
0.0
 11
1.2999999999999545
 21
9.6456667608439375
 31
0.0
  0
LINE
  5
755
100
AcDbEntity
  8
0
  6
CENTER
 62
               2
100
AcDbLine
 10
0.0
 20
-5.5464060491292457
 30
0.0
 11
0.0
 21
9.6693480170655448
 31
0.0
  0
LINE
  5
756
100
AcDbEntity
  8
0
  6
CONTINUOUS
 62
               2
100
AcDbLine
 10
-1.0250000000000909
 20
-4.1241665411815802
 30
0.0
 11
-1.0250000000000909
 21
-2.6000000000000227
 31
0.0
  0
LINE
  5
757
100
AcDbEntity
  8
0
  6
CONTINUOUS
 62
               2
100
AcDbLine
 10
1.0250000000000909
 20
-4.1241665411815802
 30
0.0
 11
1.0250000000000909
 21
-2.6000000000000227
 31
0.0
  0
LINE
  5
758
100
AcDbEntity
  8
0
  6
CONTINUOUS
 62
               2
100
AcDbLine
 10
1.0250000000000909
 20
-0.0000000014443913
 30
0.0
 11
1.0250000000000909
 21
0.5979763159613185
 31
0.0
  0
LINE
  5
759
100
AcDbEntity
  8
0
  6
CONTINUOUS
 62
               2
100
AcDbLine
 10
-1.0250000000000909
 20
-0.0000000014443913
 30
0.0
 11
-1.0250000000000909
 21
0.5979763159613185
 31
0.0
  0
ENDBLK
  5
75A
100
AcDbEntity
  8
0
100
AcDbBlockEnd
  0
BLOCK
  5
75B
100
AcDbEntity
  8
0
100
AcDbBlockBegin
  2
MGALGS10-24
 70
               0
 10
0.0
 20
0.0
 30
0.0
  3
MGALGS10-24
  1

  0
CIRCLE
  5
75C
100
AcDbEntity
  8
0
  6
CONTINUOUS
 62
               4
100
AcDbCircle
 10
12.5
 20
0.0
 30
0.0
 40
1.3
  0
LINE
  5
75D
100
AcDbEntity
  8
0
  6
CENTER
 62
               2
100
AcDbLine
 10
12.5
 20
-2.4429562044143722
 30
0.0
 11
12.5
 21
2.4456261784689559
 31
0.0
  0
ARC
  5
75E
100
AcDbEntity
  8
0
  6
CONTINUOUS
 62
               4
100
AcDbCircle
 10
12.5
 20
0.0
 30
0.0
 40
2.1000000000000001
100
AcDbArc
 50
282.34693236741282
 51
77.293658161570477
  0
ARC
  5
75F
100
AcDbEntity
  8
0
  6
CONTINUOUS
 62
               4
100
AcDbCircle
 10
12.5
 20
0.0
 30
0.0
 40
2.1000000000000001
100
AcDbArc
 50
102.70634183842952
 51
257.65306763258718
  0
LINE
  5
760
100
AcDbEntity
  8
0
  6
CENTER
 62
               2
100
AcDbLine
 10
-1.3247205773654969
 20
0.0
 30
0.0
 11
16.237619114850304
 21
0.0
 31
0.0
  0
LINE
  5
761
100
AcDbEntity
  8
0
  6
CONTINUOUS
 62
               4
100
AcDbLine
 10
0.0
 20
1.5
 30
0.0
 11
11.030306154330219
 21
1.5
 31
0.0
  0
LINE
  5
762
100
AcDbEntity
  8
0
  6
CONTINUOUS
 62
               4
100
AcDbLine
 10
0.0
 20
2.0500000000000114
 30
0.0
 11
0.0
 21
-2.0500000000000114
 31
0.0
  0
LINE
  5
763
100
AcDbEntity
  8
0
  6
CONTINUOUS
 62
               4
100
AcDbLine
 10
15.0
 20
2.0500000000000114
 30
0.0
 11
15.0
 21
-2.0500000000000114
 31
0.0
  0
LINE
  5
764
100
AcDbEntity
  8
0
  6
CENTER
 62
               2
100
AcDbLine
 10
2.0
 20
2.834285714285727
 30
0.0
 11
2.0
 21
-3.35141324485204
 31
0.0
  0
LINE
  5
765
100
AcDbEntity
  8
0
  6
CONTINUOUS
 62
               4
100
AcDbLine
 10
0.9571428571427987
 20
-0.7142857142857224
 30
0.0
 11
2.6885714285715494
 21
1.0199999999999818
 31
0.0
  0
LINE
  5
766
100
AcDbEntity
  8
0
  6
CONTINUOUS
 62
               4
100
AcDbLine
 10
1.3085714285714403
 20
-1.0685714285714312
 30
0.0
 11
3.051993036971453
 21
0.6748501798286384
 31
0.0
  0
LINE
  5
767
100
AcDbEntity
  8
0
  6
CONTINUOUS
 62
               4
100
AcDbLine
 10
3.9000000000000909
 20
-1.5028571503502803
 30
0.0
 11
3.9000000000000909
 21
1.5000000068119448
 31
0.0
  0
LINE
  5
768
100
AcDbEntity
  8
0
  6
CONTINUOUS
 62
               4
100
AcDbLine
 10
10.400000000000091
 20
-1.5028571503502803
 30
0.0
 11
10.400000000000091
 21
1.5000000068119448
 31
0.0
  0
LINE
  5
769
100
AcDbEntity
  8
0
  6
CONTINUOUS
 62
               4
100
AcDbLine
 10
8.0
 20
-0.7000000068119334
 30
0.0
 11
8.0
 21
0.8999999999999773
 31
0.0
  0
LINE
  5
76A
100
AcDbEntity
  8
0
  6
CONTINUOUS
 62
               4
100
AcDbLine
 10
9.6000000000001364
 20
-0.7000000068119334
 30
0.0
 11
9.6000000000001364
 21
0.8999999999999773
 31
0.0
  0
LINE
  5
76B
100
AcDbEntity
  8
0
  6
CONTINUOUS
 62
               4
100
AcDbLine
 10
8.0
 20
0.8999999999999773
 30
0.0
 11
9.6000000000001364
 21
0.8999999999999773
 31
0.0
  0
LINE
  5
76C
100
AcDbEntity
  8
0
  6
CONTINUOUS
 62
               4
100
AcDbLine
 10
8.0
 20
-0.6999999999999886
 30
0.0
 11
9.6000000000001364
 21
-0.6999999999999886
 31
0.0
  0
LINE
  5
76D
100
AcDbEntity
  8
0
  6
CONTINUOUS
 62
               4
100
AcDbLine
 10
0.0
 20
2.0500000000000114
 30
0.0
 11
15.0
 21
2.0500000000000114
 31
0.0
  0
LINE
  5
76E
100
AcDbEntity
  8
0
  6
CONTINUOUS
 62
               4
100
AcDbLine
 10
0.0
 20
-2.0500000000000114
 30
0.0
 11
15.0
 21
-2.0500000000000114
 31
0.0
  0
LINE
  5
76F
100
AcDbEntity
  8
0
  6
CONTINUOUS
 62
               4
100
AcDbLine
 10
0.0
 20
-1.5
 30
0.0
 11
11.030306154330219
 21
-1.5
 31
0.0
  0
CIRCLE
  5
770
100
AcDbEntity
  8
0
  6
CONTINUOUS
 62
               4
100
AcDbCircle
 10
2.0
 20
0.0
 30
0.0
 40
1.3999999999999997
  0
CIRCLE
  5
771
100
AcDbEntity
  8
0
  6
CONTINUOUS
 62
               2
100
AcDbCircle
 10
2.0
 20
0.0
 30
0.0
 40
1.05
  0
CIRCLE
  5
772
100
AcDbEntity
  8
0
  6
CONTINUOUS
 62
               4
100
AcDbCircle
 10
2.0
 20
0.0
 30
0.0
 40
1.25
  0
LINE
  5
773
100
AcDbEntity
  8
0
  6
CENTER
 62
               2
100
AcDbLine
 10
11.84999999727529
 20
-0.8054622970306014
 30
0.0
 11
11.84999999727529
 21
0.8557856223879981
 31
0.0
  0
LINE
  5
774
100
AcDbEntity
  8
0
  6
CENTER
 62
               2
100
AcDbLine
 10
13.15000000272471
 20
-0.8054622970306014
 30
0.0
 11
13.15000000272471
 21
0.8557856223879981
 31
0.0
  0
CIRCLE
  5
775
100
AcDbEntity
  8
0
  6
CONTINUOUS
 62
               4
100
AcDbCircle
 10
13.15000000272471
 20
0.0
 30
0.0
 40
0.5
  0
CIRCLE
  5
776
100
AcDbEntity
  8
0
  6
CONTINUOUS
 62
               4
100
AcDbCircle
 10
11.84999999727529
 20
0.0
 30
0.0
 40
0.5
  0
CIRCLE
  5
777
100
AcDbEntity
  8
0
  6
CONTINUOUS
 62
               4
100
AcDbCircle
 10
13.15000000272471
 20
0.0
 30
0.0
 40
0.29
  0
CIRCLE
  5
778
100
AcDbEntity
  8
0
  6
CONTINUOUS
 62
               4
100
AcDbCircle
 10
11.84999999727529
 20
0.0
 30
0.0
 40
0.29
  0
ENDBLK
  5
779
100
AcDbEntity
  8
0
100
AcDbBlockEnd
  0
ENDSEC
  0
SECTION
  2
ENTITIES
  0
INSERT
  5
77A
100
AcDbEntity
  8
0
  6
ByBlock
100
AcDbBlockReference
  2
MGALGS10-24
 10
226.34404906057091
 20
-101.05801330566408
 30
0.0
  0
INSERT
  5
77B
100
AcDbEntity
  8
0
  6
ByBlock
100
AcDbBlockReference
  2
MGALGS10-23
 10
179.34345394319234
 20
-148.65803466796876
 30
0.0
  0
INSERT
  5
77C
100
AcDbEntity
  8
0
  6
ByBlock
100
AcDbBlockReference
  2
MGALGS10-22
 10
226.34404906057091
 20
-148.65803466796876
 30
0.0
  0
INSERT
  5
77D
100
AcDbEntity
  8
0
  6
ByBlock
100
AcDbBlockReference
  2
MGALGS10-21
 10
82.835088833818759
 20
-101.05801330566408
 30
0.0
  0
INSERT
  5
77E
100
AcDbEntity
  8
0
  6
ByBlock
100
AcDbBlockReference
  2
MGALGS10-20
 10
35.836517400479011
 20
-148.65803514834704
 30
0.0
  0
INSERT
  5
77F
100
AcDbEntity
  8
0
  6
ByBlock
100
AcDbBlockReference
  2
MGALGS10-19
 10
82.835088838587126
 20
-148.65803515390087
 30
0.0
  0
INSERT
  5
780
100
AcDbEntity
  8
0
  6
ByBlock
100
AcDbBlockReference
  2
MGALGS10-18
 10
-57.896331787109375
 20
-101.05801330566408
 30
0.0
  0
INSERT
  5
781
100
AcDbEntity
  8
0
  6
ByBlock
100
AcDbBlockReference
  2
MGALGS10-17
 10
-100.93905639648437
 20
-148.65806927420238
 30
0.0
  0
INSERT
  5
782
100
AcDbEntity
  8
0
  6
ByBlock
100
AcDbBlockReference
  2
MGALGS10-16
 10
-57.896331787109375
 20
-148.65806927420238
 30
0.0
  0
INSERT
  5
783
100
AcDbEntity
  8
0
  6
ByBlock
100
AcDbBlockReference
  2
MGALGS10-15
 10
-198.70729064941406
 20
-101.05801330566408
 30
0.0
  0
INSERT
  5
784
100
AcDbEntity
  8
0
  6
ByBlock
100
AcDbBlockReference
  2
MGALGS10-14
 10
-243.25
 20
-148.65808044433595
 30
0.0
  0
INSERT
  5
785
100
AcDbEntity
  8
0
  6
ByBlock
100
AcDbBlockReference
  2
MGALGS10-13
 10
-198.70729064941406
 20
-148.65808044433595
 30
0.0
  0
INSERT
  5
786
100
AcDbEntity
  8
0
  6
ByBlock
100
AcDbBlockReference
  2
MGALGS10-12
 10
120.0
 20
0.0
 30
0.0
  0
INSERT
  5
787
100
AcDbEntity
  8
0
  6
ByBlock
100
AcDbBlockReference
  2
MGALGS10-11
 10
120.0
 20
20.0
 30
0.0
  0
INSERT
  5
788
100
AcDbEntity
  8
0
  6
ByBlock
100
AcDbBlockReference
  2
MGALGS10-10
 10
120.0
 20
125.0
 30
0.0
  0
INSERT
  5
789
100
AcDbEntity
  8
0
  6
ByBlock
100
AcDbBlockReference
  2
MGALGS10-9
 10
230.0
 20
50.0
 30
0.0
  0
INSERT
  5
78A
100
AcDbEntity
  8
0
  6
ByBlock
100
AcDbBlockReference
  2
MGALGS10-8
 10
60.0
 20
50.0
 30
0.0
  0
INSERT
  5
78B
100
AcDbEntity
  8
0
  6
ByBlock
100
AcDbBlockReference
  2
MGALGS10-7
 10
120.0
 20
50.0
 30
0.0
  0
INSERT
  5
78C
100
AcDbEntity
  8
0
  6
ByBlock
100
AcDbBlockReference
  2
MGALGS10-6
 10
-140.0
 20
0.0
 30
0.0
  0
INSERT
  5
78D
100
AcDbEntity
  8
0
  6
ByBlock
100
AcDbBlockReference
  2
MGALGS10-5
 10
-140.0
 20
20.0
 30
0.0
  0
INSERT
  5
78E
100
AcDbEntity
  8
0
  6
ByBlock
100
AcDbBlockReference
  2
MGALGS10-4
 10
-140.0
 20
125.0
 30
0.0
  0
INSERT
  5
78F
100
AcDbEntity
  8
0
  6
ByBlock
100
AcDbBlockReference
  2
MGALGS10-3
 10
-40.0
 20
50.0
 30
0.0
  0
INSERT
  5
790
100
AcDbEntity
  8
0
  6
ByBlock
100
AcDbBlockReference
  2
MGALGS10-2
 10
-210.0
 20
50.0
 30
0.0
  0
INSERT
  5
791
100
AcDbEntity
  8
0
  6
ByBlock
100
AcDbBlockReference
  2
MGALGS10-1
 10
-140.0
 20
50.0
 30
0.0
  0
LINE
  5
793
100
AcDbEntity
  8
0
  6
DASHED
 62
               2
100
AcDbLine
 10
-281.25
 20
-77.849999999999994
 30
0.0
 11
282.099853515625
 21
-77.849999999999994
 31
0.0
  0
MTEXT
  5
794
100
AcDbEntity
  8
0
  6
CONTINUOUS
 62
               7
100
AcDbMText
 10
-262.60000000429153
 20
-85.599999999999966
 30
0.0
 40
4.5
 41
0.0
 71
               1
 72
               1
  1
\W1.200;\A1;ZE101
  0
MTEXT
  5
795
100
AcDbEntity
  8
0
  6
CONTINUOUS
 62
               7
100
AcDbMText
 10
-262.66666666666669
 20
-92.543062701548052
 30
0.0
 40
4.5
 41
0.0
 71
               1
 72
               1
  1
\W1.111;\A1;ZE102
  0
MTEXT
  5
796
100
AcDbEntity
  8
0
  6
CONTINUOUS
 62
               7
100
AcDbMText
 10
-121.88667454893893
 20
-92.543062701548052
 30
0.0
 40
4.5
 41
0.0
 71
               1
 72
               1
  1
\W1.034;\A1;ZE202
  0
MTEXT
  5
797
100
AcDbEntity
  8
0
  6
CONTINUOUS
 62
               7
100
AcDbMText
 10
-121.82920328776042
 20
-85.599999999999966
 30
0.0
 40
4.5
 41
0.0
 71
               1
 72
               1
  1
\W1.111;\A1;ZE201
  0
MTEXT
  5
798
100
AcDbEntity
  8
0
  6
CONTINUOUS
 62
               7
100
AcDbMText
 10
18.978498182962742
 20
-85.599999999999966
 30
0.0
 40
4.5
 41
0.0
 71
               1
 72
               1
  1
\W1.071;\A1;ZE135
  0
MTEXT
  5
799
100
AcDbEntity
  8
0
  6
CONTINUOUS
 62
               7
100
AcDbMText
 10
18.978498182962742
 20
-92.543062701548052
 30
0.0
 40
4.5
 41
0.0
 71
               1
 72
               1
  1
\W1.071;\A1;ZE155
  0
MTEXT
  5
79A
100
AcDbEntity
  8
0
  6
CONTINUOUS
 62
               7
100
AcDbMText
 10
159.76239013671875
 20
-92.543062701548052
 30
0.0
 40
4.5
 41
0.0
 71
               1
 72
               1
  1
\A1;ZE255
  0
MTEXT
  5
79B
100
AcDbEntity
  8
0
  6
CONTINUOUS
 62
               7
100
AcDbMText
 10
159.76239013671875
 20
-85.599999999999966
 30
0.0
 40
4.5
 41
0.0
 71
               1
 72
               1
  1
\A1;ZE235
  0
MTEXT
  5
79C
100
AcDbEntity
  8
0
  6
CONTINUOUS
 62
               3
100
AcDbMText
 10
126.50016770944666
 20
144.0
 30
0.0
 40
4.5
 41
0.0
 71
               4
 72
               1
  1
\W1.065;\A1;STRETCH LINE
  0
MTEXT
  5
79D
100
AcDbEntity
  8
0
  6
CONTINUOUS
 62
               7
100
AcDbMText
 10
41.548816566638664
 20
-46.292235469818138
 30
0.0
 40
4.5
 41
0.0
 71
               4
 72
               1
  1
\W1.065;\A1;STRETCH LINE
  0
LINE
  5
79E
100
AcDbEntity
  8
0
  6
CONTINUOUS
 62
               7
100
AcDbLine
 10
10.0
 20
-59.850000000000023
 30
0.0
 11
125.5
 21
-59.850000000000023
 31
0.0
  0
LINE
  5
79F
100
AcDbEntity
  8
0
  6
CONTINUOUS
 62
               7
100
AcDbLine
 10
10.0
 20
-67.850000000000023
 30
0.0
 11
125.5
 21
-67.850000000000023
 31
0.0
  0
LINE
  5
7A0
100
AcDbEntity
  8
0
  6
CONTINUOUS
 62
               7
100
AcDbLine
 10
50.5
 20
-67.850000000000023
 30
0.0
 11
50.5
 21
-51.850000000000023
 31
0.0
  0
LINE
  5
7A1
100
AcDbEntity
  8
0
  6
CONTINUOUS
 62
               7
100
AcDbLine
 10
65.5
 20
-67.850000000000023
 30
0.0
 11
65.5
 21
-51.850000000000023
 31
0.0
  0
LINE
  5
7A2
100
AcDbEntity
  8
0
  6
CONTINUOUS
 62
               7
100
AcDbLine
 10
80.5
 20
-67.850000000000023
 30
0.0
 11
80.5
 21
-51.850000000000023
 31
0.0
  0
MTEXT
  5
7A3
100
AcDbEntity
  8
0
  6
CONTINUOUS
 62
               7
100
AcDbMText
 10
71.650000021457672
 20
-63.850000000000023
 30
0.0
 40
4.5
 41
0.0
 71
               4
 72
               1
  1
\W1.200;\A1;0
  0
MTEXT
  5
7A4
100
AcDbEntity
  8
0
  6
CONTINUOUS
 62
               7
100
AcDbMText
 10
56.650000021457672
 20
-63.850000000000023
 30
0.0
 40
4.5
 41
0.0
 71
               4
 72
               1
  1
\W1.200;\A1;0
  0
MTEXT
  5
7A5
100
AcDbEntity
  8
0
  6
CONTINUOUS
 62
               7
100
AcDbMText
 10
69.5
 20
-55.850000000000023
 30
0.0
 40
4.5
 41
0.0
 71
               4
 72
               1
  1
\W1.333;\A1;10
  0
MTEXT
  5
7A6
100
AcDbEntity
  8
0
  6
CONTINUOUS
 62
               7
100
AcDbMText
 10
56.5
 20
-55.850000000000023
 30
0.0
 40
4.5
 41
0.0
 71
               4
 72
               1
  1
\A1;5
  0
LINE
  5
7A7
100
AcDbEntity
  8
0
  6
CONTINUOUS
 62
               7
100
AcDbLine
 10
10.0
 20
-67.850000000000023
 30
0.0
 11
10.0
 21
-51.850000000000023
 31
0.0
  0
LINE
  5
7A8
100
AcDbEntity
  8
0
  6
CONTINUOUS
 62
               7
100
AcDbLine
 10
10.0
 20
-51.850000000000023
 30
0.0
 11
125.5
 21
-51.850000000000023
 31
0.0
  0
MTEXT
  5
7A9
100
AcDbEntity
  8
0
  6
CONTINUOUS
 62
               7
100
AcDbMText
 10
17.5
 20
-55.850000000000023
 30
0.0
 40
4.5
 41
0.0
 71
               4
 72
               1
  1
\A1;STROKE
  0
MTEXT
  5
7AA
100
AcDbEntity
  8
0
  6
CONTINUOUS
 62
               7
100
AcDbMText
 10
15.25
 20
-63.850000000000023
 30
0.0
 40
4.5
 41
0.0
 71
               4
 72
               1
  1
\A1;STRETCH
  0
MTEXT
  5
7AB
100
AcDbEntity
  8
0
  6
CONTINUOUS
 62
               7
100
AcDbMText
 10
84.399999989271166
 20
-55.850000000000023
 30
0.0
 40
4.5
 41
0.0
 71
               4
 72
               1
  1
\W1.200;\A1;15
  0
MTEXT
  5
7AC
100
AcDbEntity
  8
0
  6
CONTINUOUS
 62
               7
100
AcDbMText
 10
84.5
 20
-63.850000000000023
 30
0.0
 40
4.5
 41
0.0
 71
               4
 72
               1
  1
\W1.333;\A1;10
  0
LINE
  5
7AD
100
AcDbEntity
  8
0
  6
CONTINUOUS
 62
               7
100
AcDbLine
 10
95.5
 20
-67.850000000000023
 30
0.0
 11
95.5
 21
-51.850000000000023
 31
0.0
  0
MTEXT
  5
7AE
100
AcDbEntity
  8
0
  6
CONTINUOUS
 62
               7
100
AcDbMText
 10
99.318181827048619
 20
-55.850000000000023
 30
0.0
 40
4.5
 41
0.0
 71
               4
 72
               1
  1
\W1.091;\A1;20
  0
MTEXT
  5
7AF
100
AcDbEntity
  8
0
  6
CONTINUOUS
 62
               7
100
AcDbMText
 10
99.5
 20
-63.850000000000023
 30
0.0
 40
4.5
 41
0.0
 71
               4
 72
               1
  1
\W1.333;\A1;10
  0
LINE
  5
7B0
100
AcDbEntity
  8
0
  6
CONTINUOUS
 62
               7
100
AcDbLine
 10
110.5
 20
-67.850000000000023
 30
0.0
 11
110.5
 21
-51.850000000000023
 31
0.0
  0
MTEXT
  5
7B1
100
AcDbEntity
  8
0
  6
CONTINUOUS
 62
               7
100
AcDbMText
 10
114.31818182704862
 20
-55.850000000000023
 30
0.0
 40
4.5
 41
0.0
 71
               4
 72
               1
  1
\W1.091;\A1;30
  0
MTEXT
  5
7B2
100
AcDbEntity
  8
0
  6
CONTINUOUS
 62
               7
100
AcDbMText
 10
114.31818182704862
 20
-63.850000000000023
 30
0.0
 40
4.5
 41
0.0
 71
               4
 72
               1
  1
\W1.091;\A1;20
  0
LINE
  5
7B3
100
AcDbEntity
  8
0
  6
CONTINUOUS
 62
               7
100
AcDbLine
 10
125.5
 20
-67.850000000000023
 30
0.0
 11
125.5
 21
-51.850000000000023
 31
0.0
  0
LINE
  5
7B4
100
AcDbEntity
  8
0
  6
CONTINUOUS
 62
               7
100
AcDbLine
 10
-155.75
 20
-67.850000000000023
 30
0.0
 11
-155.75
 21
-51.850000000000023
 31
0.0
  0
MTEXT
  5
7B5
100
AcDbEntity
  8
0
  6
CONTINUOUS
 62
               7
100
AcDbMText
 10
-166.93181817295138
 20
-63.850000000000023
 30
0.0
 40
4.5
 41
0.0
 71
               4
 72
               1
  1
\W1.091;\A1;20
  0
MTEXT
  5
7B6
100
AcDbEntity
  8
0
  6
CONTINUOUS
 62
               7
100
AcDbMText
 10
-166.93181817295138
 20
-55.850000000000023
 30
0.0
 40
4.5
 41
0.0
 71
               4
 72
               1
  1
\W1.091;\A1;30
  0
LINE
  5
7B7
100
AcDbEntity
  8
0
  6
CONTINUOUS
 62
               7
100
AcDbLine
 10
-170.75
 20
-67.850000000000023
 30
0.0
 11
-170.75
 21
-51.850000000000023
 31
0.0
  0
MTEXT
  5
7B8
100
AcDbEntity
  8
0
  6
CONTINUOUS
 62
               7
100
AcDbMText
 10
-181.75
 20
-63.850000000000023
 30
0.0
 40
4.5
 41
0.0
 71
               4
 72
               1
  1
\W1.333;\A1;10
  0
MTEXT
  5
7B9
100
AcDbEntity
  8
0
  6
CONTINUOUS
 62
               7
100
AcDbMText
 10
-181.93181817295138
 20
-55.850000000000023
 30
0.0
 40
4.5
 41
0.0
 71
               4
 72
               1
  1
\W1.091;\A1;20
  0
LINE
  5
7BA
100
AcDbEntity
  8
0
  6
CONTINUOUS
 62
               7
100
AcDbLine
 10
-185.75
 20
-67.850000000000023
 30
0.0
 11
-185.75
 21
-51.850000000000023
 31
0.0
  0
MTEXT
  5
7BB
100
AcDbEntity
  8
0
  6
CONTINUOUS
 62
               7
100
AcDbMText
 10
-196.75
 20
-63.850000000000023
 30
0.0
 40
4.5
 41
0.0
 71
               4
 72
               1
  1
\W1.333;\A1;10
  0
MTEXT
  5
7BC
100
AcDbEntity
  8
0
  6
CONTINUOUS
 62
               7
100
AcDbMText
 10
-196.85000001072885
 20
-55.850000000000023
 30
0.0
 40
4.5
 41
0.0
 71
               4
 72
               1
  1
\W1.200;\A1;15
  0
MTEXT
  5
7BD
100
AcDbEntity
  8
0
  6
CONTINUOUS
 62
               7
100
AcDbMText
 10
13.034210464147225
 20
160.5
 30
0.0
 40
6.3000001907348633
 41
0.0
 71
               4
 72
               1
  1
\W1.128;\A1;MODEL:MGALGS10*st(5,10)-L
  0
MTEXT
  5
7BE
100
AcDbEntity
  8
0
  6
CONTINUOUS
 62
               3
100
AcDbMText
 10
-149.90253457616936
 20
144.0
 30
0.0
 40
4.5
 41
0.0
 71
               4
 72
               1
  1
\W1.065;\A1;STRETCH LINE
  0
LINE
  5
7BF
100
AcDbEntity
  8
0
  6
DASHED
 62
               2
100
AcDbLine
 10
0.0
 20
-77.849999999999994
 30
0.0
 11
0.0
 21
195.5
 31
0.0
  0
MTEXT
  5
7C0
100
AcDbEntity
  8
0
  6
CONTINUOUS
 62
               7
100
AcDbMText
 10
-266.0
 20
-63.850000000000023
 30
0.0
 40
4.5
 41
0.0
 71
               4
 72
               1
  1
\A1;STRETCH
  0
MTEXT
  5
7C1
100
AcDbEntity
  8
0
  6
CONTINUOUS
 62
               7
100
AcDbMText
 10
-263.75
 20
-55.850000000000023
 30
0.0
 40
4.5
 41
0.0
 71
               4
 72
               1
  1
\A1;STROKE
  0
MTEXT
  5
7C2
100
AcDbEntity
  8
0
  6
CONTINUOUS
 62
               7
100
AcDbMText
 10
-239.70118343336134
 20
-46.292235469818138
 30
0.0
 40
4.5
 41
0.0
 71
               4
 72
               1
  1
\W1.065;\A1;STRETCH LINE
  0
LINE
  5
7C3
100
AcDbEntity
  8
0
  6
CONTINUOUS
 62
               7
100
AcDbLine
 10
-271.25
 20
-51.850000000000023
 30
0.0
 11
-155.75
 21
-51.850000000000023
 31
0.0
  0
LINE
  5
7C4
100
AcDbEntity
  8
0
  6
CONTINUOUS
 62
               7
100
AcDbLine
 10
-271.25
 20
-67.850000000000023
 30
0.0
 11
-271.25
 21
-51.850000000000023
 31
0.0
  0
MTEXT
  5
7C5
100
AcDbEntity
  8
0
  6
CONTINUOUS
 62
               7
100
AcDbMText
 10
-224.75
 20
-55.850000000000023
 30
0.0
 40
4.5
 41
0.0
 71
               4
 72
               1
  1
\A1;5
  0
MTEXT
  5
7C6
100
AcDbEntity
  8
0
  6
CONTINUOUS
 62
               7
100
AcDbMText
 10
-211.75
 20
-55.850000000000023
 30
0.0
 40
4.5
 41
0.0
 71
               4
 72
               1
  1
\W1.333;\A1;10
  0
MTEXT
  5
7C7
100
AcDbEntity
  8
0
  6
CONTINUOUS
 62
               7
100
AcDbMText
 10
-224.59999997854231
 20
-63.850000000000023
 30
0.0
 40
4.5
 41
0.0
 71
               4
 72
               1
  1
\W1.200;\A1;0
  0
MTEXT
  5
7C8
100
AcDbEntity
  8
0
  6
CONTINUOUS
 62
               7
100
AcDbMText
 10
-209.59999997854231
 20
-63.850000000000023
 30
0.0
 40
4.5
 41
0.0
 71
               4
 72
               1
  1
\W1.200;\A1;0
  0
LINE
  5
7C9
100
AcDbEntity
  8
0
  6
CONTINUOUS
 62
               7
100
AcDbLine
 10
-200.75
 20
-67.850000000000023
 30
0.0
 11
-200.75
 21
-51.850000000000023
 31
0.0
  0
LINE
  5
7CA
100
AcDbEntity
  8
0
  6
CONTINUOUS
 62
               7
100
AcDbLine
 10
-215.75
 20
-67.850000000000023
 30
0.0
 11
-215.75
 21
-51.850000000000023
 31
0.0
  0
LINE
  5
7CB
100
AcDbEntity
  8
0
  6
CONTINUOUS
 62
               7
100
AcDbLine
 10
-230.75
 20
-67.850000000000023
 30
0.0
 11
-230.75
 21
-51.850000000000023
 31
0.0
  0
LINE
  5
7CC
100
AcDbEntity
  8
0
  6
CONTINUOUS
 62
               7
100
AcDbLine
 10
-271.25
 20
-67.850000000000023
 30
0.0
 11
-155.75
 21
-67.850000000000023
 31
0.0
  0
LINE
  5
7CD
100
AcDbEntity
  8
0
  6
CONTINUOUS
 62
               7
100
AcDbLine
 10
-271.25
 20
-59.850000000000023
 30
0.0
 11
-155.75
 21
-59.850000000000023
 31
0.0
  0
MTEXT
  5
7CE
100
AcDbEntity
  8
0
  6
CONTINUOUS
 62
               7
100
AcDbMText
 10
-273.59932894557409
 20
189.625
 30
0.0
 40
6.3000001907348633
 41
0.0
 71
               4
 72
               1
  1
\W1.143;\A1;MINI GUIDE SLIDER
  0
MTEXT
  5
7CF
100
AcDbEntity
  8
0
  6
CONTINUOUS
 62
               7
100
AcDbMText
 10
-245.33000072903104
 20
182.125
 30
0.0
 40
6.3000001907348633
 41
0.0
 71
               4
 72
               1
  1
\W1.067;\A1;MGALGS10
  0
LINE
  5
7D0
100
AcDbEntity
  8
0
  6
CONTINUOUS
 62
               7
100
AcDbLine
 10
-281.25
 20
175.5
 30
0.0
 11
-161.25
 21
175.5
 31
0.0
  0
LINE
  5
7D1
100
AcDbEntity
  8
0
  6
CONTINUOUS
 62
               7
100
AcDbLine
 10
-161.25
 20
195.5
 30
0.0
 11
-161.25
 21
175.5
 31
0.0
  0
LINE
  5
7D2
100
AcDbEntity
  8
0
  6
CONTINUOUS
 62
               7
100
AcDbLine
 10
162.0999755859375
 20
-175.0
 30
0.0
 11
162.0999755859375
 21
-195.0
 31
0.0
  0
LINE
  5
7D3
100
AcDbEntity
  8
0
  6
CONTINUOUS
 62
               7
100
AcDbLine
 10
162.0999755859375
 20
-175.0
 30
0.0
 11
282.099853515625
 21
-175.0
 31
0.0
  0
MTEXT
  5
7D4
100
AcDbEntity
  8
0
  6
CONTINUOUS
 62
               7
100
AcDbMText
 10
170.28101006437726
 20
-185.0
 30
0.0
 40
9.0
 41
0.0
 71
               4
 72
               1
  1
\W1.121;\A1;KOGANEI CORP.
  0
MTEXT
  5
7D5
100
AcDbEntity
  8
0
  6
CONTINUOUS
 62
               7
100
AcDbMText
 10
198.2770240315611
 20
185.5
 30
0.0
 40
6.3000001907348633
 41
0.0
 71
               4
 72
               1
  1
\W1.311;\A1;Ver. 1.0
  0
LINE
  5
7D6
100
AcDbEntity
  8
0
  6
CONTINUOUS
 62
               7
100
AcDbLine
 10
162.0999755859375
 20
175.5
 30
0.0
 11
282.099853515625
 21
175.5
 31
0.0
  0
LINE
  5
7D7
100
AcDbEntity
  8
0
  6
CONTINUOUS
 62
               7
100
AcDbLine
 10
162.0999755859375
 20
195.5
 30
0.0
 11
162.0999755859375
 21
175.5
 31
0.0
  0
LINE
  5
7D8
100
AcDbEntity
  8
0
  6
CONTINUOUS
 62
               7
100
AcDbLine
 10
282.099853515625
 20
195.5
 30
0.0
 11
282.099853515625
 21
-195.0
 31
0.0
  0
LINE
  5
7D9
100
AcDbEntity
  8
0
  6
CONTINUOUS
 62
               7
100
AcDbLine
 10
-281.25
 20
195.5
 30
0.0
 11
282.099853515625
 21
195.5
 31
0.0
  0
LINE
  5
7DA
100
AcDbEntity
  8
0
  6
CONTINUOUS
 62
               7
100
AcDbLine
 10
-281.25
 20
195.5
 30
0.0
 11
-281.25
 21
-195.0
 31
0.0
  0
LINE
  5
7DB
100
AcDbEntity
  8
0
  6
CONTINUOUS
 62
               7
100
AcDbLine
 10
-281.25
 20
-195.0
 30
0.0
 11
282.099853515625
 21
-195.0
 31
0.0
  0
MTEXT
  5
7DC
100
AcDbEntity
  8
0
  6
CONTINUOUS
 62
               7
100
AcDbMText
 10
-268.21578953585276
 20
160.5
 30
0.0
 40
6.3000001907348633
 41
0.0
 71
               4
 72
               1
  1
\W1.128;\A1;MODEL:MGALGS10*st(5,10)-R
  0
ENDSEC
  0
SECTION
  2
OBJECTS
  0
DICTIONARY
  5
19
100
AcDbDictionary
  3
ACAD_GROUP
350
1A
  3
ACAD_MLINESTYLE
350
1B
  0
DICTIONARY
  5
1A
102
{ACAD_REACTORS
330
19
102
}
100
AcDbDictionary
  0
DICTIONARY
  5
1B
102
{ACAD_REACTORS
330
19
102
}
100
AcDbDictionary
  3
STANDARD
350
1C
  0
MLINESTYLE
  5
1C
102
{ACAD_REACTORS
330
1B
102
}
100
AcDbMlineStyle
  2
Standard
 70
               0
  3

 62
               0
 51
90.0
 52
90.0
 71
               2
 49
0.5
 62
             256
  6
ByLayer
 49
-0.5
 62
             256
  6
ByLayer
  0
ENDSEC
  0
EOF
