  0
SECTION
  2
HEADER
  9
$ACADVER
  1
AC1012
  9
$DWGCODEPAGE
  3
dos932
  9
$INSBASE
 10
0.0
 20
0.0
 30
0.0
  9
$EXTMIN
 10
-194.25
 20
-133.5
 30
0.0
  9
$EXTMAX
 10
196.25000429153442
 20
132.60000610351562
 30
0.0
  9
$LIMMIN
 10
-194.25
 20
-133.5
  9
$LIMMAX
 10
196.25000429153442
 20
132.60000610351562
  9
$ORTHOMODE
 70
               0
  9
$REGENMODE
 70
               1
  9
$FILLMODE
 70
               1
  9
$QTEXTMODE
 70
               0
  9
$MIRRTEXT
 70
               1
  9
$DRAGMODE
 70
               2
  9
$LTSCALE
 40
1.0
  9
$OSMODE
 70
               0
  9
$ATTMODE
 70
               1
  9
$TEXTSIZE
 40
3.2000000476837158
  9
$TRACEWID
 40
0.05
  9
$TEXTSTYLE
  7
MX_NOTE_STANDARD
  9
$CLAYER
  8
0
  9
$CELTYPE
  6
CONTINUOUS
  9
$CECOLOR
 62
             256
  9
$CELTSCALE
 40
1.0
  9
$DELOBJ
 70
               1
  9
$DISPSILH
 70
               0
  9
$DIMSCALE
 40
1.0
  9
$DIMASZ
 40
2.5
  9
$DIMEXO
 40
1.5
  9
$DIMDLI
 40
3.75
  9
$DIMRND
 40
0.0
  9
$DIMDLE
 40
0.0
  9
$DIMEXE
 40
1.5
  9
$DIMTP
 40
0.0
  9
$DIMTM
 40
0.0
  9
$DIMTXT
 40
3.2000000476837158
  9
$DIMCEN
 40
2.5
  9
$DIMTSZ
 40
0.0
  9
$DIMTOL
 70
               0
  9
$DIMLIM
 70
               0
  9
$DIMTIH
 70
               0
  9
$DIMTOH
 70
               0
  9
$DIMSE1
 70
               0
  9
$DIMSE2
 70
               0
  9
$DIMTAD
 70
               1
  9
$DIMZIN
 70
               8
  9
$DIMBLK
  1

  9
$DIMASO
 70
               1
  9
$DIMSHO
 70
               1
  9
$DIMPOST
  1

  9
$DIMAPOST
  1

  9
$DIMALT
 70
               0
  9
$DIMALTD
 70
               4
  9
$DIMALTF
 40
0.03937007874016
  9
$DIMLFAC
 40
1.0
  9
$DIMTOFL
 70
               1
  9
$DIMTVP
 40
0.0
  9
$DIMTIX
 70
               0
  9
$DIMSOXD
 70
               0
  9
$DIMSAH
 70
               0
  9
$DIMBLK1
  1

  9
$DIMBLK2
  1

  9
$DIMSTYLE
  2
MXDIMSTYLE
  9
$DIMCLRD
 70
               0
  9
$DIMCLRE
 70
               0
  9
$DIMCLRT
 70
               0
  9
$DIMTFAC
 40
1.0
  9
$DIMGAP
 40
1.0
  9
$DIMJUST
 70
               0
  9
$DIMSD1
 70
               0
  9
$DIMSD2
 70
               0
  9
$DIMTOLJ
 70
               1
  9
$DIMTZIN
 70
               0
  9
$DIMALTZ
 70
               0
  9
$DIMALTTZ
 70
               0
  9
$DIMFIT
 70
               3
  9
$DIMUPT
 70
               1
  9
$DIMUNIT
 70
               2
  9
$DIMDEC
 70
               4
  9
$DIMTDEC
 70
               4
  9
$DIMALTU
 70
               2
  9
$DIMALTTD
 70
               4
  9
$DIMTXSTY
  7
MX_NOTE_STANDARD
  9
$DIMAUNIT
 70
               0
  9
$LUNITS
 70
               2
  9
$LUPREC
 70
               4
  9
$SKETCHINC
 40
0.1
  9
$FILLETRAD
 40
0.0
  9
$AUNITS
 70
               0
  9
$AUPREC
 70
               0
  9
$MENU
  1
acad
  9
$ELEVATION
 40
0.0
  9
$PELEVATION
 40
0.0
  9
$THICKNESS
 40
0.0
  9
$LIMCHECK
 70
               0
  9
$BLIPMODE
 70
               1
  9
$CHAMFERA
 40
0.0
  9
$CHAMFERB
 40
0.0
  9
$CHAMFERC
 40
0.0
  9
$CHAMFERD
 40
0.0
  9
$SKPOLY
 70
               0
  9
$TDCREATE
 40
2453655.719502315
  9
$TDUPDATE
 40
2453655.719502315
  9
$TDINDWG
 40
0.0000000000
  9
$TDUSRTIMER
 40
0.0000000000
  9
$USRTIMER
 70
               1
  9
$ANGBASE
 50
0.0
  9
$ANGDIR
 70
               0
  9
$PDMODE
 70
               0
  9
$PDSIZE
 40
0.0
  9
$PLINEWID
 40
0.0
  9
$COORDS
 70
               1
  9
$SPLFRAME
 70
               0
  9
$SPLINETYPE
 70
               6
  9
$SPLINESEGS
 70
               8
  9
$ATTDIA
 70
               0
  9
$ATTREQ
 70
               1
  9
$HANDLING
 70
               1
  9
$HANDSEED
  5
326
  9
$SURFTAB1
 70
               6
  9
$SURFTAB2
 70
               6
  9
$SURFTYPE
 70
               6
  9
$SURFU
 70
               6
  9
$SURFV
 70
               6
  9
$UCSNAME
  2

  9
$UCSORG
 10
0.0
 20
0.0
 30
0.0
  9
$UCSXDIR
 10
1.0
 20
0.0
 30
0.0
  9
$UCSYDIR
 10
0.0
 20
1.0
 30
0.0
  9
$PUCSNAME
  2

  9
$PUCSORG
 10
0.0
 20
0.0
 30
0.0
  9
$PUCSXDIR
 10
1.0
 20
0.0
 30
0.0
  9
$PUCSYDIR
 10
0.0
 20
1.0
 30
0.0
  9
$USERI1
 70
               0
  9
$USERI2
 70
               0
  9
$USERI3
 70
               0
  9
$USERI4
 70
               0
  9
$USERI5
 70
               0
  9
$USERR1
 40
0.0
  9
$USERR2
 40
0.0
  9
$USERR3
 40
0.0
  9
$USERR4
 40
0.0
  9
$USERR5
 40
0.0
  9
$WORLDVIEW
 70
               1
  9
$SHADEDGE
 70
               3
  9
$SHADEDIF
 70
              70
  9
$TILEMODE
 70
               1
  9
$MAXACTVP
 70
              16
  9
$PINSBASE
 10
0.0
 20
0.0
 30
0.0
  9
$PLIMCHECK
 70
               0
  9
$PEXTMIN
 10
1.0000000000000000E+20
 20
1.0000000000000000E+20
 30
1.0000000000000000E+20
  9
$PEXTMAX
 10
-1.0000000000000000E+20
 20
-1.0000000000000000E+20
 30
-1.0000000000000000E+20
  9
$PLIMMIN
 10
0.0
 20
0.0
  9
$PLIMMAX
 10
12.0
 20
9.0
  9
$UNITMODE
 70
               0
  9
$VISRETAIN
 70
               0
  9
$PLINEGEN
 70
               1
  9
$PSLTSCALE
 70
               0
  9
$TREEDEPTH
 70
            3020
  9
$PICKSTYLE
 70
               1
  9
$CMLSTYLE
  2
Standard
  9
$CMLJUST
 70
               0
  9
$CMLSCALE
 40
1.0
  9
$SAVEIMAGES
 70
               0
  0
ENDSEC
  0
SECTION
  2
CLASSES
  0
CLASS
  1
LWPOLYLINE
  2
AcDbPolyline
  3
"AutoCAD"
 90
        0
280
               0
281
               1
  0
CLASS
  1
IMAGE
  2
AcDbRasterImage
  3
ISM
 90
      127
280
               0
281
               1
  0
CLASS
  1
OLE2FRAME
  2
AcDbOle2Frame
  3
""
 90
        0
280
               0
281
               1
  0
CLASS
  1
HATCH
  2
AcDbHatch
  3
"ACAD_SEDONA"
 90
        0
280
               0
281
               1
  0
CLASS
  1
DICTIONARYVAR
  2
AcDbDictionaryVar
  3
"AutoCAD"
 90
        0
280
               0
281
               0
  0
CLASS
  1
RASTERVARIABLES
  2
AcDbRasterVariables
  3
ISM
 90
        0
280
               0
281
               0
  0
CLASS
  1
IMAGEDEF
  2
AcDbRasterImageDef
  3
ISM
 90
        0
280
               0
281
               0
  0
CLASS
  1
IMAGEDEF_REACTOR
  2
AcDbRasterImageDefReactor
  3
ISM
 90
        1
280
               0
281
               0
  0
CLASS
  1
IDBUFFER
  2
AcDbIdBuffer
  3
"Acad"
 90
        0
280
               0
281
               0
  0
CLASS
  1
SPATIAL_FILTER
  2
AcDbSpatialFilter
  3
"Acad"
 90
        0
280
               0
281
               0
  0
CLASS
  1
XRECORD
  2
AcDbXrecord
  3
"<Built In>"
 90
        0
280
               0
281
               0
  0
CLASS
  1
SORTENTSTABLE
  2
AcDbSortentsTable
  3
"AutoCAD"
 90
        0
280
               0
281
               0
  0
CLASS
  1
LAYER_INDEX
  2
AcDbLayerIndex
  3
"Acad"
 90
        0
280
               0
281
               0
  0
CLASS
  1
SPATIAL_INDEX
  2
AcDbSpatialIndex
  3
"Acad"
 90
        0
280
               0
281
               0
  0
CLASS
  1
OBJECT_PTR
  2
CAseDLPNTableRecord
  3
"ASE-LPNTableRecord"
 90
        1
280
               0
281
               0
  0
CLASS
  1
LAYOUT
  2
AcDbLayout
  3
"AutoCAD 2000"
 90
        1
280
               0
281
               0
  0
CLASS
  1
PLOTSETTINGS
  2
AcDbPlotSettings
  3
"AutoCAD 2000"
 90
        1
280
               0
281
               0
  0
CLASS
  1
ACDBDICTIONARYWDFLT
  2
AcDbDictionaryWithDefault
  3
"AutoCAD 2000"
 90
        1
280
               0
281
               0
  0
CLASS
  1
ACDBPLACEHOLDER
  2
AcDbPlaceHolder
  3
"AutoCAD 2000"
 90
        1
280
               0
281
               0
  0
ENDSEC
  0
SECTION
  2
TABLES
  0
TABLE
  2
VPORT
  5
7
100
AcDbSymbolTable
 70
               1
  0
VPORT
  5
15
100
AcDbSymbolTableRecord
100
AcDbViewportTableRecord
  2
*ACTIVE
 70
               0
 10
0.0
 20
0.0
 11
1.0
 21
1.0
 12
1.0000021457672119
 22
-0.4499969482421875
 13
0.0
 23
0.0
 14
1.0
 24
1.0
 15
0.0
 25
0.0
 16
0.0
 26
0.0
 36
1.0
 17
0.0
 27
0.0
 37
0.0
 40
268.76100616455079
 41
1.7320508075688772
 42
50.0
 43
0.0
 44
0.0
 50
0.0
 51
0.0
 71
               0
 72
             100
 73
               1
 74
               1
 75
               0
 76
               0
 77
               0
 78
               0
  0
ENDTAB
  0
TABLE
  2
LTYPE
  5
4
100
AcDbSymbolTable
 70
               5
  0
LTYPE
  5
11
100
AcDbSymbolTableRecord
100
AcDbLinetypeTableRecord
  2
BYBLOCK
 70
              64
  3

 72
              65
 73
               0
 40
0.0
  0
LTYPE
  5
12
100
AcDbSymbolTableRecord
100
AcDbLinetypeTableRecord
  2
BYLAYER
 70
              64
  3

 72
              65
 73
               0
 40
0.0
  0
LTYPE
  5
13
100
AcDbSymbolTableRecord
100
AcDbLinetypeTableRecord
  2
CONTINUOUS
 70
              64
  3
Solid line
 72
              65
 73
               0
 40
0.0
  0
LTYPE
  5
44
100
AcDbSymbolTableRecord
100
AcDbLinetypeTableRecord
  2
CENTER
 70
              64
  3
Center ____ _ ____ _ ____ _ ____ _ ____ _ ____
 72
              65
 73
               4
 40
26.0
 49
20.0
 74
               0
 49
-2.0
 74
               0
 49
2.0
 74
               0
 49
-2.0
 74
               0
  0
LTYPE
  5
B4
100
AcDbSymbolTableRecord
100
AcDbLinetypeTableRecord
  2
PHANTOM
 70
              64
  3
Phantom ______  __  __  ______  __  __  ______
 72
              65
 73
               6
 40
30.0
 49
20.0
 74
               0
 49
-2.0
 74
               0
 49
2.0
 74
               0
 49
-2.0
 74
               0
 49
2.0
 74
               0
 49
-2.0
 74
               0
  0
ENDTAB
  0
TABLE
  2
LAYER
  5
2
100
AcDbSymbolTable
 70
               2
  0
LAYER
  5
14
100
AcDbSymbolTableRecord
100
AcDbLayerTableRecord
  2
0
 70
               0
 62
               7
  6
CONTINUOUS
  0
LAYER
  5
1D
100
AcDbSymbolTableRecord
100
AcDbLayerTableRecord
  2
DEFPOINTS
 70
               0
 62
               7
  6
CONTINUOUS
  0
ENDTAB
  0
TABLE
  2
STYLE
  5
3
100
AcDbSymbolTable
 70
               1
  0
STYLE
  5
17
100
AcDbSymbolTableRecord
100
AcDbTextStyleTableRecord
  2
MX_NOTE_STANDARD
 70
               0
 40
0.0
 41
1.0
 50
0.0
 71
               0
 42
3.2000000476837158
  3
txt.shx
  4
extfont.shx
  0
ENDTAB
  0
TABLE
  2
VIEW
  5
5
100
AcDbSymbolTable
 70
               0
  0
ENDTAB
  0
TABLE
  2
UCS
  5
6
100
AcDbSymbolTable
 70
               0
  0
ENDTAB
  0
TABLE
  2
APPID
  5
8
100
AcDbSymbolTable
 70
               1
  0
APPID
  5
16
100
AcDbSymbolTableRecord
100
AcDbRegAppTableRecord
  2
ACAD
 70
               0
  0
ENDTAB
  0
TABLE
  2
DIMSTYLE
  5
9
100
AcDbSymbolTable
 70
               1
  0
DIMSTYLE
105
18
100
AcDbSymbolTableRecord
100
AcDbDimStyleTableRecord
  2
MXDIMSTYLE
 70
               0
  3

  4

  5

  6

  7

 40
1.0
 41
2.5
 42
1.5
 43
3.75
 44
1.5
 45
0.0
 46
0.0
 47
0.0
 48
0.0
 71
               0
 72
               0
 73
               0
 74
               0
 75
               0
 76
               0
 77
               1
 78
               8
140
3.2000000476837158
141
2.5
142
0.0
143
0.03937007874016
144
1.0
145
0.0
146
1.0
147
1.0
170
               0
171
               4
172
               1
173
               0
174
               0
175
               0
176
               0
177
               0
178
               0
270
               2
271
               4
272
               4
273
               2
274
               4
275
               0
280
               0
281
               0
282
               0
283
               1
284
               0
285
               0
286
               0
287
               3
288
               1
340
17
  0
ENDTAB
  0
TABLE
  2
BLOCK_RECORD
  5
1
100
AcDbSymbolTable
 70
               6
  0
BLOCK_RECORD
  5
A
100
AcDbSymbolTableRecord
100
AcDbBlockTableRecord
  2
*MODEL_SPACE
  0
BLOCK_RECORD
  5
B
100
AcDbSymbolTableRecord
100
AcDbBlockTableRecord
  2
*PAPER_SPACE
  0
BLOCK_RECORD
  5
1E
100
AcDbSymbolTableRecord
100
AcDbBlockTableRecord
  2
MGAPG4_5-1
  0
BLOCK_RECORD
  5
1F
100
AcDbSymbolTableRecord
100
AcDbBlockTableRecord
  2
MGAPG4_5-2
  0
BLOCK_RECORD
  5
20
100
AcDbSymbolTableRecord
100
AcDbBlockTableRecord
  2
MGAPG4_5-3
  0
BLOCK_RECORD
  5
21
100
AcDbSymbolTableRecord
100
AcDbBlockTableRecord
  2
MGAPG4_5-4
  0
BLOCK_RECORD
  5
22
100
AcDbSymbolTableRecord
100
AcDbBlockTableRecord
  2
MGAPG4_5-5
  0
BLOCK_RECORD
  5
23
100
AcDbSymbolTableRecord
100
AcDbBlockTableRecord
  2
MGAPG4_5-6
  0
ENDTAB
  0
ENDSEC
  0
SECTION
  2
BLOCKS
  0
BLOCK
  5
D
100
AcDbEntity
  8
0
100
AcDbBlockBegin
  2
*MODEL_SPACE
 70
               0
 10
0.0
 20
0.0
 30
0.0
  3
*MODEL_SPACE
  1

  0
ENDBLK
  5
E
100
AcDbEntity
  8
0
100
AcDbBlockEnd
  0
BLOCK
  5
F
100
AcDbEntity
 67
               1
  8
0
100
AcDbBlockBegin
  2
*PAPER_SPACE
 70
               0
 10
0.0
 20
0.0
 30
0.0
  3
*PAPER_SPACE
  1

  0
ENDBLK
  5
10
100
AcDbEntity
 67
               1
  8
0
100
AcDbBlockEnd
  0
BLOCK
  5
24
100
AcDbEntity
  8
0
100
AcDbBlockBegin
  2
MGAPG4_5-1
 70
               0
 10
0.0
 20
0.0
 30
0.0
  3
MGAPG4_5-1
  1

  0
ARC
  5
25
100
AcDbEntity
  8
0
  6
CONTINUOUS
 62
               7
100
AcDbCircle
 10
41.0
 20
-6.5
 30
0.0
 40
2.0999999999999943
100
AcDbArc
 50
0.0
 51
70.384020864595641
  0
LINE
  5
26
100
AcDbEntity
  8
0
  6
CONTINUOUS
 62
               2
100
AcDbLine
 10
39.0
 20
-6.5
 30
0.0
 11
45.0
 21
-6.5
 31
0.0
  0
LINE
  5
27
100
AcDbEntity
  8
0
  6
CONTINUOUS
 62
               2
100
AcDbLine
 10
34.5
 20
-6.0
 30
0.0
 11
39.5
 21
-6.0
 31
0.0
  0
CIRCLE
  5
28
100
AcDbEntity
  8
0
  6
CONTINUOUS
 62
               7
100
AcDbCircle
 10
37.0
 20
-6.0
 30
0.0
 40
1.25
  0
LINE
  5
29
100
AcDbEntity
  8
0
  6
CONTINUOUS
 62
               2
100
AcDbLine
 10
37.0
 20
-8.5
 30
0.0
 11
37.0
 21
-3.5
 31
0.0
  0
CIRCLE
  5
2A
100
AcDbEntity
  8
0
  6
CONTINUOUS
 62
               2
100
AcDbCircle
 10
37.0
 20
-6.0
 30
0.0
 40
1.5
  0
CIRCLE
  5
2B
100
AcDbEntity
  8
0
  6
CONTINUOUS
 62
               7
100
AcDbCircle
 10
42.0
 20
-6.5
 30
0.0
 40
2.0
  0
LINE
  5
2C
100
AcDbEntity
  8
0
  6
CONTINUOUS
 62
               2
100
AcDbLine
 10
42.0
 20
-3.5
 30
0.0
 11
42.0
 21
-9.5
 31
0.0
  0
LINE
  5
2D
100
AcDbEntity
  8
0
  6
CONTINUOUS
 62
               2
100
AcDbLine
 10
41.0
 20
-3.4500000000000028
 30
0.0
 11
41.0
 21
-9.5499999999999972
 31
0.0
  0
ARC
  5
2E
100
AcDbEntity
  8
0
  6
CONTINUOUS
 62
               7
100
AcDbCircle
 10
41.0
 20
-6.5
 30
0.0
 40
1.05
100
AcDbArc
 50
205.3684394417661
 51
154.6315605582339
  0
LINE
  5
2F
100
AcDbEntity
  8
0
  6
CONTINUOUS
 62
               7
100
AcDbLine
 10
43.100000000000136
 20
-6.5
 30
0.0
 11
43.100000000000136
 21
-8.1703293088489772
 31
0.0
  0
LINE
  5
30
100
AcDbEntity
  8
0
  6
CONTINUOUS
 62
               7
100
AcDbLine
 10
0.0
 20
9.0
 30
0.0
 11
52.0
 21
9.0
 31
0.0
  0
CIRCLE
  5
31
100
AcDbEntity
  8
0
  6
CONTINUOUS
 62
               7
100
AcDbCircle
 10
21.0
 20
6.0
 30
0.0
 40
1.25
  0
LINE
  5
32
100
AcDbEntity
  8
0
  6
CONTINUOUS
 62
               2
100
AcDbLine
 10
21.0
 20
8.5
 30
0.0
 11
21.0
 21
3.5
 31
0.0
  0
CIRCLE
  5
33
100
AcDbEntity
  8
0
  6
CONTINUOUS
 62
               2
100
AcDbCircle
 10
21.0
 20
6.0
 30
0.0
 40
1.5
  0
CIRCLE
  5
34
100
AcDbEntity
  8
0
  6
CONTINUOUS
 62
               7
100
AcDbCircle
 10
26.0
 20
6.5
 30
0.0
 40
2.0
  0
LINE
  5
35
100
AcDbEntity
  8
0
  6
CONTINUOUS
 62
               2
100
AcDbLine
 10
23.0
 20
6.5
 30
0.0
 11
29.0
 21
6.5
 31
0.0
  0
LINE
  5
36
100
AcDbEntity
  8
0
  6
CONTINUOUS
 62
               2
100
AcDbLine
 10
26.0
 20
3.5
 30
0.0
 11
26.0
 21
9.5
 31
0.0
  0
CIRCLE
  5
37
100
AcDbEntity
  8
0
  6
CONTINUOUS
 62
               7
100
AcDbCircle
 10
37.0
 20
6.0
 30
0.0
 40
1.25
  0
LINE
  5
38
100
AcDbEntity
  8
0
  6
CONTINUOUS
 62
               2
100
AcDbLine
 10
37.0
 20
8.5
 30
0.0
 11
37.0
 21
3.5
 31
0.0
  0
CIRCLE
  5
39
100
AcDbEntity
  8
0
  6
CONTINUOUS
 62
               2
100
AcDbCircle
 10
37.0
 20
6.0
 30
0.0
 40
1.5
  0
LINE
  5
3A
100
AcDbEntity
  8
0
  6
CONTINUOUS
 62
               2
100
AcDbLine
 10
34.5
 20
6.0
 30
0.0
 11
39.5
 21
6.0
 31
0.0
  0
CIRCLE
  5
3B
100
AcDbEntity
  8
0
  6
CONTINUOUS
 62
               7
100
AcDbCircle
 10
21.0
 20
-6.0
 30
0.0
 40
1.25
  0
LINE
  5
3C
100
AcDbEntity
  8
0
  6
CONTINUOUS
 62
               2
100
AcDbLine
 10
21.0
 20
-8.5
 30
0.0
 11
21.0
 21
-3.5
 31
0.0
  0
CIRCLE
  5
3D
100
AcDbEntity
  8
0
  6
CONTINUOUS
 62
               2
100
AcDbCircle
 10
21.0
 20
-6.0
 30
0.0
 40
1.5
  0
LINE
  5
3E
100
AcDbEntity
  8
0
  6
CONTINUOUS
 62
               7
100
AcDbLine
 10
36.5
 20
-1.5
 30
0.0
 11
37.5
 21
-1.5
 31
0.0
  0
LINE
  5
3F
100
AcDbEntity
  8
0
  6
CONTINUOUS
 62
               7
100
AcDbLine
 10
36.5
 20
1.5
 30
0.0
 11
37.5
 21
1.5
 31
0.0
  0
ARC
  5
40
100
AcDbEntity
  8
0
  6
CONTINUOUS
 62
               7
100
AcDbCircle
 10
37.5
 20
0.0
 30
0.0
 40
1.5
100
AcDbArc
 50
270.0
 51
90.0
  0
LINE
  5
41
100
AcDbEntity
  8
0
  6
CONTINUOUS
 62
               2
100
AcDbLine
 10
21.0
 20
-2.5
 30
0.0
 11
21.0
 21
2.5
 31
0.0
  0
CIRCLE
  5
42
100
AcDbEntity
  8
0
  6
CONTINUOUS
 62
               7
100
AcDbCircle
 10
21.0
 20
0.0
 30
0.0
 40
1.5
  0
LINE
  5
43
100
AcDbEntity
  8
0
  6
CONTINUOUS
 62
               7
100
AcDbLine
 10
52.0
 20
-9.0
 30
0.0
 11
52.0
 21
9.0
 31
0.0
  0
LINE
  5
45
100
AcDbEntity
  8
0
  6
CENTER
 62
               2
100
AcDbLine
 10
-4.0
 20
0.0
 30
0.0
 11
79.999999999999773
 21
0.0
 31
0.0
  0
LINE
  5
46
100
AcDbEntity
  8
0
  6
CONTINUOUS
 62
               7
100
AcDbLine
 10
14.0
 20
-9.0
 30
0.0
 11
14.0
 21
9.0
 31
0.0
  0
ARC
  5
47
100
AcDbEntity
  8
0
  6
CONTINUOUS
 62
               7
100
AcDbCircle
 10
36.5
 20
0.0
 30
0.0
 40
1.5
100
AcDbArc
 50
90.0
 51
270.0
  0
LINE
  5
48
100
AcDbEntity
  8
0
  6
CONTINUOUS
 62
               2
100
AcDbLine
 10
37.0
 20
-2.5
 30
0.0
 11
37.0
 21
2.5
 31
0.0
  0
LINE
  5
49
100
AcDbEntity
  8
0
  6
CONTINUOUS
 62
               2
100
AcDbLine
 10
18.5
 20
6.0
 30
0.0
 11
23.5
 21
6.0
 31
0.0
  0
LINE
  5
4A
100
AcDbEntity
  8
0
  6
CONTINUOUS
 62
               7
100
AcDbLine
 10
0.0
 20
8.5
 30
0.0
 11
52.0
 21
8.5
 31
0.0
  0
LINE
  5
4B
100
AcDbEntity
  8
0
  6
CONTINUOUS
 62
               7
100
AcDbLine
 10
0.0
 20
-8.5
 30
0.0
 11
52.0
 21
-8.5
 31
0.0
  0
LINE
  5
4C
100
AcDbEntity
  8
0
  6
CONTINUOUS
 62
               2
100
AcDbLine
 10
18.5
 20
-6.0
 30
0.0
 11
23.5
 21
-6.0
 31
0.0
  0
LINE
  5
4D
100
AcDbEntity
  8
0
  6
CONTINUOUS
 62
               2
100
AcDbLine
 10
25.0
 20
3.4500000000000028
 30
0.0
 11
25.0
 21
9.5499999999999972
 31
0.0
  0
ARC
  5
4E
100
AcDbEntity
  8
0
  6
CONTINUOUS
 62
               7
100
AcDbCircle
 10
25.0
 20
6.5
 30
0.0
 40
1.05
100
AcDbArc
 50
205.3684394417661
 51
154.63156055823393
  0
CIRCLE
  5
4F
100
AcDbEntity
  8
0
  6
CONTINUOUS
 62
               7
100
AcDbCircle
 10
26.0
 20
-6.5
 30
0.0
 40
2.0
  0
LINE
  5
50
100
AcDbEntity
  8
0
  6
CONTINUOUS
 62
               2
100
AcDbLine
 10
26.0
 20
-3.5
 30
0.0
 11
26.0
 21
-9.5
 31
0.0
  0
LINE
  5
51
100
AcDbEntity
  8
0
  6
CONTINUOUS
 62
               2
100
AcDbLine
 10
25.0
 20
-3.4500000000000028
 30
0.0
 11
25.0
 21
-9.5499999999999972
 31
0.0
  0
LINE
  5
52
100
AcDbEntity
  8
0
  6
CONTINUOUS
 62
               7
100
AcDbLine
 10
27.100000000000136
 20
-6.5
 30
0.0
 11
27.100000000000136
 21
-8.1703293088489701
 31
0.0
  0
ARC
  5
53
100
AcDbEntity
  8
0
  6
CONTINUOUS
 62
               7
100
AcDbCircle
 10
25.0
 20
-6.5
 30
0.0
 40
1.05
100
AcDbArc
 50
205.3684394417661
 51
154.6315605582339
  0
LINE
  5
54
100
AcDbEntity
  8
0
  6
CONTINUOUS
 62
               2
100
AcDbLine
 10
23.0
 20
-6.5
 30
0.0
 11
29.0
 21
-6.5
 31
0.0
  0
CIRCLE
  5
55
100
AcDbEntity
  8
0
  6
CONTINUOUS
 62
               7
100
AcDbCircle
 10
42.0
 20
6.5
 30
0.0
 40
2.0
  0
LINE
  5
56
100
AcDbEntity
  8
0
  6
CONTINUOUS
 62
               2
100
AcDbLine
 10
42.0
 20
3.5
 30
0.0
 11
42.0
 21
9.5
 31
0.0
  0
LINE
  5
57
100
AcDbEntity
  8
0
  6
CONTINUOUS
 62
               2
100
AcDbLine
 10
41.0
 20
3.4500000000000028
 30
0.0
 11
41.0
 21
9.5499999999999972
 31
0.0
  0
ARC
  5
58
100
AcDbEntity
  8
0
  6
CONTINUOUS
 62
               7
100
AcDbCircle
 10
41.0
 20
6.5
 30
0.0
 40
1.05
100
AcDbArc
 50
205.3684394417661
 51
154.63156055823393
  0
LINE
  5
59
100
AcDbEntity
  8
0
  6
CONTINUOUS
 62
               2
100
AcDbLine
 10
39.0
 20
6.5
 30
0.0
 11
45.0
 21
6.5
 31
0.0
  0
LINE
  5
5A
100
AcDbEntity
  8
0
  6
CONTINUOUS
 62
               7
100
AcDbLine
 10
0.0
 20
-9.0
 30
0.0
 11
52.0
 21
-9.0
 31
0.0
  0
ARC
  5
5B
100
AcDbEntity
  8
0
  6
CONTINUOUS
 62
               7
100
AcDbCircle
 10
25.0
 20
-6.5
 30
0.0
 40
2.0999999999999943
100
AcDbArc
 50
0.0
 51
70.384020864595627
  0
LINE
  5
5C
100
AcDbEntity
  8
0
  6
CONTINUOUS
 62
               7
100
AcDbLine
 10
27.100000000000136
 20
6.5
 30
0.0
 11
27.100000000000136
 21
8.1703293088489772
 31
0.0
  0
ARC
  5
5D
100
AcDbEntity
  8
0
  6
CONTINUOUS
 62
               7
100
AcDbCircle
 10
25.0
 20
6.5
 30
0.0
 40
2.0999999999999943
100
AcDbArc
 50
289.61597913540436
 51
0.0
  0
LINE
  5
5E
100
AcDbEntity
  8
0
  6
CONTINUOUS
 62
               7
100
AcDbLine
 10
43.100000000000136
 20
6.5
 30
0.0
 11
43.100000000000136
 21
8.1703293088489772
 31
0.0
  0
ARC
  5
5F
100
AcDbEntity
  8
0
  6
CONTINUOUS
 62
               7
100
AcDbCircle
 10
41.0
 20
6.5
 30
0.0
 40
2.0999999999999943
100
AcDbArc
 50
289.61597913540436
 51
0.0
  0
LINE
  5
60
100
AcDbEntity
  8
0
  6
CONTINUOUS
 62
               7
100
AcDbLine
 10
52.5
 20
7.3000000000000114
 30
0.0
 11
52.5
 21
-7.3000000000000114
 31
0.0
  0
LINE
  5
61
100
AcDbEntity
  8
0
  6
CONTINUOUS
 62
               7
100
AcDbLine
 10
52.0
 20
7.3000000000000114
 30
0.0
 11
52.5
 21
7.3000000000000114
 31
0.0
  0
LINE
  5
62
100
AcDbEntity
  8
0
  6
CONTINUOUS
 62
               7
100
AcDbLine
 10
52.5
 20
6.5
 30
0.0
 11
52.700000000000045
 21
6.5
 31
0.0
  0
LINE
  5
63
100
AcDbEntity
  8
0
  6
CONTINUOUS
 62
               7
100
AcDbLine
 10
52.5
 20
4.5
 30
0.0
 11
52.700000000000045
 21
4.5
 31
0.0
  0
ARC
  5
64
100
AcDbEntity
  8
0
  6
CONTINUOUS
 62
               7
100
AcDbCircle
 10
52.700000000000045
 20
4.7999999999999972
 30
0.0
 40
0.3
100
AcDbArc
 50
270.0
 51
0.0
  0
ARC
  5
65
100
AcDbEntity
  8
0
  6
CONTINUOUS
 62
               7
100
AcDbCircle
 10
52.700000000000045
 20
6.2000000000000028
 30
0.0
 40
0.3
100
AcDbArc
 50
0.0
 51
90.0
  0
LINE
  5
66
100
AcDbEntity
  8
0
  6
CONTINUOUS
 62
               7
100
AcDbLine
 10
53.0
 20
4.7999999999999972
 30
0.0
 11
53.0
 21
6.2000000000000028
 31
0.0
  0
LINE
  5
67
100
AcDbEntity
  8
0
  6
CONTINUOUS
 62
               7
100
AcDbLine
 10
52.0
 20
-7.3000000000000114
 30
0.0
 11
52.5
 21
-7.3000000000000114
 31
0.0
  0
LINE
  5
68
100
AcDbEntity
  8
0
  6
CONTINUOUS
 62
               7
100
AcDbLine
 10
53.0
 20
-4.7999999999999972
 30
0.0
 11
53.0
 21
-6.2000000000000028
 31
0.0
  0
LINE
  5
69
100
AcDbEntity
  8
0
  6
CONTINUOUS
 62
               7
100
AcDbLine
 10
52.5
 20
-6.5
 30
0.0
 11
52.700000000000045
 21
-6.5
 31
0.0
  0
LINE
  5
6A
100
AcDbEntity
  8
0
  6
CONTINUOUS
 62
               7
100
AcDbLine
 10
52.5
 20
-4.5
 30
0.0
 11
52.700000000000045
 21
-4.5
 31
0.0
  0
ARC
  5
6B
100
AcDbEntity
  8
0
  6
CONTINUOUS
 62
               7
100
AcDbCircle
 10
52.700000000000045
 20
-6.2000000000000028
 30
0.0
 40
0.3
100
AcDbArc
 50
270.0
 51
0.0
  0
ARC
  5
6C
100
AcDbEntity
  8
0
  6
CONTINUOUS
 62
               7
100
AcDbCircle
 10
52.700000000000045
 20
-4.7999999999999972
 30
0.0
 40
0.3
100
AcDbArc
 50
0.0
 51
90.0
  0
SPLINE
  5
6D
100
AcDbEntity
  8
0
  6
CONTINUOUS
 62
               7
100
AcDbSpline
210
0.0
220
0.0
230
1.0
 70
               0
 71
               3
 72
               0
 73
               0
 74
               5
 44
0.000001
 12
-0.3364388986559803
 22
-0.9417052975698667
 32
0.0
 13
0.3364388986559804
 23
-0.9417052975698665
 33
0.0
 11
76.178632794954183
 21
-0.0000000000000497
 31
0.0
 11
76.046595825582926
 21
-0.4918647629421219
 31
0.0
 11
76.0
 21
-1.0
 31
0.0
 11
76.046595825582926
 21
-1.5081352370579033
 31
0.0
 11
76.178632794954183
 21
-2.0
 31
0.0
  0
SPLINE
  5
6E
100
AcDbEntity
  8
0
  6
CONTINUOUS
 62
               7
100
AcDbSpline
210
0.0
220
0.0
230
1.0
 70
               0
 71
               3
 72
               0
 73
               0
 74
               5
 44
0.000001
 12
-0.3364388986559676
 22
-0.9417052975698712
 32
0.0
 13
0.3364388986559635
 23
-0.9417052975698727
 33
0.0
 11
76.178632794954183
 21
2.0
 31
0.0
 11
76.046595825582926
 21
1.5081352370579029
 31
0.0
 11
76.0
 21
1.0
 31
0.0
 11
76.046595825582926
 21
0.491864762942072
 31
0.0
 11
76.178632794954183
 21
-0.0000000000000497
 31
0.0
  0
SPLINE
  5
6F
100
AcDbEntity
  8
0
  6
CONTINUOUS
 62
               7
100
AcDbSpline
210
0.0
220
0.0
230
1.0
 70
               0
 71
               3
 72
               0
 73
               0
 74
               5
 44
0.000001
 12
0.3364388986559804
 22
-0.9417052975698665
 32
0.0
 13
-0.3364388986559803
 23
-0.9417052975698667
 33
0.0
 11
77.421367205045954
 21
-0.0000000000000497
 31
0.0
 11
77.55340417441721
 21
-0.4918647629421219
 31
0.0
 11
77.600000000000136
 21
-1.0
 31
0.0
 11
77.55340417441721
 21
-1.5081352370579033
 31
0.0
 11
77.421367205045954
 21
-2.0
 31
0.0
  0
SPLINE
  5
70
100
AcDbEntity
  8
0
  6
CONTINUOUS
 62
               7
100
AcDbSpline
210
0.0
220
0.0
230
1.0
 70
               0
 71
               3
 72
               0
 73
               0
 74
               5
 44
0.000001
 12
0.3364388986559677
 22
-0.9417052975698711
 32
0.0
 13
-0.3364388986559634
 23
-0.9417052975698727
 33
0.0
 11
77.421367205045954
 21
2.0
 31
0.0
 11
77.55340417441721
 21
1.5081352370579029
 31
0.0
 11
77.600000000000136
 21
1.0
 31
0.0
 11
77.55340417441721
 21
0.491864762942072
 31
0.0
 11
77.421367205045954
 21
-0.0000000000000497
 31
0.0
  0
SPLINE
  5
71
100
AcDbEntity
  8
0
  6
CONTINUOUS
 62
               7
100
AcDbSpline
210
0.0
220
0.0
230
1.0
 70
               0
 71
               3
 72
               0
 73
               0
 74
               5
 44
0.000001
 12
0.5262037021178121
 22
-0.8503585501878069
 32
0.0
 13
-0.5262037021178122
 23
-0.8503585501878068
 33
0.0
 11
75.613248654051858
 21
0.0
 31
0.0
 11
75.892689116051059
 21
-0.599249328153952
 31
0.0
 11
76.0
 21
-1.25
 31
0.0
 11
75.892689116051059
 21
-1.9007506718460478
 31
0.0
 11
75.613248654051858
 21
-2.5
 31
0.0
  0
SPLINE
  5
72
100
AcDbEntity
  8
0
  6
CONTINUOUS
 62
               7
100
AcDbSpline
210
0.0
220
0.0
230
1.0
 70
               0
 71
               3
 72
               0
 73
               0
 74
               5
 44
0.000001
 12
0.5262037021178121
 22
-0.8503585501878069
 32
0.0
 13
-0.5262037021178122
 23
-0.8503585501878068
 33
0.0
 11
75.613248654051858
 21
2.5
 31
0.0
 11
75.892689116051059
 21
1.9007506718460481
 31
0.0
 11
76.0
 21
1.25
 31
0.0
 11
75.892689116051059
 21
0.5992493281539522
 31
0.0
 11
75.613248654051858
 21
0.0000000000000002
 31
0.0
  0
LINE
  5
73
100
AcDbEntity
  8
0
  6
CONTINUOUS
 62
               7
100
AcDbLine
 10
52.0
 20
8.0
 30
0.0
 11
58.5
 21
8.0
 31
0.0
  0
LINE
  5
74
100
AcDbEntity
  8
0
  6
CONTINUOUS
 62
               7
100
AcDbLine
 10
52.0
 20
-8.0
 30
0.0
 11
58.5
 21
-8.0
 31
0.0
  0
LINE
  5
75
100
AcDbEntity
  8
0
  6
CONTINUOUS
 62
               7
100
AcDbLine
 10
52.5
 20
2.6000000000000014
 30
0.0
 11
58.5
 21
2.6000000000000014
 31
0.0
  0
LINE
  5
76
100
AcDbEntity
  8
0
  6
CONTINUOUS
 62
               7
100
AcDbLine
 10
52.5
 20
-2.6000000000000014
 30
0.0
 11
58.5
 21
-2.6000000000000014
 31
0.0
  0
LINE
  5
77
100
AcDbEntity
  8
0
  6
CONTINUOUS
 62
               7
100
AcDbLine
 10
59.400000000000091
 20
-6.3999999999999986
 30
0.0
 11
59.400000000000091
 21
-2.6000000000000014
 31
0.0
  0
LINE
  5
78
100
AcDbEntity
  8
0
  6
CONTINUOUS
 62
               7
100
AcDbLine
 10
59.700000000000045
 20
-6.1000000000000014
 30
0.0
 11
59.700000000000045
 21
-2.8999999999999986
 31
0.0
  0
LINE
  5
79
100
AcDbEntity
  8
0
  6
CONTINUOUS
 62
               7
100
AcDbLine
 10
59.700000000000045
 20
-6.1000000000000014
 30
0.0
 11
59.400000000000091
 21
-6.3999999999999986
 31
0.0
  0
LINE
  5
7A
100
AcDbEntity
  8
0
  6
CONTINUOUS
 62
               7
100
AcDbLine
 10
59.700000000000045
 20
-2.8999999999999986
 30
0.0
 11
59.400000000000091
 21
-2.6000000000000014
 31
0.0
  0
LINE
  5
7B
100
AcDbEntity
  8
0
  6
CONTINUOUS
 62
               7
100
AcDbLine
 10
59.400000000000091
 20
-6.3999999999999986
 30
0.0
 11
58.5
 21
-6.3999999999999986
 31
0.0
  0
LINE
  5
7C
100
AcDbEntity
  8
0
  6
CONTINUOUS
 62
               7
100
AcDbLine
 10
59.400000000000091
 20
-2.6000000000000014
 30
0.0
 11
58.5
 21
-2.6000000000000014
 31
0.0
  0
LINE
  5
7D
100
AcDbEntity
  8
0
  6
CONTINUOUS
 62
               7
100
AcDbLine
 10
59.400000000000091
 20
6.4000000000000057
 30
0.0
 11
59.400000000000091
 21
2.6000000000000014
 31
0.0
  0
LINE
  5
7E
100
AcDbEntity
  8
0
  6
CONTINUOUS
 62
               7
100
AcDbLine
 10
59.700000000000045
 20
6.0999999999999943
 30
0.0
 11
59.700000000000045
 21
2.8999999999999986
 31
0.0
  0
LINE
  5
7F
100
AcDbEntity
  8
0
  6
CONTINUOUS
 62
               7
100
AcDbLine
 10
59.700000000000045
 20
6.0999999999999943
 30
0.0
 11
59.400000000000091
 21
6.4000000000000057
 31
0.0
  0
LINE
  5
80
100
AcDbEntity
  8
0
  6
CONTINUOUS
 62
               7
100
AcDbLine
 10
59.700000000000045
 20
2.8999999999999986
 30
0.0
 11
59.400000000000091
 21
2.6000000000000014
 31
0.0
  0
LINE
  5
81
100
AcDbEntity
  8
0
  6
CONTINUOUS
 62
               7
100
AcDbLine
 10
59.400000000000091
 20
6.4000000000000057
 30
0.0
 11
58.5
 21
6.4000000000000057
 31
0.0
  0
LINE
  5
82
100
AcDbEntity
  8
0
  6
CONTINUOUS
 62
               7
100
AcDbLine
 10
59.400000000000091
 20
2.6000000000000014
 30
0.0
 11
58.5
 21
2.6000000000000014
 31
0.0
  0
LINE
  5
83
100
AcDbEntity
  8
0
  6
CONTINUOUS
 62
               7
100
AcDbLine
 10
77.799999999999955
 20
1.0
 30
0.0
 11
77.799999999999955
 21
-1.0
 31
0.0
  0
LINE
  5
84
100
AcDbEntity
  8
0
  6
CONTINUOUS
 62
               7
100
AcDbLine
 10
76.178632794954183
 20
-0.0000000000000497
 30
0.0
 11
77.421367205045954
 21
-0.0000000000000497
 31
0.0
  0
LINE
  5
85
100
AcDbEntity
  8
0
  6
CONTINUOUS
 62
               7
100
AcDbLine
 10
75.613248654051858
 20
0.0
 30
0.0
 11
71.5
 21
0.0
 31
0.0
  0
LINE
  5
86
100
AcDbEntity
  8
0
  6
CONTINUOUS
 62
               7
100
AcDbLine
 10
77.600000000000136
 20
-1.0
 30
0.0
 11
77.799999999999955
 21
-1.0
 31
0.0
  0
LINE
  5
87
100
AcDbEntity
  8
0
  6
CONTINUOUS
 62
               7
100
AcDbLine
 10
77.600000000000136
 20
1.0
 30
0.0
 11
77.799999999999955
 21
1.0
 31
0.0
  0
LINE
  5
88
100
AcDbEntity
  8
0
  6
CONTINUOUS
 62
               7
100
AcDbLine
 10
68.5
 20
2.25
 30
0.0
 11
68.5
 21
-2.25
 31
0.0
  0
LINE
  5
89
100
AcDbEntity
  8
0
  6
CONTINUOUS
 62
               7
100
AcDbLine
 10
68.5
 20
2.25
 30
0.0
 11
71.5
 21
2.25
 31
0.0
  0
LINE
  5
8A
100
AcDbEntity
  8
0
  6
CONTINUOUS
 62
               7
100
AcDbLine
 10
76.0
 20
2.5
 30
0.0
 11
76.0
 21
-2.5
 31
0.0
  0
LINE
  5
8B
100
AcDbEntity
  8
0
  6
CONTINUOUS
 62
               7
100
AcDbLine
 10
71.5
 20
2.5
 30
0.0
 11
71.5
 21
-2.5
 31
0.0
  0
LINE
  5
8C
100
AcDbEntity
  8
0
  6
CONTINUOUS
 62
               7
100
AcDbLine
 10
76.0
 20
2.5
 30
0.0
 11
71.5
 21
2.5
 31
0.0
  0
LINE
  5
8D
100
AcDbEntity
  8
0
  6
CONTINUOUS
 62
               7
100
AcDbLine
 10
77.600000000000136
 20
2.0
 30
0.0
 11
77.600000000000136
 21
-2.0
 31
0.0
  0
LINE
  5
8E
100
AcDbEntity
  8
0
  6
CONTINUOUS
 62
               7
100
AcDbLine
 10
77.600000000000136
 20
2.0
 30
0.0
 11
76.0
 21
2.0
 31
0.0
  0
LINE
  5
8F
100
AcDbEntity
  8
0
  6
CONTINUOUS
 62
               7
100
AcDbLine
 10
77.600000000000136
 20
-2.0
 30
0.0
 11
76.0
 21
-2.0
 31
0.0
  0
LINE
  5
90
100
AcDbEntity
  8
0
  6
CONTINUOUS
 62
               7
100
AcDbLine
 10
76.0
 20
-2.5
 30
0.0
 11
71.5
 21
-2.5
 31
0.0
  0
LINE
  5
91
100
AcDbEntity
  8
0
  6
CONTINUOUS
 62
               7
100
AcDbLine
 10
68.5
 20
-2.25
 30
0.0
 11
71.5
 21
-2.25
 31
0.0
  0
LINE
  5
92
100
AcDbEntity
  8
0
  6
CONTINUOUS
 62
               7
100
AcDbLine
 10
78.0
 20
0.8000000000000114
 30
0.0
 11
78.0
 21
-0.7999999999999972
 31
0.0
  0
LINE
  5
93
100
AcDbEntity
  8
0
  6
CONTINUOUS
 62
               7
100
AcDbLine
 10
77.799999999999955
 20
1.0
 30
0.0
 11
78.0
 21
0.8000000000000114
 31
0.0
  0
LINE
  5
94
100
AcDbEntity
  8
0
  6
CONTINUOUS
 62
               7
100
AcDbLine
 10
78.0
 20
-0.7999999999999972
 30
0.0
 11
77.799999999999955
 21
-1.0
 31
0.0
  0
LINE
  5
95
100
AcDbEntity
  8
0
  6
CONTINUOUS
 62
               7
100
AcDbLine
 10
58.5
 20
8.0
 30
0.0
 11
58.5
 21
-8.0
 31
0.0
  0
LINE
  5
96
100
AcDbEntity
  8
0
  6
CONTINUOUS
 62
               7
100
AcDbLine
 10
58.5
 20
-1.0
 30
0.0
 11
68.5
 21
-1.0
 31
0.0
  0
LINE
  5
97
100
AcDbEntity
  8
0
  6
CONTINUOUS
 62
               7
100
AcDbLine
 10
58.5
 20
1.0
 30
0.0
 11
68.5
 21
1.0
 31
0.0
  0
LINE
  5
98
100
AcDbEntity
  8
0
  6
CONTINUOUS
 62
               7
100
AcDbLine
 10
68.0
 20
1.0
 30
0.0
 11
68.0
 21
-1.0
 31
0.0
  0
LINE
  5
99
100
AcDbEntity
  8
0
  6
CONTINUOUS
 62
               2
100
AcDbLine
 10
68.0
 20
0.7834999999999965
 30
0.0
 11
68.5
 21
0.7834999999999965
 31
0.0
  0
LINE
  5
9A
100
AcDbEntity
  8
0
  6
CONTINUOUS
 62
               2
100
AcDbLine
 10
68.0
 20
0.7834999999999965
 30
0.0
 11
67.625011000161294
 21
1.0
 31
0.0
  0
LINE
  5
9B
100
AcDbEntity
  8
0
  6
CONTINUOUS
 62
               2
100
AcDbLine
 10
68.0
 20
-0.7834999999999965
 30
0.0
 11
67.625011000161294
 21
-1.0
 31
0.0
  0
LINE
  5
9C
100
AcDbEntity
  8
0
  6
CONTINUOUS
 62
               2
100
AcDbLine
 10
68.0
 20
-0.7834999999999965
 30
0.0
 11
68.5
 21
-0.7834999999999965
 31
0.0
  0
LINE
  5
9D
100
AcDbEntity
  8
0
  6
CONTINUOUS
 62
               2
100
AcDbLine
 10
77.600000000000136
 20
0.7835000000000036
 30
0.0
 11
78.0
 21
0.7835000000000036
 31
0.0
  0
LINE
  5
9E
100
AcDbEntity
  8
0
  6
CONTINUOUS
 62
               2
100
AcDbLine
 10
77.600000000000136
 20
-0.7835000000000036
 30
0.0
 11
78.0
 21
-0.7835000000000036
 31
0.0
  0
LINE
  5
9F
100
AcDbEntity
  8
0
  6
CONTINUOUS
 62
               7
100
AcDbLine
 10
0.0
 20
-9.0
 30
0.0
 11
0.0
 21
9.0
 31
0.0
  0
LINE
  5
A0
100
AcDbEntity
  8
0
  6
CONTINUOUS
 62
               2
100
AcDbLine
 10
-2.0
 20
6.0
 30
0.0
 11
2.0
 21
6.0
 31
0.0
  0
LINE
  5
A1
100
AcDbEntity
  8
0
  6
CONTINUOUS
 62
               7
100
AcDbLine
 10
1.6000000000001364
 20
7.9000000000000057
 30
0.0
 11
1.6000000000001364
 21
4.1000000000000014
 31
0.0
  0
LINE
  5
A2
100
AcDbEntity
  8
0
  6
CONTINUOUS
 62
               7
100
AcDbLine
 10
1.2999999999999545
 20
7.5999999999999943
 30
0.0
 11
1.2999999999999545
 21
4.3999999999999986
 31
0.0
  0
LINE
  5
A3
100
AcDbEntity
  8
0
  6
CONTINUOUS
 62
               7
100
AcDbLine
 10
3.2999999999999545
 20
8.0999999999999943
 30
0.0
 11
3.2999999999999545
 21
3.8999999999999986
 31
0.0
  0
LINE
  5
A4
100
AcDbEntity
  8
0
  6
CONTINUOUS
 62
               7
100
AcDbLine
 10
1.2999999999999545
 20
7.5999999999999943
 30
0.0
 11
1.6000000000001364
 21
7.9000000000000057
 31
0.0
  0
LINE
  5
A5
100
AcDbEntity
  8
0
  6
CONTINUOUS
 62
               7
100
AcDbLine
 10
1.2999999999999545
 20
4.3999999999999986
 30
0.0
 11
1.6000000000001364
 21
4.1000000000000014
 31
0.0
  0
LINE
  5
A6
100
AcDbEntity
  8
0
  6
CONTINUOUS
 62
               7
100
AcDbLine
 10
1.6000000000001364
 20
7.9000000000000057
 30
0.0
 11
3.2999999999999545
 21
7.9000000000000057
 31
0.0
  0
LINE
  5
A7
100
AcDbEntity
  8
0
  6
CONTINUOUS
 62
               7
100
AcDbLine
 10
1.6000000000001364
 20
4.1000000000000014
 30
0.0
 11
3.2999999999999545
 21
4.1000000000000014
 31
0.0
  0
LINE
  5
A8
100
AcDbEntity
  8
0
  6
CONTINUOUS
 62
               7
100
AcDbLine
 10
0.0
 20
3.8999999999999986
 30
0.0
 11
3.2999999999999545
 21
3.8999999999999986
 31
0.0
  0
LINE
  5
A9
100
AcDbEntity
  8
0
  6
CONTINUOUS
 62
               7
100
AcDbLine
 10
0.0
 20
8.0999999999999943
 30
0.0
 11
3.2999999999999545
 21
8.0999999999999943
 31
0.0
  0
LINE
  5
AA
100
AcDbEntity
  8
0
  6
CONTINUOUS
 62
               2
100
AcDbLine
 10
-2.0
 20
-6.0
 30
0.0
 11
2.0
 21
-6.0
 31
0.0
  0
LINE
  5
AB
100
AcDbEntity
  8
0
  6
CONTINUOUS
 62
               7
100
AcDbLine
 10
1.6000000000001364
 20
-4.1000000000000014
 30
0.0
 11
3.2999999999999545
 21
-4.1000000000000014
 31
0.0
  0
LINE
  5
AC
100
AcDbEntity
  8
0
  6
CONTINUOUS
 62
               7
100
AcDbLine
 10
1.6000000000001364
 20
-7.8999999999999986
 30
0.0
 11
3.2999999999999545
 21
-7.8999999999999986
 31
0.0
  0
LINE
  5
AD
100
AcDbEntity
  8
0
  6
CONTINUOUS
 62
               7
100
AcDbLine
 10
1.2999999999999545
 20
-4.3999999999999986
 30
0.0
 11
1.6000000000001364
 21
-4.1000000000000014
 31
0.0
  0
LINE
  5
AE
100
AcDbEntity
  8
0
  6
CONTINUOUS
 62
               7
100
AcDbLine
 10
1.2999999999999545
 20
-7.6000000000000014
 30
0.0
 11
1.6000000000001364
 21
-7.8999999999999986
 31
0.0
  0
LINE
  5
AF
100
AcDbEntity
  8
0
  6
CONTINUOUS
 62
               7
100
AcDbLine
 10
1.2999999999999545
 20
-7.6000000000000014
 30
0.0
 11
1.2999999999999545
 21
-4.3999999999999986
 31
0.0
  0
LINE
  5
B0
100
AcDbEntity
  8
0
  6
CONTINUOUS
 62
               7
100
AcDbLine
 10
1.6000000000001364
 20
-7.8999999999999986
 30
0.0
 11
1.6000000000001364
 21
-4.1000000000000014
 31
0.0
  0
LINE
  5
B1
100
AcDbEntity
  8
0
  6
CONTINUOUS
 62
               7
100
AcDbLine
 10
0.0
 20
-3.8999999999999986
 30
0.0
 11
3.2999999999999545
 21
-3.8999999999999986
 31
0.0
  0
LINE
  5
B2
100
AcDbEntity
  8
0
  6
CONTINUOUS
 62
               7
100
AcDbLine
 10
0.0
 20
-8.1000000000000014
 30
0.0
 11
3.2999999999999545
 21
-8.1000000000000014
 31
0.0
  0
LINE
  5
B3
100
AcDbEntity
  8
0
  6
CONTINUOUS
 62
               7
100
AcDbLine
 10
3.2999999999999545
 20
-8.1000000000000014
 30
0.0
 11
3.2999999999999545
 21
-3.8999999999999986
 31
0.0
  0
LINE
  5
B5
100
AcDbEntity
  8
0
  6
PHANTOM
 62
               3
100
AcDbLine
 10
63.5
 20
-14.130543549814774
 30
0.0
 11
63.5
 21
15.869456450185226
 31
0.0
  0
ENDBLK
  5
B6
100
AcDbEntity
  8
0
100
AcDbBlockEnd
  0
BLOCK
  5
B7
100
AcDbEntity
  8
0
100
AcDbBlockBegin
  2
MGAPG4_5-2
 70
               0
 10
0.0
 20
0.0
 30
0.0
  3
MGAPG4_5-2
  1

  0
LINE
  5
B8
100
AcDbEntity
  8
0
  6
CONTINUOUS
 62
               7
100
AcDbLine
 10
0.2999999999999545
 20
2.4000000000000057
 30
0.0
 11
0.2999999999999545
 21
-2.4000000000000057
 31
0.0
  0
LINE
  5
B9
100
AcDbEntity
  8
0
  6
CONTINUOUS
 62
               7
100
AcDbLine
 10
0.2999999999999545
 20
-2.4000000000000057
 30
0.0
 11
0.0
 21
-2.7000000000000171
 31
0.0
  0
LINE
  5
BA
100
AcDbEntity
  8
0
  6
CONTINUOUS
 62
               7
100
AcDbLine
 10
0.2999999999999545
 20
2.4000000000000057
 30
0.0
 11
0.0
 21
2.7000000000000171
 31
0.0
  0
LINE
  5
BB
100
AcDbEntity
  8
0
  6
CONTINUOUS
 62
               7
100
AcDbLine
 10
0.0
 20
-2.7000000000000171
 30
0.0
 11
0.0
 21
-8.5
 31
0.0
  0
LINE
  5
BC
100
AcDbEntity
  8
0
  6
CONTINUOUS
 62
               7
100
AcDbLine
 10
0.5999999999999091
 20
-1.8999999999999986
 30
0.0
 11
0.5999999999999091
 21
-9.0
 31
0.0
  0
LINE
  5
BD
100
AcDbEntity
  8
0
  6
CONTINUOUS
 62
               7
100
AcDbLine
 10
7.8999999999998636
 20
-3.8999999999999986
 30
0.0
 11
9.7999999999999545
 21
-3.8999999999999986
 31
0.0
  0
ARC
  5
BE
100
AcDbEntity
  8
0
  6
CONTINUOUS
 62
               7
100
AcDbCircle
 10
7.8999999999998636
 20
-6.0
 30
0.0
 40
2.1000000000000001
100
AcDbArc
 50
90.0
 51
270.0
  0
LINE
  5
BF
100
AcDbEntity
  8
0
  6
CONTINUOUS
 62
               7
100
AcDbLine
 10
7.8999999999998636
 20
-8.1000000000000014
 30
0.0
 11
9.7999999999999545
 21
-8.1000000000000014
 31
0.0
  0
LINE
  5
C0
100
AcDbEntity
  8
0
  6
CONTINUOUS
 62
               7
100
AcDbLine
 10
7.8999999999998636
 20
3.8999999999999986
 30
0.0
 11
9.7999999999999545
 21
3.8999999999999986
 31
0.0
  0
LINE
  5
C1
100
AcDbEntity
  8
0
  6
CONTINUOUS
 62
               7
100
AcDbLine
 10
7.8999999999998636
 20
8.0999999999999943
 30
0.0
 11
9.7999999999999545
 21
8.0999999999999943
 31
0.0
  0
ARC
  5
C2
100
AcDbEntity
  8
0
  6
CONTINUOUS
 62
               7
100
AcDbCircle
 10
7.8999999999998636
 20
6.0
 30
0.0
 40
2.1000000000000001
100
AcDbArc
 50
90.0
 51
270.0
  0
LINE
  5
C3
100
AcDbEntity
  8
0
  6
CONTINUOUS
 62
               7
100
AcDbLine
 10
9.5
 20
-9.0
 30
0.0
 11
10.0
 21
-8.5000000000000426
 31
0.0
  0
LINE
  5
C4
100
AcDbEntity
  8
0
  6
CONTINUOUS
 62
               7
100
AcDbLine
 10
9.7999999999999545
 20
-8.5
 30
0.0
 11
9.2999999999999545
 21
-8.9999999999999858
 31
0.0
  0
LINE
  5
C5
100
AcDbEntity
  8
0
  6
CONTINUOUS
 62
               7
100
AcDbLine
 10
9.5
 20
9.0
 30
0.0
 11
10.0
 21
8.5000000000000284
 31
0.0
  0
LINE
  5
C6
100
AcDbEntity
  8
0
  6
CONTINUOUS
 62
               7
100
AcDbLine
 10
9.2999999999999545
 20
9.0
 30
0.0
 11
9.7999999999999545
 21
8.5000000000000284
 31
0.0
  0
LINE
  5
C7
100
AcDbEntity
  8
0
  6
CONTINUOUS
 62
               2
100
AcDbLine
 10
3.5
 20
8.0
 30
0.0
 11
3.5
 21
-8.0
 31
0.0
  0
CIRCLE
  5
C8
100
AcDbEntity
  8
0
  6
CONTINUOUS
 62
               2
100
AcDbCircle
 10
3.5
 20
-6.0
 30
0.0
 40
1.5
  0
CIRCLE
  5
C9
100
AcDbEntity
  8
0
  6
CONTINUOUS
 62
               7
100
AcDbCircle
 10
3.5
 20
-6.0
 30
0.0
 40
1.25
  0
CIRCLE
  5
CA
100
AcDbEntity
  8
0
  6
CONTINUOUS
 62
               2
100
AcDbCircle
 10
3.5
 20
6.0
 30
0.0
 40
1.5
  0
CIRCLE
  5
CB
100
AcDbEntity
  8
0
  6
CONTINUOUS
 62
               7
100
AcDbCircle
 10
3.5
 20
6.0
 30
0.0
 40
1.25
  0
CIRCLE
  5
CC
100
AcDbEntity
  8
0
  6
CONTINUOUS
 62
               7
100
AcDbCircle
 10
3.5
 20
-1.8999999999999986
 30
0.0
 40
0.5
  0
CIRCLE
  5
CD
100
AcDbEntity
  8
0
  6
CONTINUOUS
 62
               7
100
AcDbCircle
 10
3.5
 20
1.8999999999999986
 30
0.0
 40
0.5
  0
LINE
  5
CE
100
AcDbEntity
  8
0
  6
CONTINUOUS
 62
               7
100
AcDbLine
 10
9.5
 20
9.0
 30
0.0
 11
0.5999999999999091
 21
9.0
 31
0.0
  0
LINE
  5
CF
100
AcDbEntity
  8
0
  6
CONTINUOUS
 62
               7
100
AcDbLine
 10
9.5
 20
-9.0
 30
0.0
 11
0.5999999999999091
 21
-9.0
 31
0.0
  0
LINE
  5
D0
100
AcDbEntity
  8
0
  6
CONTINUOUS
 62
               7
100
AcDbLine
 10
0.5999999999999091
 20
-8.5
 30
0.0
 11
0.0
 21
-8.5
 31
0.0
  0
LINE
  5
D1
100
AcDbEntity
  8
0
  6
CONTINUOUS
 62
               7
100
AcDbLine
 10
10.0
 20
-8.5000000000000426
 30
0.0
 11
10.0
 21
8.5000000000000284
 31
0.0
  0
LINE
  5
D2
100
AcDbEntity
  8
0
  6
CENTER
 62
               2
100
AcDbLine
 10
-4.0
 20
0.0
 30
0.0
 11
14.0
 21
0.0
 31
0.0
  0
LINE
  5
D3
100
AcDbEntity
  8
0
  6
CONTINUOUS
 62
               7
100
AcDbLine
 10
0.0
 20
8.499999992019184
 30
0.0
 11
0.0
 21
2.7000000000000171
 31
0.0
  0
LINE
  5
D4
100
AcDbEntity
  8
0
  6
CONTINUOUS
 62
               7
100
AcDbLine
 10
0.5999999999999091
 20
8.5
 30
0.0
 11
0.0
 21
8.5
 31
0.0
  0
LINE
  5
D5
100
AcDbEntity
  8
0
  6
CONTINUOUS
 62
               7
100
AcDbLine
 10
0.5999999999999091
 20
9.0
 30
0.0
 11
0.5999999999999091
 21
1.8999999999999986
 31
0.0
  0
LINE
  5
D6
100
AcDbEntity
  8
0
  6
CONTINUOUS
 62
               7
100
AcDbLine
 10
8.7660254903787518
 20
5.9999998632791716
 30
0.0
 11
8.333012674446536
 21
6.7500000233842599
 31
0.0
  0
LINE
  5
D7
100
AcDbEntity
  8
0
  6
CONTINUOUS
 62
               7
100
AcDbLine
 10
7.4669873732143515
 20
6.7500001433532191
 30
0.0
 11
7.0339745896869772
 21
5.9999999645392847
 31
0.0
  0
LINE
  5
D8
100
AcDbEntity
  8
0
  6
CONTINUOUS
 62
               7
100
AcDbLine
 10
7.0339745096212027
 20
6.0000001367208284
 30
0.0
 11
7.4669873255534185
 21
5.2499999766157401
 31
0.0
  0
LINE
  5
D9
100
AcDbEntity
  8
0
  6
CONTINUOUS
 62
               7
100
AcDbLine
 10
8.3330126267856031
 20
5.2499998566467809
 30
0.0
 11
8.7660254103129773
 21
6.0000000354607153
 31
0.0
  0
LINE
  5
DA
100
AcDbEntity
  8
0
  6
CONTINUOUS
 62
               7
100
AcDbLine
 10
7.4669871364069422
 20
5.2499999933676094
 30
0.0
 11
8.3330127358663049
 21
5.2500000120764554
 31
0.0
  0
LINE
  5
DB
100
AcDbEntity
  8
0
  6
CONTINUOUS
 62
               7
100
AcDbLine
 10
8.3330128635930123
 20
6.7500000066324048
 30
0.0
 11
7.4669872641336497
 21
6.7499999879235446
 31
0.0
  0
CIRCLE
  5
DC
100
AcDbEntity
  8
0
  6
CONTINUOUS
 62
               7
100
AcDbCircle
 10
7.8999999999998636
 20
6.0
 30
0.0
 40
1.9000000000000148
  0
CIRCLE
  5
DD
100
AcDbEntity
  8
0
  6
CONTINUOUS
 62
               7
100
AcDbCircle
 10
7.8999999999998636
 20
6.0
 30
0.0
 40
1.6000000000000174
  0
LINE
  5
DE
100
AcDbEntity
  8
0
  6
CONTINUOUS
 62
               7
100
AcDbLine
 10
9.7999999999999545
 20
-8.5
 30
0.0
 11
9.7999999999999545
 21
8.5000000000000284
 31
0.0
  0
CIRCLE
  5
DF
100
AcDbEntity
  8
0
  6
CONTINUOUS
 62
               7
100
AcDbCircle
 10
7.8999999999998636
 20
-6.0
 30
0.0
 40
1.9000000000000148
  0
CIRCLE
  5
E0
100
AcDbEntity
  8
0
  6
CONTINUOUS
 62
               7
100
AcDbCircle
 10
7.8999999999998636
 20
-6.0
 30
0.0
 40
1.6000000000000174
  0
LINE
  5
E1
100
AcDbEntity
  8
0
  6
CONTINUOUS
 62
               7
100
AcDbLine
 10
8.3330128635930123
 20
-6.7500000066324048
 30
0.0
 11
7.4669872641336497
 21
-6.7499999879235446
 31
0.0
  0
LINE
  5
E2
100
AcDbEntity
  8
0
  6
CONTINUOUS
 62
               7
100
AcDbLine
 10
7.4669871364069422
 20
-5.2499999933676023
 30
0.0
 11
8.3330127358663049
 21
-5.2500000120764554
 31
0.0
  0
LINE
  5
E3
100
AcDbEntity
  8
0
  6
CONTINUOUS
 62
               7
100
AcDbLine
 10
8.3330126267856031
 20
-5.2499998566467809
 30
0.0
 11
8.7660254103129773
 21
-6.0000000354607153
 31
0.0
  0
LINE
  5
E4
100
AcDbEntity
  8
0
  6
CONTINUOUS
 62
               7
100
AcDbLine
 10
7.0339745096212027
 20
-6.0000001367208213
 30
0.0
 11
7.4669873255534185
 21
-5.2499999766157401
 31
0.0
  0
LINE
  5
E5
100
AcDbEntity
  8
0
  6
CONTINUOUS
 62
               7
100
AcDbLine
 10
7.4669873732143515
 20
-6.7500001433532191
 30
0.0
 11
7.0339745896869772
 21
-5.9999999645392847
 31
0.0
  0
LINE
  5
E6
100
AcDbEntity
  8
0
  6
CONTINUOUS
 62
               7
100
AcDbLine
 10
8.7660254903787518
 20
-5.9999998632791787
 30
0.0
 11
8.333012674446536
 21
-6.7500000233842599
 31
0.0
  0
CIRCLE
  5
E7
100
AcDbEntity
  8
0
  6
CONTINUOUS
 62
               7
100
AcDbCircle
 10
3.5
 20
0.0
 30
0.0
 40
2.7999999999999998
  0
ARC
  5
E8
100
AcDbEntity
  8
0
  6
CONTINUOUS
 62
               7
100
AcDbCircle
 10
3.5
 20
0.0
 30
0.0
 40
3.3000000000000043
100
AcDbArc
 50
270.0
 51
90.0
  0
ARC
  5
E9
100
AcDbEntity
  8
0
  6
CONTINUOUS
 62
               7
100
AcDbCircle
 10
3.5
 20
0.0
 30
0.0
 40
2.8999999999999999
100
AcDbArc
 50
139.06727542584409
 51
220.93272457415591
  0
LINE
  5
EA
100
AcDbEntity
  8
0
  6
CONTINUOUS
 62
               7
100
AcDbLine
 10
1.4433036198795435
 20
1.8999999999999986
 30
0.0
 11
0.5999999999999091
 21
1.8999999999999986
 31
0.0
  0
LINE
  5
EB
100
AcDbEntity
  8
0
  6
CONTINUOUS
 62
               7
100
AcDbLine
 10
3.5
 20
3.3000000000000043
 30
0.0
 11
0.5999999999999091
 21
3.3000000000000043
 31
0.0
  0
LINE
  5
EC
100
AcDbEntity
  8
0
  6
CONTINUOUS
 62
               7
100
AcDbLine
 10
1.4433036198795435
 20
-1.8999999999999986
 30
0.0
 11
0.5999999999999091
 21
-1.8999999999999986
 31
0.0
  0
LINE
  5
ED
100
AcDbEntity
  8
0
  6
CONTINUOUS
 62
               7
100
AcDbLine
 10
3.5
 20
-3.3000000000000043
 30
0.0
 11
0.5999999999999091
 21
-3.3000000000000043
 31
0.0
  0
CIRCLE
  5
EE
100
AcDbEntity
  8
0
  6
CONTINUOUS
 62
               7
100
AcDbCircle
 10
3.5
 20
0.0
 30
0.0
 40
0.7
  0
LINE
  5
EF
100
AcDbEntity
  8
0
  6
CONTINUOUS
 62
               2
100
AcDbLine
 10
1.5
 20
-6.0
 30
0.0
 11
5.5
 21
-6.0
 31
0.0
  0
LINE
  5
F0
100
AcDbEntity
  8
0
  6
CONTINUOUS
 62
               2
100
AcDbLine
 10
1.5
 20
6.0
 30
0.0
 11
5.5
 21
6.0
 31
0.0
  0
LINE
  5
F1
100
AcDbEntity
  8
0
  6
CONTINUOUS
 62
               2
100
AcDbLine
 10
-2.0
 20
6.5
 30
0.0
 11
2.0
 21
6.5
 31
0.0
  0
LINE
  5
F2
100
AcDbEntity
  8
0
  6
CONTINUOUS
 62
               2
100
AcDbLine
 10
-2.0
 20
-6.5
 30
0.0
 11
2.0
 21
-6.5
 31
0.0
  0
ENDBLK
  5
F3
100
AcDbEntity
  8
0
100
AcDbBlockEnd
  0
BLOCK
  5
F4
100
AcDbEntity
  8
0
100
AcDbBlockBegin
  2
MGAPG4_5-3
 70
               0
 10
0.0
 20
0.0
 30
0.0
  3
MGAPG4_5-3
  1

  0
LINE
  5
F5
100
AcDbEntity
  8
0
  6
CONTINUOUS
 62
               7
100
AcDbLine
 10
0.0
 20
2.4000000000000341
 30
0.0
 11
0.0999999999999091
 21
2.5000000000000284
 31
0.0
  0
LINE
  5
F6
100
AcDbEntity
  8
0
  6
CONTINUOUS
 62
               7
100
AcDbLine
 10
0.0
 20
-2.4000000000000341
 30
0.0
 11
0.0999999999999091
 21
-2.5000000000000284
 31
0.0
  0
LINE
  5
F7
100
AcDbEntity
  8
0
  6
CONTINUOUS
 62
               7
100
AcDbLine
 10
-7.7000000000000455
 20
3.0
 30
0.0
 11
-7.7000000000000455
 21
-3.0
 31
0.0
  0
LINE
  5
F8
100
AcDbEntity
  8
0
  6
CONTINUOUS
 62
               7
100
AcDbLine
 10
-7.7000000000000455
 20
-3.0
 30
0.0
 11
-7.3658171329848301
 21
-3.0
 31
0.0
  0
LINE
  5
F9
100
AcDbEntity
  8
0
  6
CONTINUOUS
 62
               7
100
AcDbLine
 10
-6.4341828670153518
 20
-3.0
 30
0.0
 11
-5.5999999999999091
 21
-3.0
 31
0.0
  0
LINE
  5
FA
100
AcDbEntity
  8
0
  6
CONTINUOUS
 62
               7
100
AcDbLine
 10
0.0999999999999091
 20
-2.5000000000000284
 30
0.0
 11
0.0999999999999091
 21
-8.5
 31
0.0
  0
CIRCLE
  5
FB
100
AcDbEntity
  8
0
  6
CONTINUOUS
 62
               7
100
AcDbCircle
 10
-7.4000000000000909
 20
5.5
 30
0.0
 40
1.0
  0
LINE
  5
FC
100
AcDbEntity
  8
0
  6
CONTINUOUS
 62
               7
100
AcDbLine
 10
-6.8343145750507119
 20
6.0656854249492369
 30
0.0
 11
-7.9656854249492426
 21
4.9343145750507631
 31
0.0
  0
LINE
  5
FD
100
AcDbEntity
  8
0
  6
CONTINUOUS
 62
               7
100
AcDbLine
 10
-6.8343145750507119
 20
4.9343145750507631
 30
0.0
 11
-7.9656854249492426
 21
6.0656854249492369
 31
0.0
  0
CIRCLE
  5
FE
100
AcDbEntity
  8
0
  6
CONTINUOUS
 62
               7
100
AcDbCircle
 10
-7.4000000000000909
 20
-5.5
 30
0.0
 40
1.0
  0
LINE
  5
FF
100
AcDbEntity
  8
0
  6
CONTINUOUS
 62
               7
100
AcDbLine
 10
-6.8343145750507119
 20
-4.9343145750507631
 30
0.0
 11
-7.9656854249492426
 21
-6.0656854249492369
 31
0.0
  0
LINE
  5
100
100
AcDbEntity
  8
0
  6
CONTINUOUS
 62
               7
100
AcDbLine
 10
-6.8343145750507119
 20
-6.0656854249492369
 30
0.0
 11
-7.9656854249492426
 21
-4.9343145750507631
 31
0.0
  0
LINE
  5
101
100
AcDbEntity
  8
0
  6
CONTINUOUS
 62
               7
100
AcDbLine
 10
-9.9000000000000909
 20
8.5
 30
0.0
 11
-9.4000000000000909
 21
9.0
 31
0.0
  0
LINE
  5
102
100
AcDbEntity
  8
0
  6
CONTINUOUS
 62
               7
100
AcDbLine
 10
-9.9000000000000909
 20
-8.5
 30
0.0
 11
-9.3999999999996362
 21
-9.0
 31
0.0
  0
ARC
  5
103
100
AcDbEntity
  8
0
  6
CONTINUOUS
 62
               7
100
AcDbCircle
 10
-6.9000000000000909
 20
-3.1999999999999886
 30
0.0
 40
0.5
100
AcDbArc
 50
11.536959032814943
 51
168.46304096718507
  0
LINE
  5
104
100
AcDbEntity
  8
0
  6
CONTINUOUS
 62
               7
100
AcDbLine
 10
-9.4000000000000909
 20
9.0
 30
0.0
 11
-0.5
 21
9.0
 31
0.0
  0
LINE
  5
105
100
AcDbEntity
  8
0
  6
CONTINUOUS
 62
               7
100
AcDbLine
 10
-5.4000000000000909
 20
3.5999999999999943
 30
0.0
 11
-5.4000000000000909
 21
8.5
 31
0.0
  0
LINE
  5
106
100
AcDbEntity
  8
0
  6
CONTINUOUS
 62
               7
100
AcDbLine
 10
-0.5
 20
-9.0
 30
0.0
 11
-9.3999999999996362
 21
-9.0
 31
0.0
  0
LINE
  5
107
100
AcDbEntity
  8
0
  6
CONTINUOUS
 62
               7
100
AcDbLine
 10
-5.4000000000000909
 20
-8.5
 30
0.0
 11
0.0999999999999091
 21
-8.5
 31
0.0
  0
LINE
  5
108
100
AcDbEntity
  8
0
  6
CONTINUOUS
 62
               7
100
AcDbLine
 10
-9.9000000000000909
 20
-8.5
 30
0.0
 11
-9.9000000000000909
 21
8.5
 31
0.0
  0
LINE
  5
109
100
AcDbEntity
  8
0
  6
CONTINUOUS
 62
               7
100
AcDbLine
 10
-5.4000000000000909
 20
-8.5
 30
0.0
 11
-5.4000000000000909
 21
-3.5999999999999943
 31
0.0
  0
LINE
  5
10A
100
AcDbEntity
  8
0
  6
CONTINUOUS
 62
               7
100
AcDbLine
 10
0.0999999999999091
 20
8.499999992019184
 30
0.0
 11
0.0999999999999091
 21
2.5000000000000284
 31
0.0
  0
LINE
  5
10B
100
AcDbEntity
  8
0
  6
CONTINUOUS
 62
               7
100
AcDbLine
 10
-5.4000000000000909
 20
8.5
 30
0.0
 11
0.0999999999999091
 21
8.5
 31
0.0
  0
LINE
  5
10C
100
AcDbEntity
  8
0
  6
CONTINUOUS
 62
               7
100
AcDbLine
 10
-7.7000000000000455
 20
3.0
 30
0.0
 11
-7.3658171329848301
 21
3.0
 31
0.0
  0
LINE
  5
10D
100
AcDbEntity
  8
0
  6
CONTINUOUS
 62
               7
100
AcDbLine
 10
-6.4341828670153518
 20
3.0
 30
0.0
 11
-5.5999999999999091
 21
3.0
 31
0.0
  0
ARC
  5
10E
100
AcDbEntity
  8
0
  6
CONTINUOUS
 62
               7
100
AcDbCircle
 10
-6.9000000000000909
 20
3.1999999999999886
 30
0.0
 40
0.5
100
AcDbArc
 50
191.53695903281493
 51
348.46304096718501
  0
LINE
  5
10F
100
AcDbEntity
  8
0
  6
CONTINUOUS
 62
               7
100
AcDbLine
 10
-9.5999999999999091
 20
-7.3000000000000114
 30
0.0
 11
-9.5999999999999091
 21
7.3000000000000114
 31
0.0
  0
LINE
  5
110
100
AcDbEntity
  8
0
  6
CONTINUOUS
 62
               7
100
AcDbLine
 10
-6.0999999999999091
 20
-7.3000000000000114
 30
0.0
 11
-9.5999999999999091
 21
-7.3000000000000114
 31
0.0
  0
LINE
  5
111
100
AcDbEntity
  8
0
  6
CONTINUOUS
 62
               7
100
AcDbLine
 10
-6.0999999999999091
 20
-7.3000000000000114
 30
0.0
 11
-6.0999999999999091
 21
-3.0999999999999943
 31
0.0
  0
LINE
  5
112
100
AcDbEntity
  8
0
  6
CONTINUOUS
 62
               7
100
AcDbLine
 10
-6.0999999999999091
 20
-3.0999999999999943
 30
0.0
 11
-8.0999999999999091
 21
-3.0999999999999943
 31
0.0
  0
LINE
  5
113
100
AcDbEntity
  8
0
  6
CONTINUOUS
 62
               7
100
AcDbLine
 10
-6.0999999999999091
 20
3.0999999999999943
 30
0.0
 11
-8.0999999999999091
 21
3.0999999999999943
 31
0.0
  0
LINE
  5
114
100
AcDbEntity
  8
0
  6
CONTINUOUS
 62
               7
100
AcDbLine
 10
-6.0999999999999091
 20
7.3000000000000114
 30
0.0
 11
-6.0999999999999091
 21
3.0999999999999943
 31
0.0
  0
LINE
  5
115
100
AcDbEntity
  8
0
  6
CONTINUOUS
 62
               7
100
AcDbLine
 10
-6.0999999999999091
 20
7.3000000000000114
 30
0.0
 11
-9.5999999999999091
 21
7.3000000000000114
 31
0.0
  0
LINE
  5
116
100
AcDbEntity
  8
0
  6
CONTINUOUS
 62
               7
100
AcDbLine
 10
-8.0999999999999091
 20
3.0999999999999943
 30
0.0
 11
-8.0999999999999091
 21
-3.0999999999999943
 31
0.0
  0
LINE
  5
117
100
AcDbEntity
  8
0
  6
CONTINUOUS
 62
               7
100
AcDbLine
 10
-6.0999999999999091
 20
3.3999999999999986
 30
0.0
 11
-5.9000000000000909
 21
3.3999999999999986
 31
0.0
  0
LINE
  5
118
100
AcDbEntity
  8
0
  6
CONTINUOUS
 62
               7
100
AcDbLine
 10
-5.9000000000000909
 20
-3.3999999999999986
 30
0.0
 11
-5.9000000000000909
 21
-9.0
 31
0.0
  0
LINE
  5
119
100
AcDbEntity
  8
0
  6
CONTINUOUS
 62
               7
100
AcDbLine
 10
-6.0999999999999091
 20
-3.3999999999999986
 30
0.0
 11
-5.9000000000000909
 21
-3.3999999999999986
 31
0.0
  0
LINE
  5
11A
100
AcDbEntity
  8
0
  6
CONTINUOUS
 62
               7
100
AcDbLine
 10
-5.9000000000000909
 20
3.3999999999999986
 30
0.0
 11
-5.9000000000000909
 21
9.0
 31
0.0
  0
LINE
  5
11B
100
AcDbEntity
  8
0
  6
CONTINUOUS
 62
               7
100
AcDbLine
 10
-0.5
 20
-9.0
 30
0.0
 11
-0.5
 21
-8.5
 31
0.0
  0
LINE
  5
11C
100
AcDbEntity
  8
0
  6
CONTINUOUS
 62
               7
100
AcDbLine
 10
-0.5
 20
8.5
 30
0.0
 11
-0.5
 21
9.0
 31
0.0
  0
LINE
  5
11D
100
AcDbEntity
  8
0
  6
CONTINUOUS
 62
               7
100
AcDbLine
 10
-1.0905989232414868
 20
0.0
 30
0.0
 11
-2.2452994616207889
 21
2.0
 31
0.0
  0
LINE
  5
11E
100
AcDbEntity
  8
0
  6
CONTINUOUS
 62
               7
100
AcDbLine
 10
-2.2452994616207889
 20
-2.0
 30
0.0
 11
-1.0905989232414868
 21
0.0
 31
0.0
  0
LINE
  5
11F
100
AcDbEntity
  8
0
  6
CONTINUOUS
 62
               7
100
AcDbLine
 10
-5.7094010767584678
 20
0.0
 30
0.0
 11
-4.5547005383791657
 21
-2.0
 31
0.0
  0
LINE
  5
120
100
AcDbEntity
  8
0
  6
CONTINUOUS
 62
               7
100
AcDbLine
 10
-4.5547005383791657
 20
2.0
 30
0.0
 11
-5.7094010767584678
 21
0.0
 31
0.0
  0
CIRCLE
  5
121
100
AcDbEntity
  8
0
  6
CONTINUOUS
 62
               7
100
AcDbCircle
 10
-3.4000000000000909
 20
0.0
 30
0.0
 40
2.0
  0
LINE
  5
122
100
AcDbEntity
  8
0
  6
CONTINUOUS
 62
               7
100
AcDbLine
 10
-1.9566243270260202
 20
2.5
 30
0.0
 11
-4.8433756729741617
 21
2.5
 31
0.0
  0
LINE
  5
123
100
AcDbEntity
  8
0
  6
CONTINUOUS
 62
               7
100
AcDbLine
 10
-0.5132486540519494
 20
0.0
 30
0.0
 11
-1.9566243270260202
 21
2.5
 31
0.0
  0
LINE
  5
124
100
AcDbEntity
  8
0
  6
CONTINUOUS
 62
               7
100
AcDbLine
 10
-1.9566243270260202
 20
-2.5
 30
0.0
 11
-0.5132486540519494
 21
0.0
 31
0.0
  0
LINE
  5
125
100
AcDbEntity
  8
0
  6
CONTINUOUS
 62
               7
100
AcDbLine
 10
-4.8433756729741617
 20
-2.5
 30
0.0
 11
-1.9566243270260202
 21
-2.5
 31
0.0
  0
CIRCLE
  5
126
100
AcDbEntity
  8
0
  6
CONTINUOUS
 62
               7
100
AcDbCircle
 10
-3.4000000000000909
 20
0.0
 30
0.0
 40
2.5
  0
LINE
  5
127
100
AcDbEntity
  8
0
  6
CONTINUOUS
 62
               2
100
AcDbLine
 10
-3.4000000000000909
 20
-3.4111517424362319
 30
0.0
 11
-3.4000000000000909
 21
3.4197847075272421
 31
0.0
  0
CIRCLE
  5
128
100
AcDbEntity
  8
0
  6
CONTINUOUS
 62
               7
100
AcDbCircle
 10
-3.4000000000000909
 20
0.0
 30
0.0
 40
1.0
  0
CIRCLE
  5
129
100
AcDbEntity
  8
0
  6
CONTINUOUS
 62
               2
100
AcDbCircle
 10
-3.4000000000000909
 20
0.0
 30
0.0
 40
0.7834999999999966
  0
LINE
  5
12A
100
AcDbEntity
  8
0
  6
CONTINUOUS
 62
               7
100
AcDbLine
 10
-4.5547005383791657
 20
-2.0
 30
0.0
 11
-2.2452994616207889
 21
-2.0
 31
0.0
  0
LINE
  5
12B
100
AcDbEntity
  8
0
  6
CONTINUOUS
 62
               7
100
AcDbLine
 10
-2.2452994616207889
 20
2.0
 30
0.0
 11
-4.5547005383791657
 21
2.0
 31
0.0
  0
LINE
  5
12C
100
AcDbEntity
  8
0
  6
CONTINUOUS
 62
               7
100
AcDbLine
 10
-5.4000000000000909
 20
8.0
 30
0.0
 11
0.0
 21
8.0
 31
0.0
  0
LINE
  5
12D
100
AcDbEntity
  8
0
  6
CONTINUOUS
 62
               7
100
AcDbLine
 10
0.0
 20
8.0
 30
0.0
 11
0.0
 21
-8.0
 31
0.0
  0
LINE
  5
12E
100
AcDbEntity
  8
0
  6
CONTINUOUS
 62
               7
100
AcDbLine
 10
-5.4000000000000909
 20
-8.0
 30
0.0
 11
0.0
 21
-8.0
 31
0.0
  0
ARC
  5
12F
100
AcDbEntity
  8
0
  6
CONTINUOUS
 62
               7
100
AcDbCircle
 10
-6.4000000000000909
 20
-3.5999999999999943
 30
0.0
 40
1.0
100
AcDbArc
 50
0.0
 51
90.0
  0
LINE
  5
130
100
AcDbEntity
  8
0
  6
CONTINUOUS
 62
               7
100
AcDbLine
 10
-6.4000000000000909
 20
2.5999999999999943
 30
0.0
 11
-6.9000000000000909
 21
2.5999999999999943
 31
0.0
  0
ARC
  5
131
100
AcDbEntity
  8
0
  6
CONTINUOUS
 62
               7
100
AcDbCircle
 10
-6.4000000000000909
 20
3.5999999999999943
 30
0.0
 40
1.0
100
AcDbArc
 50
270.0
 51
0.0
  0
LINE
  5
132
100
AcDbEntity
  8
0
  6
CONTINUOUS
 62
               7
100
AcDbLine
 10
-6.4000000000000909
 20
-2.5999999999999943
 30
0.0
 11
-6.9000000000000909
 21
-2.5999999999999943
 31
0.0
  0
LINE
  5
133
100
AcDbEntity
  8
0
  6
CONTINUOUS
 62
               7
100
AcDbLine
 10
-6.2867513459482325
 20
0.0
 30
0.0
 11
-4.8433756729741617
 21
-2.5
 31
0.0
  0
LINE
  5
134
100
AcDbEntity
  8
0
  6
CONTINUOUS
 62
               7
100
AcDbLine
 10
-6.9000000000000909
 20
-2.5999999999999943
 30
0.0
 11
-6.9000000000000909
 21
2.5999999999999943
 31
0.0
  0
LINE
  5
135
100
AcDbEntity
  8
0
  6
CONTINUOUS
 62
               7
100
AcDbLine
 10
-4.8433756729741617
 20
2.5
 30
0.0
 11
-6.2867513459482325
 21
0.0
 31
0.0
  0
CIRCLE
  5
136
100
AcDbEntity
  8
0
  6
CONTINUOUS
 62
               7
100
AcDbCircle
 10
-2.9000000000000909
 20
4.5
 30
0.0
 40
2.0499999999999998
  0
CIRCLE
  5
137
100
AcDbEntity
  8
0
  6
CONTINUOUS
 62
               7
100
AcDbCircle
 10
-2.9000000000000909
 20
-4.5
 30
0.0
 40
2.0499999999999998
  0
LINE
  5
138
100
AcDbEntity
  8
0
  6
CONTINUOUS
 62
               7
100
AcDbLine
 10
-3.7660254903787518
 20
-4.4999998632791787
 30
0.0
 11
-3.333012674446536
 21
-5.2500000233842599
 31
0.0
  0
LINE
  5
139
100
AcDbEntity
  8
0
  6
CONTINUOUS
 62
               7
100
AcDbLine
 10
-2.4669873732143515
 20
-5.2500001433532191
 30
0.0
 11
-2.0339745896869772
 21
-4.4999999645392847
 31
0.0
  0
LINE
  5
13A
100
AcDbEntity
  8
0
  6
CONTINUOUS
 62
               7
100
AcDbLine
 10
-2.0339745096212027
 20
-4.5000001367208213
 30
0.0
 11
-2.4669873255534185
 21
-3.7499999766157401
 31
0.0
  0
LINE
  5
13B
100
AcDbEntity
  8
0
  6
CONTINUOUS
 62
               7
100
AcDbLine
 10
-3.3330126267856031
 20
-3.7499998566467809
 30
0.0
 11
-3.7660254103129773
 21
-4.5000000354607153
 31
0.0
  0
LINE
  5
13C
100
AcDbEntity
  8
0
  6
CONTINUOUS
 62
               7
100
AcDbLine
 10
-2.4669871364069422
 20
-3.7499999933676023
 30
0.0
 11
-3.3330127358663049
 21
-3.7500000120764554
 31
0.0
  0
LINE
  5
13D
100
AcDbEntity
  8
0
  6
CONTINUOUS
 62
               7
100
AcDbLine
 10
-3.3330128635930123
 20
-5.2500000066323977
 30
0.0
 11
-2.4669872641336497
 21
-5.2499999879235446
 31
0.0
  0
CIRCLE
  5
13E
100
AcDbEntity
  8
0
  6
CONTINUOUS
 62
               7
100
AcDbCircle
 10
-2.9000000000000909
 20
-4.5
 30
0.0
 40
1.9000000000000148
  0
CIRCLE
  5
13F
100
AcDbEntity
  8
0
  6
CONTINUOUS
 62
               7
100
AcDbCircle
 10
-2.9000000000000909
 20
-4.5
 30
0.0
 40
1.6000000000000174
  0
LINE
  5
140
100
AcDbEntity
  8
0
  6
CONTINUOUS
 62
               7
100
AcDbLine
 10
-3.7660254903787518
 20
4.5000001367208213
 30
0.0
 11
-3.333012674446536
 21
3.7499999766157401
 31
0.0
  0
LINE
  5
141
100
AcDbEntity
  8
0
  6
CONTINUOUS
 62
               7
100
AcDbLine
 10
-2.4669873732143515
 20
3.7499998566467809
 30
0.0
 11
-2.0339745896869772
 21
4.5000000354607153
 31
0.0
  0
LINE
  5
142
100
AcDbEntity
  8
0
  6
CONTINUOUS
 62
               7
100
AcDbLine
 10
-2.0339745096212027
 20
4.4999998632791787
 30
0.0
 11
-2.4669873255534185
 21
5.2500000233842599
 31
0.0
  0
LINE
  5
143
100
AcDbEntity
  8
0
  6
CONTINUOUS
 62
               7
100
AcDbLine
 10
-3.3330126267856031
 20
5.2500001433532191
 30
0.0
 11
-3.7660254103129773
 21
4.4999999645392847
 31
0.0
  0
LINE
  5
144
100
AcDbEntity
  8
0
  6
CONTINUOUS
 62
               7
100
AcDbLine
 10
-2.4669871364069422
 20
5.2500000066323977
 30
0.0
 11
-3.3330127358663049
 21
5.2499999879235446
 31
0.0
  0
LINE
  5
145
100
AcDbEntity
  8
0
  6
CONTINUOUS
 62
               7
100
AcDbLine
 10
-3.3330128635930123
 20
3.7499999933676023
 30
0.0
 11
-2.4669872641336497
 21
3.7500000120764554
 31
0.0
  0
CIRCLE
  5
146
100
AcDbEntity
  8
0
  6
CONTINUOUS
 62
               7
100
AcDbCircle
 10
-2.9000000000000909
 20
4.5
 30
0.0
 40
1.9000000000000148
  0
CIRCLE
  5
147
100
AcDbEntity
  8
0
  6
CONTINUOUS
 62
               7
100
AcDbCircle
 10
-2.9000000000000909
 20
4.5
 30
0.0
 40
1.6000000000000174
  0
LINE
  5
148
100
AcDbEntity
  8
0
  6
CONTINUOUS
 62
               2
100
AcDbLine
 10
2.0999999999999091
 20
6.5
 30
0.0
 11
-1.9000000000000909
 21
6.5
 31
0.0
  0
LINE
  5
149
100
AcDbEntity
  8
0
  6
CONTINUOUS
 62
               2
100
AcDbLine
 10
2.0999999999999091
 20
-6.5
 30
0.0
 11
-1.9000000000000909
 21
-6.5
 31
0.0
  0
LINE
  5
14A
100
AcDbEntity
  8
0
  6
CENTER
 62
               2
100
AcDbLine
 10
4.0
 20
0.0
 30
0.0
 11
-13.900000000000091
 21
0.0
 31
0.0
  0
ENDBLK
  5
14B
100
AcDbEntity
  8
0
100
AcDbBlockEnd
  0
BLOCK
  5
14C
100
AcDbEntity
  8
0
100
AcDbBlockBegin
  2
MGAPG4_5-4
 70
               0
 10
0.0
 20
0.0
 30
0.0
  3
MGAPG4_5-4
  1

  0
LINE
  5
14D
100
AcDbEntity
  8
0
  6
CONTINUOUS
 62
               7
100
AcDbLine
 10
38.899999999999864
 20
-5.5
 30
0.0
 11
38.899999999999864
 21
-3.5
 31
0.0
  0
LINE
  5
14E
100
AcDbEntity
  8
0
  6
CONTINUOUS
 62
               7
100
AcDbLine
 10
43.099999999999682
 20
-5.5
 30
0.0
 11
43.099999999999682
 21
-3.5
 31
0.0
  0
LINE
  5
14F
100
AcDbEntity
  8
0
  6
CONTINUOUS
 62
               7
100
AcDbLine
 10
38.899999999999864
 20
-3.5
 30
0.0
 11
43.099999999999682
 21
-3.5
 31
0.0
  0
LINE
  5
150
100
AcDbEntity
  8
0
  6
CONTINUOUS
 62
               7
100
AcDbLine
 10
27.099999999999682
 20
-5.5
 30
0.0
 11
27.099999999999682
 21
-3.5
 31
0.0
  0
LINE
  5
151
100
AcDbEntity
  8
0
  6
CONTINUOUS
 62
               7
100
AcDbLine
 10
22.899999999999864
 20
-5.5
 30
0.0
 11
22.899999999999864
 21
-3.5
 31
0.0
  0
LINE
  5
152
100
AcDbEntity
  8
0
  6
CONTINUOUS
 62
               7
100
AcDbLine
 10
13.999999999999773
 20
-9.5
 30
0.0
 11
51.999999999999773
 21
-9.5
 31
0.0
  0
LINE
  5
153
100
AcDbEntity
  8
0
  6
CONTINUOUS
 62
               7
100
AcDbLine
 10
22.899999999999864
 20
-3.5
 30
0.0
 11
27.099999999999682
 21
-3.5
 31
0.0
  0
LINE
  5
154
100
AcDbEntity
  8
0
  6
CONTINUOUS
 62
               7
100
AcDbLine
 10
18.000000001754188
 20
-5.5
 30
0.0
 11
51.999999999999773
 21
-5.5
 31
0.0
  0
LINE
  5
155
100
AcDbEntity
  8
0
  6
CONTINUOUS
 62
               2
100
AcDbLine
 10
45.499999999999773
 20
-0.5
 30
0.0
 11
45.499999999999773
 21
-5.5
 31
0.0
  0
CIRCLE
  5
156
100
AcDbEntity
  8
0
  6
CONTINUOUS
 62
               2
100
AcDbCircle
 10
45.499999999999773
 20
-3.0
 30
0.0
 40
1.5
  0
LINE
  5
157
100
AcDbEntity
  8
0
  6
CONTINUOUS
 62
               2
100
AcDbLine
 10
42.999999999999773
 20
-3.0
 30
0.0
 11
47.999999999999773
 21
-3.0
 31
0.0
  0
CIRCLE
  5
158
100
AcDbEntity
  8
0
  6
CONTINUOUS
 62
               7
100
AcDbCircle
 10
45.499999999999773
 20
-3.0
 30
0.0
 40
1.2
  0
LINE
  5
159
100
AcDbEntity
  8
0
  6
CONTINUOUS
 62
               2
100
AcDbLine
 10
29.499999999999773
 20
-0.5
 30
0.0
 11
29.499999999999773
 21
-5.5
 31
0.0
  0
CIRCLE
  5
15A
100
AcDbEntity
  8
0
  6
CONTINUOUS
 62
               2
100
AcDbCircle
 10
29.499999999999773
 20
-3.0
 30
0.0
 40
1.5
  0
LINE
  5
15B
100
AcDbEntity
  8
0
  6
CONTINUOUS
 62
               2
100
AcDbLine
 10
26.999999999999773
 20
-3.0
 30
0.0
 11
31.999999999999773
 21
-3.0
 31
0.0
  0
CIRCLE
  5
15C
100
AcDbEntity
  8
0
  6
CONTINUOUS
 62
               7
100
AcDbCircle
 10
29.499999999999773
 20
-3.0
 30
0.0
 40
1.2
  0
LINE
  5
15D
100
AcDbEntity
  8
0
  6
CONTINUOUS
 62
               2
100
AcDbLine
 10
33.499999999999773
 20
-5.9000000000000057
 30
0.0
 11
33.499999999999773
 21
-9.9000000000000057
 31
0.0
  0
LINE
  5
15E
100
AcDbEntity
  8
0
  6
CONTINUOUS
 62
               2
100
AcDbLine
 10
31.499999999999773
 20
-7.9000000000000057
 30
0.0
 11
35.499999999999773
 21
-7.9000000000000057
 31
0.0
  0
CIRCLE
  5
15F
100
AcDbEntity
  8
0
  6
CONTINUOUS
 62
               2
100
AcDbCircle
 10
33.499999999999773
 20
-7.9000000000000057
 30
0.0
 40
1.0
  0
CIRCLE
  5
160
100
AcDbEntity
  8
0
  6
CONTINUOUS
 62
               7
100
AcDbCircle
 10
33.499999999999773
 20
-7.9000000000000057
 30
0.0
 40
0.8
  0
LINE
  5
161
100
AcDbEntity
  8
0
  6
CONTINUOUS
 62
               2
100
AcDbLine
 10
46.499999999999773
 20
-5.9000000000000057
 30
0.0
 11
46.499999999999773
 21
-9.9000000000000057
 31
0.0
  0
LINE
  5
162
100
AcDbEntity
  8
0
  6
CONTINUOUS
 62
               2
100
AcDbLine
 10
44.499999999999773
 20
-7.9000000000000057
 30
0.0
 11
48.499999999999773
 21
-7.9000000000000057
 31
0.0
  0
CIRCLE
  5
163
100
AcDbEntity
  8
0
  6
CONTINUOUS
 62
               2
100
AcDbCircle
 10
46.499999999999773
 20
-7.9000000000000057
 30
0.0
 40
1.0
  0
CIRCLE
  5
164
100
AcDbEntity
  8
0
  6
CONTINUOUS
 62
               7
100
AcDbCircle
 10
46.499999999999773
 20
-7.9000000000000057
 30
0.0
 40
0.8
  0
LINE
  5
165
100
AcDbEntity
  8
0
  6
CONTINUOUS
 62
               2
100
AcDbLine
 10
48.999999999999773
 20
-1.1999999999999886
 30
0.0
 11
48.999999999999773
 21
-5.1999999999999886
 31
0.0
  0
LINE
  5
166
100
AcDbEntity
  8
0
  6
CONTINUOUS
 62
               2
100
AcDbLine
 10
46.999999999999773
 20
-3.1999999999999886
 30
0.0
 11
50.999999999999773
 21
-3.1999999999999886
 31
0.0
  0
CIRCLE
  5
167
100
AcDbEntity
  8
0
  6
CONTINUOUS
 62
               2
100
AcDbCircle
 10
48.999999999999773
 20
-3.1999999999999886
 30
0.0
 40
1.0
  0
CIRCLE
  5
168
100
AcDbEntity
  8
0
  6
CONTINUOUS
 62
               7
100
AcDbCircle
 10
48.999999999999773
 20
-3.1999999999999886
 30
0.0
 40
0.8
  0
CIRCLE
  5
169
100
AcDbEntity
  8
0
  6
CONTINUOUS
 62
               7
100
AcDbCircle
 10
20.999999999999773
 20
-3.1999999999999886
 30
0.0
 40
0.8
  0
CIRCLE
  5
16A
100
AcDbEntity
  8
0
  6
CONTINUOUS
 62
               2
100
AcDbCircle
 10
20.999999999999773
 20
-3.1999999999999886
 30
0.0
 40
1.0
  0
LINE
  5
16B
100
AcDbEntity
  8
0
  6
CONTINUOUS
 62
               7
100
AcDbLine
 10
17.999999999999773
 20
0.0
 30
0.0
 11
51.999999999999773
 21
0.0
 31
0.0
  0
LINE
  5
16C
100
AcDbEntity
  8
0
  6
CONTINUOUS
 62
               7
100
AcDbLine
 10
13.999999999999773
 20
-10.0
 30
0.0
 11
51.999999999999773
 21
-10.0
 31
0.0
  0
LINE
  5
16D
100
AcDbEntity
  8
0
  6
CONTINUOUS
 62
               7
100
AcDbLine
 10
51.999999999999773
 20
0.0
 30
0.0
 11
51.999999999999773
 21
-10.0
 31
0.0
  0
LINE
  5
16E
100
AcDbEntity
  8
0
  6
CONTINUOUS
 62
               2
100
AcDbLine
 10
18.999999999999773
 20
-3.1999999999999886
 30
0.0
 11
22.999999999999773
 21
-3.1999999999999886
 31
0.0
  0
LINE
  5
16F
100
AcDbEntity
  8
0
  6
CONTINUOUS
 62
               2
100
AcDbLine
 10
20.999999999999773
 20
-1.1999999999999886
 30
0.0
 11
20.999999999999773
 21
-5.1999999999999886
 31
0.0
  0
LINE
  5
170
100
AcDbEntity
  8
0
  6
CONTINUOUS
 62
               7
100
AcDbLine
 10
17.999999999999773
 20
0.0
 30
0.0
 11
17.999999999999773
 21
-6.0
 31
0.0
  0
LINE
  5
171
100
AcDbEntity
  8
0
  6
CONTINUOUS
 62
               7
100
AcDbLine
 10
13.999999975855872
 20
-6.0
 30
0.0
 11
51.999999999999773
 21
-6.0
 31
0.0
  0
LINE
  5
172
100
AcDbEntity
  8
0
  6
CONTINUOUS
 62
               7
100
AcDbLine
 10
13.999999975855872
 20
-6.0
 30
0.0
 11
13.999999975855872
 21
-9.9999999863093905
 31
0.0
  0
LINE
  5
173
100
AcDbEntity
  8
0
  6
CONTINUOUS
 62
               7
100
AcDbLine
 10
52.000000001754188
 20
-9.6999999999999886
 30
0.0
 11
52.500000001754188
 21
-9.6999999999999886
 31
0.0
  0
LINE
  5
174
100
AcDbEntity
  8
0
  6
CONTINUOUS
 62
               7
100
AcDbLine
 10
52.000000001754188
 20
-6.1999999999999886
 30
0.0
 11
52.500000001754188
 21
-6.1999999999999886
 31
0.0
  0
LINE
  5
175
100
AcDbEntity
  8
0
  6
CONTINUOUS
 62
               7
100
AcDbLine
 10
52.999999999999773
 20
-8.2000000000000028
 30
0.0
 11
52.999999999999773
 21
-6.7999999999999972
 31
0.0
  0
LINE
  5
176
100
AcDbEntity
  8
0
  6
CONTINUOUS
 62
               7
100
AcDbLine
 10
52.499999999999773
 20
-6.5
 30
0.0
 11
52.699999999999818
 21
-6.5
 31
0.0
  0
LINE
  5
177
100
AcDbEntity
  8
0
  6
CONTINUOUS
 62
               7
100
AcDbLine
 10
52.499999999999773
 20
-8.5
 30
0.0
 11
52.699999999999818
 21
-8.5
 31
0.0
  0
ARC
  5
178
100
AcDbEntity
  8
0
  6
CONTINUOUS
 62
               7
100
AcDbCircle
 10
52.699999999999818
 20
-6.7999999999999972
 30
0.0
 40
0.3
100
AcDbArc
 50
0.0
 51
90.0
  0
ARC
  5
179
100
AcDbEntity
  8
0
  6
CONTINUOUS
 62
               7
100
AcDbCircle
 10
52.699999999999818
 20
-8.2000000000000028
 30
0.0
 40
0.3
100
AcDbArc
 50
270.0
 51
0.0
  0
LINE
  5
17A
100
AcDbEntity
  8
0
  6
CONTINUOUS
 62
               7
100
AcDbLine
 10
52.499999999999773
 20
-9.6999999999999886
 30
0.0
 11
52.499999999999773
 21
-6.1999999999999886
 31
0.0
  0
LINE
  5
17B
100
AcDbEntity
  8
0
  6
CONTINUOUS
 62
               2
100
AcDbLine
 10
77.599999999999909
 20
-2.7164999999999964
 30
0.0
 11
77.999999999999773
 21
-2.7164999999999964
 31
0.0
  0
SPLINE
  5
17C
100
AcDbEntity
  8
0
  6
CONTINUOUS
 62
               7
100
AcDbSpline
210
0.0
220
0.0
230
1.0
 70
               0
 71
               3
 72
               0
 73
               0
 74
               5
 44
0.000001
 12
0.7311721974753245
 22
0.6821929475149278
 32
0.0
 13
-0.7311721974753291
 23
0.6821929475149229
 33
0.0
 11
75.613248654051631
 21
-6.3867513459481273
 31
0.0
 11
75.881458489689564
 21
-6.0564920605946613
 31
0.0
 11
75.999999999999773
 21
-5.6650635094610919
 31
0.0
 11
75.88145848968955
 21
-5.2736349583275297
 31
0.0
 11
75.613248654051631
 21
-4.9433756729740708
 31
0.0
  0
SPLINE
  5
17D
100
AcDbEntity
  8
0
  6
CONTINUOUS
 62
               7
100
AcDbSpline
210
0.0
220
0.0
230
1.0
 70
               0
 71
               3
 72
               0
 73
               0
 74
               5
 44
0.000001
 12
0.4723474904831461
 22
0.8814124166553784
 32
0.0
 13
-0.4723474904831467
 23
0.881412416655378
 33
0.0
 11
75.613248654051631
 21
-4.9433756729740708
 31
0.0
 11
75.894852488339723
 21
-4.2453667896579281
 31
0.0
 11
75.999999999999773
 21
-3.5
 31
0.0
 11
75.894852488339723
 21
-2.7546332103420861
 31
0.0
 11
75.613248654051631
 21
-2.0566243270259577
 31
0.0
  0
SPLINE
  5
17E
100
AcDbEntity
  8
0
  6
CONTINUOUS
 62
               7
100
AcDbSpline
210
0.0
220
0.0
230
1.0
 70
               0
 71
               3
 72
               0
 73
               0
 74
               5
 44
0.000001
 12
0.7311721974753224
 22
0.6821929475149301
 32
0.0
 13
-0.7311721974753213
 23
0.6821929475149313
 33
0.0
 11
75.613248654051631
 21
-2.0566243270259577
 31
0.0
 11
75.88145848968955
 21
-1.7263650416724912
 31
0.0
 11
75.999999999999773
 21
-1.3349364905389223
 31
0.0
 11
75.88145848968955
 21
-0.9435079394053532
 31
0.0
 11
75.613248654051631
 21
-0.6132486540518866
 31
0.0
  0
SPLINE
  5
17F
100
AcDbEntity
  8
0
  6
CONTINUOUS
 62
               7
100
AcDbSpline
210
0.0
220
0.0
230
1.0
 70
               0
 71
               3
 72
               0
 73
               0
 74
               5
 44
0.000001
 12
0.5262037021178491
 22
0.850358550187784
 32
0.0
 13
-0.5262037021178496
 23
0.8503585501877837
 33
0.0
 11
77.421367205045726
 21
-5.8094010767585189
 31
0.0
 11
77.550435225811952
 21
-5.5326196680214128
 31
0.0
 11
77.599999999999909
 21
-5.2320508075688963
 31
0.0
 11
77.550435225811952
 21
-4.9314819471163798
 31
0.0
 11
77.421367205045726
 21
-4.6547005383792737
 31
0.0
  0
SPLINE
  5
180
100
AcDbEntity
  8
0
  6
CONTINUOUS
 62
               7
100
AcDbSpline
210
0.0
220
0.0
230
1.0
 70
               0
 71
               3
 72
               0
 73
               0
 74
               5
 44
0.000001
 12
0.5262037021178491
 22
-0.850358550187784
 32
0.0
 13
-0.5262037021178496
 23
-0.8503585501877837
 33
0.0
 11
77.421367205045726
 21
-1.1905989232414811
 31
0.0
 11
77.550435225811952
 21
-1.467380331978587
 31
0.0
 11
77.599999999999909
 21
-1.7679491924311037
 31
0.0
 11
77.550435225811952
 21
-2.0685180528836202
 31
0.0
 11
77.421367205045726
 21
-2.3452994616207263
 31
0.0
  0
SPLINE
  5
181
100
AcDbEntity
  8
0
  6
CONTINUOUS
 62
               7
100
AcDbSpline
210
0.0
220
0.0
230
1.0
 70
               0
 71
               3
 72
               0
 73
               0
 74
               5
 44
0.000001
 12
0.2955767282156592
 22
0.9553190031279218
 32
0.0
 13
-0.2955767282156591
 23
0.9553190031279218
 33
0.0
 11
77.421367205045726
 21
-4.6547005383792737
 31
0.0
 11
77.553853918875575
 21
-4.0845636363893894
 31
0.0
 11
77.599999999999909
 21
-3.5
 31
0.0
 11
77.553853918875575
 21
-2.9154363636106106
 31
0.0
 11
77.421367205045726
 21
-2.3452994616207263
 31
0.0
  0
SPLINE
  5
182
100
AcDbEntity
  8
0
  6
CONTINUOUS
 62
               7
100
AcDbSpline
210
0.0
220
0.0
230
1.0
 70
               0
 71
               3
 72
               0
 73
               0
 74
               5
 44
0.000001
 12
-0.5262037021178492
 22
0.850358550187784
 32
0.0
 13
0.5262037021178496
 23
0.8503585501877836
 33
0.0
 11
76.178632794953955
 21
-5.8094010767585189
 31
0.0
 11
76.049564774187729
 21
-5.5326196680214128
 31
0.0
 11
75.999999999999773
 21
-5.2320508075688963
 31
0.0
 11
76.049564774187729
 21
-4.9314819471163798
 31
0.0
 11
76.178632794953955
 21
-4.6547005383792737
 31
0.0
  0
SPLINE
  5
183
100
AcDbEntity
  8
0
  6
CONTINUOUS
 62
               7
100
AcDbSpline
210
0.0
220
0.0
230
1.0
 70
               0
 71
               3
 72
               0
 73
               0
 74
               5
 44
0.000001
 12
-0.2955767282156591
 22
0.9553190031279218
 32
0.0
 13
0.2955767282156592
 23
0.9553190031279218
 33
0.0
 11
76.178632794953955
 21
-4.6547005383792737
 31
0.0
 11
76.046146081124107
 21
-4.0845636363893894
 31
0.0
 11
75.999999999999773
 21
-3.5
 31
0.0
 11
76.046146081124107
 21
-2.9154363636106106
 31
0.0
 11
76.178632794953955
 21
-2.3452994616207263
 31
0.0
  0
SPLINE
  5
184
100
AcDbEntity
  8
0
  6
CONTINUOUS
 62
               7
100
AcDbSpline
210
0.0
220
0.0
230
1.0
 70
               0
 71
               3
 72
               0
 73
               0
 74
               5
 44
0.000001
 12
-0.5262037021178492
 22
-0.850358550187784
 32
0.0
 13
0.5262037021178496
 23
-0.8503585501877836
 33
0.0
 11
76.178632794953955
 21
-1.1905989232414811
 31
0.0
 11
76.049564774187729
 21
-1.467380331978587
 31
0.0
 11
75.999999999999773
 21
-1.7679491924311037
 31
0.0
 11
76.049564774187729
 21
-2.0685180528836202
 31
0.0
 11
76.178632794953955
 21
-2.3452994616207263
 31
0.0
  0
LINE
  5
185
100
AcDbEntity
  8
0
  6
CONTINUOUS
 62
               7
100
AcDbLine
 10
59.699999999999818
 20
-4.5
 30
0.0
 11
68.499999999999773
 21
-4.5
 31
0.0
  0
LINE
  5
186
100
AcDbEntity
  8
0
  6
CONTINUOUS
 62
               7
100
AcDbLine
 10
59.699999999999818
 20
-2.5
 30
0.0
 11
68.499999999999773
 21
-2.5
 31
0.0
  0
LINE
  5
187
100
AcDbEntity
  8
0
  6
CONTINUOUS
 62
               7
100
AcDbLine
 10
77.799999999999955
 20
-4.5
 30
0.0
 11
77.799999999999955
 21
-2.5
 31
0.0
  0
LINE
  5
188
100
AcDbEntity
  8
0
  6
CONTINUOUS
 62
               7
100
AcDbLine
 10
77.599999999999909
 20
-2.5
 30
0.0
 11
77.799999999999955
 21
-2.5
 31
0.0
  0
LINE
  5
189
100
AcDbEntity
  8
0
  6
CONTINUOUS
 62
               7
100
AcDbLine
 10
77.599999999999909
 20
-4.5
 30
0.0
 11
77.799999999999955
 21
-4.5
 31
0.0
  0
LINE
  5
18A
100
AcDbEntity
  8
0
  6
CONTINUOUS
 62
               7
100
AcDbLine
 10
68.499999999999773
 20
-5.75
 30
0.0
 11
68.499999999999773
 21
-1.25
 31
0.0
  0
LINE
  5
18B
100
AcDbEntity
  8
0
  6
CONTINUOUS
 62
               7
100
AcDbLine
 10
68.499999999999773
 20
-5.75
 30
0.0
 11
71.499999999999773
 21
-5.75
 31
0.0
  0
LINE
  5
18C
100
AcDbEntity
  8
0
  6
CONTINUOUS
 62
               7
100
AcDbLine
 10
75.999999999999773
 20
-6.0
 30
0.0
 11
75.999999999999773
 21
-1.0
 31
0.0
  0
LINE
  5
18D
100
AcDbEntity
  8
0
  6
CONTINUOUS
 62
               7
100
AcDbLine
 10
71.499999999999773
 20
-6.3867513459481273
 30
0.0
 11
71.499999999999773
 21
-0.6132486540518869
 31
0.0
  0
LINE
  5
18E
100
AcDbEntity
  8
0
  6
CONTINUOUS
 62
               7
100
AcDbLine
 10
77.599999999999909
 20
-5.5
 30
0.0
 11
77.599999999999909
 21
-1.5
 31
0.0
  0
LINE
  5
18F
100
AcDbEntity
  8
0
  6
CONTINUOUS
 62
               7
100
AcDbLine
 10
68.499999999999773
 20
-1.25
 30
0.0
 11
71.499999999999773
 21
-1.25
 31
0.0
  0
LINE
  5
190
100
AcDbEntity
  8
0
  6
CONTINUOUS
 62
               7
100
AcDbLine
 10
77.999999999999773
 20
-4.3000000000000114
 30
0.0
 11
77.999999999999773
 21
-2.7000000000000028
 31
0.0
  0
LINE
  5
191
100
AcDbEntity
  8
0
  6
CONTINUOUS
 62
               7
100
AcDbLine
 10
77.799999999999955
 20
-4.5
 30
0.0
 11
77.999999999999773
 21
-4.3000000000000114
 31
0.0
  0
LINE
  5
192
100
AcDbEntity
  8
0
  6
CONTINUOUS
 62
               7
100
AcDbLine
 10
77.999999999999773
 20
-2.7000000000000028
 30
0.0
 11
77.799999999999955
 21
-2.5
 31
0.0
  0
LINE
  5
193
100
AcDbEntity
  8
0
  6
CONTINUOUS
 62
               7
100
AcDbLine
 10
58.499999999999773
 20
-7.0
 30
0.0
 11
58.499999999999773
 21
-0.0999999999999943
 31
0.0
  0
LINE
  5
194
100
AcDbEntity
  8
0
  6
CONTINUOUS
 62
               7
100
AcDbLine
 10
75.613248654051631
 20
-6.3867513459481273
 30
0.0
 11
71.499999999999773
 21
-6.3867513459481273
 31
0.0
  0
LINE
  5
195
100
AcDbEntity
  8
0
  6
CONTINUOUS
 62
               7
100
AcDbLine
 10
75.613248654051631
 20
-0.6132486540518869
 30
0.0
 11
71.499999999999773
 21
-0.6132486540518869
 31
0.0
  0
LINE
  5
196
100
AcDbEntity
  8
0
  6
CONTINUOUS
 62
               7
100
AcDbLine
 10
75.999999999999773
 20
-6.0
 30
0.0
 11
75.613248654051631
 21
-6.3867513459481273
 31
0.0
  0
LINE
  5
197
100
AcDbEntity
  8
0
  6
CONTINUOUS
 62
               7
100
AcDbLine
 10
75.999999999999773
 20
-1.0
 30
0.0
 11
75.613248654051631
 21
-0.6132486540518869
 31
0.0
  0
LINE
  5
198
100
AcDbEntity
  8
0
  6
CONTINUOUS
 62
               7
100
AcDbLine
 10
75.613248654051631
 20
-4.9433756729740708
 30
0.0
 11
71.499999999999773
 21
-4.9433756729740708
 31
0.0
  0
LINE
  5
199
100
AcDbEntity
  8
0
  6
CONTINUOUS
 62
               7
100
AcDbLine
 10
75.613248654051631
 20
-2.0566243270259577
 30
0.0
 11
71.499999999999773
 21
-2.0566243270259577
 31
0.0
  0
LINE
  5
19A
100
AcDbEntity
  8
0
  6
CONTINUOUS
 62
               7
100
AcDbLine
 10
77.421367205045726
 20
-5.8094010767585189
 30
0.0
 11
76.178632794953955
 21
-5.8094010767585189
 31
0.0
  0
LINE
  5
19B
100
AcDbEntity
  8
0
  6
CONTINUOUS
 62
               7
100
AcDbLine
 10
77.421367205045726
 20
-4.6547005383792737
 30
0.0
 11
76.171075907345994
 21
-4.6547005383792737
 31
0.0
  0
LINE
  5
19C
100
AcDbEntity
  8
0
  6
CONTINUOUS
 62
               7
100
AcDbLine
 10
77.599999999999909
 20
-5.5
 30
0.0
 11
77.421367205045726
 21
-5.8094010767585189
 31
0.0
  0
LINE
  5
19D
100
AcDbEntity
  8
0
  6
CONTINUOUS
 62
               7
100
AcDbLine
 10
77.421367205045726
 20
-2.3452994616207263
 30
0.0
 11
76.171075907345994
 21
-2.3452994616207263
 31
0.0
  0
LINE
  5
19E
100
AcDbEntity
  8
0
  6
CONTINUOUS
 62
               7
100
AcDbLine
 10
77.599999999999909
 20
-1.5
 30
0.0
 11
77.421367205045726
 21
-1.1905989232414811
 31
0.0
  0
LINE
  5
19F
100
AcDbEntity
  8
0
  6
CONTINUOUS
 62
               7
100
AcDbLine
 10
77.421367205045726
 20
-1.1905989232414811
 30
0.0
 11
76.178632794953955
 21
-1.1905989232414811
 31
0.0
  0
LINE
  5
1A0
100
AcDbEntity
  8
0
  6
CONTINUOUS
 62
               7
100
AcDbLine
 10
75.999999999999773
 20
-5.5
 30
0.0
 11
76.178632794953955
 21
-5.8094010767585189
 31
0.0
  0
LINE
  5
1A1
100
AcDbEntity
  8
0
  6
CONTINUOUS
 62
               7
100
AcDbLine
 10
75.999999999999773
 20
-1.5
 30
0.0
 11
76.178632794953955
 21
-1.1905989232414811
 31
0.0
  0
LINE
  5
1A2
100
AcDbEntity
  8
0
  6
CONTINUOUS
 62
               7
100
AcDbLine
 10
59.399999999999864
 20
-4.8999999999999915
 30
0.0
 11
58.499999999999773
 21
-4.8999999999999915
 31
0.0
  0
LINE
  5
1A3
100
AcDbEntity
  8
0
  6
CONTINUOUS
 62
               7
100
AcDbLine
 10
59.399999999999864
 20
-1.1000000000000085
 30
0.0
 11
58.499999999999773
 21
-1.1000000000000085
 31
0.0
  0
LINE
  5
1A4
100
AcDbEntity
  8
0
  6
CONTINUOUS
 62
               7
100
AcDbLine
 10
59.699999999999818
 20
-4.5999999999999943
 30
0.0
 11
59.399999999999864
 21
-4.8999999999999915
 31
0.0
  0
LINE
  5
1A5
100
AcDbEntity
  8
0
  6
CONTINUOUS
 62
               7
100
AcDbLine
 10
59.699999999999818
 20
-1.4000000000000057
 30
0.0
 11
59.399999999999864
 21
-1.1000000000000085
 31
0.0
  0
LINE
  5
1A6
100
AcDbEntity
  8
0
  6
CONTINUOUS
 62
               7
100
AcDbLine
 10
59.699999999999818
 20
-1.4000000000000057
 30
0.0
 11
59.699999999999818
 21
-4.5999999999999943
 31
0.0
  0
LINE
  5
1A7
100
AcDbEntity
  8
0
  6
CONTINUOUS
 62
               7
100
AcDbLine
 10
59.399999999999864
 20
-1.1000000000000085
 30
0.0
 11
59.399999999999864
 21
-4.8999999999999915
 31
0.0
  0
LINE
  5
1A8
100
AcDbEntity
  8
0
  6
CONTINUOUS
 62
               7
100
AcDbLine
 10
52.999999999999773
 20
-7.0
 30
0.0
 11
58.499999999999773
 21
-7.0
 31
0.0
  0
LINE
  5
1A9
100
AcDbEntity
  8
0
  6
CONTINUOUS
 62
               7
100
AcDbLine
 10
51.999999999999773
 20
-5.5
 30
0.0
 11
58.499999999999773
 21
-5.5
 31
0.0
  0
LINE
  5
1AA
100
AcDbEntity
  8
0
  6
CONTINUOUS
 62
               7
100
AcDbLine
 10
51.999999999999773
 20
-0.0999999999999943
 30
0.0
 11
58.499999999999773
 21
-0.0999999999999943
 31
0.0
  0
LINE
  5
1AB
100
AcDbEntity
  8
0
  6
CONTINUOUS
 62
               2
100
AcDbLine
 10
79.999999999999773
 20
-3.5
 30
0.0
 11
56.028164021903194
 21
-3.5
 31
0.0
  0
LINE
  5
1AC
100
AcDbEntity
  8
0
  6
CONTINUOUS
 62
               7
100
AcDbLine
 10
67.999999999999773
 20
-2.5
 30
0.0
 11
67.999999999999773
 21
-4.5
 31
0.0
  0
LINE
  5
1AD
100
AcDbEntity
  8
0
  6
CONTINUOUS
 62
               2
100
AcDbLine
 10
67.999999999999773
 20
-2.7164999999999964
 30
0.0
 11
68.499999999999773
 21
-2.7164999999999964
 31
0.0
  0
LINE
  5
1AE
100
AcDbEntity
  8
0
  6
CONTINUOUS
 62
               2
100
AcDbLine
 10
67.999999999999773
 20
-2.7164999999999964
 30
0.0
 11
67.625011000161294
 21
-2.5
 31
0.0
  0
LINE
  5
1AF
100
AcDbEntity
  8
0
  6
CONTINUOUS
 62
               2
100
AcDbLine
 10
67.999999999999773
 20
-4.2835000000000036
 30
0.0
 11
67.625011000161294
 21
-4.5
 31
0.0
  0
LINE
  5
1B0
100
AcDbEntity
  8
0
  6
CONTINUOUS
 62
               2
100
AcDbLine
 10
67.999999999999773
 20
-4.2835000000000036
 30
0.0
 11
68.499999999999773
 21
-4.2835000000000036
 31
0.0
  0
LINE
  5
1B1
100
AcDbEntity
  8
0
  6
CONTINUOUS
 62
               2
100
AcDbLine
 10
77.599999999999909
 20
-4.2835000000000036
 30
0.0
 11
77.999999999999773
 21
-4.2835000000000036
 31
0.0
  0
LINE
  5
1B2
100
AcDbEntity
  8
0
  6
CONTINUOUS
 62
               2
100
AcDbLine
 10
16.299999999999955
 20
-2.5794023680239064
 30
0.0
 11
15.799999999999955
 21
-4.4205976319761078
 31
0.0
  0
LINE
  5
1B3
100
AcDbEntity
  8
0
  6
CONTINUOUS
 62
               2
100
AcDbLine
 10
16.299999999999955
 20
-4.4205976319761078
 30
0.0
 11
15.799999999999955
 21
-2.5794023680239064
 31
0.0
  0
LINE
  5
1B4
100
AcDbEntity
  8
0
  6
CONTINUOUS
 62
               7
100
AcDbLine
 10
15.799999999999955
 20
-2.5794023680239064
 30
0.0
 11
16.299999999999955
 21
-2.5794023680239064
 31
0.0
  0
LINE
  5
1B5
100
AcDbEntity
  8
0
  6
CONTINUOUS
 62
               7
100
AcDbLine
 10
15.799999999999955
 20
-4.4205976319761078
 30
0.0
 11
16.299999999999955
 21
-4.4205976319761078
 31
0.0
  0
LINE
  5
1B6
100
AcDbEntity
  8
0
  6
CONTINUOUS
 62
               7
100
AcDbLine
 10
16.299999999999955
 20
-6.0
 30
0.0
 11
16.299999999999955
 21
-0.5999999999999943
 31
0.0
  0
LINE
  5
1B7
100
AcDbEntity
  8
0
  6
CONTINUOUS
 62
               7
100
AcDbLine
 10
16.299999999999955
 20
-1.0999999999999943
 30
0.0
 11
16.5
 21
-1.0999999999999943
 31
0.0
  0
LINE
  5
1B8
100
AcDbEntity
  8
0
  6
CONTINUOUS
 62
               7
100
AcDbLine
 10
16.299999999999955
 20
-5.9000000000000057
 30
0.0
 11
16.5
 21
-5.9000000000000057
 31
0.0
  0
LINE
  5
1B9
100
AcDbEntity
  8
0
  6
CONTINUOUS
 62
               7
100
AcDbLine
 10
15.799999999999955
 20
-0.5999999999999943
 30
0.0
 11
16.299999999999955
 21
-0.5999999999999943
 31
0.0
  0
LINE
  5
1BA
100
AcDbEntity
  8
0
  6
CONTINUOUS
 62
               7
100
AcDbLine
 10
16.5
 20
-5.9000000000000057
 30
0.0
 11
16.5
 21
-1.0999999999999943
 31
0.0
  0
CIRCLE
  5
1BB
100
AcDbEntity
  8
0
  6
CONTINUOUS
 62
               7
100
AcDbCircle
 10
15.669999999999845
 20
-5.8700000000000045
 30
0.0
 40
0.129999999999999
  0
LINE
  5
1BC
100
AcDbEntity
  8
0
  6
PHANTOM
 62
               2
100
AcDbLine
 10
14.999999975856099
 20
-5.7400000000000091
 30
0.0
 11
15.669999999999845
 21
-5.7400000000000091
 31
0.0
  0
LINE
  5
1BD
100
AcDbEntity
  8
0
  6
CONTINUOUS
 62
               7
100
AcDbLine
 10
16.5
 20
-2.5
 30
0.0
 11
17.999999999999773
 21
-2.5
 31
0.0
  0
LINE
  5
1BE
100
AcDbEntity
  8
0
  6
CONTINUOUS
 62
               7
100
AcDbLine
 10
16.5
 20
-4.5
 30
0.0
 11
17.999999999999773
 21
-4.5
 31
0.0
  0
CIRCLE
  5
1BF
100
AcDbEntity
  8
0
  6
CONTINUOUS
 62
               7
100
AcDbCircle
 10
8.9299999999998363
 20
-1.1299999999999955
 30
0.0
 40
0.129999999999999
  0
CIRCLE
  5
1C0
100
AcDbEntity
  8
0
  6
CONTINUOUS
 62
               7
100
AcDbCircle
 10
15.669999999999845
 20
-1.1299999999999955
 30
0.0
 40
0.129999999999999
  0
LINE
  5
1C1
100
AcDbEntity
  8
0
  6
PHANTOM
 62
               2
100
AcDbLine
 10
8.9299999999998363
 20
-1.2599999999999909
 30
0.0
 11
15.669999999999845
 21
-1.2599999999999909
 31
0.0
  0
LINE
  5
1C2
100
AcDbEntity
  8
0
  6
PHANTOM
 62
               2
100
AcDbLine
 10
8.9299999999998363
 20
-1.0
 30
0.0
 11
15.649999999999864
 21
-1.0
 31
0.0
  0
LINE
  5
1C3
100
AcDbEntity
  8
0
  6
CONTINUOUS
 62
               7
100
AcDbLine
 10
14.999999975856099
 20
-5.5
 30
0.0
 11
15.799999999999955
 21
-5.5
 31
0.0
  0
LINE
  5
1C4
100
AcDbEntity
  8
0
  6
CONTINUOUS
 62
               7
100
AcDbLine
 10
14.5
 20
-1.5
 30
0.0
 11
14.5
 21
-5.0
 31
0.0
  0
LINE
  5
1C5
100
AcDbEntity
  8
0
  6
CONTINUOUS
 62
               7
100
AcDbLine
 10
10.299999999999955
 20
-1.5
 30
0.0
 11
10.299999999999955
 21
-5.0
 31
0.0
  0
LINE
  5
1C6
100
AcDbEntity
  8
0
  6
CONTINUOUS
 62
               2
100
AcDbLine
 10
16.5
 20
-2.6500000000000057
 30
0.0
 11
16.759807621135224
 21
-2.5
 31
0.0
  0
LINE
  5
1C7
100
AcDbEntity
  8
0
  6
CONTINUOUS
 62
               2
100
AcDbLine
 10
16.5
 20
-4.3499999999999943
 30
0.0
 11
16.759807621135224
 21
-4.5
 31
0.0
  0
LINE
  5
1C8
100
AcDbEntity
  8
0
  6
CONTINUOUS
 62
               7
100
AcDbLine
 10
8.7999999999999545
 20
-0.5999999999999943
 30
0.0
 11
8.0
 21
-0.5999999999999943
 31
0.0
  0
LINE
  5
1C9
100
AcDbEntity
  8
0
  6
CONTINUOUS
 62
               7
100
AcDbLine
 10
10.299999999999955
 20
-1.5
 30
0.0
 11
8.7999999999999545
 21
-1.5
 31
0.0
  0
LINE
  5
1CA
100
AcDbEntity
  8
0
  6
CONTINUOUS
 62
               7
100
AcDbLine
 10
14.5
 20
-1.5
 30
0.0
 11
15.799999999999955
 21
-1.5
 31
0.0
  0
LINE
  5
1CB
100
AcDbEntity
  8
0
  6
CONTINUOUS
 62
               7
100
AcDbLine
 10
8.7999999999999545
 20
-0.5999999999999943
 30
0.0
 11
8.7999999999999545
 21
-5.0
 31
0.0
  0
LINE
  5
1CC
100
AcDbEntity
  8
0
  6
CONTINUOUS
 62
               7
100
AcDbLine
 10
0.0
 20
-0.6000000000000085
 30
0.0
 11
0.0
 21
-9.7999999982303194
 31
0.0
  0
LINE
  5
1CD
100
AcDbEntity
  8
0
  6
CONTINUOUS
 62
               7
100
AcDbLine
 10
0.0
 20
-9.7999999999999972
 30
0.0
 11
13.999999975856099
 21
-9.7999999999999972
 31
0.0
  0
LINE
  5
1CE
100
AcDbEntity
  8
0
  6
CONTINUOUS
 62
               7
100
AcDbLine
 10
8.0
 20
-0.5999999999999943
 30
0.0
 11
8.0
 21
-5.0
 31
0.0
  0
LINE
  5
1CF
100
AcDbEntity
  8
0
  6
CONTINUOUS
 62
               7
100
AcDbLine
 10
15.799999999999955
 20
-0.5999999999999943
 30
0.0
 11
15.799999999999955
 21
-6.0
 31
0.0
  0
LINE
  5
1D0
100
AcDbEntity
  8
0
  6
CONTINUOUS
 62
               7
100
AcDbLine
 10
0.0
 20
-0.6000000000000085
 30
0.0
 11
8.0
 21
-0.6000000000000085
 31
0.0
  0
LINE
  5
1D1
100
AcDbEntity
  8
0
  6
CONTINUOUS
 62
               7
100
AcDbLine
 10
10.299999999999955
 20
-2.0
 30
0.0
 11
14.5
 21
-2.0
 31
0.0
  0
LINE
  5
1D2
100
AcDbEntity
  8
0
  6
CONTINUOUS
 62
               7
100
AcDbLine
 10
8.0
 20
-5.0
 30
0.0
 11
14.999999975856099
 21
-5.0
 31
0.0
  0
LINE
  5
1D3
100
AcDbEntity
  8
0
  6
CONTINUOUS
 62
               7
100
AcDbLine
 10
14.999999975856099
 20
-5.0
 30
0.0
 11
14.999999975856099
 21
-6.0
 31
0.0
  0
LINE
  5
1D4
100
AcDbEntity
  8
0
  6
CONTINUOUS
 62
               7
100
AcDbLine
 10
0.0
 20
-9.2999999999999972
 30
0.0
 11
13.999999999999773
 21
-9.2999999999999972
 31
0.0
  0
LINE
  5
1D5
100
AcDbEntity
  8
0
  6
CONTINUOUS
 62
               2
100
AcDbLine
 10
-2.0
 20
-3.5
 30
0.0
 11
2.0
 21
-3.5
 31
0.0
  0
LINE
  5
1D6
100
AcDbEntity
  8
0
  6
CONTINUOUS
 62
               2
100
AcDbLine
 10
5.8504675624061093
 20
-3.5
 30
0.0
 11
18.653955375845953
 21
-3.5
 31
0.0
  0
LINE
  5
1D7
100
AcDbEntity
  8
0
  6
CONTINUOUS
 62
               2
100
AcDbLine
 10
25.0
 20
-2.0
 30
0.0
 11
25.0
 21
2.0
 31
0.0
  0
LINE
  5
1D8
100
AcDbEntity
  8
0
  6
CONTINUOUS
 62
               2
100
AcDbLine
 10
41.0
 20
-2.0
 30
0.0
 11
41.0
 21
2.0
 31
0.0
  0
LINE
  5
1D9
100
AcDbEntity
  8
0
  6
PHANTOM
 62
               3
100
AcDbLine
 10
63.49999999746251
 20
-19.884889696870047
 30
0.0
 11
63.49999999746251
 21
10.869456450185226
 31
0.0
  0
ENDBLK
  5
1DA
100
AcDbEntity
  8
0
100
AcDbBlockEnd
  0
BLOCK
  5
1DB
100
AcDbEntity
  8
0
100
AcDbBlockBegin
  2
MGAPG4_5-5
 70
               0
 10
0.0
 20
0.0
 30
0.0
  3
MGAPG4_5-5
  1

  0
LINE
  5
1DC
100
AcDbEntity
  8
0
  6
CONTINUOUS
 62
               2
100
AcDbLine
 10
-2.0
 20
3.5
 30
0.0
 11
2.0
 21
3.5
 31
0.0
  0
LINE
  5
1DD
100
AcDbEntity
  8
0
  6
CONTINUOUS
 62
               7
100
AcDbLine
 10
13.999999975855872
 20
6.0
 30
0.0
 11
13.999999975855872
 21
9.9999999863093905
 31
0.0
  0
LINE
  5
1DE
100
AcDbEntity
  8
0
  6
CONTINUOUS
 62
               7
100
AcDbLine
 10
13.999999975855872
 20
6.0
 30
0.0
 11
51.999999999999773
 21
6.0
 31
0.0
  0
LINE
  5
1DF
100
AcDbEntity
  8
0
  6
CONTINUOUS
 62
               7
100
AcDbLine
 10
17.999999999999773
 20
0.0
 30
0.0
 11
17.999999999999773
 21
6.0
 31
0.0
  0
LINE
  5
1E0
100
AcDbEntity
  8
0
  6
CONTINUOUS
 62
               2
100
AcDbLine
 10
20.999999999999773
 20
1.1999999999999886
 30
0.0
 11
20.999999999999773
 21
5.1999999999999886
 31
0.0
  0
LINE
  5
1E1
100
AcDbEntity
  8
0
  6
CONTINUOUS
 62
               2
100
AcDbLine
 10
18.999999999999773
 20
3.1999999999999886
 30
0.0
 11
22.999999999999773
 21
3.1999999999999886
 31
0.0
  0
LINE
  5
1E2
100
AcDbEntity
  8
0
  6
CONTINUOUS
 62
               7
100
AcDbLine
 10
51.999999999999773
 20
0.0
 30
0.0
 11
51.999999999999773
 21
10.0
 31
0.0
  0
LINE
  5
1E3
100
AcDbEntity
  8
0
  6
CONTINUOUS
 62
               7
100
AcDbLine
 10
13.999999999999773
 20
10.0
 30
0.0
 11
51.999999999999773
 21
10.0
 31
0.0
  0
LINE
  5
1E4
100
AcDbEntity
  8
0
  6
CONTINUOUS
 62
               7
100
AcDbLine
 10
17.999999999999773
 20
0.0
 30
0.0
 11
51.999999999999773
 21
0.0
 31
0.0
  0
CIRCLE
  5
1E5
100
AcDbEntity
  8
0
  6
CONTINUOUS
 62
               2
100
AcDbCircle
 10
20.999999999999773
 20
3.1999999999999886
 30
0.0
 40
1.0
  0
CIRCLE
  5
1E6
100
AcDbEntity
  8
0
  6
CONTINUOUS
 62
               7
100
AcDbCircle
 10
20.999999999999773
 20
3.1999999999999886
 30
0.0
 40
0.8
  0
CIRCLE
  5
1E7
100
AcDbEntity
  8
0
  6
CONTINUOUS
 62
               7
100
AcDbCircle
 10
48.999999999999773
 20
3.1999999999999886
 30
0.0
 40
0.8
  0
CIRCLE
  5
1E8
100
AcDbEntity
  8
0
  6
CONTINUOUS
 62
               2
100
AcDbCircle
 10
48.999999999999773
 20
3.1999999999999886
 30
0.0
 40
1.0
  0
LINE
  5
1E9
100
AcDbEntity
  8
0
  6
CONTINUOUS
 62
               2
100
AcDbLine
 10
46.999999999999773
 20
3.1999999999999886
 30
0.0
 11
50.999999999999773
 21
3.1999999999999886
 31
0.0
  0
LINE
  5
1EA
100
AcDbEntity
  8
0
  6
CONTINUOUS
 62
               2
100
AcDbLine
 10
48.999999999999773
 20
1.1999999999999886
 30
0.0
 11
48.999999999999773
 21
5.1999999999999886
 31
0.0
  0
CIRCLE
  5
1EB
100
AcDbEntity
  8
0
  6
CONTINUOUS
 62
               7
100
AcDbCircle
 10
46.499999999999773
 20
7.9000000000000057
 30
0.0
 40
0.8
  0
CIRCLE
  5
1EC
100
AcDbEntity
  8
0
  6
CONTINUOUS
 62
               2
100
AcDbCircle
 10
46.499999999999773
 20
7.9000000000000057
 30
0.0
 40
1.0
  0
LINE
  5
1ED
100
AcDbEntity
  8
0
  6
CONTINUOUS
 62
               2
100
AcDbLine
 10
44.499999999999773
 20
7.9000000000000057
 30
0.0
 11
48.499999999999773
 21
7.9000000000000057
 31
0.0
  0
LINE
  5
1EE
100
AcDbEntity
  8
0
  6
CONTINUOUS
 62
               2
100
AcDbLine
 10
46.499999999999773
 20
5.9000000000000057
 30
0.0
 11
46.499999999999773
 21
9.9000000000000057
 31
0.0
  0
CIRCLE
  5
1EF
100
AcDbEntity
  8
0
  6
CONTINUOUS
 62
               7
100
AcDbCircle
 10
33.499999999999773
 20
7.9000000000000057
 30
0.0
 40
0.8
  0
CIRCLE
  5
1F0
100
AcDbEntity
  8
0
  6
CONTINUOUS
 62
               2
100
AcDbCircle
 10
33.499999999999773
 20
7.9000000000000057
 30
0.0
 40
1.0
  0
LINE
  5
1F1
100
AcDbEntity
  8
0
  6
CONTINUOUS
 62
               2
100
AcDbLine
 10
31.499999999999773
 20
7.9000000000000057
 30
0.0
 11
35.499999999999773
 21
7.9000000000000057
 31
0.0
  0
LINE
  5
1F2
100
AcDbEntity
  8
0
  6
CONTINUOUS
 62
               2
100
AcDbLine
 10
33.499999999999773
 20
5.9000000000000057
 30
0.0
 11
33.499999999999773
 21
9.9000000000000057
 31
0.0
  0
CIRCLE
  5
1F3
100
AcDbEntity
  8
0
  6
CONTINUOUS
 62
               7
100
AcDbCircle
 10
29.499999999999773
 20
3.0
 30
0.0
 40
1.2
  0
LINE
  5
1F4
100
AcDbEntity
  8
0
  6
CONTINUOUS
 62
               2
100
AcDbLine
 10
26.999999999999773
 20
3.0
 30
0.0
 11
31.999999999999773
 21
3.0
 31
0.0
  0
CIRCLE
  5
1F5
100
AcDbEntity
  8
0
  6
CONTINUOUS
 62
               2
100
AcDbCircle
 10
29.499999999999773
 20
3.0
 30
0.0
 40
1.5
  0
LINE
  5
1F6
100
AcDbEntity
  8
0
  6
CONTINUOUS
 62
               2
100
AcDbLine
 10
29.499999999999773
 20
0.5
 30
0.0
 11
29.499999999999773
 21
5.5
 31
0.0
  0
CIRCLE
  5
1F7
100
AcDbEntity
  8
0
  6
CONTINUOUS
 62
               7
100
AcDbCircle
 10
45.499999999999773
 20
3.0
 30
0.0
 40
1.2
  0
LINE
  5
1F8
100
AcDbEntity
  8
0
  6
CONTINUOUS
 62
               2
100
AcDbLine
 10
42.999999999999773
 20
3.0
 30
0.0
 11
47.999999999999773
 21
3.0
 31
0.0
  0
CIRCLE
  5
1F9
100
AcDbEntity
  8
0
  6
CONTINUOUS
 62
               2
100
AcDbCircle
 10
45.499999999999773
 20
3.0
 30
0.0
 40
1.5
  0
LINE
  5
1FA
100
AcDbEntity
  8
0
  6
CONTINUOUS
 62
               2
100
AcDbLine
 10
45.499999999999773
 20
0.5
 30
0.0
 11
45.499999999999773
 21
5.5
 31
0.0
  0
LINE
  5
1FB
100
AcDbEntity
  8
0
  6
CONTINUOUS
 62
               7
100
AcDbLine
 10
18.000000001754188
 20
5.5
 30
0.0
 11
51.999999999999773
 21
5.5
 31
0.0
  0
LINE
  5
1FC
100
AcDbEntity
  8
0
  6
CONTINUOUS
 62
               7
100
AcDbLine
 10
22.899999999999864
 20
3.5
 30
0.0
 11
27.099999999999682
 21
3.5
 31
0.0
  0
LINE
  5
1FD
100
AcDbEntity
  8
0
  6
CONTINUOUS
 62
               7
100
AcDbLine
 10
13.999999999999773
 20
9.5
 30
0.0
 11
51.999999999999773
 21
9.5
 31
0.0
  0
LINE
  5
1FE
100
AcDbEntity
  8
0
  6
CONTINUOUS
 62
               7
100
AcDbLine
 10
22.899999999999864
 20
5.5
 30
0.0
 11
22.899999999999864
 21
3.5
 31
0.0
  0
LINE
  5
1FF
100
AcDbEntity
  8
0
  6
CONTINUOUS
 62
               7
100
AcDbLine
 10
27.099999999999682
 20
5.5
 30
0.0
 11
27.099999999999682
 21
3.5
 31
0.0
  0
LINE
  5
200
100
AcDbEntity
  8
0
  6
CONTINUOUS
 62
               7
100
AcDbLine
 10
38.899999999999864
 20
3.5
 30
0.0
 11
43.099999999999682
 21
3.5
 31
0.0
  0
LINE
  5
201
100
AcDbEntity
  8
0
  6
CONTINUOUS
 62
               7
100
AcDbLine
 10
43.099999999999682
 20
5.5
 30
0.0
 11
43.099999999999682
 21
3.5
 31
0.0
  0
LINE
  5
202
100
AcDbEntity
  8
0
  6
CONTINUOUS
 62
               7
100
AcDbLine
 10
38.899999999999864
 20
5.5
 30
0.0
 11
38.899999999999864
 21
3.5
 31
0.0
  0
LINE
  5
203
100
AcDbEntity
  8
0
  6
CONTINUOUS
 62
               7
100
AcDbLine
 10
52.000000001754188
 20
9.6999999999999957
 30
0.0
 11
52.500000001754188
 21
9.6999999999999957
 31
0.0
  0
LINE
  5
204
100
AcDbEntity
  8
0
  6
CONTINUOUS
 62
               7
100
AcDbLine
 10
52.000000001754188
 20
6.1999999999999957
 30
0.0
 11
52.500000001754188
 21
6.1999999999999957
 31
0.0
  0
LINE
  5
205
100
AcDbEntity
  8
0
  6
CONTINUOUS
 62
               7
100
AcDbLine
 10
52.999999999999773
 20
8.2000000000000028
 30
0.0
 11
52.999999999999773
 21
6.7999999999999972
 31
0.0
  0
LINE
  5
206
100
AcDbEntity
  8
0
  6
CONTINUOUS
 62
               7
100
AcDbLine
 10
52.499999999999773
 20
6.5
 30
0.0
 11
52.699999999999818
 21
6.5
 31
0.0
  0
LINE
  5
207
100
AcDbEntity
  8
0
  6
CONTINUOUS
 62
               7
100
AcDbLine
 10
52.499999999999773
 20
8.5
 30
0.0
 11
52.699999999999818
 21
8.5
 31
0.0
  0
ARC
  5
208
100
AcDbEntity
  8
0
  6
CONTINUOUS
 62
               7
100
AcDbCircle
 10
52.699999999999818
 20
6.7999999999999972
 30
0.0
 40
0.3
100
AcDbArc
 50
270.0
 51
0.0
  0
ARC
  5
209
100
AcDbEntity
  8
0
  6
CONTINUOUS
 62
               7
100
AcDbCircle
 10
52.699999999999818
 20
8.2000000000000028
 30
0.0
 40
0.3
100
AcDbArc
 50
0.0
 51
90.0
  0
LINE
  5
20A
100
AcDbEntity
  8
0
  6
CONTINUOUS
 62
               7
100
AcDbLine
 10
52.499999999999773
 20
9.6999999999999957
 30
0.0
 11
52.499999999999773
 21
6.1999999999999957
 31
0.0
  0
SPLINE
  5
20B
100
AcDbEntity
  8
0
  6
CONTINUOUS
 62
               7
100
AcDbSpline
210
0.0
220
0.0
230
1.0
 70
               0
 71
               3
 72
               0
 73
               0
 74
               5
 44
0.000001
 12
-0.5262037021178492
 22
0.850358550187784
 32
0.0
 13
0.5262037021178496
 23
0.8503585501877836
 33
0.0
 11
76.178632794953955
 21
1.1905989232414811
 31
0.0
 11
76.049564774187729
 21
1.467380331978587
 31
0.0
 11
75.999999999999773
 21
1.7679491924311037
 31
0.0
 11
76.049564774187729
 21
2.0685180528836202
 31
0.0
 11
76.178632794953955
 21
2.3452994616207263
 31
0.0
  0
SPLINE
  5
20C
100
AcDbEntity
  8
0
  6
CONTINUOUS
 62
               7
100
AcDbSpline
210
0.0
220
0.0
230
1.0
 70
               0
 71
               3
 72
               0
 73
               0
 74
               5
 44
0.000001
 12
-0.2955767282156591
 22
-0.9553190031279218
 32
0.0
 13
0.2955767282156592
 23
-0.9553190031279218
 33
0.0
 11
76.178632794953955
 21
4.6547005383792737
 31
0.0
 11
76.046146081124107
 21
4.0845636363893894
 31
0.0
 11
75.999999999999773
 21
3.5
 31
0.0
 11
76.046146081124107
 21
2.9154363636106106
 31
0.0
 11
76.178632794953955
 21
2.3452994616207263
 31
0.0
  0
SPLINE
  5
20D
100
AcDbEntity
  8
0
  6
CONTINUOUS
 62
               7
100
AcDbSpline
210
0.0
220
0.0
230
1.0
 70
               0
 71
               3
 72
               0
 73
               0
 74
               5
 44
0.000001
 12
-0.5262037021178492
 22
-0.850358550187784
 32
0.0
 13
0.5262037021178496
 23
-0.8503585501877836
 33
0.0
 11
76.178632794953955
 21
5.8094010767585189
 31
0.0
 11
76.049564774187729
 21
5.5326196680214128
 31
0.0
 11
75.999999999999773
 21
5.2320508075688963
 31
0.0
 11
76.049564774187729
 21
4.9314819471163798
 31
0.0
 11
76.178632794953955
 21
4.6547005383792737
 31
0.0
  0
SPLINE
  5
20E
100
AcDbEntity
  8
0
  6
CONTINUOUS
 62
               7
100
AcDbSpline
210
0.0
220
0.0
230
1.0
 70
               0
 71
               3
 72
               0
 73
               0
 74
               5
 44
0.000001
 12
0.2955767282156592
 22
-0.9553190031279218
 32
0.0
 13
-0.2955767282156591
 23
-0.9553190031279218
 33
0.0
 11
77.421367205045726
 21
4.6547005383792737
 31
0.0
 11
77.553853918875575
 21
4.0845636363893894
 31
0.0
 11
77.599999999999909
 21
3.5
 31
0.0
 11
77.553853918875575
 21
2.9154363636106106
 31
0.0
 11
77.421367205045726
 21
2.3452994616207263
 31
0.0
  0
SPLINE
  5
20F
100
AcDbEntity
  8
0
  6
CONTINUOUS
 62
               7
100
AcDbSpline
210
0.0
220
0.0
230
1.0
 70
               0
 71
               3
 72
               0
 73
               0
 74
               5
 44
0.000001
 12
0.5262037021178491
 22
0.850358550187784
 32
0.0
 13
-0.5262037021178496
 23
0.8503585501877837
 33
0.0
 11
77.421367205045726
 21
1.1905989232414811
 31
0.0
 11
77.550435225811952
 21
1.467380331978587
 31
0.0
 11
77.599999999999909
 21
1.7679491924311037
 31
0.0
 11
77.550435225811952
 21
2.0685180528836202
 31
0.0
 11
77.421367205045726
 21
2.3452994616207263
 31
0.0
  0
SPLINE
  5
210
100
AcDbEntity
  8
0
  6
CONTINUOUS
 62
               7
100
AcDbSpline
210
0.0
220
0.0
230
1.0
 70
               0
 71
               3
 72
               0
 73
               0
 74
               5
 44
0.000001
 12
0.5262037021178491
 22
-0.850358550187784
 32
0.0
 13
-0.5262037021178496
 23
-0.8503585501877837
 33
0.0
 11
77.421367205045726
 21
5.8094010767585189
 31
0.0
 11
77.550435225811952
 21
5.5326196680214128
 31
0.0
 11
77.599999999999909
 21
5.2320508075688963
 31
0.0
 11
77.550435225811952
 21
4.9314819471163798
 31
0.0
 11
77.421367205045726
 21
4.6547005383792737
 31
0.0
  0
SPLINE
  5
211
100
AcDbEntity
  8
0
  6
CONTINUOUS
 62
               7
100
AcDbSpline
210
0.0
220
0.0
230
1.0
 70
               0
 71
               3
 72
               0
 73
               0
 74
               5
 44
0.000001
 12
0.7311721974753224
 22
-0.6821929475149301
 32
0.0
 13
-0.7311721974753213
 23
-0.6821929475149313
 33
0.0
 11
75.613248654051631
 21
2.0566243270259577
 31
0.0
 11
75.88145848968955
 21
1.7263650416724912
 31
0.0
 11
75.999999999999773
 21
1.3349364905389223
 31
0.0
 11
75.88145848968955
 21
0.9435079394053496
 31
0.0
 11
75.613248654051631
 21
0.6132486540518795
 31
0.0
  0
SPLINE
  5
212
100
AcDbEntity
  8
0
  6
CONTINUOUS
 62
               7
100
AcDbSpline
210
0.0
220
0.0
230
1.0
 70
               0
 71
               3
 72
               0
 73
               0
 74
               5
 44
0.000001
 12
0.4723474904831461
 22
-0.8814124166553784
 32
0.0
 13
-0.4723474904831467
 23
-0.881412416655378
 33
0.0
 11
75.613248654051631
 21
4.9433756729740708
 31
0.0
 11
75.894852488339723
 21
4.2453667896579281
 31
0.0
 11
75.999999999999773
 21
3.5
 31
0.0
 11
75.894852488339723
 21
2.7546332103420861
 31
0.0
 11
75.613248654051631
 21
2.0566243270259577
 31
0.0
  0
SPLINE
  5
213
100
AcDbEntity
  8
0
  6
CONTINUOUS
 62
               7
100
AcDbSpline
210
0.0
220
0.0
230
1.0
 70
               0
 71
               3
 72
               0
 73
               0
 74
               5
 44
0.000001
 12
0.7311721974753245
 22
-0.6821929475149278
 32
0.0
 13
-0.7311721974753291
 23
-0.6821929475149229
 33
0.0
 11
75.613248654051631
 21
6.3867513459481273
 31
0.0
 11
75.881458489689564
 21
6.0564920605946613
 31
0.0
 11
75.999999999999773
 21
5.6650635094610919
 31
0.0
 11
75.88145848968955
 21
5.2736349583275297
 31
0.0
 11
75.613248654051631
 21
4.9433756729740708
 31
0.0
  0
LINE
  5
214
100
AcDbEntity
  8
0
  6
CONTINUOUS
 62
               2
100
AcDbLine
 10
79.999999999999773
 20
3.5
 30
0.0
 11
55.528164021903194
 21
3.5
 31
0.0
  0
LINE
  5
215
100
AcDbEntity
  8
0
  6
CONTINUOUS
 62
               7
100
AcDbLine
 10
51.999999999999773
 20
0.1000000000000014
 30
0.0
 11
58.499999999999773
 21
0.1000000000000014
 31
0.0
  0
LINE
  5
216
100
AcDbEntity
  8
0
  6
CONTINUOUS
 62
               7
100
AcDbLine
 10
51.999999999999773
 20
5.5
 30
0.0
 11
58.499999999999773
 21
5.5
 31
0.0
  0
LINE
  5
217
100
AcDbEntity
  8
0
  6
CONTINUOUS
 62
               7
100
AcDbLine
 10
52.999999999999773
 20
7.0
 30
0.0
 11
58.499999999999773
 21
7.0
 31
0.0
  0
LINE
  5
218
100
AcDbEntity
  8
0
  6
CONTINUOUS
 62
               7
100
AcDbLine
 10
59.399999999999864
 20
1.1000000000000014
 30
0.0
 11
59.399999999999864
 21
4.8999999999999986
 31
0.0
  0
LINE
  5
219
100
AcDbEntity
  8
0
  6
CONTINUOUS
 62
               7
100
AcDbLine
 10
59.699999999999818
 20
1.3999999999999986
 30
0.0
 11
59.699999999999818
 21
4.6000000000000014
 31
0.0
  0
LINE
  5
21A
100
AcDbEntity
  8
0
  6
CONTINUOUS
 62
               7
100
AcDbLine
 10
59.699999999999818
 20
1.3999999999999986
 30
0.0
 11
59.399999999999864
 21
1.1000000000000014
 31
0.0
  0
LINE
  5
21B
100
AcDbEntity
  8
0
  6
CONTINUOUS
 62
               7
100
AcDbLine
 10
59.699999999999818
 20
4.6000000000000014
 30
0.0
 11
59.399999999999864
 21
4.8999999999999986
 31
0.0
  0
LINE
  5
21C
100
AcDbEntity
  8
0
  6
CONTINUOUS
 62
               7
100
AcDbLine
 10
59.399999999999864
 20
1.1000000000000014
 30
0.0
 11
58.499999999999773
 21
1.1000000000000014
 31
0.0
  0
LINE
  5
21D
100
AcDbEntity
  8
0
  6
CONTINUOUS
 62
               7
100
AcDbLine
 10
59.399999999999864
 20
4.8999999999999986
 30
0.0
 11
58.499999999999773
 21
4.8999999999999986
 31
0.0
  0
LINE
  5
21E
100
AcDbEntity
  8
0
  6
CONTINUOUS
 62
               7
100
AcDbLine
 10
75.999999999999773
 20
1.5
 30
0.0
 11
76.178632794953955
 21
1.1905989232414811
 31
0.0
  0
LINE
  5
21F
100
AcDbEntity
  8
0
  6
CONTINUOUS
 62
               7
100
AcDbLine
 10
75.999999999999773
 20
5.5
 30
0.0
 11
76.178632794953955
 21
5.8094010767585189
 31
0.0
  0
LINE
  5
220
100
AcDbEntity
  8
0
  6
CONTINUOUS
 62
               7
100
AcDbLine
 10
77.421367205045726
 20
1.1905989232414811
 30
0.0
 11
76.178632794953955
 21
1.1905989232414811
 31
0.0
  0
LINE
  5
221
100
AcDbEntity
  8
0
  6
CONTINUOUS
 62
               7
100
AcDbLine
 10
77.599999999999909
 20
1.5
 30
0.0
 11
77.421367205045726
 21
1.1905989232414811
 31
0.0
  0
LINE
  5
222
100
AcDbEntity
  8
0
  6
CONTINUOUS
 62
               7
100
AcDbLine
 10
77.421367205045726
 20
2.3452994616207263
 30
0.0
 11
76.171075907345994
 21
2.3452994616207263
 31
0.0
  0
LINE
  5
223
100
AcDbEntity
  8
0
  6
CONTINUOUS
 62
               7
100
AcDbLine
 10
77.599999999999909
 20
5.5
 30
0.0
 11
77.421367205045726
 21
5.8094010767585189
 31
0.0
  0
LINE
  5
224
100
AcDbEntity
  8
0
  6
CONTINUOUS
 62
               7
100
AcDbLine
 10
77.421367205045726
 20
4.6547005383792737
 30
0.0
 11
76.171075907345994
 21
4.6547005383792737
 31
0.0
  0
LINE
  5
225
100
AcDbEntity
  8
0
  6
CONTINUOUS
 62
               7
100
AcDbLine
 10
77.421367205045726
 20
5.8094010767585189
 30
0.0
 11
76.178632794953955
 21
5.8094010767585189
 31
0.0
  0
LINE
  5
226
100
AcDbEntity
  8
0
  6
CONTINUOUS
 62
               7
100
AcDbLine
 10
75.613248654051631
 20
2.0566243270259577
 30
0.0
 11
71.499999999999773
 21
2.0566243270259577
 31
0.0
  0
LINE
  5
227
100
AcDbEntity
  8
0
  6
CONTINUOUS
 62
               7
100
AcDbLine
 10
75.613248654051631
 20
4.9433756729740708
 30
0.0
 11
71.499999999999773
 21
4.9433756729740708
 31
0.0
  0
LINE
  5
228
100
AcDbEntity
  8
0
  6
CONTINUOUS
 62
               7
100
AcDbLine
 10
75.999999999999773
 20
1.0
 30
0.0
 11
75.613248654051631
 21
0.6132486540518798
 31
0.0
  0
LINE
  5
229
100
AcDbEntity
  8
0
  6
CONTINUOUS
 62
               7
100
AcDbLine
 10
75.999999999999773
 20
6.0
 30
0.0
 11
75.613248654051631
 21
6.3867513459481273
 31
0.0
  0
LINE
  5
22A
100
AcDbEntity
  8
0
  6
CONTINUOUS
 62
               7
100
AcDbLine
 10
75.613248654051631
 20
0.6132486540518798
 30
0.0
 11
71.499999999999773
 21
0.6132486540518798
 31
0.0
  0
LINE
  5
22B
100
AcDbEntity
  8
0
  6
CONTINUOUS
 62
               7
100
AcDbLine
 10
75.613248654051631
 20
6.3867513459481273
 30
0.0
 11
71.499999999999773
 21
6.3867513459481273
 31
0.0
  0
LINE
  5
22C
100
AcDbEntity
  8
0
  6
CONTINUOUS
 62
               7
100
AcDbLine
 10
58.499999999999773
 20
7.0
 30
0.0
 11
58.499999999999773
 21
0.1000000000000014
 31
0.0
  0
LINE
  5
22D
100
AcDbEntity
  8
0
  6
CONTINUOUS
 62
               7
100
AcDbLine
 10
77.999999999999773
 20
2.7000000000000028
 30
0.0
 11
77.799999999999955
 21
2.5
 31
0.0
  0
LINE
  5
22E
100
AcDbEntity
  8
0
  6
CONTINUOUS
 62
               7
100
AcDbLine
 10
77.799999999999955
 20
4.5
 30
0.0
 11
77.999999999999773
 21
4.3000000000000114
 31
0.0
  0
LINE
  5
22F
100
AcDbEntity
  8
0
  6
CONTINUOUS
 62
               7
100
AcDbLine
 10
77.999999999999773
 20
4.3000000000000114
 30
0.0
 11
77.999999999999773
 21
2.7000000000000028
 31
0.0
  0
LINE
  5
230
100
AcDbEntity
  8
0
  6
CONTINUOUS
 62
               7
100
AcDbLine
 10
68.499999999999773
 20
1.25
 30
0.0
 11
71.499999999999773
 21
1.25
 31
0.0
  0
LINE
  5
231
100
AcDbEntity
  8
0
  6
CONTINUOUS
 62
               7
100
AcDbLine
 10
77.599999999999909
 20
5.5
 30
0.0
 11
77.599999999999909
 21
1.5
 31
0.0
  0
LINE
  5
232
100
AcDbEntity
  8
0
  6
CONTINUOUS
 62
               7
100
AcDbLine
 10
71.499999999999773
 20
6.3867513459481273
 30
0.0
 11
71.499999999999773
 21
0.6132486540518798
 31
0.0
  0
LINE
  5
233
100
AcDbEntity
  8
0
  6
CONTINUOUS
 62
               7
100
AcDbLine
 10
75.999999999999773
 20
6.0
 30
0.0
 11
75.999999999999773
 21
1.0
 31
0.0
  0
LINE
  5
234
100
AcDbEntity
  8
0
  6
CONTINUOUS
 62
               7
100
AcDbLine
 10
68.499999999999773
 20
5.75
 30
0.0
 11
71.499999999999773
 21
5.75
 31
0.0
  0
LINE
  5
235
100
AcDbEntity
  8
0
  6
CONTINUOUS
 62
               7
100
AcDbLine
 10
68.499999999999773
 20
5.75
 30
0.0
 11
68.499999999999773
 21
1.25
 31
0.0
  0
LINE
  5
236
100
AcDbEntity
  8
0
  6
CONTINUOUS
 62
               7
100
AcDbLine
 10
77.599999999999909
 20
4.5
 30
0.0
 11
77.799999999999955
 21
4.5
 31
0.0
  0
LINE
  5
237
100
AcDbEntity
  8
0
  6
CONTINUOUS
 62
               7
100
AcDbLine
 10
77.599999999999909
 20
2.5
 30
0.0
 11
77.799999999999955
 21
2.5
 31
0.0
  0
LINE
  5
238
100
AcDbEntity
  8
0
  6
CONTINUOUS
 62
               7
100
AcDbLine
 10
77.799999999999955
 20
4.5
 30
0.0
 11
77.799999999999955
 21
2.5
 31
0.0
  0
LINE
  5
239
100
AcDbEntity
  8
0
  6
CONTINUOUS
 62
               7
100
AcDbLine
 10
59.699999999999818
 20
2.5
 30
0.0
 11
68.499999999999773
 21
2.5
 31
0.0
  0
LINE
  5
23A
100
AcDbEntity
  8
0
  6
CONTINUOUS
 62
               7
100
AcDbLine
 10
59.699999999999818
 20
4.5
 30
0.0
 11
68.499999999999773
 21
4.5
 31
0.0
  0
LINE
  5
23B
100
AcDbEntity
  8
0
  6
CONTINUOUS
 62
               7
100
AcDbLine
 10
67.999999999999773
 20
4.5
 30
0.0
 11
67.999999999999773
 21
2.5
 31
0.0
  0
LINE
  5
23C
100
AcDbEntity
  8
0
  6
CONTINUOUS
 62
               2
100
AcDbLine
 10
67.999999999999773
 20
4.2834999999999965
 30
0.0
 11
68.499999999999773
 21
4.2834999999999965
 31
0.0
  0
LINE
  5
23D
100
AcDbEntity
  8
0
  6
CONTINUOUS
 62
               2
100
AcDbLine
 10
67.999999999999773
 20
4.2834999999999965
 30
0.0
 11
67.625011000161294
 21
4.5
 31
0.0
  0
LINE
  5
23E
100
AcDbEntity
  8
0
  6
CONTINUOUS
 62
               2
100
AcDbLine
 10
67.999999999999773
 20
2.7165000000000035
 30
0.0
 11
67.625011000161294
 21
2.5
 31
0.0
  0
LINE
  5
23F
100
AcDbEntity
  8
0
  6
CONTINUOUS
 62
               2
100
AcDbLine
 10
67.999999999999773
 20
2.7165000000000035
 30
0.0
 11
68.499999999999773
 21
2.7165000000000035
 31
0.0
  0
LINE
  5
240
100
AcDbEntity
  8
0
  6
CONTINUOUS
 62
               2
100
AcDbLine
 10
77.599999999999909
 20
4.2835000000000036
 30
0.0
 11
77.999999999999773
 21
4.2835000000000036
 31
0.0
  0
LINE
  5
241
100
AcDbEntity
  8
0
  6
CONTINUOUS
 62
               2
100
AcDbLine
 10
77.599999999999909
 20
2.7164999999999964
 30
0.0
 11
77.999999999999773
 21
2.7164999999999964
 31
0.0
  0
LINE
  5
242
100
AcDbEntity
  8
0
  6
CONTINUOUS
 62
               2
100
AcDbLine
 10
16.299999999999955
 20
2.5794023680239064
 30
0.0
 11
15.799999999999955
 21
4.4205976319761007
 31
0.0
  0
LINE
  5
243
100
AcDbEntity
  8
0
  6
CONTINUOUS
 62
               2
100
AcDbLine
 10
16.299999999999955
 20
4.4205976319761007
 30
0.0
 11
15.799999999999955
 21
2.5794023680239064
 31
0.0
  0
LINE
  5
244
100
AcDbEntity
  8
0
  6
CONTINUOUS
 62
               7
100
AcDbLine
 10
15.799999999999955
 20
2.5794023680239064
 30
0.0
 11
16.299999999999955
 21
2.5794023680239064
 31
0.0
  0
LINE
  5
245
100
AcDbEntity
  8
0
  6
CONTINUOUS
 62
               7
100
AcDbLine
 10
15.799999999999955
 20
4.4205976319761007
 30
0.0
 11
16.299999999999955
 21
4.4205976319761007
 31
0.0
  0
LINE
  5
246
100
AcDbEntity
  8
0
  6
CONTINUOUS
 62
               7
100
AcDbLine
 10
16.299999999999955
 20
6.0
 30
0.0
 11
16.299999999999955
 21
0.6000000000000014
 31
0.0
  0
LINE
  5
247
100
AcDbEntity
  8
0
  6
CONTINUOUS
 62
               7
100
AcDbLine
 10
16.299999999999955
 20
1.1000000000000014
 30
0.0
 11
16.5
 21
1.1000000000000014
 31
0.0
  0
LINE
  5
248
100
AcDbEntity
  8
0
  6
CONTINUOUS
 62
               7
100
AcDbLine
 10
16.299999999999955
 20
5.8999999999999986
 30
0.0
 11
16.5
 21
5.8999999999999986
 31
0.0
  0
LINE
  5
249
100
AcDbEntity
  8
0
  6
CONTINUOUS
 62
               7
100
AcDbLine
 10
15.799999999999955
 20
0.6000000000000014
 30
0.0
 11
16.299999999999955
 21
0.6000000000000014
 31
0.0
  0
LINE
  5
24A
100
AcDbEntity
  8
0
  6
CONTINUOUS
 62
               7
100
AcDbLine
 10
16.5
 20
5.8999999999999986
 30
0.0
 11
16.5
 21
1.1000000000000014
 31
0.0
  0
CIRCLE
  5
24B
100
AcDbEntity
  8
0
  6
CONTINUOUS
 62
               7
100
AcDbCircle
 10
15.669999999999845
 20
5.8700000000000045
 30
0.0
 40
0.129999999999999
  0
LINE
  5
24C
100
AcDbEntity
  8
0
  6
PHANTOM
 62
               2
100
AcDbLine
 10
14.999999975856099
 20
5.740000000000002
 30
0.0
 11
15.669999999999845
 21
5.740000000000002
 31
0.0
  0
LINE
  5
24D
100
AcDbEntity
  8
0
  6
CONTINUOUS
 62
               7
100
AcDbLine
 10
16.5
 20
2.5
 30
0.0
 11
17.999999999999773
 21
2.5
 31
0.0
  0
LINE
  5
24E
100
AcDbEntity
  8
0
  6
CONTINUOUS
 62
               7
100
AcDbLine
 10
16.5
 20
4.5
 30
0.0
 11
17.999999999999773
 21
4.5
 31
0.0
  0
CIRCLE
  5
24F
100
AcDbEntity
  8
0
  6
CONTINUOUS
 62
               7
100
AcDbCircle
 10
8.9299999999998363
 20
1.1299999999999955
 30
0.0
 40
0.129999999999999
  0
CIRCLE
  5
250
100
AcDbEntity
  8
0
  6
CONTINUOUS
 62
               7
100
AcDbCircle
 10
15.669999999999845
 20
1.1299999999999955
 30
0.0
 40
0.129999999999999
  0
LINE
  5
251
100
AcDbEntity
  8
0
  6
PHANTOM
 62
               2
100
AcDbLine
 10
8.9299999999998363
 20
1.259999999999998
 30
0.0
 11
15.669999999999845
 21
1.259999999999998
 31
0.0
  0
LINE
  5
252
100
AcDbEntity
  8
0
  6
PHANTOM
 62
               2
100
AcDbLine
 10
8.9299999999998363
 20
1.0
 30
0.0
 11
15.649999999999864
 21
1.0
 31
0.0
  0
LINE
  5
253
100
AcDbEntity
  8
0
  6
CONTINUOUS
 62
               7
100
AcDbLine
 10
14.999999975856099
 20
5.5
 30
0.0
 11
15.799999999999955
 21
5.5
 31
0.0
  0
LINE
  5
254
100
AcDbEntity
  8
0
  6
CONTINUOUS
 62
               7
100
AcDbLine
 10
14.5
 20
1.5
 30
0.0
 11
14.5
 21
5.0
 31
0.0
  0
LINE
  5
255
100
AcDbEntity
  8
0
  6
CONTINUOUS
 62
               7
100
AcDbLine
 10
10.299999999999955
 20
1.5
 30
0.0
 11
10.299999999999955
 21
5.0
 31
0.0
  0
LINE
  5
256
100
AcDbEntity
  8
0
  6
CONTINUOUS
 62
               2
100
AcDbLine
 10
16.5
 20
2.6499999999999986
 30
0.0
 11
16.759807621135224
 21
2.5
 31
0.0
  0
LINE
  5
257
100
AcDbEntity
  8
0
  6
CONTINUOUS
 62
               2
100
AcDbLine
 10
16.5
 20
4.3500000000000014
 30
0.0
 11
16.759807621135224
 21
4.5
 31
0.0
  0
LINE
  5
258
100
AcDbEntity
  8
0
  6
CONTINUOUS
 62
               7
100
AcDbLine
 10
8.7999999999999545
 20
0.6000000000000014
 30
0.0
 11
8.0
 21
0.6000000000000014
 31
0.0
  0
LINE
  5
259
100
AcDbEntity
  8
0
  6
CONTINUOUS
 62
               7
100
AcDbLine
 10
10.299999999999955
 20
1.5
 30
0.0
 11
8.7999999999999545
 21
1.5
 31
0.0
  0
LINE
  5
25A
100
AcDbEntity
  8
0
  6
CONTINUOUS
 62
               7
100
AcDbLine
 10
14.5
 20
1.5
 30
0.0
 11
15.799999999999955
 21
1.5
 31
0.0
  0
LINE
  5
25B
100
AcDbEntity
  8
0
  6
CONTINUOUS
 62
               7
100
AcDbLine
 10
8.7999999999999545
 20
0.6000000000000014
 30
0.0
 11
8.7999999999999545
 21
5.0
 31
0.0
  0
LINE
  5
25C
100
AcDbEntity
  8
0
  6
CONTINUOUS
 62
               7
100
AcDbLine
 10
0.0
 20
0.6000000000000085
 30
0.0
 11
0.0
 21
9.7999999982303194
 31
0.0
  0
LINE
  5
25D
100
AcDbEntity
  8
0
  6
CONTINUOUS
 62
               7
100
AcDbLine
 10
0.0
 20
9.7999999999999972
 30
0.0
 11
13.999999975856099
 21
9.7999999999999972
 31
0.0
  0
LINE
  5
25E
100
AcDbEntity
  8
0
  6
CONTINUOUS
 62
               7
100
AcDbLine
 10
8.0
 20
0.6000000000000014
 30
0.0
 11
8.0
 21
5.0
 31
0.0
  0
LINE
  5
25F
100
AcDbEntity
  8
0
  6
CONTINUOUS
 62
               7
100
AcDbLine
 10
15.799999999999955
 20
0.6000000000000014
 30
0.0
 11
15.799999999999955
 21
6.0
 31
0.0
  0
LINE
  5
260
100
AcDbEntity
  8
0
  6
CONTINUOUS
 62
               7
100
AcDbLine
 10
0.0
 20
0.6000000000000085
 30
0.0
 11
8.0
 21
0.6000000000000085
 31
0.0
  0
LINE
  5
261
100
AcDbEntity
  8
0
  6
CONTINUOUS
 62
               7
100
AcDbLine
 10
10.299999999999955
 20
2.0
 30
0.0
 11
14.5
 21
2.0
 31
0.0
  0
LINE
  5
262
100
AcDbEntity
  8
0
  6
CONTINUOUS
 62
               7
100
AcDbLine
 10
8.0
 20
5.0
 30
0.0
 11
14.999999975856099
 21
5.0
 31
0.0
  0
LINE
  5
263
100
AcDbEntity
  8
0
  6
CONTINUOUS
 62
               7
100
AcDbLine
 10
14.999999975856099
 20
5.0
 30
0.0
 11
14.999999975856099
 21
6.0
 31
0.0
  0
LINE
  5
264
100
AcDbEntity
  8
0
  6
CONTINUOUS
 62
               7
100
AcDbLine
 10
0.0
 20
9.2999999999999972
 30
0.0
 11
13.999999999999773
 21
9.2999999999999972
 31
0.0
  0
LINE
  5
265
100
AcDbEntity
  8
0
  6
CONTINUOUS
 62
               2
100
AcDbLine
 10
6.0843299696791036
 20
3.5
 30
0.0
 11
18.653955375845953
 21
3.5
 31
0.0
  0
LINE
  5
266
100
AcDbEntity
  8
0
  6
CONTINUOUS
 62
               2
100
AcDbLine
 10
41.0
 20
2.0
 30
0.0
 11
41.0
 21
-2.0
 31
0.0
  0
LINE
  5
267
100
AcDbEntity
  8
0
  6
CONTINUOUS
 62
               2
100
AcDbLine
 10
25.0
 20
2.0
 30
0.0
 11
25.0
 21
-2.0
 31
0.0
  0
LINE
  5
268
100
AcDbEntity
  8
0
  6
PHANTOM
 62
               3
100
AcDbLine
 10
63.49999999746251
 20
-9.1305435498147745
 30
0.0
 11
63.49999999746251
 21
15.869456450185226
 31
0.0
  0
ENDBLK
  5
269
100
AcDbEntity
  8
0
100
AcDbBlockEnd
  0
BLOCK
  5
26A
100
AcDbEntity
  8
0
100
AcDbBlockBegin
  2
MGAPG4_5-6
 70
               0
 10
0.0
 20
0.0
 30
0.0
  3
MGAPG4_5-6
  1

  0
LINE
  5
26B
100
AcDbEntity
  8
0
  6
CONTINUOUS
 62
               7
100
AcDbLine
 10
34.5
 20
6.25
 30
0.0
 11
34.5
 21
5.75
 31
0.0
  0
LINE
  5
26C
100
AcDbEntity
  8
0
  6
CONTINUOUS
 62
               7
100
AcDbLine
 10
31.5
 20
6.25
 30
0.0
 11
31.5
 21
5.75
 31
0.0
  0
ARC
  5
26D
100
AcDbEntity
  8
0
  6
CONTINUOUS
 62
               7
100
AcDbCircle
 10
33.0
 20
5.75
 30
0.0
 40
1.5
100
AcDbArc
 50
180.0
 51
0.0
  0
ARC
  5
26E
100
AcDbEntity
  8
0
  6
CONTINUOUS
 62
               7
100
AcDbCircle
 10
33.0
 20
6.25
 30
0.0
 40
1.5
100
AcDbArc
 50
0.0
 51
180.0
  0
CIRCLE
  5
26F
100
AcDbEntity
  8
0
  6
CONTINUOUS
 62
               7
100
AcDbCircle
 10
33.0
 20
-6.0
 30
0.0
 40
1.5
  0
LINE
  5
270
100
AcDbEntity
  8
0
  6
CONTINUOUS
 62
               7
100
AcDbLine
 10
18.0
 20
2.4000000000000057
 30
0.0
 11
52.0
 21
2.4000000000000057
 31
0.0
  0
LINE
  5
271
100
AcDbEntity
  8
0
  6
CONTINUOUS
 62
               7
100
AcDbLine
 10
18.0
 20
2.7000000000000028
 30
0.0
 11
52.0
 21
2.7000000000000028
 31
0.0
  0
LINE
  5
272
100
AcDbEntity
  8
0
  6
CONTINUOUS
 62
               7
100
AcDbLine
 10
18.0
 20
-2.4000000000000057
 30
0.0
 11
52.0
 21
-2.4000000000000057
 31
0.0
  0
LINE
  5
273
100
AcDbEntity
  8
0
  6
CONTINUOUS
 62
               7
100
AcDbLine
 10
18.0
 20
-2.7000000000000028
 30
0.0
 11
52.0
 21
-2.7000000000000028
 31
0.0
  0
LINE
  5
274
100
AcDbEntity
  8
0
  6
CONTINUOUS
 62
               2
100
AcDbLine
 10
38.950000000000045
 20
6.5
 30
0.0
 11
43.049999999999955
 21
6.5
 31
0.0
  0
LINE
  5
275
100
AcDbEntity
  8
0
  6
CONTINUOUS
 62
               2
100
AcDbLine
 10
41.0
 20
8.5499999999999972
 30
0.0
 11
41.0
 21
4.4500000000000028
 31
0.0
  0
CIRCLE
  5
276
100
AcDbEntity
  8
0
  6
CONTINUOUS
 62
               7
100
AcDbCircle
 10
41.0
 20
6.5
 30
0.0
 40
1.05
  0
CIRCLE
  5
277
100
AcDbEntity
  8
0
  6
CONTINUOUS
 62
               2
100
AcDbCircle
 10
41.0
 20
6.5
 30
0.0
 40
1.25
  0
LINE
  5
278
100
AcDbEntity
  8
0
  6
CONTINUOUS
 62
               2
100
AcDbLine
 10
38.950000000000045
 20
-6.4999999999999858
 30
0.0
 11
43.049999999999955
 21
-6.4999999999999858
 31
0.0
  0
LINE
  5
279
100
AcDbEntity
  8
0
  6
CONTINUOUS
 62
               2
100
AcDbLine
 10
41.0
 20
-4.4500000000000028
 30
0.0
 11
41.0
 21
-8.5499999999999972
 31
0.0
  0
CIRCLE
  5
27A
100
AcDbEntity
  8
0
  6
CONTINUOUS
 62
               7
100
AcDbCircle
 10
41.0
 20
-6.4999999999999858
 30
0.0
 40
1.05
  0
CIRCLE
  5
27B
100
AcDbEntity
  8
0
  6
CONTINUOUS
 62
               2
100
AcDbCircle
 10
41.0
 20
-6.4999999999999858
 30
0.0
 40
1.25
  0
LINE
  5
27C
100
AcDbEntity
  8
0
  6
CONTINUOUS
 62
               2
100
AcDbLine
 10
22.950000000000045
 20
-6.4999999999999858
 30
0.0
 11
27.049999999999955
 21
-6.4999999999999858
 31
0.0
  0
LINE
  5
27D
100
AcDbEntity
  8
0
  6
CONTINUOUS
 62
               2
100
AcDbLine
 10
25.0
 20
-4.4500000000000028
 30
0.0
 11
25.0
 21
-8.5499999999999972
 31
0.0
  0
CIRCLE
  5
27E
100
AcDbEntity
  8
0
  6
CONTINUOUS
 62
               7
100
AcDbCircle
 10
25.0
 20
-6.4999999999999858
 30
0.0
 40
1.05
  0
CIRCLE
  5
27F
100
AcDbEntity
  8
0
  6
CONTINUOUS
 62
               2
100
AcDbCircle
 10
25.0
 20
-6.4999999999999858
 30
0.0
 40
1.25
  0
LINE
  5
280
100
AcDbEntity
  8
0
  6
CONTINUOUS
 62
               2
100
AcDbLine
 10
22.950000000000045
 20
6.5
 30
0.0
 11
27.049999999999955
 21
6.5
 31
0.0
  0
LINE
  5
281
100
AcDbEntity
  8
0
  6
CONTINUOUS
 62
               2
100
AcDbLine
 10
25.0
 20
8.5499999999999972
 30
0.0
 11
25.0
 21
4.4500000000000028
 31
0.0
  0
CIRCLE
  5
282
100
AcDbEntity
  8
0
  6
CONTINUOUS
 62
               7
100
AcDbCircle
 10
25.0
 20
6.5
 30
0.0
 40
1.05
  0
CIRCLE
  5
283
100
AcDbEntity
  8
0
  6
CONTINUOUS
 62
               2
100
AcDbCircle
 10
25.0
 20
6.5
 30
0.0
 40
1.25
  0
LINE
  5
284
100
AcDbEntity
  8
0
  6
CONTINUOUS
 62
               2
100
AcDbLine
 10
33.0
 20
8.5499999999999972
 30
0.0
 11
33.0
 21
3.4500000000000028
 31
0.0
  0
LINE
  5
285
100
AcDbEntity
  8
0
  6
CONTINUOUS
 62
               2
100
AcDbLine
 10
35.299999999999955
 20
6.0
 30
0.0
 11
30.700000000000045
 21
6.0
 31
0.0
  0
LINE
  5
286
100
AcDbEntity
  8
0
  6
CONTINUOUS
 62
               2
100
AcDbLine
 10
33.0
 20
-3.7000000000000028
 30
0.0
 11
33.0
 21
-8.2999999999999972
 31
0.0
  0
LINE
  5
287
100
AcDbEntity
  8
0
  6
CONTINUOUS
 62
               2
100
AcDbLine
 10
35.299999999999955
 20
-6.0
 30
0.0
 11
30.700000000000045
 21
-6.0
 31
0.0
  0
LINE
  5
288
100
AcDbEntity
  8
0
  6
CONTINUOUS
 62
               7
100
AcDbLine
 10
17.999999975856099
 20
-8.4999999863093905
 30
0.0
 11
52.0
 21
-8.4999999863093905
 31
0.0
  0
LINE
  5
289
100
AcDbEntity
  8
0
  6
CENTER
 62
               2
100
AcDbLine
 10
-4.0
 20
0.0
 30
0.0
 11
79.999999999999773
 21
0.0
 31
0.0
  0
LINE
  5
28A
100
AcDbEntity
  8
0
  6
CONTINUOUS
 62
               7
100
AcDbLine
 10
17.999999975856099
 20
8.4999999863093905
 30
0.0
 11
52.0
 21
8.4999999863093905
 31
0.0
  0
LINE
  5
28B
100
AcDbEntity
  8
0
  6
CONTINUOUS
 62
               7
100
AcDbLine
 10
18.0
 20
8.5
 30
0.0
 11
18.0
 21
-8.4999999863093905
 31
0.0
  0
LINE
  5
28C
100
AcDbEntity
  8
0
  6
CONTINUOUS
 62
               7
100
AcDbLine
 10
52.0
 20
9.0
 30
0.0
 11
52.0
 21
-8.9999999999999858
 31
0.0
  0
LINE
  5
28D
100
AcDbEntity
  8
0
  6
CONTINUOUS
 62
               7
100
AcDbLine
 10
0.0
 20
9.0
 30
0.0
 11
52.0
 21
9.0
 31
0.0
  0
LINE
  5
28E
100
AcDbEntity
  8
0
  6
CONTINUOUS
 62
               7
100
AcDbLine
 10
0.0
 20
-8.9999999999999858
 30
0.0
 11
52.0
 21
-8.9999999999999858
 31
0.0
  0
SPLINE
  5
28F
100
AcDbEntity
  8
0
  6
CONTINUOUS
 62
               7
100
AcDbSpline
210
0.0
220
0.0
230
1.0
 70
               0
 71
               3
 72
               0
 73
               0
 74
               5
 44
0.000001
 12
-0.3364388986559803
 22
-0.9417052975698667
 32
0.0
 13
0.3364388986559804
 23
-0.9417052975698665
 33
0.0
 11
76.178632794954183
 21
-0.0000000000000426
 31
0.0
 11
76.046595825582926
 21
-0.4918647629421183
 31
0.0
 11
76.0
 21
-1.0
 31
0.0
 11
76.046595825582926
 21
-1.5081352370579033
 31
0.0
 11
76.178632794954183
 21
-2.0
 31
0.0
  0
SPLINE
  5
290
100
AcDbEntity
  8
0
  6
CONTINUOUS
 62
               7
100
AcDbSpline
210
0.0
220
0.0
230
1.0
 70
               0
 71
               3
 72
               0
 73
               0
 74
               5
 44
0.000001
 12
-0.3364388986559676
 22
-0.9417052975698712
 32
0.0
 13
0.3364388986559635
 23
-0.9417052975698727
 33
0.0
 11
76.178632794954183
 21
2.0
 31
0.0
 11
76.046595825582926
 21
1.5081352370579029
 31
0.0
 11
76.0
 21
1.0
 31
0.0
 11
76.046595825582926
 21
0.4918647629420756
 31
0.0
 11
76.178632794954183
 21
-0.0000000000000426
 31
0.0
  0
SPLINE
  5
291
100
AcDbEntity
  8
0
  6
CONTINUOUS
 62
               7
100
AcDbSpline
210
0.0
220
0.0
230
1.0
 70
               0
 71
               3
 72
               0
 73
               0
 74
               5
 44
0.000001
 12
0.3364388986559804
 22
-0.9417052975698665
 32
0.0
 13
-0.3364388986559803
 23
-0.9417052975698667
 33
0.0
 11
77.421367205045954
 21
-0.0000000000000426
 31
0.0
 11
77.55340417441721
 21
-0.4918647629421183
 31
0.0
 11
77.600000000000136
 21
-1.0
 31
0.0
 11
77.55340417441721
 21
-1.5081352370579033
 31
0.0
 11
77.421367205045954
 21
-2.0
 31
0.0
  0
SPLINE
  5
292
100
AcDbEntity
  8
0
  6
CONTINUOUS
 62
               7
100
AcDbSpline
210
0.0
220
0.0
230
1.0
 70
               0
 71
               3
 72
               0
 73
               0
 74
               5
 44
0.000001
 12
0.3364388986559677
 22
-0.9417052975698711
 32
0.0
 13
-0.3364388986559634
 23
-0.9417052975698727
 33
0.0
 11
77.421367205045954
 21
2.0
 31
0.0
 11
77.55340417441721
 21
1.5081352370579029
 31
0.0
 11
77.600000000000136
 21
1.0
 31
0.0
 11
77.55340417441721
 21
0.4918647629420756
 31
0.0
 11
77.421367205045954
 21
-0.0000000000000426
 31
0.0
  0
SPLINE
  5
293
100
AcDbEntity
  8
0
  6
CONTINUOUS
 62
               7
100
AcDbSpline
210
0.0
220
0.0
230
1.0
 70
               0
 71
               3
 72
               0
 73
               0
 74
               5
 44
0.000001
 12
0.5262037021178121
 22
-0.8503585501878069
 32
0.0
 13
-0.5262037021178122
 23
-0.8503585501878068
 33
0.0
 11
75.613248654051858
 21
0.0
 31
0.0
 11
75.892689116051059
 21
-0.599249328153952
 31
0.0
 11
76.0
 21
-1.25
 31
0.0
 11
75.892689116051059
 21
-1.9007506718460478
 31
0.0
 11
75.613248654051858
 21
-2.5
 31
0.0
  0
SPLINE
  5
294
100
AcDbEntity
  8
0
  6
CONTINUOUS
 62
               7
100
AcDbSpline
210
0.0
220
0.0
230
1.0
 70
               0
 71
               3
 72
               0
 73
               0
 74
               5
 44
0.000001
 12
0.5262037021178121
 22
-0.8503585501878069
 32
0.0
 13
-0.5262037021178122
 23
-0.8503585501878068
 33
0.0
 11
75.613248654051858
 21
2.5
 31
0.0
 11
75.892689116051059
 21
1.9007506718460481
 31
0.0
 11
76.0
 21
1.25
 31
0.0
 11
75.892689116051059
 21
0.5992493281539522
 31
0.0
 11
75.613248654051858
 21
0.0000000000000002
 31
0.0
  0
LINE
  5
295
100
AcDbEntity
  8
0
  6
CONTINUOUS
 62
               7
100
AcDbLine
 10
52.0
 20
8.0
 30
0.0
 11
58.5
 21
8.0
 31
0.0
  0
LINE
  5
296
100
AcDbEntity
  8
0
  6
CONTINUOUS
 62
               7
100
AcDbLine
 10
52.0
 20
-7.9999999999999858
 30
0.0
 11
58.5
 21
-7.9999999999999858
 31
0.0
  0
LINE
  5
297
100
AcDbEntity
  8
0
  6
CONTINUOUS
 62
               7
100
AcDbLine
 10
59.400000000000091
 20
-6.4000000000000199
 30
0.0
 11
59.400000000000091
 21
-2.5999999999999943
 31
0.0
  0
LINE
  5
298
100
AcDbEntity
  8
0
  6
CONTINUOUS
 62
               7
100
AcDbLine
 10
59.700000000000045
 20
-6.0999999999999943
 30
0.0
 11
59.700000000000045
 21
-2.9000000000000057
 31
0.0
  0
LINE
  5
299
100
AcDbEntity
  8
0
  6
CONTINUOUS
 62
               7
100
AcDbLine
 10
59.700000000000045
 20
-6.0999999999999943
 30
0.0
 11
59.400000000000091
 21
-6.4000000000000199
 31
0.0
  0
LINE
  5
29A
100
AcDbEntity
  8
0
  6
CONTINUOUS
 62
               7
100
AcDbLine
 10
59.700000000000045
 20
-2.9000000000000057
 30
0.0
 11
59.400000000000091
 21
-2.5999999999999943
 31
0.0
  0
LINE
  5
29B
100
AcDbEntity
  8
0
  6
CONTINUOUS
 62
               7
100
AcDbLine
 10
59.400000000000091
 20
-6.4000000000000199
 30
0.0
 11
58.5
 21
-6.4000000000000199
 31
0.0
  0
LINE
  5
29C
100
AcDbEntity
  8
0
  6
CONTINUOUS
 62
               7
100
AcDbLine
 10
59.400000000000091
 20
-2.5999999999999943
 30
0.0
 11
58.5
 21
-2.5999999999999943
 31
0.0
  0
LINE
  5
29D
100
AcDbEntity
  8
0
  6
CONTINUOUS
 62
               7
100
AcDbLine
 10
59.400000000000091
 20
6.3999999999999915
 30
0.0
 11
59.400000000000091
 21
2.6000000000000085
 31
0.0
  0
LINE
  5
29E
100
AcDbEntity
  8
0
  6
CONTINUOUS
 62
               7
100
AcDbLine
 10
59.700000000000045
 20
6.1000000000000085
 30
0.0
 11
59.700000000000045
 21
2.8999999999999915
 31
0.0
  0
LINE
  5
29F
100
AcDbEntity
  8
0
  6
CONTINUOUS
 62
               7
100
AcDbLine
 10
59.700000000000045
 20
6.1000000000000085
 30
0.0
 11
59.400000000000091
 21
6.3999999999999915
 31
0.0
  0
LINE
  5
2A0
100
AcDbEntity
  8
0
  6
CONTINUOUS
 62
               7
100
AcDbLine
 10
59.700000000000045
 20
2.8999999999999915
 30
0.0
 11
59.400000000000091
 21
2.6000000000000085
 31
0.0
  0
LINE
  5
2A1
100
AcDbEntity
  8
0
  6
CONTINUOUS
 62
               7
100
AcDbLine
 10
59.400000000000091
 20
6.3999999999999915
 30
0.0
 11
58.5
 21
6.3999999999999915
 31
0.0
  0
LINE
  5
2A2
100
AcDbEntity
  8
0
  6
CONTINUOUS
 62
               7
100
AcDbLine
 10
59.400000000000091
 20
2.6000000000000085
 30
0.0
 11
58.5
 21
2.6000000000000085
 31
0.0
  0
LINE
  5
2A3
100
AcDbEntity
  8
0
  6
CONTINUOUS
 62
               7
100
AcDbLine
 10
77.799999999999955
 20
1.0
 30
0.0
 11
77.799999999999955
 21
-1.0
 31
0.0
  0
LINE
  5
2A4
100
AcDbEntity
  8
0
  6
CONTINUOUS
 62
               7
100
AcDbLine
 10
76.178632794954183
 20
-0.0000000000000426
 30
0.0
 11
77.421367205045954
 21
-0.0000000000000426
 31
0.0
  0
LINE
  5
2A5
100
AcDbEntity
  8
0
  6
CONTINUOUS
 62
               7
100
AcDbLine
 10
75.613248654051858
 20
0.0
 30
0.0
 11
71.5
 21
0.0
 31
0.0
  0
LINE
  5
2A6
100
AcDbEntity
  8
0
  6
CONTINUOUS
 62
               7
100
AcDbLine
 10
77.600000000000136
 20
-1.0
 30
0.0
 11
77.799999999999955
 21
-1.0
 31
0.0
  0
LINE
  5
2A7
100
AcDbEntity
  8
0
  6
CONTINUOUS
 62
               7
100
AcDbLine
 10
77.600000000000136
 20
1.0
 30
0.0
 11
77.799999999999955
 21
1.0
 31
0.0
  0
LINE
  5
2A8
100
AcDbEntity
  8
0
  6
CONTINUOUS
 62
               7
100
AcDbLine
 10
68.5
 20
2.25
 30
0.0
 11
68.5
 21
-2.25
 31
0.0
  0
LINE
  5
2A9
100
AcDbEntity
  8
0
  6
CONTINUOUS
 62
               7
100
AcDbLine
 10
68.5
 20
2.25
 30
0.0
 11
71.5
 21
2.25
 31
0.0
  0
LINE
  5
2AA
100
AcDbEntity
  8
0
  6
CONTINUOUS
 62
               7
100
AcDbLine
 10
76.0
 20
2.5
 30
0.0
 11
76.0
 21
-2.5
 31
0.0
  0
LINE
  5
2AB
100
AcDbEntity
  8
0
  6
CONTINUOUS
 62
               7
100
AcDbLine
 10
71.5
 20
2.5
 30
0.0
 11
71.5
 21
-2.5
 31
0.0
  0
LINE
  5
2AC
100
AcDbEntity
  8
0
  6
CONTINUOUS
 62
               7
100
AcDbLine
 10
76.0
 20
2.5
 30
0.0
 11
71.5
 21
2.5
 31
0.0
  0
LINE
  5
2AD
100
AcDbEntity
  8
0
  6
CONTINUOUS
 62
               7
100
AcDbLine
 10
77.600000000000136
 20
2.0
 30
0.0
 11
77.600000000000136
 21
-2.0
 31
0.0
  0
LINE
  5
2AE
100
AcDbEntity
  8
0
  6
CONTINUOUS
 62
               7
100
AcDbLine
 10
77.600000000000136
 20
2.0
 30
0.0
 11
76.0
 21
2.0
 31
0.0
  0
LINE
  5
2AF
100
AcDbEntity
  8
0
  6
CONTINUOUS
 62
               7
100
AcDbLine
 10
77.600000000000136
 20
-2.0
 30
0.0
 11
76.0
 21
-2.0
 31
0.0
  0
LINE
  5
2B0
100
AcDbEntity
  8
0
  6
CONTINUOUS
 62
               7
100
AcDbLine
 10
76.0
 20
-2.5
 30
0.0
 11
71.5
 21
-2.5
 31
0.0
  0
LINE
  5
2B1
100
AcDbEntity
  8
0
  6
CONTINUOUS
 62
               7
100
AcDbLine
 10
68.5
 20
-2.25
 30
0.0
 11
71.5
 21
-2.25
 31
0.0
  0
LINE
  5
2B2
100
AcDbEntity
  8
0
  6
CONTINUOUS
 62
               7
100
AcDbLine
 10
78.0
 20
0.8000000000000114
 30
0.0
 11
78.0
 21
-0.7999999999999972
 31
0.0
  0
LINE
  5
2B3
100
AcDbEntity
  8
0
  6
CONTINUOUS
 62
               7
100
AcDbLine
 10
77.799999999999955
 20
1.0
 30
0.0
 11
78.0
 21
0.8000000000000114
 31
0.0
  0
LINE
  5
2B4
100
AcDbEntity
  8
0
  6
CONTINUOUS
 62
               7
100
AcDbLine
 10
78.0
 20
-0.7999999999999972
 30
0.0
 11
77.799999999999955
 21
-1.0
 31
0.0
  0
LINE
  5
2B5
100
AcDbEntity
  8
0
  6
CONTINUOUS
 62
               7
100
AcDbLine
 10
58.5
 20
8.0
 30
0.0
 11
58.5
 21
-7.9999999999999858
 31
0.0
  0
LINE
  5
2B6
100
AcDbEntity
  8
0
  6
CONTINUOUS
 62
               7
100
AcDbLine
 10
58.5
 20
-1.0
 30
0.0
 11
68.5
 21
-1.0
 31
0.0
  0
LINE
  5
2B7
100
AcDbEntity
  8
0
  6
CONTINUOUS
 62
               7
100
AcDbLine
 10
58.5
 20
1.0
 30
0.0
 11
68.5
 21
1.0
 31
0.0
  0
LINE
  5
2B8
100
AcDbEntity
  8
0
  6
CONTINUOUS
 62
               7
100
AcDbLine
 10
68.0
 20
1.0
 30
0.0
 11
68.0
 21
-1.0
 31
0.0
  0
LINE
  5
2B9
100
AcDbEntity
  8
0
  6
CONTINUOUS
 62
               2
100
AcDbLine
 10
68.0
 20
0.7834999999999894
 30
0.0
 11
68.5
 21
0.7834999999999894
 31
0.0
  0
LINE
  5
2BA
100
AcDbEntity
  8
0
  6
CONTINUOUS
 62
               2
100
AcDbLine
 10
68.0
 20
0.7834999999999894
 30
0.0
 11
67.625011000161294
 21
1.0
 31
0.0
  0
LINE
  5
2BB
100
AcDbEntity
  8
0
  6
CONTINUOUS
 62
               2
100
AcDbLine
 10
68.0
 20
-0.7834999999999894
 30
0.0
 11
67.625011000161294
 21
-1.0
 31
0.0
  0
LINE
  5
2BC
100
AcDbEntity
  8
0
  6
CONTINUOUS
 62
               2
100
AcDbLine
 10
68.0
 20
-0.7834999999999894
 30
0.0
 11
68.5
 21
-0.7834999999999894
 31
0.0
  0
LINE
  5
2BD
100
AcDbEntity
  8
0
  6
CONTINUOUS
 62
               2
100
AcDbLine
 10
77.600000000000136
 20
0.7835000000000036
 30
0.0
 11
78.0
 21
0.7835000000000036
 31
0.0
  0
LINE
  5
2BE
100
AcDbEntity
  8
0
  6
CONTINUOUS
 62
               2
100
AcDbLine
 10
77.600000000000136
 20
-0.7835000000000036
 30
0.0
 11
78.0
 21
-0.7835000000000036
 31
0.0
  0
LINE
  5
2BF
100
AcDbEntity
  8
0
  6
CONTINUOUS
 62
               7
100
AcDbLine
 10
0.0
 20
9.0
 30
0.0
 11
0.0
 21
-8.9999999999999858
 31
0.0
  0
LINE
  5
2C0
100
AcDbEntity
  8
0
  6
CONTINUOUS
 62
               7
100
AcDbLine
 10
8.0000000000002274
 20
-8.9999999999999858
 30
0.0
 11
8.0000000000002274
 21
9.0
 31
0.0
  0
LINE
  5
2C1
100
AcDbEntity
  8
0
  6
CONTINUOUS
 62
               7
100
AcDbLine
 10
14.999999978393589
 20
-8.9999999754709705
 30
0.0
 11
14.999999978393589
 21
-2.0
 31
0.0
  0
LINE
  5
2C2
100
AcDbEntity
  8
0
  6
CONTINUOUS
 62
               7
100
AcDbLine
 10
14.999999978393589
 20
2.0
 30
0.0
 11
14.999999978393589
 21
9.0000000245290437
 31
0.0
  0
LINE
  5
2C3
100
AcDbEntity
  8
0
  6
CONTINUOUS
 62
               7
100
AcDbLine
 10
16.300000000000182
 20
-2.4000000000000057
 30
0.0
 11
16.500000000000227
 21
-2.4000000000000057
 31
0.0
  0
LINE
  5
2C4
100
AcDbEntity
  8
0
  6
CONTINUOUS
 62
               7
100
AcDbLine
 10
16.300000000000182
 20
2.3999999999999915
 30
0.0
 11
16.500000000000227
 21
2.3999999999999915
 31
0.0
  0
LINE
  5
2C5
100
AcDbEntity
  8
0
  6
CONTINUOUS
 62
               7
100
AcDbLine
 10
16.300000000000182
 20
-2.75
 30
0.0
 11
16.300000000000182
 21
2.75
 31
0.0
  0
LINE
  5
2C6
100
AcDbEntity
  8
0
  6
CONTINUOUS
 62
               7
100
AcDbLine
 10
15.800000000000182
 20
-2.75
 30
0.0
 11
16.300000000000182
 21
-2.75
 31
0.0
  0
LINE
  5
2C7
100
AcDbEntity
  8
0
  6
CONTINUOUS
 62
               7
100
AcDbLine
 10
15.800000000000182
 20
2.75
 30
0.0
 11
16.300000000000182
 21
2.75
 31
0.0
  0
LINE
  5
2C8
100
AcDbEntity
  8
0
  6
CONTINUOUS
 62
               7
100
AcDbLine
 10
14.999999978393589
 20
-3.4000000000000057
 30
0.0
 11
18.0
 21
-3.4000000000000057
 31
0.0
  0
LINE
  5
2C9
100
AcDbEntity
  8
0
  6
CONTINUOUS
 62
               7
100
AcDbLine
 10
14.999999978393589
 20
3.3999999999999915
 30
0.0
 11
18.0
 21
3.3999999999999915
 31
0.0
  0
LINE
  5
2CA
100
AcDbEntity
  8
0
  6
CONTINUOUS
 62
               7
100
AcDbLine
 10
16.500000000000227
 20
-2.4000000000000057
 30
0.0
 11
16.500000000000227
 21
2.3999999999999915
 31
0.0
  0
LINE
  5
2CB
100
AcDbEntity
  8
0
  6
CONTINUOUS
 62
               7
100
AcDbLine
 10
8.0000000000002274
 20
-3.4641016151377642
 30
0.0
 11
14.999999978393589
 21
-3.4641016151377642
 31
0.0
  0
LINE
  5
2CC
100
AcDbEntity
  8
0
  6
CONTINUOUS
 62
               7
100
AcDbLine
 10
8.0000000000002274
 20
3.4641016151377642
 30
0.0
 11
14.999999978393589
 21
3.4641016151377642
 31
0.0
  0
LINE
  5
2CD
100
AcDbEntity
  8
0
  6
CONTINUOUS
 62
               7
100
AcDbLine
 10
10.300000000000182
 20
-1.5
 30
0.0
 11
14.500000000000227
 21
-1.5
 31
0.0
  0
LINE
  5
2CE
100
AcDbEntity
  8
0
  6
CONTINUOUS
 62
               7
100
AcDbLine
 10
10.300000000000182
 20
1.5
 30
0.0
 11
14.500000000000227
 21
1.5
 31
0.0
  0
LINE
  5
2CF
100
AcDbEntity
  8
0
  6
CONTINUOUS
 62
               7
100
AcDbLine
 10
6.3000000000001819
 20
-1.5
 30
0.0
 11
8.0000000000002274
 21
-1.5
 31
0.0
  0
LINE
  5
2D0
100
AcDbEntity
  8
0
  6
CONTINUOUS
 62
               7
100
AcDbLine
 10
4.3000000000001819
 20
2.7999999999999972
 30
0.0
 11
4.3000000000001819
 21
-2.7999999999999972
 31
0.0
  0
LINE
  5
2D1
100
AcDbEntity
  8
0
  6
CONTINUOUS
 62
               7
100
AcDbLine
 10
6.3000000000001819
 20
-3.2999999999999972
 30
0.0
 11
6.3000000000001819
 21
3.2999999999999972
 31
0.0
  0
LINE
  5
2D2
100
AcDbEntity
  8
0
  6
CONTINUOUS
 62
               7
100
AcDbLine
 10
4.3000000000001819
 20
-2.7999999999999972
 30
0.0
 11
6.3000000000001819
 21
-2.7999999999999972
 31
0.0
  0
LINE
  5
2D3
100
AcDbEntity
  8
0
  6
CONTINUOUS
 62
               7
100
AcDbLine
 10
4.3000000000001819
 20
2.7999999999999972
 30
0.0
 11
6.3000000000001819
 21
2.7999999999999972
 31
0.0
  0
LINE
  5
2D4
100
AcDbEntity
  8
0
  6
CONTINUOUS
 62
               7
100
AcDbLine
 10
16.500000000000227
 20
-1.0
 30
0.0
 11
18.0
 21
-1.0
 31
0.0
  0
LINE
  5
2D5
100
AcDbEntity
  8
0
  6
CONTINUOUS
 62
               7
100
AcDbLine
 10
16.500000000000227
 20
1.0
 30
0.0
 11
18.0
 21
1.0
 31
0.0
  0
LINE
  5
2D6
100
AcDbEntity
  8
0
  6
CONTINUOUS
 62
               7
100
AcDbLine
 10
14.500000000000227
 20
-2.0
 30
0.0
 11
15.800000000000182
 21
-2.0
 31
0.0
  0
LINE
  5
2D7
100
AcDbEntity
  8
0
  6
CONTINUOUS
 62
               7
100
AcDbLine
 10
10.300000000000182
 20
-2.0
 30
0.0
 11
8.8000000000001819
 21
-2.0
 31
0.0
  0
LINE
  5
2D8
100
AcDbEntity
  8
0
  6
CONTINUOUS
 62
               7
100
AcDbLine
 10
8.8000000000001819
 20
-2.8999999999999915
 30
0.0
 11
8.0000000000002274
 21
-2.8999999999999915
 31
0.0
  0
LINE
  5
2D9
100
AcDbEntity
  8
0
  6
CONTINUOUS
 62
               2
100
AcDbLine
 10
16.500000000000227
 20
0.8500000000000085
 30
0.0
 11
16.759807621135451
 21
1.0
 31
0.0
  0
LINE
  5
2DA
100
AcDbEntity
  8
0
  6
CONTINUOUS
 62
               2
100
AcDbLine
 10
16.500000000000227
 20
-0.8500000000000085
 30
0.0
 11
16.759807621135451
 21
-1.0
 31
0.0
  0
LINE
  5
2DB
100
AcDbEntity
  8
0
  6
CONTINUOUS
 62
               7
100
AcDbLine
 10
6.3000000000001819
 20
1.5
 30
0.0
 11
8.0000000000002274
 21
1.5
 31
0.0
  0
LINE
  5
2DC
100
AcDbEntity
  8
0
  6
CONTINUOUS
 62
               7
100
AcDbLine
 10
14.500000000000227
 20
2.0
 30
0.0
 11
14.500000000000227
 21
-2.0
 31
0.0
  0
LINE
  5
2DD
100
AcDbEntity
  8
0
  6
CONTINUOUS
 62
               7
100
AcDbLine
 10
10.300000000000182
 20
2.0
 30
0.0
 11
10.300000000000182
 21
-2.0
 31
0.0
  0
LINE
  5
2DE
100
AcDbEntity
  8
0
  6
CONTINUOUS
 62
               7
100
AcDbLine
 10
8.8000000000001819
 20
2.8999999999999915
 30
0.0
 11
8.0000000000002274
 21
2.8999999999999915
 31
0.0
  0
LINE
  5
2DF
100
AcDbEntity
  8
0
  6
CONTINUOUS
 62
               7
100
AcDbLine
 10
10.300000000000182
 20
2.0
 30
0.0
 11
8.8000000000001819
 21
2.0
 31
0.0
  0
LINE
  5
2E0
100
AcDbEntity
  8
0
  6
CONTINUOUS
 62
               7
100
AcDbLine
 10
14.500000000000227
 20
2.0
 30
0.0
 11
15.800000000000182
 21
2.0
 31
0.0
  0
LINE
  5
2E1
100
AcDbEntity
  8
0
  6
CONTINUOUS
 62
               7
100
AcDbLine
 10
8.8000000000001819
 20
2.8999999999999915
 30
0.0
 11
8.8000000000001819
 21
-2.8999999999999915
 31
0.0
  0
LINE
  5
2E2
100
AcDbEntity
  8
0
  6
CONTINUOUS
 62
               7
100
AcDbLine
 10
15.800000000000182
 20
2.75
 30
0.0
 11
15.800000000000182
 21
-2.75
 31
0.0
  0
LINE
  5
2E3
100
AcDbEntity
  8
0
  6
PHANTOM
 62
               2
100
AcDbLine
 10
8.9300000000000637
 20
-2.5
 30
0.0
 11
15.650000000000091
 21
-2.5
 31
0.0
  0
LINE
  5
2E4
100
AcDbEntity
  8
0
  6
PHANTOM
 62
               2
100
AcDbLine
 10
8.9300000000000637
 20
-2.2399999999999949
 30
0.0
 11
15.670000000000073
 21
-2.2399999999999949
 31
0.0
  0
CIRCLE
  5
2E5
100
AcDbEntity
  8
0
  6
CONTINUOUS
 62
               7
100
AcDbCircle
 10
15.670000000000073
 20
-2.3700000000000045
 30
0.0
 40
0.129999999999999
  0
CIRCLE
  5
2E6
100
AcDbEntity
  8
0
  6
CONTINUOUS
 62
               7
100
AcDbCircle
 10
8.9300000000000637
 20
-2.3700000000000045
 30
0.0
 40
0.129999999999999
  0
LINE
  5
2E7
100
AcDbEntity
  8
0
  6
PHANTOM
 62
               2
100
AcDbLine
 10
8.9300000000000637
 20
2.5
 30
0.0
 11
15.650000000000091
 21
2.5
 31
0.0
  0
LINE
  5
2E8
100
AcDbEntity
  8
0
  6
PHANTOM
 62
               2
100
AcDbLine
 10
8.9300000000000637
 20
2.2399999999999949
 30
0.0
 11
15.670000000000073
 21
2.2399999999999949
 31
0.0
  0
CIRCLE
  5
2E9
100
AcDbEntity
  8
0
  6
CONTINUOUS
 62
               7
100
AcDbCircle
 10
15.670000000000073
 20
2.3700000000000045
 30
0.0
 40
0.129999999999999
  0
CIRCLE
  5
2EA
100
AcDbEntity
  8
0
  6
CONTINUOUS
 62
               7
100
AcDbCircle
 10
8.9300000000000637
 20
2.3700000000000045
 30
0.0
 40
0.129999999999999
  0
LINE
  5
2EB
100
AcDbEntity
  8
0
  6
CONTINUOUS
 62
               7
100
AcDbLine
 10
17.5
 20
-2.5
 30
0.0
 11
17.299999999999955
 21
-2.5
 31
0.0
  0
ARC
  5
2EC
100
AcDbEntity
  8
0
  6
CONTINUOUS
 62
               7
100
AcDbCircle
 10
17.299999999999955
 20
-2.2000000000000028
 30
0.0
 40
0.3
100
AcDbArc
 50
180.0
 51
270.0
  0
LINE
  5
2ED
100
AcDbEntity
  8
0
  6
CONTINUOUS
 62
               7
100
AcDbLine
 10
17.5
 20
-1.5
 30
0.0
 11
18.0
 21
-1.5
 31
0.0
  0
LINE
  5
2EE
100
AcDbEntity
  8
0
  6
CONTINUOUS
 62
               7
100
AcDbLine
 10
17.5
 20
-3.2999999999999972
 30
0.0
 11
18.0
 21
-3.2999999999999972
 31
0.0
  0
LINE
  5
2EF
100
AcDbEntity
  8
0
  6
CONTINUOUS
 62
               7
100
AcDbLine
 10
17.0
 20
-2.2000000000000028
 30
0.0
 11
17.0
 21
-1.0
 31
0.0
  0
LINE
  5
2F0
100
AcDbEntity
  8
0
  6
CONTINUOUS
 62
               7
100
AcDbLine
 10
17.5
 20
-1.0
 30
0.0
 11
17.5
 21
-3.2999999999999972
 31
0.0
  0
ARC
  5
2F1
100
AcDbEntity
  8
0
  6
CONTINUOUS
 62
               7
100
AcDbCircle
 10
17.299999999999955
 20
2.2000000000000028
 30
0.0
 40
0.3
100
AcDbArc
 50
90.0
 51
180.0
  0
LINE
  5
2F2
100
AcDbEntity
  8
0
  6
CONTINUOUS
 62
               7
100
AcDbLine
 10
17.5
 20
2.5
 30
0.0
 11
17.299999999999955
 21
2.5
 31
0.0
  0
LINE
  5
2F3
100
AcDbEntity
  8
0
  6
CONTINUOUS
 62
               7
100
AcDbLine
 10
17.5
 20
1.5000000000000142
 30
0.0
 11
18.0
 21
1.5000000000000142
 31
0.0
  0
LINE
  5
2F4
100
AcDbEntity
  8
0
  6
CONTINUOUS
 62
               7
100
AcDbLine
 10
17.5
 20
3.3000000000000256
 30
0.0
 11
18.0
 21
3.3000000000000256
 31
0.0
  0
LINE
  5
2F5
100
AcDbEntity
  8
0
  6
CONTINUOUS
 62
               7
100
AcDbLine
 10
17.0
 20
1.0
 30
0.0
 11
17.0
 21
2.2000000000000028
 31
0.0
  0
LINE
  5
2F6
100
AcDbEntity
  8
0
  6
CONTINUOUS
 62
               7
100
AcDbLine
 10
17.5
 20
3.3000000000000256
 30
0.0
 11
17.5
 21
1.0
 31
0.0
  0
LINE
  5
2F7
100
AcDbEntity
  8
0
  6
CONTINUOUS
 62
               7
100
AcDbLine
 10
6.3000000000001819
 20
1.8999999999999915
 30
0.0
 11
8.0000000000002274
 21
1.8999999999999915
 31
0.0
  0
LINE
  5
2F8
100
AcDbEntity
  8
0
  6
CONTINUOUS
 62
               7
100
AcDbLine
 10
6.3000000000001819
 20
-1.8999999999999915
 30
0.0
 11
8.0000000000002274
 21
-1.8999999999999915
 31
0.0
  0
LINE
  5
2F9
100
AcDbEntity
  8
0
  6
CONTINUOUS
 62
               7
100
AcDbLine
 10
0.0
 20
3.2999999999999972
 30
0.0
 11
6.3000000000001819
 21
3.2999999999999972
 31
0.0
  0
LINE
  5
2FA
100
AcDbEntity
  8
0
  6
CONTINUOUS
 62
               7
100
AcDbLine
 10
0.0
 20
-3.2999999999999972
 30
0.0
 11
6.3000000000001819
 21
-3.2999999999999972
 31
0.0
  0
LINE
  5
2FB
100
AcDbEntity
  8
0
  6
CONTINUOUS
 62
               2
100
AcDbLine
 10
-2.0
 20
6.0
 30
0.0
 11
2.0
 21
6.0
 31
0.0
  0
LINE
  5
2FC
100
AcDbEntity
  8
0
  6
CONTINUOUS
 62
               2
100
AcDbLine
 10
-2.0
 20
-6.0
 30
0.0
 11
2.0
 21
-6.0
 31
0.0
  0
LINE
  5
2FD
100
AcDbEntity
  8
0
  6
PHANTOM
 62
               3
100
AcDbLine
 10
63.5
 20
-14.130543549814774
 30
0.0
 11
63.5
 21
15.869456450185226
 31
0.0
  0
ENDBLK
  5
2FE
100
AcDbEntity
  8
0
100
AcDbBlockEnd
  0
ENDSEC
  0
SECTION
  2
ENTITIES
  0
INSERT
  5
2FF
100
AcDbEntity
  8
0
  6
ByBlock
100
AcDbBlockReference
  2
MGAPG4_5-5
 10
-30.0
 20
-30.0
 30
0.0
  0
INSERT
  5
300
100
AcDbEntity
  8
0
  6
ByBlock
100
AcDbBlockReference
  2
MGAPG4_5-4
 10
-30.0
 20
90.0
 30
0.0
  0
INSERT
  5
301
100
AcDbEntity
  8
0
  6
ByBlock
100
AcDbBlockReference
  2
MGAPG4_5-6
 10
-30.0
 20
-70.0
 30
0.0
  0
INSERT
  5
302
100
AcDbEntity
  8
0
  6
ByBlock
100
AcDbBlockReference
  2
MGAPG4_5-3
 10
110.0
 20
30.0
 30
0.0
  0
INSERT
  5
303
100
AcDbEntity
  8
0
  6
ByBlock
100
AcDbBlockReference
  2
MGAPG4_5-2
 10
-90.0
 20
30.0
 30
0.0
  0
INSERT
  5
304
100
AcDbEntity
  8
0
  6
ByBlock
100
AcDbBlockReference
  2
MGAPG4_5-1
 10
-30.0
 20
30.0
 30
0.0
  0
LINE
  5
305
100
AcDbEntity
  8
0
  6
CONTINUOUS
 62
               7
100
AcDbLine
 10
-184.25
 20
-111.5
 30
0.0
 11
-184.25
 21
-123.5
 31
0.0
  0
LINE
  5
306
100
AcDbEntity
  8
0
  6
CONTINUOUS
 62
               7
100
AcDbLine
 10
-184.25
 20
-123.5
 30
0.0
 11
-137.45000000000002
 21
-123.5
 31
0.0
  0
LINE
  5
307
100
AcDbEntity
  8
0
  6
CONTINUOUS
 62
               7
100
AcDbLine
 10
-184.25
 20
-117.5
 30
0.0
 11
-137.45000000000002
 21
-117.5
 31
0.0
  0
LINE
  5
308
100
AcDbEntity
  8
0
  6
CONTINUOUS
 62
               7
100
AcDbLine
 10
-184.25
 20
-111.5
 30
0.0
 11
-137.45000000000002
 21
-111.5
 31
0.0
  0
LINE
  5
309
100
AcDbEntity
  8
0
  6
CONTINUOUS
 62
               7
100
AcDbLine
 10
-156.65000000000001
 20
-111.5
 30
0.0
 11
-156.65000000000001
 21
-123.5
 31
0.0
  0
LINE
  5
30A
100
AcDbEntity
  8
0
  6
CONTINUOUS
 62
               7
100
AcDbLine
 10
-147.05000000000001
 20
-111.5
 30
0.0
 11
-147.05000000000001
 21
-123.5
 31
0.0
  0
LINE
  5
30B
100
AcDbEntity
  8
0
  6
CONTINUOUS
 62
               7
100
AcDbLine
 10
-137.45000000000002
 20
-111.5
 30
0.0
 11
-137.45000000000002
 21
-123.5
 31
0.0
  0
MTEXT
  5
30C
100
AcDbEntity
  8
0
  6
CONTINUOUS
 62
               7
100
AcDbMText
 10
-179.51666680177053
 20
-114.5
 30
0.0
 40
3.2000000476837158
 41
0.0
 71
               4
 72
               1
  1
\A1;STROKE
  0
MTEXT
  5
30D
100
AcDbEntity
  8
0
  6
CONTINUOUS
 62
               7
100
AcDbMText
 10
-181.11666682561238
 20
-120.5
 30
0.0
 40
3.2000000476837158
 41
0.0
 71
               4
 72
               1
  1
\A1;STRETCH
  0
MTEXT
  5
30E
100
AcDbEntity
  8
0
  6
CONTINUOUS
 62
               7
100
AcDbMText
 10
-152.91666668256124
 20
-114.5
 30
0.0
 40
3.2000000476837158
 41
0.0
 71
               4
 72
               1
  1
\A1;5
  0
MTEXT
  5
30F
100
AcDbEntity
  8
0
  6
CONTINUOUS
 62
               7
100
AcDbMText
 10
-144.73888892597625
 20
-114.5
 30
0.0
 40
3.2000000476837158
 41
0.0
 71
               4
 72
               1
  1
\W1.333;\A1;10
  0
MTEXT
  5
310
100
AcDbEntity
  8
0
  6
CONTINUOUS
 62
               7
100
AcDbMText
 10
-154.5166667064031
 20
-120.5
 30
0.0
 40
3.2000000476837158
 41
0.0
 71
               4
 72
               1
  1
\A1;-5
  0
MTEXT
  5
311
100
AcDbEntity
  8
0
  6
CONTINUOUS
 62
               7
100
AcDbMText
 10
-143.20999999904635
 20
-120.5
 30
0.0
 40
3.2000000476837158
 41
0.0
 71
               4
 72
               1
  1
\W1.200;\A1;0
  0
MTEXT
  5
312
100
AcDbEntity
  8
0
  6
CONTINUOUS
 62
               7
100
AcDbMText
 10
-179.48195294136136
 20
-108.5
 30
0.0
 40
3.2000000476837158
 41
0.0
 71
               4
 72
               1
  1
\W1.065;\A1;STRETCH LIST
  0
MTEXT
  5
313
100
AcDbEntity
  8
0
  6
CONTINUOUS
 62
               7
100
AcDbMText
 10
-158.6593406620938
 20
98.600006103515625
 30
0.0
 40
4.5
 41
0.0
 71
               4
 72
               1
  1
\W1.121;\A1;MGAPG4.5*st(10)-L
  0
MTEXT
  5
314
100
AcDbEntity
  8
0
  6
CONTINUOUS
 62
               7
100
AcDbMText
 10
-168.93181454162459
 20
121.35000610351562
 30
0.0
 40
4.5
 41
0.0
 71
               4
 72
               1
  1
\W1.091;\A1;MGAPG4.5
  0
MTEXT
  5
315
100
AcDbEntity
  8
0
  6
CONTINUOUS
 62
               7
100
AcDbMText
 10
-189.14236876172134
 20
128.85000610351562
 30
0.0
 40
4.5
 41
0.0
 71
               4
 72
               1
  1
\W1.143;\A1;MINI GUIDE SLIDER
  0
MTEXT
  5
316
100
AcDbEntity
  8
0
  6
CONTINUOUS
 62
               3
100
AcDbMText
 10
13.280929125285454
 20
104.05143385808945
 30
0.0
 40
3.2000000476837158
 41
0.0
 71
               4
 72
               1
  1
\W1.065;\A1;STRETCH LINE
  0
MTEXT
  5
317
100
AcDbEntity
  8
0
  6
CONTINUOUS
 62
               7
100
AcDbMText
 10
-185.65853658781245
 20
107.60000610351562
 30
0.0
 40
4.5
 41
0.0
 71
               4
 72
               1
  1
\W1.122;\A1;MODEL:MGAPG4.5*st(10)-R
  0
LINE
  5
318
100
AcDbEntity
  8
0
  6
CONTINUOUS
 62
               7
100
AcDbLine
 10
-194.25
 20
132.60000610351562
 30
0.0
 11
194.80000305175781
 21
132.60000610351562
 31
0.0
  0
LINE
  5
319
100
AcDbEntity
  8
0
  6
CONTINUOUS
 62
               7
100
AcDbLine
 10
194.80000305175781
 20
132.60000610351562
 30
0.0
 11
194.80000305175781
 21
-133.5
 31
0.0
  0
LINE
  5
31A
100
AcDbEntity
  8
0
  6
CONTINUOUS
 62
               7
100
AcDbLine
 10
-194.25
 20
132.60000610351562
 30
0.0
 11
-194.25
 21
-133.5
 31
0.0
  0
LINE
  5
31B
100
AcDbEntity
  8
0
  6
CONTINUOUS
 62
               7
100
AcDbLine
 10
-194.25
 20
-133.5
 30
0.0
 11
194.80000305175781
 21
-133.5
 31
0.0
  0
LINE
  5
31C
100
AcDbEntity
  8
0
  6
CONTINUOUS
 62
               7
100
AcDbLine
 10
109.80000305175781
 20
-118.5
 30
0.0
 11
109.80000305175781
 21
-133.5
 31
0.0
  0
LINE
  5
31D
100
AcDbEntity
  8
0
  6
CONTINUOUS
 62
               7
100
AcDbLine
 10
109.80000305175781
 20
-118.5
 30
0.0
 11
194.80000305175781
 21
-118.5
 31
0.0
  0
LINE
  5
31E
100
AcDbEntity
  8
0
  6
CONTINUOUS
 62
               7
100
AcDbLine
 10
109.80000305175781
 20
132.60000610351562
 30
0.0
 11
109.80000305175781
 21
117.60000610351562
 31
0.0
  0
LINE
  5
31F
100
AcDbEntity
  8
0
  6
CONTINUOUS
 62
               7
100
AcDbLine
 10
109.80000305175781
 20
117.60000610351562
 30
0.0
 11
194.80000305175781
 21
117.60000610351562
 31
0.0
  0
LINE
  5
320
100
AcDbEntity
  8
0
  6
CONTINUOUS
 62
               7
100
AcDbLine
 10
-194.25
 20
117.60000610351562
 30
0.0
 11
-109.25
 21
117.60000610351562
 31
0.0
  0
LINE
  5
321
100
AcDbEntity
  8
0
  6
CONTINUOUS
 62
               7
100
AcDbLine
 10
-109.25
 20
132.60000610351562
 30
0.0
 11
-109.25
 21
117.60000610351562
 31
0.0
  0
MTEXT
  5
322
100
AcDbEntity
  8
0
  6
CONTINUOUS
 62
               7
100
AcDbMText
 10
135.28361320576767
 20
125.10000610351562
 30
0.0
 40
4.5
 41
0.0
 71
               4
 72
               1
  1
\W1.311;\A1;Ver. 1.0
  0
MTEXT
  5
323
100
AcDbEntity
  8
0
  6
CONTINUOUS
 62
               7
100
AcDbMText
 10
115.5267259825148
 20
-126.0
 30
0.0
 40
6.3000001907348633
 41
0.0
 71
               4
 72
               1
  1
\W1.121;\A1;KOGANEI CORP.
  0
ENDSEC
  0
SECTION
  2
OBJECTS
  0
DICTIONARY
  5
19
100
AcDbDictionary
  3
ACAD_GROUP
350
1A
  3
ACAD_MLINESTYLE
350
1B
  0
DICTIONARY
  5
1A
102
{ACAD_REACTORS
330
19
102
}
100
AcDbDictionary
  0
DICTIONARY
  5
1B
102
{ACAD_REACTORS
330
19
102
}
100
AcDbDictionary
  3
STANDARD
350
1C
  0
MLINESTYLE
  5
1C
102
{ACAD_REACTORS
330
1B
102
}
100
AcDbMlineStyle
  2
Standard
 70
               0
  3

 62
               0
 51
90.0
 52
90.0
 71
               2
 49
0.5
 62
             256
  6
ByLayer
 49
-0.5
 62
             256
  6
ByLayer
  0
ENDSEC
  0
EOF
