  0
SECTION
  2
HEADER
  9
$ACADVER
  1
AC1009
  9
$DWGCODEPAGE
  3
dos932
  9
$INSBASE
 10
0.0
 20
0.0
 30
0.0
  9
$EXTMIN
 10
-281.25
 20
-195.0
 30
0.0
  9
$EXTMAX
 10
282.09985352
 20
195.5
 30
0.0
  9
$LIMMIN
 10
-297.0
 20
-210.0
  9
$LIMMAX
 10
297.0
 20
210.0
  9
$ORTHOMODE
 70
       0
  9
$REGENMODE
 70
       1
  9
$FILLMODE
 70
       1
  9
$QTEXTMODE
 70
       0
  9
$MIRRTEXT
 70
       1
  9
$DRAGMODE
 70
       2
  9
$LTSCALE
 40
1.0
  9
$OSMODE
 70
       0
  9
$ATTMODE
 70
       1
  9
$TEXTSIZE
 40
3.20000005
  9
$TRACEWID
 40
0.05
  9
$TEXTSTYLE
  7
MX_NOTE_STANDARD
  9
$CLAYER
  8
0
  9
$CELTYPE
  6
CONTINUOUS
  9
$CECOLOR
 62
     256
  9
$DIMSCALE
 40
1.0
  9
$DIMASZ
 40
2.5
  9
$DIMEXO
 40
1.5
  9
$DIMDLI
 40
3.75
  9
$DIMRND
 40
0.0
  9
$DIMDLE
 40
0.0
  9
$DIMEXE
 40
1.5
  9
$DIMTP
 40
0.0
  9
$DIMTM
 40
0.0
  9
$DIMTXT
 40
3.20000005
  9
$DIMCEN
 40
2.5
  9
$DIMTSZ
 40
0.0
  9
$DIMTOL
 70
       0
  9
$DIMLIM
 70
       0
  9
$DIMTIH
 70
       0
  9
$DIMTOH
 70
       0
  9
$DIMSE1
 70
       0
  9
$DIMSE2
 70
       0
  9
$DIMTAD
 70
       1
  9
$DIMZIN
 70
       8
  9
$DIMBLK
  1

  9
$DIMASO
 70
       1
  9
$DIMSHO
 70
       1
  9
$DIMPOST
  1

  9
$DIMAPOST
  1

  9
$DIMALT
 70
       0
  9
$DIMALTD
 70
       4
  9
$DIMALTF
 40
0.03937008
  9
$DIMLFAC
 40
1.0
  9
$DIMTOFL
 70
       1
  9
$DIMTVP
 40
0.0
  9
$DIMTIX
 70
       0
  9
$DIMSOXD
 70
       0
  9
$DIMSAH
 70
       1
  9
$DIMBLK1
  1
_OPEN30
  9
$DIMBLK2
  1
_OPEN30
  9
$DIMSTYLE
  2
MXDIMSTYLE
  9
$DIMCLRD
 70
       0
  9
$DIMCLRE
 70
       0
  9
$DIMCLRT
 70
       0
  9
$DIMTFAC
 40
1.0
  9
$DIMGAP
 40
1.0
  9
$LUNITS
 70
       2
  9
$LUPREC
 70
       4
  9
$AXISMODE
 70
       0
  9
$AXISUNIT
 10
0.0
 20
0.0
  9
$SKETCHINC
 40
0.1
  9
$FILLETRAD
 40
0.0
  9
$AUNITS
 70
       0
  9
$AUPREC
 70
       0
  9
$MENU
  1
acad
  9
$ELEVATION
 40
0.0
  9
$PELEVATION
 40
0.0
  9
$THICKNESS
 40
0.0
  9
$LIMCHECK
 70
       0
  9
$BLIPMODE
 70
       1
  9
$CHAMFERA
 40
0.0
  9
$CHAMFERB
 40
0.0
  9
$SKPOLY
 70
       0
  9
$TDCREATE
 40
2454202.556215278
  9
$TDUPDATE
 40
2454202.556215278
  9
$TDINDWG
 40
0.0000000000
  9
$TDUSRTIMER
 40
0.0000000000
  9
$USRTIMER
 70
       1
  9
$ANGBASE
 50
0.0
  9
$ANGDIR
 70
       0
  9
$PDMODE
 70
       0
  9
$PDSIZE
 40
0.0
  9
$PLINEWID
 40
0.0
  9
$COORDS
 70
       1
  9
$SPLFRAME
 70
       0
  9
$SPLINETYPE
 70
       6
  9
$SPLINESEGS
 70
       8
  9
$ATTDIA
 70
       0
  9
$ATTREQ
 70
       1
  9
$HANDLING
 70
       1
  9
$HANDSEED
  5
5B9
  9
$SURFTAB1
 70
       6
  9
$SURFTAB2
 70
       6
  9
$SURFTYPE
 70
       6
  9
$SURFU
 70
       6
  9
$SURFV
 70
       6
  9
$UCSNAME
  2

  9
$UCSORG
 10
0.0
 20
0.0
 30
0.0
  9
$UCSXDIR
 10
1.0
 20
0.0
 30
0.0
  9
$UCSYDIR
 10
0.0
 20
1.0
 30
0.0
  9
$PUCSNAME
  2

  9
$PUCSORG
 10
0.0
 20
0.0
 30
0.0
  9
$PUCSXDIR
 10
1.0
 20
0.0
 30
0.0
  9
$PUCSYDIR
 10
0.0
 20
1.0
 30
0.0
  9
$USERI1
 70
       0
  9
$USERI2
 70
       0
  9
$USERI3
 70
       0
  9
$USERI4
 70
       0
  9
$USERI5
 70
       0
  9
$USERR1
 40
0.0
  9
$USERR2
 40
0.0
  9
$USERR3
 40
0.0
  9
$USERR4
 40
0.0
  9
$USERR5
 40
0.0
  9
$WORLDVIEW
 70
       1
  9
$SHADEDGE
 70
       3
  9
$SHADEDIF
 70
      70
  9
$TILEMODE
 70
       1
  9
$MAXACTVP
 70
      16
  9
$PINSBASE
 10
0.0
 20
0.0
 30
0.0
  9
$PLIMCHECK
 70
       0
  9
$PEXTMIN
 10
1.00000000E+20
 20
1.00000000E+20
 30
1.00000000E+20
  9
$PEXTMAX
 10
-1.00000000E+20
 20
-1.00000000E+20
 30
-1.00000000E+20
  9
$PLIMMIN
 10
0.0
 20
0.0
  9
$PLIMMAX
 10
12.0
 20
9.0
  9
$UNITMODE
 70
       0
  9
$VISRETAIN
 70
       0
  9
$PLINEGEN
 70
       1
  9
$PSLTSCALE
 70
       0
  9
$TREEDEPTH
 70
    3020
  0
ENDSEC
  0
SECTION
  2
TABLES
  0
TABLE
  2
VPORT
 70
       1
  0
VPORT
  2
*ACTIVE
 70
       0
 10
0.0
 20
0.0
 11
1.0
 21
1.0
 12
0.0
 22
0.0
 13
0.0
 23
0.0
 14
1.0
 24
1.0
 15
0.0
 25
0.0
 16
0.0
 26
0.0
 36
1.0
 17
0.0
 27
0.0
 37
0.0
 40
424.2
 41
1.73205081
 42
50.0
 43
0.0
 44
0.0
 50
0.0
 51
0.0
 71
       0
 72
     100
 73
       1
 74
       1
 75
       0
 76
       0
 77
       0
 78
       0
  0
ENDTAB
  0
TABLE
  2
LTYPE
 70
       1
  0
LTYPE
  2
CONTINUOUS
 70
      64
  3
Solid line
 72
      65
 73
       0
 40
0.0
  0
ENDTAB
  0
TABLE
  2
LAYER
 70
       2
  0
LAYER
  2
0
 70
       0
 62
       7
  6
CONTINUOUS
  0
LAYER
  2
DEFPOINTS
 70
       0
 62
       7
  6
CONTINUOUS
  0
ENDTAB
  0
TABLE
  2
STYLE
 70
       1
  0
STYLE
  2
MX_NOTE_STANDARD
 70
       0
 40
0.0
 41
1.0
 50
0.0
 71
       0
 42
3.20000005
  3
txt.shx
  4
extfont.shx
  0
ENDTAB
  0
TABLE
  2
VIEW
 70
       0
  0
ENDTAB
  0
TABLE
  2
UCS
 70
       0
  0
ENDTAB
  0
TABLE
  2
APPID
 70
       1
  0
APPID
  2
ACAD
 70
       0
  0
ENDTAB
  0
TABLE
  2
DIMSTYLE
 70
       1
  0
DIMSTYLE
  2
MXDIMSTYLE
 70
       0
  3

  4

  5

  6
_OPEN30
  7
_OPEN30
 40
1.0
 41
2.5
 42
1.5
 43
3.75
 44
1.5
 45
0.0
 46
0.0
 47
0.0
 48
0.0
 71
       0
 72
       0
 73
       0
 74
       0
 75
       0
 76
       0
 77
       1
 78
       8
140
3.20000005
141
2.5
142
0.0
143
0.03937008
144
1.0
145
0.0
146
1.0
147
1.0
170
       0
171
       4
172
       1
173
       1
174
       0
175
       0
176
       0
177
       0
178
       0
  0
ENDTAB
  0
ENDSEC
  0
SECTION
  2
BLOCKS
  0
BLOCK
  8
0
  6
BYBLOCK
 62
       0
  5
1F
  2
_OPEN30
 70
       2
 10
0.0
 20
0.0
 30
0.0
  3
_OPEN30
  0
LINE
  8
0
  6
BYBLOCK
 62
       0
  5
20
 10
-1.0
 20
0.267949
 30
0.0
 11
0.0
 21
0.0
 31
0.0
  0
LINE
  8
0
  6
BYBLOCK
 62
       0
  5
21
 10
0.0
 20
0.0
 30
0.0
 11
-1.0
 21
-0.267949
 31
0.0
  0
LINE
  8
0
  6
BYBLOCK
 62
       0
  5
22
 10
0.0
 20
0.0
 30
0.0
 11
-1.0
 21
0.0
 31
0.0
  0
ENDBLK
  8
0
  6
BYBLOCK
 62
       0
  5
23
  0
ENDSEC
  0
SECTION
  2
ENTITIES
  0
TEXT
  8
0
  6
CONTINUOUS
 62
       7
  5
24
 10
-273.47434338
 20
127.53382415
 30
0.0
 40
6.39999962
  1
stn.3   M126E1-11
 41
1.23188405
  7
MX_NOTE_STANDARD
 11
-273.47434338
 21
130.73382396
 31
0.0
 73
       2
  0
TEXT
  8
0
  6
CONTINUOUS
 62
       7
  5
25
 10
-273.45758438
 20
135.53382415
 30
0.0
 40
6.39999962
  1
stn.1～2 M126E1
 41
1.15384614
  7
MX_NOTE_STANDARD
 11
-273.45758438
 21
138.73382396
 31
0.0
 73
       2
  0
LINE
  8
0
  6
CONTINUOUS
 62
       7
  5
26
 10
183.85765861
 20
-78.50573839
 30
0.0
 11
185.21106826
 21
-78.50573839
 31
0.0
  0
LINE
  8
0
  6
CONTINUOUS
 62
       7
  5
27
 10
225.8644779
 20
-54.0142625
 30
0.0
 11
183.85765861
 21
-54.0142625
 31
0.0
  0
LINE
  8
0
  6
CONTINUOUS
 62
       7
  5
28
 10
225.8644779
 20
-78.50573839
 30
0.0
 11
225.8644779
 21
-12.50752439
 31
0.0
  0
LINE
  8
0
  6
CONTINUOUS
 62
       7
  5
29
 10
183.85765861
 20
-12.20747568
 30
0.0
 11
183.85765861
 21
-12.50752439
 31
0.0
  0
LINE
  8
0
  6
CONTINUOUS
 62
       7
  5
2A
 10
210.86204244
 20
-6.40653397
 30
0.0
 11
210.86204244
 21
-6.50655021
 31
0.0
  0
LINE
  8
0
  6
CONTINUOUS
 62
       7
  5
2B
 10
219.86350372
 20
-6.50655021
 30
0.0
 11
189.8586328
 21
-6.50655021
 31
0.0
  0
LINE
  8
0
  6
CONTINUOUS
 62
       7
  5
2C
 10
225.8644779
 20
-78.50573839
 30
0.0
 11
224.86431554
 21
-79.50590075
 31
0.0
  0
LINE
  8
0
  6
CONTINUOUS
 62
       7
  5
2D
 10
183.85765861
 20
-78.50573839
 30
0.0
 11
183.85765861
 21
-12.50752439
 31
0.0
  0
LINE
  8
0
  6
CONTINUOUS
 62
       7
  5
2E
 10
184.85782098
 20
-79.50590075
 30
0.0
 11
183.85765861
 21
-78.50573839
 31
0.0
  0
LINE
  8
0
  6
CONTINUOUS
 62
       7
  5
2F
 10
225.36106826
 20
-79.50590075
 30
0.0
 11
184.36106826
 21
-79.50590075
 31
0.0
  0
LINE
  8
0
  6
CONTINUOUS
 62
       7
  5
30
 10
225.8644779
 20
-83.50655021
 30
0.0
 11
183.85765861
 21
-83.50655021
 31
0.0
  0
ARC
  8
0
  6
CONTINUOUS
 62
       7
  5
31
 10
219.86745293
 20
-12.50357518
 30
0.0
 40
5.99702627
 50
359.96226907
 51
90.03773093
  0
ARC
  8
0
  6
CONTINUOUS
 62
       7
  5
32
 10
189.85468358
 20
-12.50357518
 30
0.0
 40
5.99702627
 50
89.96226907
 51
180.03773093
  0
LINE
  8
0
  6
CONTINUOUS
 62
       7
  5
33
 10
221.84799692
 20
-46.78269065
 30
0.0
 11
220.39696797
 21
-49.53561916
 31
0.0
  0
LINE
  8
0
  6
CONTINUOUS
 62
       7
  5
34
 10
220.53307746
 20
-46.72323231
 30
0.0
 11
221.94290796
 21
-49.45400009
 31
0.0
  0
POLYLINE
  8
0
  6
CONTINUOUS
 62
       7
  5
35
 66
       1
 10
0.0
 20
0.0
 30
0.0
 70
       1
  0
VERTEX
  8
0
  6
CONTINUOUS
 62
       7
  5
235
 10
220.46209564
 20
-51.5876441
 30
0.0
  0
VERTEX
  8
0
  6
CONTINUOUS
 62
       7
  5
236
 10
220.65819606
 20
-51.57409092
 30
0.0
  0
VERTEX
  8
0
  6
CONTINUOUS
 62
       7
  5
237
 10
220.85280404
 20
-51.53353451
 30
0.0
  0
VERTEX
  8
0
  6
CONTINUOUS
 62
       7
  5
238
 10
221.04443849
 20
-51.46628353
 30
0.0
  0
VERTEX
  8
0
  6
CONTINUOUS
 62
       7
  5
239
 10
221.23164096
 20
-51.37284982
 30
0.0
  0
VERTEX
  8
0
  6
CONTINUOUS
 62
       7
  5
23A
 10
221.41298673
 20
-51.25394444
 30
0.0
  0
VERTEX
  8
0
  6
CONTINUOUS
 62
       7
  5
23B
 10
221.58709564
 20
-51.11047235
 30
0.0
  0
VERTEX
  8
0
  6
CONTINUOUS
 62
       7
  5
23C
 10
221.75264262
 20
-50.94352545
 30
0.0
  0
VERTEX
  8
0
  6
CONTINUOUS
 62
       7
  5
23D
 10
221.90836776
 20
-50.75437432
 30
0.0
  0
VERTEX
  8
0
  6
CONTINUOUS
 62
       7
  5
23E
 10
222.0530859
 20
-50.54445849
 30
0.0
  0
VERTEX
  8
0
  6
CONTINUOUS
 62
       7
  5
23F
 10
222.18569564
 20
-50.31537557
 30
0.0
  0
VERTEX
  8
0
  6
CONTINUOUS
 62
       7
  5
240
 10
222.30518774
 20
-50.06886901
 30
0.0
  0
VERTEX
  8
0
  6
CONTINUOUS
 62
       7
  5
241
 10
222.4106528
 20
-49.80681488
 30
0.0
  0
VERTEX
  8
0
  6
CONTINUOUS
 62
       7
  5
242
 10
222.50128816
 20
-49.53120755
 30
0.0
  0
VERTEX
  8
0
  6
CONTINUOUS
 62
       7
  5
243
 10
222.57640404
 20
-49.24414458
 30
0.0
  0
VERTEX
  8
0
  6
CONTINUOUS
 62
       7
  5
244
 10
222.63542875
 20
-48.94781069
 30
0.0
  0
VERTEX
  8
0
  6
CONTINUOUS
 62
       7
  5
245
 10
222.67791308
 20
-48.64446115
 30
0.0
  0
VERTEX
  8
0
  6
CONTINUOUS
 62
       7
  5
246
 10
222.70353371
 20
-48.33640464
 30
0.0
  0
VERTEX
  8
0
  6
CONTINUOUS
 62
       7
  5
247
 10
222.71209564
 20
-48.02598565
 30
0.0
  0
VERTEX
  8
0
  6
CONTINUOUS
 62
       7
  5
248
 10
222.70353371
 20
-47.71556666
 30
0.0
  0
VERTEX
  8
0
  6
CONTINUOUS
 62
       7
  5
249
 10
222.67791308
 20
-47.40751015
 30
0.0
  0
VERTEX
  8
0
  6
CONTINUOUS
 62
       7
  5
24A
 10
222.63542875
 20
-47.10416061
 30
0.0
  0
VERTEX
  8
0
  6
CONTINUOUS
 62
       7
  5
24B
 10
222.57640404
 20
-46.80782671
 30
0.0
  0
VERTEX
  8
0
  6
CONTINUOUS
 62
       7
  5
24C
 10
222.50128816
 20
-46.52076374
 30
0.0
  0
VERTEX
  8
0
  6
CONTINUOUS
 62
       7
  5
24D
 10
222.4106528
 20
-46.24515642
 30
0.0
  0
VERTEX
  8
0
  6
CONTINUOUS
 62
       7
  5
24E
 10
222.30518774
 20
-45.98310228
 30
0.0
  0
VERTEX
  8
0
  6
CONTINUOUS
 62
       7
  5
24F
 10
222.18569564
 20
-45.73659572
 30
0.0
  0
VERTEX
  8
0
  6
CONTINUOUS
 62
       7
  5
250
 10
222.0530859
 20
-45.5075128
 30
0.0
  0
VERTEX
  8
0
  6
CONTINUOUS
 62
       7
  5
251
 10
221.90836776
 20
-45.29759698
 30
0.0
  0
VERTEX
  8
0
  6
CONTINUOUS
 62
       7
  5
252
 10
221.75264262
 20
-45.10844584
 30
0.0
  0
VERTEX
  8
0
  6
CONTINUOUS
 62
       7
  5
253
 10
221.58709564
 20
-44.94149894
 30
0.0
  0
VERTEX
  8
0
  6
CONTINUOUS
 62
       7
  5
254
 10
221.41298673
 20
-44.79802685
 30
0.0
  0
VERTEX
  8
0
  6
CONTINUOUS
 62
       7
  5
255
 10
221.23164096
 20
-44.67912148
 30
0.0
  0
VERTEX
  8
0
  6
CONTINUOUS
 62
       7
  5
256
 10
221.04443849
 20
-44.58568776
 30
0.0
  0
VERTEX
  8
0
  6
CONTINUOUS
 62
       7
  5
257
 10
220.85280404
 20
-44.51843679
 30
0.0
  0
VERTEX
  8
0
  6
CONTINUOUS
 62
       7
  5
258
 10
220.65819606
 20
-44.47788038
 30
0.0
  0
VERTEX
  8
0
  6
CONTINUOUS
 62
       7
  5
259
 10
220.46209564
 20
-44.46432719
 30
0.0
  0
VERTEX
  8
0
  6
CONTINUOUS
 62
       7
  5
25A
 10
220.26599522
 20
-44.47788038
 30
0.0
  0
VERTEX
  8
0
  6
CONTINUOUS
 62
       7
  5
25B
 10
220.07138724
 20
-44.51843679
 30
0.0
  0
VERTEX
  8
0
  6
CONTINUOUS
 62
       7
  5
25C
 10
219.87975279
 20
-44.58568776
 30
0.0
  0
VERTEX
  8
0
  6
CONTINUOUS
 62
       7
  5
25D
 10
219.69255032
 20
-44.67912148
 30
0.0
  0
VERTEX
  8
0
  6
CONTINUOUS
 62
       7
  5
25E
 10
219.51120455
 20
-44.79802685
 30
0.0
  0
VERTEX
  8
0
  6
CONTINUOUS
 62
       7
  5
25F
 10
219.33709564
 20
-44.94149894
 30
0.0
  0
VERTEX
  8
0
  6
CONTINUOUS
 62
       7
  5
260
 10
219.17154866
 20
-45.10844584
 30
0.0
  0
VERTEX
  8
0
  6
CONTINUOUS
 62
       7
  5
261
 10
219.01582352
 20
-45.29759698
 30
0.0
  0
VERTEX
  8
0
  6
CONTINUOUS
 62
       7
  5
262
 10
218.87110538
 20
-45.5075128
 30
0.0
  0
VERTEX
  8
0
  6
CONTINUOUS
 62
       7
  5
263
 10
218.73849564
 20
-45.73659572
 30
0.0
  0
VERTEX
  8
0
  6
CONTINUOUS
 62
       7
  5
264
 10
218.61900354
 20
-45.98310228
 30
0.0
  0
VERTEX
  8
0
  6
CONTINUOUS
 62
       7
  5
265
 10
218.51353848
 20
-46.24515642
 30
0.0
  0
VERTEX
  8
0
  6
CONTINUOUS
 62
       7
  5
266
 10
218.42290312
 20
-46.52076374
 30
0.0
  0
VERTEX
  8
0
  6
CONTINUOUS
 62
       7
  5
267
 10
218.34778724
 20
-46.80782671
 30
0.0
  0
VERTEX
  8
0
  6
CONTINUOUS
 62
       7
  5
268
 10
218.28876253
 20
-47.10416061
 30
0.0
  0
VERTEX
  8
0
  6
CONTINUOUS
 62
       7
  5
269
 10
218.2462782
 20
-47.40751015
 30
0.0
  0
VERTEX
  8
0
  6
CONTINUOUS
 62
       7
  5
26A
 10
218.22065757
 20
-47.71556666
 30
0.0
  0
VERTEX
  8
0
  6
CONTINUOUS
 62
       7
  5
26B
 10
218.21209564
 20
-48.02598565
 30
0.0
  0
VERTEX
  8
0
  6
CONTINUOUS
 62
       7
  5
26C
 10
218.22065757
 20
-48.33640464
 30
0.0
  0
VERTEX
  8
0
  6
CONTINUOUS
 62
       7
  5
26D
 10
218.2462782
 20
-48.64446115
 30
0.0
  0
VERTEX
  8
0
  6
CONTINUOUS
 62
       7
  5
26E
 10
218.28876253
 20
-48.94781069
 30
0.0
  0
VERTEX
  8
0
  6
CONTINUOUS
 62
       7
  5
26F
 10
218.34778724
 20
-49.24414458
 30
0.0
  0
VERTEX
  8
0
  6
CONTINUOUS
 62
       7
  5
270
 10
218.42290312
 20
-49.53120755
 30
0.0
  0
VERTEX
  8
0
  6
CONTINUOUS
 62
       7
  5
271
 10
218.51353848
 20
-49.80681488
 30
0.0
  0
VERTEX
  8
0
  6
CONTINUOUS
 62
       7
  5
272
 10
218.61900354
 20
-50.06886901
 30
0.0
  0
VERTEX
  8
0
  6
CONTINUOUS
 62
       7
  5
273
 10
218.73849564
 20
-50.31537557
 30
0.0
  0
VERTEX
  8
0
  6
CONTINUOUS
 62
       7
  5
274
 10
218.87110538
 20
-50.54445849
 30
0.0
  0
VERTEX
  8
0
  6
CONTINUOUS
 62
       7
  5
275
 10
219.01582352
 20
-50.75437432
 30
0.0
  0
VERTEX
  8
0
  6
CONTINUOUS
 62
       7
  5
276
 10
219.17154866
 20
-50.94352545
 30
0.0
  0
VERTEX
  8
0
  6
CONTINUOUS
 62
       7
  5
277
 10
219.33709564
 20
-51.11047235
 30
0.0
  0
VERTEX
  8
0
  6
CONTINUOUS
 62
       7
  5
278
 10
219.51120455
 20
-51.25394444
 30
0.0
  0
VERTEX
  8
0
  6
CONTINUOUS
 62
       7
  5
279
 10
219.69255032
 20
-51.37284982
 30
0.0
  0
VERTEX
  8
0
  6
CONTINUOUS
 62
       7
  5
27A
 10
219.87975279
 20
-51.46628353
 30
0.0
  0
VERTEX
  8
0
  6
CONTINUOUS
 62
       7
  5
27B
 10
220.07138724
 20
-51.53353451
 30
0.0
  0
VERTEX
  8
0
  6
CONTINUOUS
 62
       7
  5
27C
 10
220.26599522
 20
-51.57409092
 30
0.0
  0
VERTEX
  8
0
  6
CONTINUOUS
 62
       7
  5
27D
 10
220.46209564
 20
-51.5876441
 30
0.0
  0
SEQEND
  8
0
  6
CONTINUOUS
 62
       7
  5
27E
  0
POLYLINE
  8
0
  6
CONTINUOUS
 62
       7
  5
36
 66
       1
 10
0.0
 20
0.0
 30
0.0
  0
VERTEX
  8
0
  6
CONTINUOUS
 62
       7
  5
27F
 10
220.64627893
 20
-44.47628047
 30
0.0
  0
VERTEX
  8
0
  6
CONTINUOUS
 62
       7
  5
280
 10
220.39684533
 20
-44.25483571
 30
0.0
  0
VERTEX
  8
0
  6
CONTINUOUS
 62
       7
  5
281
 10
220.13466278
 20
-44.10337206
 30
0.0
  0
VERTEX
  8
0
  6
CONTINUOUS
 62
       7
  5
282
 10
219.86461271
 20
-44.02470952
 30
0.0
  0
VERTEX
  8
0
  6
CONTINUOUS
 62
       7
  5
283
 10
219.59172301
 20
-44.02031266
 30
0.0
  0
VERTEX
  8
0
  6
CONTINUOUS
 62
       7
  5
284
 10
219.32107446
 20
-44.09026335
 30
0.0
  0
VERTEX
  8
0
  6
CONTINUOUS
 62
       7
  5
285
 10
219.0577061
 20
-44.23325922
 30
0.0
  0
VERTEX
  8
0
  6
CONTINUOUS
 62
       7
  5
286
 10
218.80652142
 20
-44.4466379
 30
0.0
  0
VERTEX
  8
0
  6
CONTINUOUS
 62
       7
  5
287
 10
218.5721971
 20
-44.72642664
 30
0.0
  0
VERTEX
  8
0
  6
CONTINUOUS
 62
       7
  5
288
 10
218.35909587
 20
-45.06741621
 30
0.0
  0
VERTEX
  8
0
  6
CONTINUOUS
 62
       7
  5
289
 10
218.17118533
 20
-45.46325793
 30
0.0
  0
VERTEX
  8
0
  6
CONTINUOUS
 62
       7
  5
28A
 10
218.01196409
 20
-45.90658185
 30
0.0
  0
VERTEX
  8
0
  6
CONTINUOUS
 62
       7
  5
28B
 10
217.88439659
 20
-46.389134
 30
0.0
  0
VERTEX
  8
0
  6
CONTINUOUS
 62
       7
  5
28C
 10
217.79085792
 20
-46.90193002
 30
0.0
  0
VERTEX
  8
0
  6
CONTINUOUS
 62
       7
  5
28D
 10
217.73308964
 20
-47.43542247
 30
0.0
  0
VERTEX
  8
0
  6
CONTINUOUS
 62
       7
  5
28E
 10
217.71216729
 20
-47.97967857
 30
0.0
  0
VERTEX
  8
0
  6
CONTINUOUS
 62
       7
  5
28F
 10
217.72848042
 20
-48.52456514
 30
0.0
  0
VERTEX
  8
0
  6
CONTINUOUS
 62
       7
  5
290
 10
217.7817253
 20
-49.05993726
 30
0.0
  0
VERTEX
  8
0
  6
CONTINUOUS
 62
       7
  5
291
 10
217.8709106
 20
-49.57582715
 30
0.0
  0
VERTEX
  8
0
  6
CONTINUOUS
 62
       7
  5
292
 10
217.99437582
 20
-50.06262977
 30
0.0
  0
VERTEX
  8
0
  6
CONTINUOUS
 62
       7
  5
293
 10
218.14982225
 20
-50.51128164
 30
0.0
  0
VERTEX
  8
0
  6
CONTINUOUS
 62
       7
  5
294
 10
218.33435571
 20
-50.91342956
 30
0.0
  0
VERTEX
  8
0
  6
CONTINUOUS
 62
       7
  5
295
 10
218.5445405
 20
-51.26158618
 30
0.0
  0
VERTEX
  8
0
  6
CONTINUOUS
 62
       7
  5
296
 10
218.7764633
 20
-51.5492694
 30
0.0
  0
VERTEX
  8
0
  6
CONTINUOUS
 62
       7
  5
297
 10
219.02580608
 20
-51.77112299
 30
0.0
  0
VERTEX
  8
0
  6
CONTINUOUS
 62
       7
  5
298
 10
219.28792648
 20
-51.9230164
 30
0.0
  0
VERTEX
  8
0
  6
CONTINUOUS
 62
       7
  5
299
 10
219.55794423
 20
-52.00212163
 30
0.0
  0
VERTEX
  8
0
  6
CONTINUOUS
 62
       7
  5
29A
 10
219.83083204
 20
-52.00696585
 30
0.0
  0
VERTEX
  8
0
  6
CONTINUOUS
 62
       7
  5
29B
 10
220.10150916
 20
-51.93745887
 30
0.0
  0
VERTEX
  8
0
  6
CONTINUOUS
 62
       7
  5
29C
 10
220.36493603
 20
-51.79489481
 30
0.0
  0
VERTEX
  8
0
  6
CONTINUOUS
 62
       7
  5
29D
 10
220.61620804
 20
-51.58192798
 30
0.0
  0
VERTEX
  8
0
  6
CONTINUOUS
 62
       7
  5
29E
 10
220.61913106
 20
-51.57895885
 30
0.0
  0
SEQEND
  8
0
  6
CONTINUOUS
 62
       7
  5
29F
  0
LINE
  8
0
  6
CONTINUOUS
 62
       2
  5
37
 10
223.92973351
 20
-48.01354126
 30
0.0
 11
216.17762373
 21
-48.01354126
 31
0.0
  0
LINE
  8
0
  6
CONTINUOUS
 62
       7
  5
38
 10
194.71106826
 20
-77.9318756
 30
0.0
 11
194.71106826
 21
-79.50590075
 31
0.0
  0
LINE
  8
0
  6
CONTINUOUS
 62
       7
  5
39
 10
185.21106826
 20
-77.9318756
 30
0.0
 11
185.21106826
 21
-79.50590075
 31
0.0
  0
ARC
  8
0
  6
CONTINUOUS
 62
       7
  5
3A
 10
189.96106826
 20
-83.80590094
 30
0.0
 40
8.0
 50
57.91004142
 51
122.08988664
  0
ARC
  8
0
  6
CONTINUOUS
 62
       7
  5
3B
 10
193.64440165
 20
-77.9318756
 30
0.0
 40
1.0666666
 50
359.99998201
 51
57.91004142
  0
ARC
  8
0
  6
CONTINUOUS
 62
       7
  5
3C
 10
186.27773486
 20
-77.9318756
 30
0.0
 40
1.0666666
 50
122.08995858
 51
180.00001799
  0
LINE
  8
0
  6
CONTINUOUS
 62
       7
  5
3D
 10
189.96106831
 20
-75.80590092
 30
0.0
 11
191.81138817
 21
-77.65622078
 31
0.0
  0
LINE
  8
0
  6
CONTINUOUS
 62
       7
  5
3E
 10
189.9610682
 20
-75.80590092
 30
0.0
 11
188.11074834
 21
-77.65622078
 31
0.0
  0
ARC
  8
0
  6
CONTINUOUS
 62
       7
  5
3F
 10
209.76477222
 20
-6.49801708
 30
0.0
 40
1.59086643
 50
359.53478497
 51
89.89511247
  0
ARC
  8
0
  6
CONTINUOUS
 62
       7
  5
40
 10
199.9551164
 20
-6.51159843
 30
0.0
 40
1.60444525
 50
90.0237259
 51
179.9762741
  0
ARC
  8
0
  6
CONTINUOUS
 62
       7
  5
41
 10
204.86106826
 20
2.0735734
 30
0.0
 40
1.09569634
 50
359.48553426
 51
180.51446574
  0
ARC
  8
0
  6
CONTINUOUS
 62
       7
  5
42
 10
204.86106826
 20
3.57224176
 30
0.0
 40
1.09565384
 50
0.0
 51
180.0
  0
LINE
  8
0
  6
CONTINUOUS
 62
       7
  5
43
 10
205.95672043
 20
10.17791283
 30
0.0
 11
203.76541608
 21
10.17791283
 31
0.0
  0
LINE
  8
0
  6
CONTINUOUS
 62
       7
  5
44
 10
203.76541608
 20
2.06373514
 30
0.0
 11
203.76541608
 21
-4.90715332
 31
0.0
  0
LINE
  8
0
  6
CONTINUOUS
 62
       7
  5
45
 10
205.95672043
 20
2.06373514
 30
0.0
 11
205.95672043
 21
-4.90715332
 31
0.0
  0
LINE
  8
0
  6
CONTINUOUS
 62
       7
  5
46
 10
203.76541608
 20
10.17791283
 30
0.0
 11
203.76541608
 21
3.57224176
 31
0.0
  0
LINE
  8
0
  6
CONTINUOUS
 62
       7
  5
47
 10
205.95672043
 20
10.17791283
 30
0.0
 11
205.95672043
 21
3.57224176
 31
0.0
  0
LINE
  8
0
  6
CONTINUOUS
 62
       7
  5
48
 10
199.954452
 20
-4.90715332
 30
0.0
 11
204.86106826
 21
-4.90715332
 31
0.0
  0
LINE
  8
0
  6
CONTINUOUS
 62
       7
  5
49
 10
209.76768451
 20
-4.90715332
 30
0.0
 11
204.86106826
 21
-4.90715332
 31
0.0
  0
LINE
  8
0
  6
CONTINUOUS
 62
       2
  5
4A
 10
227.26765074
 20
-101.01093404
 30
0.0
 11
190.8591203
 21
-101.01093404
 31
0.0
  0
CIRCLE
  8
0
  6
CONTINUOUS
 62
       7
  5
4B
 10
208.86547724
 20
-101.01995421
 30
0.0
 40
8.00129844
  0
LINE
  8
0
  6
CONTINUOUS
 62
       7
  5
4C
 10
225.86106826
 20
-83.50655021
 30
0.0
 11
225.86106826
 21
-92.51093404
 31
0.0
  0
LINE
  8
0
  6
CONTINUOUS
 62
       7
  5
4D
 10
183.86106826
 20
-83.50655021
 30
0.0
 11
183.86106826
 21
-110.51093404
 31
0.0
  0
LINE
  8
0
  6
CONTINUOUS
 62
       2
  5
4E
 10
189.96106826
 20
-74.06807275
 30
0.0
 11
189.96106826
 21
-86.11174916
 31
0.0
  0
LINE
  8
0
  6
CONTINUOUS
 62
       7
  5
4F
 10
194.71106826
 20
-78.50573839
 30
0.0
 11
225.8644779
 21
-78.50573839
 31
0.0
  0
LINE
  8
0
  6
CONTINUOUS
 62
       7
  5
50
 10
191.36106826
 20
-144.50768845
 30
0.0
 11
226.36106826
 21
-144.50768845
 31
0.0
  0
LINE
  8
0
  6
CONTINUOUS
 62
       7
  5
51
 10
226.36106826
 20
-96.01093404
 30
0.0
 11
226.36106826
 21
-144.50768845
 31
0.0
  0
LINE
  8
0
  6
CONTINUOUS
 62
       7
  5
52
 10
191.36106826
 20
-96.01093404
 30
0.0
 11
191.36106826
 21
-144.50768845
 31
0.0
  0
LINE
  8
0
  6
CONTINUOUS
 62
       7
  5
53
 10
213.86106826
 20
-83.51093404
 30
0.0
 11
203.86106826
 21
-83.51093404
 31
0.0
  0
ARC
  8
0
  6
CONTINUOUS
 62
       7
  5
54
 10
203.86106826
 20
-96.01093404
 30
0.0
 40
12.5
 50
90.0
 51
180.0
  0
ARC
  8
0
  6
CONTINUOUS
 62
       7
  5
55
 10
213.86106826
 20
-96.01093404
 30
0.0
 40
12.5
 50
0.0
 51
90.0
  0
LINE
  8
0
  6
CONTINUOUS
 62
       7
  5
56
 10
191.36106826
 20
-142.20768845
 30
0.0
 11
226.36106826
 21
-142.20768845
 31
0.0
  0
LINE
  8
0
  6
CONTINUOUS
 62
       7
  5
57
 10
191.36106826
 20
-110.51093404
 30
0.0
 11
183.86106826
 21
-110.51093404
 31
0.0
  0
LINE
  8
0
  6
CONTINUOUS
 62
       7
  5
58
 10
225.36106826
 20
-79.50590075
 30
0.0
 11
225.36106826
 21
-83.50655021
 31
0.0
  0
LINE
  8
0
  6
CONTINUOUS
 62
       7
  5
59
 10
184.36106826
 20
-79.50590075
 30
0.0
 11
184.36106826
 21
-83.50655021
 31
0.0
  0
LINE
  8
0
  6
CONTINUOUS
 62
       2
  5
5A
 10
202.86106826
 20
-89.00898567
 30
0.0
 11
214.86106826
 21
-89.00898567
 31
0.0
  0
LINE
  8
0
  6
CONTINUOUS
 62
       2
  5
5B
 10
202.86106826
 20
-113.0128824
 30
0.0
 11
214.86106826
 21
-113.0128824
 31
0.0
  0
LINE
  8
0
  6
CONTINUOUS
 62
       2
  5
5C
 10
208.86106826
 20
-83.98047723
 30
0.0
 11
208.86106826
 21
-149.28320164
 31
0.0
  0
CIRCLE
  8
0
  6
CONTINUOUS
 62
       7
  5
5D
 10
208.86106826
 20
-89.00898567
 30
0.0
 40
2.75
  0
CIRCLE
  8
0
  6
CONTINUOUS
 62
       7
  5
5E
 10
208.86106826
 20
-113.0128824
 30
0.0
 40
2.75
  0
CIRCLE
  8
0
  6
CONTINUOUS
 62
       2
  5
5F
 10
208.86106826
 20
-101.01093404
 30
0.0
 40
6.57849979
  0
CIRCLE
  8
0
  6
CONTINUOUS
 62
       7
  5
60
 10
208.86106826
 20
-101.01093404
 30
0.0
 40
5.72249985
  0
LINE
  8
0
  6
CONTINUOUS
 62
       2
  5
61
 10
220.86301716
 20
-95.01093404
 30
0.0
 11
220.86301716
 21
-107.01093404
 31
0.0
  0
LINE
  8
0
  6
CONTINUOUS
 62
       7
  5
62
 10
219.05989373
 20
-102.8140569
 30
0.0
 11
222.6661395
 21
-99.20781143
 31
0.0
  0
LINE
  8
0
  6
CONTINUOUS
 62
       7
  5
63
 10
219.0598945
 20
-99.20781176
 30
0.0
 11
222.66613861
 21
-102.81405618
 31
0.0
  0
CIRCLE
  8
0
  6
CONTINUOUS
 62
       7
  5
64
 10
220.86301705
 20
-101.01093404
 30
0.0
 40
3.8
  0
LINE
  8
0
  6
CONTINUOUS
 62
       2
  5
65
 10
196.8591203
 20
-95.01093404
 30
0.0
 11
196.8591203
 21
-107.01093404
 31
0.0
  0
LINE
  8
0
  6
CONTINUOUS
 62
       7
  5
66
 10
195.05599687
 20
-102.8140569
 30
0.0
 11
198.66224264
 21
-99.20781143
 31
0.0
  0
LINE
  8
0
  6
CONTINUOUS
 62
       7
  5
67
 10
195.05599764
 20
-99.20781176
 30
0.0
 11
198.66224176
 21
-102.81405618
 31
0.0
  0
CIRCLE
  8
0
  6
CONTINUOUS
 62
       7
  5
68
 10
196.8591202
 20
-101.01093404
 30
0.0
 40
3.8
  0
LINE
  8
0
  6
CONTINUOUS
 62
       2
  5
69
 10
219.71298094
 20
-42.77600284
 30
0.0
 11
219.71298094
 21
-77.60166742
 31
0.0
  0
LINE
  8
0
  6
CONTINUOUS
 62
       2
  5
6A
 10
213.87479861
 20
-70.01664386
 30
0.0
 11
225.11885951
 21
-70.01664386
 31
0.0
  0
POLYLINE
  8
0
  6
CONTINUOUS
 62
       7
  5
6B
 66
       1
 10
0.0
 20
0.0
 30
0.0
 70
       1
  0
VERTEX
  8
0
  6
CONTINUOUS
 62
       7
  5
2A0
 10
219.7587578
 20
-76.52632888
 30
0.0
  0
VERTEX
  8
0
  6
CONTINUOUS
 62
       7
  5
2A1
 10
220.1510844
 20
-76.49868978
 30
0.0
  0
VERTEX
  8
0
  6
CONTINUOUS
 62
       7
  5
2A2
 10
220.54006319
 20
-76.42171839
 30
0.0
  0
VERTEX
  8
0
  6
CONTINUOUS
 62
       7
  5
2A3
 10
220.92273379
 20
-76.29600052
 30
0.0
  0
VERTEX
  8
0
  6
CONTINUOUS
 62
       7
  5
2A4
 10
221.29618386
 20
-76.12249295
 30
0.0
  0
VERTEX
  8
0
  6
CONTINUOUS
 62
       7
  5
2A5
 10
221.65757121
 20
-75.90251619
 30
0.0
  0
VERTEX
  8
0
  6
CONTINUOUS
 62
       7
  5
2A6
 10
222.00414548
 20
-75.63774438
 30
0.0
  0
VERTEX
  8
0
  6
CONTINUOUS
 62
       7
  5
2A7
 10
222.33326901
 20
-75.3301926
 30
0.0
  0
VERTEX
  8
0
  6
CONTINUOUS
 62
       7
  5
2A8
 10
222.64243698
 20
-74.98220151
 30
0.0
  0
VERTEX
  8
0
  6
CONTINUOUS
 62
       7
  5
2A9
 10
222.92929644
 20
-74.59641953
 30
0.0
  0
VERTEX
  8
0
  6
CONTINUOUS
 62
       7
  5
2AA
 10
223.19166421
 20
-74.17578269
 30
0.0
  0
VERTEX
  8
0
  6
CONTINUOUS
 62
       7
  5
2AB
 10
223.42754352
 20
-73.72349229
 30
0.0
  0
VERTEX
  8
0
  6
CONTINUOUS
 62
       7
  5
2AC
 10
223.63513918
 20
-73.24299054
 30
0.0
  0
VERTEX
  8
0
  6
CONTINUOUS
 62
       7
  5
2AD
 10
223.81287126
 20
-72.73793434
 30
0.0
  0
VERTEX
  8
0
  6
CONTINUOUS
 62
       7
  5
2AE
 10
223.95938712
 20
-72.21216747
 30
0.0
  0
VERTEX
  8
0
  6
CONTINUOUS
 62
       7
  5
2AF
 10
224.07357167
 20
-71.66969135
 30
0.0
  0
VERTEX
  8
0
  6
CONTINUOUS
 62
       7
  5
2B0
 10
224.15455591
 20
-71.11463453
 30
0.0
  0
VERTEX
  8
0
  6
CONTINUOUS
 62
       7
  5
2B1
 10
224.2017235
 20
-70.55122135
 30
0.0
  0
VERTEX
  8
0
  6
CONTINUOUS
 62
       7
  5
2B2
 10
224.21471547
 20
-69.9837397
 30
0.0
  0
VERTEX
  8
0
  6
CONTINUOUS
 62
       7
  5
2B3
 10
224.19343293
 20
-69.41650848
 30
0.0
  0
VERTEX
  8
0
  6
CONTINUOUS
 62
       7
  5
2B4
 10
224.13803786
 20
-68.85384465
 30
0.0
  0
VERTEX
  8
0
  6
CONTINUOUS
 62
       7
  5
2B5
 10
224.04895185
 20
-68.30003043
 30
0.0
  0
VERTEX
  8
0
  6
CONTINUOUS
 62
       7
  5
2B6
 10
223.9268529
 20
-67.75928066
 30
0.0
  0
VERTEX
  8
0
  6
CONTINUOUS
 62
       7
  5
2B7
 10
223.77267026
 20
-67.2357108
 30
0.0
  0
VERTEX
  8
0
  6
CONTINUOUS
 62
       7
  5
2B8
 10
223.58757734
 20
-66.73330551
 30
0.0
  0
VERTEX
  8
0
  6
CONTINUOUS
 62
       7
  5
2B9
 10
223.37298282
 20
-66.25588842
 30
0.0
  0
VERTEX
  8
0
  6
CONTINUOUS
 62
       7
  5
2BA
 10
223.13051989
 20
-65.80709294
 30
0.0
  0
VERTEX
  8
0
  6
CONTINUOUS
 62
       7
  5
2BB
 10
222.86203385
 20
-65.39033469
 30
0.0
  0
VERTEX
  8
0
  6
CONTINUOUS
 62
       7
  5
2BC
 10
222.56956802
 20
-65.00878544
 30
0.0
  0
VERTEX
  8
0
  6
CONTINUOUS
 62
       7
  5
2BD
 10
222.25534826
 20
-64.66534902
 30
0.0
  0
VERTEX
  8
0
  6
CONTINUOUS
 62
       7
  5
2BE
 10
221.92176596
 20
-64.36263918
 30
0.0
  0
VERTEX
  8
0
  6
CONTINUOUS
 62
       7
  5
2BF
 10
221.57135988
 20
-64.10295974
 30
0.0
  0
VERTEX
  8
0
  6
CONTINUOUS
 62
       7
  5
2C0
 10
221.20679684
 20
-63.888287
 30
0.0
  0
VERTEX
  8
0
  6
CONTINUOUS
 62
       7
  5
2C1
 10
220.83085137
 20
-63.72025475
 30
0.0
  0
VERTEX
  8
0
  6
CONTINUOUS
 62
       7
  5
2C2
 10
220.44638465
 20
-63.60014183
 30
0.0
  0
VERTEX
  8
0
  6
CONTINUOUS
 62
       7
  5
2C3
 10
220.0563227
 20
-63.52886237
 30
0.0
  0
VERTEX
  8
0
  6
CONTINUOUS
 62
       7
  5
2C4
 10
219.66363413
 20
-63.50695884
 30
0.0
  0
VERTEX
  8
0
  6
CONTINUOUS
 62
       7
  5
2C5
 10
219.27130752
 20
-63.53459794
 30
0.0
  0
VERTEX
  8
0
  6
CONTINUOUS
 62
       7
  5
2C6
 10
218.88232874
 20
-63.61156932
 30
0.0
  0
VERTEX
  8
0
  6
CONTINUOUS
 62
       7
  5
2C7
 10
218.49965814
 20
-63.7372872
 30
0.0
  0
VERTEX
  8
0
  6
CONTINUOUS
 62
       7
  5
2C8
 10
218.12620807
 20
-63.91079476
 30
0.0
  0
VERTEX
  8
0
  6
CONTINUOUS
 62
       7
  5
2C9
 10
217.76482071
 20
-64.13077153
 30
0.0
  0
VERTEX
  8
0
  6
CONTINUOUS
 62
       7
  5
2CA
 10
217.41824645
 20
-64.39554333
 30
0.0
  0
VERTEX
  8
0
  6
CONTINUOUS
 62
       7
  5
2CB
 10
217.08912292
 20
-64.70309511
 30
0.0
  0
VERTEX
  8
0
  6
CONTINUOUS
 62
       7
  5
2CC
 10
216.77995494
 20
-65.0510862
 30
0.0
  0
VERTEX
  8
0
  6
CONTINUOUS
 62
       7
  5
2CD
 10
216.49309548
 20
-65.43686818
 30
0.0
  0
VERTEX
  8
0
  6
CONTINUOUS
 62
       7
  5
2CE
 10
216.23072771
 20
-65.85750503
 30
0.0
  0
VERTEX
  8
0
  6
CONTINUOUS
 62
       7
  5
2CF
 10
215.9948484
 20
-66.30979542
 30
0.0
  0
VERTEX
  8
0
  6
CONTINUOUS
 62
       7
  5
2D0
 10
215.78725275
 20
-66.79029718
 30
0.0
  0
VERTEX
  8
0
  6
CONTINUOUS
 62
       7
  5
2D1
 10
215.60952067
 20
-67.29535338
 30
0.0
  0
VERTEX
  8
0
  6
CONTINUOUS
 62
       7
  5
2D2
 10
215.46300481
 20
-67.82112024
 30
0.0
  0
VERTEX
  8
0
  6
CONTINUOUS
 62
       7
  5
2D3
 10
215.34882025
 20
-68.36359637
 30
0.0
  0
VERTEX
  8
0
  6
CONTINUOUS
 62
       7
  5
2D4
 10
215.26783601
 20
-68.91865318
 30
0.0
  0
VERTEX
  8
0
  6
CONTINUOUS
 62
       7
  5
2D5
 10
215.22066842
 20
-69.48206637
 30
0.0
  0
VERTEX
  8
0
  6
CONTINUOUS
 62
       7
  5
2D6
 10
215.20767646
 20
-70.04954801
 30
0.0
  0
VERTEX
  8
0
  6
CONTINUOUS
 62
       7
  5
2D7
 10
215.228959
 20
-70.61677923
 30
0.0
  0
VERTEX
  8
0
  6
CONTINUOUS
 62
       7
  5
2D8
 10
215.28435407
 20
-71.17944306
 30
0.0
  0
VERTEX
  8
0
  6
CONTINUOUS
 62
       7
  5
2D9
 10
215.37344007
 20
-71.73325729
 30
0.0
  0
VERTEX
  8
0
  6
CONTINUOUS
 62
       7
  5
2DA
 10
215.49553902
 20
-72.27400705
 30
0.0
  0
VERTEX
  8
0
  6
CONTINUOUS
 62
       7
  5
2DB
 10
215.64972167
 20
-72.79757691
 30
0.0
  0
VERTEX
  8
0
  6
CONTINUOUS
 62
       7
  5
2DC
 10
215.83481458
 20
-73.2999822
 30
0.0
  0
VERTEX
  8
0
  6
CONTINUOUS
 62
       7
  5
2DD
 10
216.0494091
 20
-73.7773993
 30
0.0
  0
VERTEX
  8
0
  6
CONTINUOUS
 62
       7
  5
2DE
 10
216.29187203
 20
-74.22619477
 30
0.0
  0
VERTEX
  8
0
  6
CONTINUOUS
 62
       7
  5
2DF
 10
216.56035808
 20
-74.64295303
 30
0.0
  0
VERTEX
  8
0
  6
CONTINUOUS
 62
       7
  5
2E0
 10
216.85282391
 20
-75.02450228
 30
0.0
  0
VERTEX
  8
0
  6
CONTINUOUS
 62
       7
  5
2E1
 10
217.16704367
 20
-75.3679387
 30
0.0
  0
VERTEX
  8
0
  6
CONTINUOUS
 62
       7
  5
2E2
 10
217.50062597
 20
-75.67064853
 30
0.0
  0
VERTEX
  8
0
  6
CONTINUOUS
 62
       7
  5
2E3
 10
217.85103204
 20
-75.93032798
 30
0.0
  0
VERTEX
  8
0
  6
CONTINUOUS
 62
       7
  5
2E4
 10
218.21559508
 20
-76.14500072
 30
0.0
  0
VERTEX
  8
0
  6
CONTINUOUS
 62
       7
  5
2E5
 10
218.59154055
 20
-76.31303296
 30
0.0
  0
VERTEX
  8
0
  6
CONTINUOUS
 62
       7
  5
2E6
 10
218.97600727
 20
-76.43314588
 30
0.0
  0
VERTEX
  8
0
  6
CONTINUOUS
 62
       7
  5
2E7
 10
219.36606923
 20
-76.50442535
 30
0.0
  0
VERTEX
  8
0
  6
CONTINUOUS
 62
       7
  5
2E8
 10
219.7587578
 20
-76.52632888
 30
0.0
  0
SEQEND
  8
0
  6
CONTINUOUS
 62
       7
  5
2E9
  0
POLYLINE
  8
0
  6
CONTINUOUS
 62
       7
  5
6C
 66
       1
 10
0.0
 20
0.0
 30
0.0
  0
VERTEX
  8
0
  6
CONTINUOUS
 62
       7
  5
2EA
 10
217.53912038
 20
-64.29677329
 30
0.0
  0
VERTEX
  8
0
  6
CONTINUOUS
 62
       7
  5
2EB
 10
218.05078108
 20
-64.76379042
 30
0.0
  0
VERTEX
  8
0
  6
CONTINUOUS
 62
       7
  5
2EC
 10
218.51501357
 20
-65.32517061
 30
0.0
  0
VERTEX
  8
0
  6
CONTINUOUS
 62
       7
  5
2ED
 10
218.9234783
 20
-65.97082915
 30
0.0
  0
VERTEX
  8
0
  6
CONTINUOUS
 62
       7
  5
2EE
 10
219.26883756
 20
-66.68916732
 30
0.0
  0
VERTEX
  8
0
  6
CONTINUOUS
 62
       7
  5
2EF
 10
219.54488724
 20
-67.46728079
 30
0.0
  0
VERTEX
  8
0
  6
CONTINUOUS
 62
       7
  5
2F0
 10
219.74666836
 20
-68.29119141
 30
0.0
  0
VERTEX
  8
0
  6
CONTINUOUS
 62
       7
  5
2F1
 10
219.87055608
 20
-69.14609833
 30
0.0
  0
VERTEX
  8
0
  6
CONTINUOUS
 62
       7
  5
2F2
 10
219.91432487
 20
-70.01664386
 30
0.0
  0
VERTEX
  8
0
  6
CONTINUOUS
 62
       7
  5
2F3
 10
219.87718846
 20
-70.88718938
 30
0.0
  0
VERTEX
  8
0
  6
CONTINUOUS
 62
       7
  5
2F4
 10
219.75981397
 20
-71.7420963
 30
0.0
  0
VERTEX
  8
0
  6
CONTINUOUS
 62
       7
  5
2F5
 10
219.56430995
 20
-72.56600692
 30
0.0
  0
VERTEX
  8
0
  6
CONTINUOUS
 62
       7
  5
2F6
 10
219.29418844
 20
-73.34412039
 30
0.0
  0
VERTEX
  8
0
  6
CONTINUOUS
 62
       7
  5
2F7
 10
218.95430195
 20
-74.06245857
 30
0.0
  0
VERTEX
  8
0
  6
CONTINUOUS
 62
       7
  5
2F8
 10
218.55075627
 20
-74.7081171
 30
0.0
  0
VERTEX
  8
0
  6
CONTINUOUS
 62
       7
  5
2F9
 10
218.09080074
 20
-75.26949729
 30
0.0
  0
VERTEX
  8
0
  6
CONTINUOUS
 62
       7
  5
2FA
 10
217.58269807
 20
-75.73651442
 30
0.0
  0
SEQEND
  8
0
  6
CONTINUOUS
 62
       7
  5
2FB
  0
LINE
  8
0
  6
CONTINUOUS
 62
       2
  5
6D
 10
204.86106826
 20
21.16619259
 30
0.0
 11
204.86106826
 21
-118.08045297
 31
0.0
  0
LINE
  8
0
  6
CONTINUOUS
 62
       7
  5
6E
 10
205.16276958
 20
19.00664628
 30
0.0
 11
205.16276958
 21
10.17791283
 31
0.0
  0
LINE
  8
0
  6
CONTINUOUS
 62
       7
  5
6F
 10
204.55936693
 20
19.00664628
 30
0.0
 11
204.55936693
 21
10.17791283
 31
0.0
  0
LINE
  8
0
  6
CONTINUOUS
 62
       7
  5
70
 10
75.19092703
 20
-83.50768845
 30
0.0
 11
-105.40570718
 21
-83.50768845
 31
0.0
  0
LINE
  8
0
  6
CONTINUOUS
 62
       7
  5
71
 10
-103.10907297
 20
143.77150199
 30
0.0
 11
72.89092703
 21
143.77150199
 31
0.0
  0
LINE
  8
0
  6
CONTINUOUS
 62
       7
  5
72
 10
72.89092703
 20
-83.50768845
 30
0.0
 11
72.89092703
 21
-110.51093404
 31
0.0
  0
LINE
  8
0
  6
CONTINUOUS
 62
       7
  5
73
 10
72.89429282
 20
-110.50768845
 30
0.0
 11
-103.10570718
 21
-110.50768845
 31
0.0
  0
LINE
  8
0
  6
CONTINUOUS
 62
       7
  5
74
 10
-103.10570718
 20
-83.50768845
 30
0.0
 11
-103.10570718
 21
-110.50768845
 31
0.0
  0
LINE
  8
0
  6
CONTINUOUS
 62
       2
  5
75
 10
59.89429282
 20
-91.50768845
 30
0.0
 11
47.89429282
 21
-91.50768845
 31
0.0
  0
CIRCLE
  8
0
  6
CONTINUOUS
 62
       7
  5
76
 10
53.90338434
 20
-91.51670061
 30
0.0
 40
4.00048059
  0
CIRCLE
  8
0
  6
CONTINUOUS
 62
       2
  5
77
 10
53.90338434
 20
-91.51670061
 30
0.0
 40
5.00060103
  0
LINE
  8
0
  6
CONTINUOUS
 62
       2
  5
78
 10
53.89429282
 20
-85.50768845
 30
0.0
 11
53.89429282
 21
-97.50768845
 31
0.0
  0
LINE
  8
0
  6
CONTINUOUS
 62
       2
  5
79
 10
35.89429282
 20
-85.9070153
 30
0.0
 11
35.89429282
 21
-97.50768845
 31
0.0
  0
LINE
  8
0
  6
CONTINUOUS
 62
       2
  5
7A
 10
41.89429282
 20
-91.50768845
 30
0.0
 11
29.89429282
 21
-91.50768845
 31
0.0
  0
CIRCLE
  8
0
  6
CONTINUOUS
 62
       2
  5
7B
 10
35.90338434
 20
-91.51670061
 30
0.0
 40
5.00060103
  0
CIRCLE
  8
0
  6
CONTINUOUS
 62
       7
  5
7C
 10
35.90338434
 20
-91.51670061
 30
0.0
 40
4.00048059
  0
LINE
  8
0
  6
CONTINUOUS
 62
       2
  5
7D
 10
-0.10570718
 20
-91.50768845
 30
0.0
 11
-12.10570718
 21
-91.50768845
 31
0.0
  0
CIRCLE
  8
0
  6
CONTINUOUS
 62
       7
  5
7E
 10
-6.09661566
 20
-91.51670061
 30
0.0
 40
4.00048059
  0
CIRCLE
  8
0
  6
CONTINUOUS
 62
       2
  5
7F
 10
-6.09661566
 20
-91.51670061
 30
0.0
 40
5.00060103
  0
LINE
  8
0
  6
CONTINUOUS
 62
       2
  5
80
 10
-6.10570718
 20
-85.50768845
 30
0.0
 11
-6.10570718
 21
-97.50768845
 31
0.0
  0
LINE
  8
0
  6
CONTINUOUS
 62
       2
  5
81
 10
-24.10570718
 20
-85.9070153
 30
0.0
 11
-24.10570718
 21
-97.50768845
 31
0.0
  0
LINE
  8
0
  6
CONTINUOUS
 62
       2
  5
82
 10
-18.10570718
 20
-91.50768845
 30
0.0
 11
-30.10570718
 21
-91.50768845
 31
0.0
  0
CIRCLE
  8
0
  6
CONTINUOUS
 62
       2
  5
83
 10
-24.09661566
 20
-91.51670061
 30
0.0
 40
5.00060103
  0
CIRCLE
  8
0
  6
CONTINUOUS
 62
       7
  5
84
 10
-24.09661566
 20
-91.51670061
 30
0.0
 40
4.00048059
  0
LINE
  8
0
  6
CONTINUOUS
 62
       2
  5
85
 10
-60.10570718
 20
-91.50768845
 30
0.0
 11
-72.10570718
 21
-91.50768845
 31
0.0
  0
CIRCLE
  8
0
  6
CONTINUOUS
 62
       7
  5
86
 10
-66.09661566
 20
-91.51670061
 30
0.0
 40
4.00048059
  0
CIRCLE
  8
0
  6
CONTINUOUS
 62
       2
  5
87
 10
-66.09661566
 20
-91.51670061
 30
0.0
 40
5.00060103
  0
LINE
  8
0
  6
CONTINUOUS
 62
       2
  5
88
 10
-66.10570718
 20
-85.9070153
 30
0.0
 11
-66.10570718
 21
-97.50768845
 31
0.0
  0
LINE
  8
0
  6
CONTINUOUS
 62
       2
  5
89
 10
-84.10570718
 20
-85.9070153
 30
0.0
 11
-84.10570718
 21
-97.50768845
 31
0.0
  0
LINE
  8
0
  6
CONTINUOUS
 62
       2
  5
8A
 10
-78.10570718
 20
-91.50768845
 30
0.0
 11
-90.10570718
 21
-91.50768845
 31
0.0
  0
CIRCLE
  8
0
  6
CONTINUOUS
 62
       2
  5
8B
 10
-84.09661566
 20
-91.51670061
 30
0.0
 40
5.00060103
  0
CIRCLE
  8
0
  6
CONTINUOUS
 62
       7
  5
8C
 10
-84.09661566
 20
-91.51670061
 30
0.0
 40
4.00048059
  0
LINE
  8
0
  6
CONTINUOUS
 62
       7
  5
8D
 10
-143.60570718
 20
-144.50768845
 30
0.0
 11
-106.90570718
 21
-144.50768845
 31
0.0
  0
LINE
  8
0
  6
CONTINUOUS
 62
       7
  5
8E
 10
-103.10570718
 20
-110.51093404
 30
0.0
 11
-103.10570718
 21
-140.70768845
 31
0.0
  0
LINE
  8
0
  6
CONTINUOUS
 62
       7
  5
8F
 10
-143.60570718
 20
-142.20768845
 30
0.0
 11
-143.60570718
 21
-144.50768845
 31
0.0
  0
LINE
  8
0
  6
CONTINUOUS
 62
       7
  5
90
 10
-143.60570718
 20
-142.20768845
 30
0.0
 11
-106.90570718
 21
-142.20768845
 31
0.0
  0
LINE
  8
0
  6
CONTINUOUS
 62
       7
  5
91
 10
-105.40570718
 20
-83.50768845
 30
0.0
 11
-105.40570718
 21
-140.70768845
 31
0.0
  0
ARC
  8
0
  6
CONTINUOUS
 62
       7
  5
92
 10
-106.90570718
 20
-140.70768845
 30
0.0
 40
1.5
 50
270.0
 51
0.0
  0
ARC
  8
0
  6
CONTINUOUS
 62
       7
  5
93
 10
-106.90570718
 20
-140.70768845
 30
0.0
 40
3.8
 50
270.0
 51
0.0
  0
LINE
  8
0
  6
CONTINUOUS
 62
       7
  5
94
 10
75.19092703
 20
-83.50768845
 30
0.0
 11
75.19092703
 21
-140.70768845
 31
0.0
  0
LINE
  8
0
  6
CONTINUOUS
 62
       7
  5
95
 10
72.89092703
 20
-110.51093404
 30
0.0
 11
72.89092703
 21
-140.70768845
 31
0.0
  0
ARC
  8
0
  6
CONTINUOUS
 62
       7
  5
96
 10
76.69092703
 20
-140.70768845
 30
0.0
 40
3.8
 50
180.0
 51
270.0
  0
ARC
  8
0
  6
CONTINUOUS
 62
       7
  5
97
 10
76.69092703
 20
-140.70768845
 30
0.0
 40
1.5
 50
180.0
 51
270.0
  0
LINE
  8
0
  6
CONTINUOUS
 62
       7
  5
98
 10
113.39092703
 20
-142.20768845
 30
0.0
 11
76.69092703
 21
-142.20768845
 31
0.0
  0
LINE
  8
0
  6
CONTINUOUS
 62
       7
  5
99
 10
113.39092703
 20
-142.20768845
 30
0.0
 11
113.39092703
 21
-144.50768845
 31
0.0
  0
LINE
  8
0
  6
CONTINUOUS
 62
       7
  5
9A
 10
113.39092703
 20
-144.50768845
 30
0.0
 11
76.69092703
 21
-144.50768845
 31
0.0
  0
LINE
  8
0
  6
CONTINUOUS
 62
       7
  5
9B
 10
113.38756124
 20
121.77150199
 30
0.0
 11
113.38756124
 21
131.77150199
 31
0.0
  0
LINE
  8
0
  6
CONTINUOUS
 62
       7
  5
9C
 10
75.19092703
 20
109.27150199
 30
0.0
 11
75.19092703
 21
144.27150199
 31
0.0
  0
LINE
  8
0
  6
CONTINUOUS
 62
       7
  5
9D
 10
72.89092703
 20
144.27150199
 30
0.0
 11
100.88756124
 21
144.27150199
 31
0.0
  0
LINE
  8
0
  6
CONTINUOUS
 62
       7
  5
9E
 10
72.89092703
 20
109.27150199
 30
0.0
 11
100.88756124
 21
109.27150199
 31
0.0
  0
ARC
  8
0
  6
CONTINUOUS
 62
       7
  5
9F
 10
100.88756124
 20
131.77150199
 30
0.0
 40
12.5
 50
0.0
 51
90.0
  0
ARC
  8
0
  6
CONTINUOUS
 62
       7
  5
A0
 10
100.88756124
 20
121.77150199
 30
0.0
 40
12.5
 50
270.0
 51
0.0
  0
LINE
  8
0
  6
CONTINUOUS
 62
       2
  5
A1
 10
95.89092703
 20
110.09829831
 30
0.0
 11
95.89092703
 21
143.21682441
 31
0.0
  0
CIRCLE
  8
0
  6
CONTINUOUS
 62
       7
  5
A2
 10
95.89092703
 20
126.77150199
 30
0.0
 40
7.25
  0
LINE
  8
0
  6
CONTINUOUS
 62
       2
  5
A3
 10
89.89092703
 20
138.77150199
 30
0.0
 11
101.89092703
 21
138.77150199
 31
0.0
  0
LINE
  8
0
  6
CONTINUOUS
 62
       2
  5
A4
 10
89.89092703
 20
114.77150199
 30
0.0
 11
101.89092703
 21
114.77150199
 31
0.0
  0
CIRCLE
  8
0
  6
CONTINUOUS
 62
       7
  5
A5
 10
95.89092703
 20
138.77150199
 30
0.0
 40
2.75
  0
CIRCLE
  8
0
  6
CONTINUOUS
 62
       7
  5
A6
 10
95.89092703
 20
114.77150199
 30
0.0
 40
2.75
  0
LINE
  8
0
  6
CONTINUOUS
 62
       2
  5
A7
 10
107.89092703
 20
120.77150199
 30
0.0
 11
107.89092703
 21
132.77150199
 31
0.0
  0
LINE
  8
0
  6
CONTINUOUS
 62
       2
  5
A8
 10
83.89092703
 20
120.77150199
 30
0.0
 11
83.89092703
 21
132.77150199
 31
0.0
  0
CIRCLE
  8
0
  6
CONTINUOUS
 62
       7
  5
A9
 10
107.89092703
 20
126.77150199
 30
0.0
 40
2.75
  0
CIRCLE
  8
0
  6
CONTINUOUS
 62
       7
  5
AA
 10
83.89092703
 20
126.77150199
 30
0.0
 40
2.75
  0
LINE
  8
0
  6
CONTINUOUS
 62
       2
  5
AB
 10
71.44616741
 20
126.77150199
 30
0.0
 11
117.93330165
 21
126.77150199
 31
0.0
  0
LINE
  8
0
  6
CONTINUOUS
 62
       2
  5
AC
 10
66.8056132
 20
-101.01093404
 30
0.0
 11
80.83910347
 21
-101.01093404
 31
0.0
  0
ARC
  8
0
  6
CONTINUOUS
 62
       7
  5
AD
 10
70.89092684
 20
-101.01093404
 30
0.0
 40
8.0
 50
0.0
 51
23.57817848
  0
LINE
  8
0
  6
CONTINUOUS
 62
       7
  5
AE
 10
78.89092684
 20
-101.01093404
 30
0.0
 11
76.83015333
 21
-103.07170755
 31
0.0
  0
LINE
  8
0
  6
CONTINUOUS
 62
       7
  5
AF
 10
78.89092684
 20
-101.01093404
 30
0.0
 11
76.83015333
 21
-98.95016053
 31
0.0
  0
LINE
  8
0
  6
CONTINUOUS
 62
       7
  5
B0
 10
65.89681716
 20
-75.81266456
 30
0.0
 11
65.89681716
 21
-12.51165528
 31
0.0
  0
LINE
  8
0
  6
CONTINUOUS
 62
       7
  5
B1
 10
23.89176848
 20
-78.50708742
 30
0.0
 11
23.89176848
 21
-12.51165528
 31
0.0
  0
LINE
  8
0
  6
CONTINUOUS
 62
       2
  5
B2
 10
43.0999639
 20
20.1225613
 30
0.0
 11
43.0999639
 21
-5.45853509
 31
0.0
  0
LINE
  8
0
  6
CONTINUOUS
 62
       2
  5
B3
 10
46.70450076
 20
20.42426262
 30
0.0
 11
46.70450076
 21
-6.55418726
 31
0.0
  0
LINE
  8
0
  6
CONTINUOUS
 62
       7
  5
B4
 10
49.80090908
 20
-4.90276949
 30
0.0
 11
40.00355559
 21
-4.90276949
 31
0.0
  0
LINE
  8
0
  6
CONTINUOUS
 62
       7
  5
B5
 10
42.00431173
 20
10.18229666
 30
0.0
 11
42.00431173
 21
3.57662559
 31
0.0
  0
LINE
  8
0
  6
CONTINUOUS
 62
       7
  5
B6
 10
44.19561607
 20
10.18229666
 30
0.0
 11
44.19561607
 21
3.57662559
 31
0.0
  0
LINE
  8
0
  6
CONTINUOUS
 62
       7
  5
B7
 10
42.00431173
 20
2.06811897
 30
0.0
 11
42.00431173
 21
-4.90276949
 31
0.0
  0
LINE
  8
0
  6
CONTINUOUS
 62
       7
  5
B8
 10
44.19561607
 20
2.06811897
 30
0.0
 11
44.19561607
 21
-4.90276949
 31
0.0
  0
LINE
  8
0
  6
CONTINUOUS
 62
       7
  5
B9
 10
42.00431173
 20
10.18229666
 30
0.0
 11
44.19561607
 21
10.18229666
 31
0.0
  0
LINE
  8
0
  6
CONTINUOUS
 62
       7
  5
BA
 10
42.79826258
 20
19.01103011
 30
0.0
 11
42.79826258
 21
10.18229666
 31
0.0
  0
LINE
  8
0
  6
CONTINUOUS
 62
       7
  5
BB
 10
43.40166522
 20
19.01103011
 30
0.0
 11
43.40166522
 21
10.18229666
 31
0.0
  0
LINE
  8
0
  6
CONTINUOUS
 62
       7
  5
BC
 10
42.79826258
 20
-0.98896989
 30
0.0
 11
43.40166522
 21
-0.98896989
 31
0.0
  0
LINE
  8
0
  6
CONTINUOUS
 62
       7
  5
BD
 10
47.80015293
 20
10.18229666
 30
0.0
 11
47.80015293
 21
3.57662559
 31
0.0
  0
LINE
  8
0
  6
CONTINUOUS
 62
       7
  5
BE
 10
45.59296957
 20
10.18229666
 30
0.0
 11
45.59296957
 21
3.57662559
 31
0.0
  0
LINE
  8
0
  6
CONTINUOUS
 62
       7
  5
BF
 10
47.80015293
 20
2.06811897
 30
0.0
 11
47.80015293
 21
-4.90276949
 31
0.0
  0
LINE
  8
0
  6
CONTINUOUS
 62
       7
  5
C0
 10
45.59296957
 20
2.06811897
 30
0.0
 11
45.59296957
 21
-4.90276949
 31
0.0
  0
LINE
  8
0
  6
CONTINUOUS
 62
       7
  5
C1
 10
47.80015293
 20
10.18229666
 30
0.0
 11
45.59296957
 21
10.18229666
 31
0.0
  0
LINE
  8
0
  6
CONTINUOUS
 62
       7
  5
C2
 10
47.00620208
 20
19.01103011
 30
0.0
 11
47.00620208
 21
10.18229666
 31
0.0
  0
LINE
  8
0
  6
CONTINUOUS
 62
       7
  5
C3
 10
46.40279944
 20
19.01103011
 30
0.0
 11
46.40279944
 21
10.18229666
 31
0.0
  0
LINE
  8
0
  6
CONTINUOUS
 62
       7
  5
C4
 10
47.00620208
 20
-0.98896989
 30
0.0
 11
46.40279944
 21
-0.98896989
 31
0.0
  0
ARC
  8
0
  6
CONTINUOUS
 62
       7
  5
C5
 10
43.0999639
 20
3.57662559
 30
0.0
 40
1.09565384
 50
180.0
 51
0.0
  0
ARC
  8
0
  6
CONTINUOUS
 62
       7
  5
C6
 10
43.0999639
 20
2.07795747
 30
0.0
 40
1.09569634
 50
180.51447824
 51
359.48552176
  0
ARC
  8
0
  6
CONTINUOUS
 62
       7
  5
C7
 10
46.69656125
 20
3.57662559
 30
0.0
 40
1.10359333
 50
0.0
 51
180.0
  0
ARC
  8
0
  6
CONTINUOUS
 62
       7
  5
C8
 10
46.69656125
 20
2.07795719
 30
0.0
 40
1.10363553
 50
359.48923727
 51
180.51076273
  0
ARC
  8
0
  6
CONTINUOUS
 62
       7
  5
C9
 10
39.99188536
 20
-6.49487998
 30
0.0
 40
1.59215326
 50
89.58002727
 51
180.41997273
  0
ARC
  8
0
  6
CONTINUOUS
 62
       7
  5
CA
 10
49.80148357
 20
-6.50597572
 30
0.0
 40
1.60320633
 50
359.97946873
 51
90.02053127
  0
ARC
  8
0
  6
CONTINUOUS
 62
       7
  5
CB
 10
29.89528837
 20
-12.51445393
 30
0.0
 40
6.00352054
 50
90.02670948
 51
179.97329052
  0
ARC
  8
0
  6
CONTINUOUS
 62
       7
  5
CC
 10
59.90237616
 20
-12.50537504
 30
0.0
 40
5.99444429
 50
359.93997253
 51
90.06002747
  0
LINE
  8
0
  6
CONTINUOUS
 62
       7
  5
CD
 10
59.89609592
 20
-6.51093404
 30
0.0
 11
29.89248972
 21
-6.51093404
 31
0.0
  0
LINE
  8
0
  6
CONTINUOUS
 62
       7
  5
CE
 10
50.89501406
 20
-6.41092202
 30
0.0
 11
50.89501406
 21
-6.51093404
 31
0.0
  0
LINE
  8
0
  6
CONTINUOUS
 62
       7
  5
CF
 10
71.19224695
 20
-83.5076885
 30
0.0
 11
71.19224695
 21
-79.50720761
 31
0.0
  0
LINE
  8
0
  6
CONTINUOUS
 62
       7
  5
D0
 10
16.33029072
 20
-83.5076885
 30
0.0
 11
16.33029072
 21
-79.50720761
 31
0.0
  0
LINE
  8
0
  6
CONTINUOUS
 62
       2
  5
D1
 10
21.33028988
 20
-86.9662368
 30
0.0
 11
21.33028988
 21
-73.59552572
 31
0.0
  0
LINE
  8
0
  6
CONTINUOUS
 62
       2
  5
D2
 10
66.19224597
 20
-86.9662368
 30
0.0
 11
66.19224597
 21
-73.59552572
 31
0.0
  0
ARC
  8
0
  6
CONTINUOUS
 62
       7
  5
D3
 10
62.50891258
 20
-77.93318247
 30
0.0
 40
1.0666666
 50
122.08995858
 51
180.00001799
  0
LINE
  8
0
  6
CONTINUOUS
 62
       7
  5
D4
 10
61.44224597
 20
-77.93318247
 30
0.0
 11
61.44224597
 21
-79.50720763
 31
0.0
  0
ARC
  8
0
  6
CONTINUOUS
 62
       7
  5
D5
 10
69.87557937
 20
-77.93318247
 30
0.0
 40
1.0666666
 50
359.99998201
 51
57.91004142
  0
LINE
  8
0
  6
CONTINUOUS
 62
       7
  5
D6
 10
70.94224597
 20
-77.93318247
 30
0.0
 11
70.94224597
 21
-79.50720763
 31
0.0
  0
LINE
  8
0
  6
CONTINUOUS
 62
       7
  5
D7
 10
66.19224591
 20
-75.8072078
 30
0.0
 11
64.34192606
 21
-77.65752765
 31
0.0
  0
LINE
  8
0
  6
CONTINUOUS
 62
       7
  5
D8
 10
66.19224603
 20
-75.8072078
 30
0.0
 11
68.04256589
 21
-77.65752765
 31
0.0
  0
ARC
  8
0
  6
CONTINUOUS
 62
       7
  5
D9
 10
66.19224597
 20
-83.80720782
 30
0.0
 40
8.0
 50
57.91004142
 51
122.08988664
  0
LINE
  8
0
  6
CONTINUOUS
 62
       7
  5
DA
 10
16.58028988
 20
-77.93318247
 30
0.0
 11
16.58028988
 21
-79.50720763
 31
0.0
  0
LINE
  8
0
  6
CONTINUOUS
 62
       7
  5
DB
 10
21.33028982
 20
-75.8072078
 30
0.0
 11
19.47996997
 21
-77.65752765
 31
0.0
  0
LINE
  8
0
  6
CONTINUOUS
 62
       7
  5
DC
 10
21.33028994
 20
-75.8072078
 30
0.0
 11
23.1806098
 21
-77.65752765
 31
0.0
  0
ARC
  8
0
  6
CONTINUOUS
 62
       7
  5
DD
 10
17.64695649
 20
-77.93318247
 30
0.0
 40
1.0666666
 50
122.08995858
 51
180.00001799
  0
ARC
  8
0
  6
CONTINUOUS
 62
       7
  5
DE
 10
21.33028988
 20
-83.80720782
 30
0.0
 40
8.0
 50
71.32589733
 51
122.08988664
  0
LINE
  8
0
  6
CONTINUOUS
 62
       7
  5
DF
 10
27.90736416
 20
-46.78507201
 30
0.0
 11
29.35839311
 21
-49.53800052
 31
0.0
  0
LINE
  8
0
  6
CONTINUOUS
 62
       7
  5
E0
 10
29.22228362
 20
-46.72561367
 30
0.0
 11
27.81245312
 21
-49.45638145
 31
0.0
  0
POLYLINE
  8
0
  6
CONTINUOUS
 62
       7
  5
E1
 66
       1
 10
0.0
 20
0.0
 30
0.0
 70
       1
  0
VERTEX
  8
0
  6
CONTINUOUS
 62
       7
  5
2FC
 10
29.29326544
 20
-51.59002546
 30
0.0
  0
VERTEX
  8
0
  6
CONTINUOUS
 62
       7
  5
2FD
 10
29.48936586
 20
-51.57647228
 30
0.0
  0
VERTEX
  8
0
  6
CONTINUOUS
 62
       7
  5
2FE
 10
29.68397384
 20
-51.53591587
 30
0.0
  0
VERTEX
  8
0
  6
CONTINUOUS
 62
       7
  5
2FF
 10
29.87560829
 20
-51.46866489
 30
0.0
  0
VERTEX
  8
0
  6
CONTINUOUS
 62
       7
  5
300
 10
30.06281076
 20
-51.37523117
 30
0.0
  0
VERTEX
  8
0
  6
CONTINUOUS
 62
       7
  5
301
 10
30.24415653
 20
-51.2563258
 30
0.0
  0
VERTEX
  8
0
  6
CONTINUOUS
 62
       7
  5
302
 10
30.41826544
 20
-51.11285371
 30
0.0
  0
VERTEX
  8
0
  6
CONTINUOUS
 62
       7
  5
303
 10
30.58381242
 20
-50.94590681
 30
0.0
  0
VERTEX
  8
0
  6
CONTINUOUS
 62
       7
  5
304
 10
30.73953756
 20
-50.75675567
 30
0.0
  0
VERTEX
  8
0
  6
CONTINUOUS
 62
       7
  5
305
 10
30.8842557
 20
-50.54683985
 30
0.0
  0
VERTEX
  8
0
  6
CONTINUOUS
 62
       7
  5
306
 10
31.01686544
 20
-50.31775693
 30
0.0
  0
VERTEX
  8
0
  6
CONTINUOUS
 62
       7
  5
307
 10
31.13635754
 20
-50.07125037
 30
0.0
  0
VERTEX
  8
0
  6
CONTINUOUS
 62
       7
  5
308
 10
31.2418226
 20
-49.80919623
 30
0.0
  0
VERTEX
  8
0
  6
CONTINUOUS
 62
       7
  5
309
 10
31.33245796
 20
-49.53358891
 30
0.0
  0
VERTEX
  8
0
  6
CONTINUOUS
 62
       7
  5
30A
 10
31.40757383
 20
-49.24652594
 30
0.0
  0
VERTEX
  8
0
  6
CONTINUOUS
 62
       7
  5
30B
 10
31.46659855
 20
-48.95019205
 30
0.0
  0
VERTEX
  8
0
  6
CONTINUOUS
 62
       7
  5
30C
 10
31.50908288
 20
-48.64684251
 30
0.0
  0
VERTEX
  8
0
  6
CONTINUOUS
 62
       7
  5
30D
 10
31.53470351
 20
-48.33878599
 30
0.0
  0
VERTEX
  8
0
  6
CONTINUOUS
 62
       7
  5
30E
 10
31.54326544
 20
-48.02836701
 30
0.0
  0
VERTEX
  8
0
  6
CONTINUOUS
 62
       7
  5
30F
 10
31.53470351
 20
-47.71794802
 30
0.0
  0
VERTEX
  8
0
  6
CONTINUOUS
 62
       7
  5
310
 10
31.50908288
 20
-47.40989151
 30
0.0
  0
VERTEX
  8
0
  6
CONTINUOUS
 62
       7
  5
311
 10
31.46659855
 20
-47.10654197
 30
0.0
  0
VERTEX
  8
0
  6
CONTINUOUS
 62
       7
  5
312
 10
31.40757383
 20
-46.81020807
 30
0.0
  0
VERTEX
  8
0
  6
CONTINUOUS
 62
       7
  5
313
 10
31.33245796
 20
-46.5231451
 30
0.0
  0
VERTEX
  8
0
  6
CONTINUOUS
 62
       7
  5
314
 10
31.2418226
 20
-46.24753778
 30
0.0
  0
VERTEX
  8
0
  6
CONTINUOUS
 62
       7
  5
315
 10
31.13635754
 20
-45.98548364
 30
0.0
  0
VERTEX
  8
0
  6
CONTINUOUS
 62
       7
  5
316
 10
31.01686544
 20
-45.73897708
 30
0.0
  0
VERTEX
  8
0
  6
CONTINUOUS
 62
       7
  5
317
 10
30.8842557
 20
-45.50989416
 30
0.0
  0
VERTEX
  8
0
  6
CONTINUOUS
 62
       7
  5
318
 10
30.73953756
 20
-45.29997834
 30
0.0
  0
VERTEX
  8
0
  6
CONTINUOUS
 62
       7
  5
319
 10
30.58381242
 20
-45.1108272
 30
0.0
  0
VERTEX
  8
0
  6
CONTINUOUS
 62
       7
  5
31A
 10
30.41826544
 20
-44.9438803
 30
0.0
  0
VERTEX
  8
0
  6
CONTINUOUS
 62
       7
  5
31B
 10
30.24415653
 20
-44.80040821
 30
0.0
  0
VERTEX
  8
0
  6
CONTINUOUS
 62
       7
  5
31C
 10
30.06281076
 20
-44.68150284
 30
0.0
  0
VERTEX
  8
0
  6
CONTINUOUS
 62
       7
  5
31D
 10
29.87560829
 20
-44.58806912
 30
0.0
  0
VERTEX
  8
0
  6
CONTINUOUS
 62
       7
  5
31E
 10
29.68397384
 20
-44.52081814
 30
0.0
  0
VERTEX
  8
0
  6
CONTINUOUS
 62
       7
  5
31F
 10
29.48936586
 20
-44.48026174
 30
0.0
  0
VERTEX
  8
0
  6
CONTINUOUS
 62
       7
  5
320
 10
29.29326544
 20
-44.46670855
 30
0.0
  0
VERTEX
  8
0
  6
CONTINUOUS
 62
       7
  5
321
 10
29.09716502
 20
-44.48026174
 30
0.0
  0
VERTEX
  8
0
  6
CONTINUOUS
 62
       7
  5
322
 10
28.90255704
 20
-44.52081814
 30
0.0
  0
VERTEX
  8
0
  6
CONTINUOUS
 62
       7
  5
323
 10
28.71092259
 20
-44.58806912
 30
0.0
  0
VERTEX
  8
0
  6
CONTINUOUS
 62
       7
  5
324
 10
28.52372012
 20
-44.68150284
 30
0.0
  0
VERTEX
  8
0
  6
CONTINUOUS
 62
       7
  5
325
 10
28.34237435
 20
-44.80040821
 30
0.0
  0
VERTEX
  8
0
  6
CONTINUOUS
 62
       7
  5
326
 10
28.16826544
 20
-44.9438803
 30
0.0
  0
VERTEX
  8
0
  6
CONTINUOUS
 62
       7
  5
327
 10
28.00271846
 20
-45.1108272
 30
0.0
  0
VERTEX
  8
0
  6
CONTINUOUS
 62
       7
  5
328
 10
27.84699332
 20
-45.29997834
 30
0.0
  0
VERTEX
  8
0
  6
CONTINUOUS
 62
       7
  5
329
 10
27.70227518
 20
-45.50989416
 30
0.0
  0
VERTEX
  8
0
  6
CONTINUOUS
 62
       7
  5
32A
 10
27.56966544
 20
-45.73897708
 30
0.0
  0
VERTEX
  8
0
  6
CONTINUOUS
 62
       7
  5
32B
 10
27.45017334
 20
-45.98548364
 30
0.0
  0
VERTEX
  8
0
  6
CONTINUOUS
 62
       7
  5
32C
 10
27.34470828
 20
-46.24753778
 30
0.0
  0
VERTEX
  8
0
  6
CONTINUOUS
 62
       7
  5
32D
 10
27.25407292
 20
-46.5231451
 30
0.0
  0
VERTEX
  8
0
  6
CONTINUOUS
 62
       7
  5
32E
 10
27.17895704
 20
-46.81020807
 30
0.0
  0
VERTEX
  8
0
  6
CONTINUOUS
 62
       7
  5
32F
 10
27.11993233
 20
-47.10654197
 30
0.0
  0
VERTEX
  8
0
  6
CONTINUOUS
 62
       7
  5
330
 10
27.07744799
 20
-47.40989151
 30
0.0
  0
VERTEX
  8
0
  6
CONTINUOUS
 62
       7
  5
331
 10
27.05182737
 20
-47.71794802
 30
0.0
  0
VERTEX
  8
0
  6
CONTINUOUS
 62
       7
  5
332
 10
27.04326544
 20
-48.02836701
 30
0.0
  0
VERTEX
  8
0
  6
CONTINUOUS
 62
       7
  5
333
 10
27.05182737
 20
-48.33878599
 30
0.0
  0
VERTEX
  8
0
  6
CONTINUOUS
 62
       7
  5
334
 10
27.07744799
 20
-48.64684251
 30
0.0
  0
VERTEX
  8
0
  6
CONTINUOUS
 62
       7
  5
335
 10
27.11993233
 20
-48.95019205
 30
0.0
  0
VERTEX
  8
0
  6
CONTINUOUS
 62
       7
  5
336
 10
27.17895704
 20
-49.24652594
 30
0.0
  0
VERTEX
  8
0
  6
CONTINUOUS
 62
       7
  5
337
 10
27.25407292
 20
-49.53358891
 30
0.0
  0
VERTEX
  8
0
  6
CONTINUOUS
 62
       7
  5
338
 10
27.34470828
 20
-49.80919623
 30
0.0
  0
VERTEX
  8
0
  6
CONTINUOUS
 62
       7
  5
339
 10
27.45017334
 20
-50.07125037
 30
0.0
  0
VERTEX
  8
0
  6
CONTINUOUS
 62
       7
  5
33A
 10
27.56966544
 20
-50.31775693
 30
0.0
  0
VERTEX
  8
0
  6
CONTINUOUS
 62
       7
  5
33B
 10
27.70227518
 20
-50.54683985
 30
0.0
  0
VERTEX
  8
0
  6
CONTINUOUS
 62
       7
  5
33C
 10
27.84699332
 20
-50.75675567
 30
0.0
  0
VERTEX
  8
0
  6
CONTINUOUS
 62
       7
  5
33D
 10
28.00271846
 20
-50.94590681
 30
0.0
  0
VERTEX
  8
0
  6
CONTINUOUS
 62
       7
  5
33E
 10
28.16826544
 20
-51.11285371
 30
0.0
  0
VERTEX
  8
0
  6
CONTINUOUS
 62
       7
  5
33F
 10
28.34237435
 20
-51.2563258
 30
0.0
  0
VERTEX
  8
0
  6
CONTINUOUS
 62
       7
  5
340
 10
28.52372012
 20
-51.37523117
 30
0.0
  0
VERTEX
  8
0
  6
CONTINUOUS
 62
       7
  5
341
 10
28.71092259
 20
-51.46866489
 30
0.0
  0
VERTEX
  8
0
  6
CONTINUOUS
 62
       7
  5
342
 10
28.90255704
 20
-51.53591587
 30
0.0
  0
VERTEX
  8
0
  6
CONTINUOUS
 62
       7
  5
343
 10
29.09716502
 20
-51.57647228
 30
0.0
  0
VERTEX
  8
0
  6
CONTINUOUS
 62
       7
  5
344
 10
29.29326544
 20
-51.59002546
 30
0.0
  0
SEQEND
  8
0
  6
CONTINUOUS
 62
       7
  5
345
  0
POLYLINE
  8
0
  6
CONTINUOUS
 62
       7
  5
E2
 66
       1
 10
0.0
 20
0.0
 30
0.0
  0
VERTEX
  8
0
  6
CONTINUOUS
 62
       7
  5
346
 10
29.10908215
 20
-44.47866183
 30
0.0
  0
VERTEX
  8
0
  6
CONTINUOUS
 62
       7
  5
347
 10
29.35861842
 20
-44.25714224
 30
0.0
  0
VERTEX
  8
0
  6
CONTINUOUS
 62
       7
  5
348
 10
29.62091192
 20
-44.10566108
 30
0.0
  0
VERTEX
  8
0
  6
CONTINUOUS
 62
       7
  5
349
 10
29.89107525
 20
-44.02704092
 30
0.0
  0
VERTEX
  8
0
  6
CONTINUOUS
 62
       7
  5
34A
 10
30.16407438
 20
-44.02274674
 30
0.0
  0
VERTEX
  8
0
  6
CONTINUOUS
 62
       7
  5
34B
 10
30.43482245
 20
-44.09285853
 30
0.0
  0
VERTEX
  8
0
  6
CONTINUOUS
 62
       7
  5
34C
 10
30.69827452
 20
-44.23606989
 30
0.0
  0
VERTEX
  8
0
  6
CONTINUOUS
 62
       7
  5
34D
 10
30.94952162
 20
-44.44971232
 30
0.0
  0
VERTEX
  8
0
  6
CONTINUOUS
 62
       7
  5
34E
 10
31.1838822
 20
-44.72980496
 30
0.0
  0
VERTEX
  8
0
  6
CONTINUOUS
 62
       7
  5
34F
 10
31.39698934
 20
-45.07112876
 30
0.0
  0
VERTEX
  8
0
  6
CONTINUOUS
 62
       7
  5
350
 10
31.58487215
 20
-45.46732374
 30
0.0
  0
VERTEX
  8
0
  6
CONTINUOUS
 62
       7
  5
351
 10
31.74402977
 20
-45.91100749
 30
0.0
  0
VERTEX
  8
0
  6
CONTINUOUS
 62
       7
  5
352
 10
31.87149657
 20
-46.39391271
 30
0.0
  0
VERTEX
  8
0
  6
CONTINUOUS
 62
       7
  5
353
 10
31.96489742
 20
-46.90704131
 30
0.0
  0
VERTEX
  8
0
  6
CONTINUOUS
 62
       7
  5
354
 10
32.02249195
 20
-47.44083201
 30
0.0
  0
VERTEX
  8
0
  6
CONTINUOUS
 62
       7
  5
355
 10
32.04320699
 20
-47.98533854
 30
0.0
  0
VERTEX
  8
0
  6
CONTINUOUS
 62
       7
  5
356
 10
32.02665655
 20
-48.53041495
 30
0.0
  0
VERTEX
  8
0
  6
CONTINUOUS
 62
       7
  5
357
 10
31.97314903
 20
-49.06590468
 30
0.0
  0
VERTEX
  8
0
  6
CONTINUOUS
 62
       7
  5
358
 10
31.88368143
 20
-49.58182979
 30
0.0
  0
VERTEX
  8
0
  6
CONTINUOUS
 62
       7
  5
359
 10
31.75992084
 20
-50.06857691
 30
0.0
  0
VERTEX
  8
0
  6
CONTINUOUS
 62
       7
  5
35A
 10
31.60417333
 20
-50.51707634
 30
0.0
  0
VERTEX
  8
0
  6
CONTINUOUS
 62
       7
  5
35B
 10
31.41934097
 20
-50.91897106
 30
0.0
  0
VERTEX
  8
0
  6
CONTINUOUS
 62
       7
  5
35C
 10
31.20886781
 20
-51.26677246
 30
0.0
  0
VERTEX
  8
0
  6
CONTINUOUS
 62
       7
  5
35D
 10
30.97667565
 20
-51.55399985
 30
0.0
  0
VERTEX
  8
0
  6
CONTINUOUS
 62
       7
  5
35E
 10
30.72709099
 20
-51.77530124
 30
0.0
  0
VERTEX
  8
0
  6
CONTINUOUS
 62
       7
  5
35F
 10
30.46476441
 20
-51.92655306
 30
0.0
  0
VERTEX
  8
0
  6
CONTINUOUS
 62
       7
  5
360
 10
30.19458393
 20
-52.00493699
 30
0.0
  0
VERTEX
  8
0
  6
CONTINUOUS
 62
       7
  5
361
 10
29.92158388
 20
-52.00899249
 30
0.0
  0
VERTEX
  8
0
  6
CONTINUOUS
 62
       7
  5
362
 10
29.65085116
 20
-51.93864398
 30
0.0
  0
VERTEX
  8
0
  6
CONTINUOUS
 62
       7
  5
363
 10
29.38743041
 20
-51.79520229
 30
0.0
  0
VERTEX
  8
0
  6
CONTINUOUS
 62
       7
  5
364
 10
29.13623002
 20
-51.58134021
 30
0.0
  0
SEQEND
  8
0
  6
CONTINUOUS
 62
       7
  5
365
  0
LINE
  8
0
  6
CONTINUOUS
 62
       7
  5
E3
 10
71.19224695
 20
-79.50720763
 30
0.0
 11
16.33029072
 21
-79.50720763
 31
0.0
  0
LINE
  8
0
  6
CONTINUOUS
 62
       7
  5
E4
 10
24.89188869
 20
-79.50720763
 30
0.0
 11
23.89176848
 21
-78.50708742
 31
0.0
  0
LINE
  8
0
  6
CONTINUOUS
 62
       2
  5
E5
 10
25.82562757
 20
-48.01592262
 30
0.0
 11
33.57773735
 21
-48.01592262
 31
0.0
  0
LINE
  8
0
  6
CONTINUOUS
 62
       7
  5
E6
 10
23.89176848
 20
-78.50708742
 30
0.0
 11
61.44224597
 21
-78.50708742
 31
0.0
  0
LINE
  8
0
  6
CONTINUOUS
 62
       7
  5
E7
 10
65.89681716
 20
-54.01664386
 30
0.0
 11
23.89176848
 21
-54.01664386
 31
0.0
  0
LINE
  8
0
  6
CONTINUOUS
 62
       7
  5
E8
 10
5.89681716
 20
-75.81266456
 30
0.0
 11
5.89681716
 21
-12.51165528
 31
0.0
  0
LINE
  8
0
  6
CONTINUOUS
 62
       7
  5
E9
 10
-36.10823152
 20
-78.50708742
 30
0.0
 11
-36.10823152
 21
-12.51165528
 31
0.0
  0
LINE
  8
0
  6
CONTINUOUS
 62
       2
  5
EA
 10
-16.9000361
 20
20.1225613
 30
0.0
 11
-16.9000361
 21
-5.45853509
 31
0.0
  0
LINE
  8
0
  6
CONTINUOUS
 62
       2
  5
EB
 10
-13.29549924
 20
20.42426262
 30
0.0
 11
-13.29549924
 21
-6.55418726
 31
0.0
  0
LINE
  8
0
  6
CONTINUOUS
 62
       7
  5
EC
 10
-10.19909092
 20
-4.90276949
 30
0.0
 11
-19.99644441
 21
-4.90276949
 31
0.0
  0
LINE
  8
0
  6
CONTINUOUS
 62
       7
  5
ED
 10
-17.99568827
 20
10.18229666
 30
0.0
 11
-17.99568827
 21
3.57662559
 31
0.0
  0
LINE
  8
0
  6
CONTINUOUS
 62
       7
  5
EE
 10
-15.80438393
 20
10.18229666
 30
0.0
 11
-15.80438393
 21
3.57662559
 31
0.0
  0
LINE
  8
0
  6
CONTINUOUS
 62
       7
  5
EF
 10
-17.99568827
 20
2.06811897
 30
0.0
 11
-17.99568827
 21
-4.90276949
 31
0.0
  0
LINE
  8
0
  6
CONTINUOUS
 62
       7
  5
F0
 10
-15.80438393
 20
2.06811897
 30
0.0
 11
-15.80438393
 21
-4.90276949
 31
0.0
  0
LINE
  8
0
  6
CONTINUOUS
 62
       7
  5
F1
 10
-17.99568827
 20
10.18229666
 30
0.0
 11
-15.80438393
 21
10.18229666
 31
0.0
  0
LINE
  8
0
  6
CONTINUOUS
 62
       7
  5
F2
 10
-17.20173742
 20
19.01103011
 30
0.0
 11
-17.20173742
 21
10.18229666
 31
0.0
  0
LINE
  8
0
  6
CONTINUOUS
 62
       7
  5
F3
 10
-16.59833478
 20
19.01103011
 30
0.0
 11
-16.59833478
 21
10.18229666
 31
0.0
  0
LINE
  8
0
  6
CONTINUOUS
 62
       7
  5
F4
 10
-17.20173742
 20
-0.98896989
 30
0.0
 11
-16.59833478
 21
-0.98896989
 31
0.0
  0
LINE
  8
0
  6
CONTINUOUS
 62
       7
  5
F5
 10
-12.19984707
 20
10.18229666
 30
0.0
 11
-12.19984707
 21
3.57662559
 31
0.0
  0
LINE
  8
0
  6
CONTINUOUS
 62
       7
  5
F6
 10
-14.40703043
 20
10.18229666
 30
0.0
 11
-14.40703043
 21
3.57662559
 31
0.0
  0
LINE
  8
0
  6
CONTINUOUS
 62
       7
  5
F7
 10
-12.19984707
 20
2.06811897
 30
0.0
 11
-12.19984707
 21
-4.90276949
 31
0.0
  0
LINE
  8
0
  6
CONTINUOUS
 62
       7
  5
F8
 10
-14.40703043
 20
2.06811897
 30
0.0
 11
-14.40703043
 21
-4.90276949
 31
0.0
  0
LINE
  8
0
  6
CONTINUOUS
 62
       7
  5
F9
 10
-12.19984707
 20
10.18229666
 30
0.0
 11
-14.40703043
 21
10.18229666
 31
0.0
  0
LINE
  8
0
  6
CONTINUOUS
 62
       7
  5
FA
 10
-12.99379792
 20
19.01103011
 30
0.0
 11
-12.99379792
 21
10.18229666
 31
0.0
  0
LINE
  8
0
  6
CONTINUOUS
 62
       7
  5
FB
 10
-13.59720056
 20
19.01103011
 30
0.0
 11
-13.59720056
 21
10.18229666
 31
0.0
  0
LINE
  8
0
  6
CONTINUOUS
 62
       7
  5
FC
 10
-12.99379792
 20
-0.98896989
 30
0.0
 11
-13.59720056
 21
-0.98896989
 31
0.0
  0
ARC
  8
0
  6
CONTINUOUS
 62
       7
  5
FD
 10
-16.9000361
 20
3.57662559
 30
0.0
 40
1.09565384
 50
180.0
 51
0.0
  0
ARC
  8
0
  6
CONTINUOUS
 62
       7
  5
FE
 10
-16.9000361
 20
2.07795747
 30
0.0
 40
1.09569634
 50
180.51447824
 51
359.48552176
  0
ARC
  8
0
  6
CONTINUOUS
 62
       7
  5
FF
 10
-13.30343875
 20
3.57662559
 30
0.0
 40
1.10359333
 50
0.0
 51
180.0
  0
ARC
  8
0
  6
CONTINUOUS
 62
       7
  5
100
 10
-13.30343875
 20
2.07795719
 30
0.0
 40
1.10363553
 50
359.48923727
 51
180.51076273
  0
ARC
  8
0
  6
CONTINUOUS
 62
       7
  5
101
 10
-20.00811464
 20
-6.49487998
 30
0.0
 40
1.59215326
 50
89.58002727
 51
180.41997273
  0
ARC
  8
0
  6
CONTINUOUS
 62
       7
  5
102
 10
-10.19851643
 20
-6.50597572
 30
0.0
 40
1.60320633
 50
359.97946873
 51
90.02053127
  0
ARC
  8
0
  6
CONTINUOUS
 62
       7
  5
103
 10
-30.10471163
 20
-12.51445393
 30
0.0
 40
6.00352054
 50
90.02670948
 51
179.97329052
  0
ARC
  8
0
  6
CONTINUOUS
 62
       7
  5
104
 10
-0.09762384
 20
-12.50537504
 30
0.0
 40
5.99444429
 50
359.93997253
 51
90.06002747
  0
LINE
  8
0
  6
CONTINUOUS
 62
       7
  5
105
 10
-0.10390408
 20
-6.51093404
 30
0.0
 11
-30.10751028
 21
-6.51093404
 31
0.0
  0
LINE
  8
0
  6
CONTINUOUS
 62
       7
  5
106
 10
-9.10498594
 20
-6.41092202
 30
0.0
 11
-9.10498594
 21
-6.51093404
 31
0.0
  0
LINE
  8
0
  6
CONTINUOUS
 62
       7
  5
107
 10
11.19224695
 20
-83.5076885
 30
0.0
 11
11.19224695
 21
-79.50720761
 31
0.0
  0
LINE
  8
0
  6
CONTINUOUS
 62
       7
  5
108
 10
-43.66970928
 20
-83.5076885
 30
0.0
 11
-43.66970928
 21
-79.50720761
 31
0.0
  0
LINE
  8
0
  6
CONTINUOUS
 62
       2
  5
109
 10
-38.66971012
 20
-86.9662368
 30
0.0
 11
-38.66971012
 21
-73.59552572
 31
0.0
  0
LINE
  8
0
  6
CONTINUOUS
 62
       2
  5
10A
 10
6.19224597
 20
-86.9662368
 30
0.0
 11
6.19224597
 21
-73.59552572
 31
0.0
  0
ARC
  8
0
  6
CONTINUOUS
 62
       7
  5
10B
 10
2.50891258
 20
-77.93318247
 30
0.0
 40
1.0666666
 50
122.08995858
 51
180.00001799
  0
LINE
  8
0
  6
CONTINUOUS
 62
       7
  5
10C
 10
1.44224597
 20
-77.93318247
 30
0.0
 11
1.44224597
 21
-79.50720763
 31
0.0
  0
ARC
  8
0
  6
CONTINUOUS
 62
       7
  5
10D
 10
9.87557937
 20
-77.93318247
 30
0.0
 40
1.0666666
 50
359.99998201
 51
57.91004142
  0
LINE
  8
0
  6
CONTINUOUS
 62
       7
  5
10E
 10
10.94224597
 20
-77.93318247
 30
0.0
 11
10.94224597
 21
-79.50720763
 31
0.0
  0
LINE
  8
0
  6
CONTINUOUS
 62
       7
  5
10F
 10
6.19224591
 20
-75.8072078
 30
0.0
 11
4.34192606
 21
-77.65752765
 31
0.0
  0
LINE
  8
0
  6
CONTINUOUS
 62
       7
  5
110
 10
6.19224603
 20
-75.8072078
 30
0.0
 11
8.04256589
 21
-77.65752765
 31
0.0
  0
ARC
  8
0
  6
CONTINUOUS
 62
       7
  5
111
 10
6.19224597
 20
-83.80720782
 30
0.0
 40
8.0
 50
57.91004142
 51
122.08988664
  0
LINE
  8
0
  6
CONTINUOUS
 62
       7
  5
112
 10
-43.41971012
 20
-77.93318247
 30
0.0
 11
-43.41971012
 21
-79.50720763
 31
0.0
  0
LINE
  8
0
  6
CONTINUOUS
 62
       7
  5
113
 10
-38.66971018
 20
-75.8072078
 30
0.0
 11
-40.52003003
 21
-77.65752765
 31
0.0
  0
LINE
  8
0
  6
CONTINUOUS
 62
       7
  5
114
 10
-38.66971006
 20
-75.8072078
 30
0.0
 11
-36.8193902
 21
-77.65752765
 31
0.0
  0
ARC
  8
0
  6
CONTINUOUS
 62
       7
  5
115
 10
-42.35304351
 20
-77.93318247
 30
0.0
 40
1.0666666
 50
122.08995858
 51
180.00001799
  0
ARC
  8
0
  6
CONTINUOUS
 62
       7
  5
116
 10
-38.66971012
 20
-83.80720782
 30
0.0
 40
8.0
 50
71.32589733
 51
122.08988664
  0
LINE
  8
0
  6
CONTINUOUS
 62
       7
  5
117
 10
-32.09263584
 20
-46.78507201
 30
0.0
 11
-30.64160689
 21
-49.53800052
 31
0.0
  0
LINE
  8
0
  6
CONTINUOUS
 62
       7
  5
118
 10
-30.77771638
 20
-46.72561367
 30
0.0
 11
-32.18754688
 21
-49.45638145
 31
0.0
  0
POLYLINE
  8
0
  6
CONTINUOUS
 62
       7
  5
119
 66
       1
 10
0.0
 20
0.0
 30
0.0
 70
       1
  0
VERTEX
  8
0
  6
CONTINUOUS
 62
       7
  5
366
 10
-30.70673456
 20
-51.59002546
 30
0.0
  0
VERTEX
  8
0
  6
CONTINUOUS
 62
       7
  5
367
 10
-30.51063414
 20
-51.57647228
 30
0.0
  0
VERTEX
  8
0
  6
CONTINUOUS
 62
       7
  5
368
 10
-30.31602616
 20
-51.53591587
 30
0.0
  0
VERTEX
  8
0
  6
CONTINUOUS
 62
       7
  5
369
 10
-30.12439171
 20
-51.46866489
 30
0.0
  0
VERTEX
  8
0
  6
CONTINUOUS
 62
       7
  5
36A
 10
-29.93718924
 20
-51.37523117
 30
0.0
  0
VERTEX
  8
0
  6
CONTINUOUS
 62
       7
  5
36B
 10
-29.75584347
 20
-51.2563258
 30
0.0
  0
VERTEX
  8
0
  6
CONTINUOUS
 62
       7
  5
36C
 10
-29.58173456
 20
-51.11285371
 30
0.0
  0
VERTEX
  8
0
  6
CONTINUOUS
 62
       7
  5
36D
 10
-29.41618758
 20
-50.94590681
 30
0.0
  0
VERTEX
  8
0
  6
CONTINUOUS
 62
       7
  5
36E
 10
-29.26046244
 20
-50.75675567
 30
0.0
  0
VERTEX
  8
0
  6
CONTINUOUS
 62
       7
  5
36F
 10
-29.1157443
 20
-50.54683985
 30
0.0
  0
VERTEX
  8
0
  6
CONTINUOUS
 62
       7
  5
370
 10
-28.98313456
 20
-50.31775693
 30
0.0
  0
VERTEX
  8
0
  6
CONTINUOUS
 62
       7
  5
371
 10
-28.86364246
 20
-50.07125037
 30
0.0
  0
VERTEX
  8
0
  6
CONTINUOUS
 62
       7
  5
372
 10
-28.7581774
 20
-49.80919623
 30
0.0
  0
VERTEX
  8
0
  6
CONTINUOUS
 62
       7
  5
373
 10
-28.66754204
 20
-49.53358891
 30
0.0
  0
VERTEX
  8
0
  6
CONTINUOUS
 62
       7
  5
374
 10
-28.59242617
 20
-49.24652594
 30
0.0
  0
VERTEX
  8
0
  6
CONTINUOUS
 62
       7
  5
375
 10
-28.53340145
 20
-48.95019205
 30
0.0
  0
VERTEX
  8
0
  6
CONTINUOUS
 62
       7
  5
376
 10
-28.49091712
 20
-48.64684251
 30
0.0
  0
VERTEX
  8
0
  6
CONTINUOUS
 62
       7
  5
377
 10
-28.46529649
 20
-48.33878599
 30
0.0
  0
VERTEX
  8
0
  6
CONTINUOUS
 62
       7
  5
378
 10
-28.45673456
 20
-48.02836701
 30
0.0
  0
VERTEX
  8
0
  6
CONTINUOUS
 62
       7
  5
379
 10
-28.46529649
 20
-47.71794802
 30
0.0
  0
VERTEX
  8
0
  6
CONTINUOUS
 62
       7
  5
37A
 10
-28.49091712
 20
-47.40989151
 30
0.0
  0
VERTEX
  8
0
  6
CONTINUOUS
 62
       7
  5
37B
 10
-28.53340145
 20
-47.10654197
 30
0.0
  0
VERTEX
  8
0
  6
CONTINUOUS
 62
       7
  5
37C
 10
-28.59242617
 20
-46.81020807
 30
0.0
  0
VERTEX
  8
0
  6
CONTINUOUS
 62
       7
  5
37D
 10
-28.66754204
 20
-46.5231451
 30
0.0
  0
VERTEX
  8
0
  6
CONTINUOUS
 62
       7
  5
37E
 10
-28.7581774
 20
-46.24753778
 30
0.0
  0
VERTEX
  8
0
  6
CONTINUOUS
 62
       7
  5
37F
 10
-28.86364246
 20
-45.98548364
 30
0.0
  0
VERTEX
  8
0
  6
CONTINUOUS
 62
       7
  5
380
 10
-28.98313456
 20
-45.73897708
 30
0.0
  0
VERTEX
  8
0
  6
CONTINUOUS
 62
       7
  5
381
 10
-29.1157443
 20
-45.50989416
 30
0.0
  0
VERTEX
  8
0
  6
CONTINUOUS
 62
       7
  5
382
 10
-29.26046244
 20
-45.29997834
 30
0.0
  0
VERTEX
  8
0
  6
CONTINUOUS
 62
       7
  5
383
 10
-29.41618758
 20
-45.1108272
 30
0.0
  0
VERTEX
  8
0
  6
CONTINUOUS
 62
       7
  5
384
 10
-29.58173456
 20
-44.9438803
 30
0.0
  0
VERTEX
  8
0
  6
CONTINUOUS
 62
       7
  5
385
 10
-29.75584347
 20
-44.80040821
 30
0.0
  0
VERTEX
  8
0
  6
CONTINUOUS
 62
       7
  5
386
 10
-29.93718924
 20
-44.68150284
 30
0.0
  0
VERTEX
  8
0
  6
CONTINUOUS
 62
       7
  5
387
 10
-30.12439171
 20
-44.58806912
 30
0.0
  0
VERTEX
  8
0
  6
CONTINUOUS
 62
       7
  5
388
 10
-30.31602616
 20
-44.52081814
 30
0.0
  0
VERTEX
  8
0
  6
CONTINUOUS
 62
       7
  5
389
 10
-30.51063414
 20
-44.48026174
 30
0.0
  0
VERTEX
  8
0
  6
CONTINUOUS
 62
       7
  5
38A
 10
-30.70673456
 20
-44.46670855
 30
0.0
  0
VERTEX
  8
0
  6
CONTINUOUS
 62
       7
  5
38B
 10
-30.90283498
 20
-44.48026174
 30
0.0
  0
VERTEX
  8
0
  6
CONTINUOUS
 62
       7
  5
38C
 10
-31.09744296
 20
-44.52081814
 30
0.0
  0
VERTEX
  8
0
  6
CONTINUOUS
 62
       7
  5
38D
 10
-31.28907741
 20
-44.58806912
 30
0.0
  0
VERTEX
  8
0
  6
CONTINUOUS
 62
       7
  5
38E
 10
-31.47627988
 20
-44.68150284
 30
0.0
  0
VERTEX
  8
0
  6
CONTINUOUS
 62
       7
  5
38F
 10
-31.65762565
 20
-44.80040821
 30
0.0
  0
VERTEX
  8
0
  6
CONTINUOUS
 62
       7
  5
390
 10
-31.83173456
 20
-44.9438803
 30
0.0
  0
VERTEX
  8
0
  6
CONTINUOUS
 62
       7
  5
391
 10
-31.99728154
 20
-45.1108272
 30
0.0
  0
VERTEX
  8
0
  6
CONTINUOUS
 62
       7
  5
392
 10
-32.15300668
 20
-45.29997834
 30
0.0
  0
VERTEX
  8
0
  6
CONTINUOUS
 62
       7
  5
393
 10
-32.29772482
 20
-45.50989416
 30
0.0
  0
VERTEX
  8
0
  6
CONTINUOUS
 62
       7
  5
394
 10
-32.43033456
 20
-45.73897708
 30
0.0
  0
VERTEX
  8
0
  6
CONTINUOUS
 62
       7
  5
395
 10
-32.54982666
 20
-45.98548364
 30
0.0
  0
VERTEX
  8
0
  6
CONTINUOUS
 62
       7
  5
396
 10
-32.65529172
 20
-46.24753778
 30
0.0
  0
VERTEX
  8
0
  6
CONTINUOUS
 62
       7
  5
397
 10
-32.74592708
 20
-46.5231451
 30
0.0
  0
VERTEX
  8
0
  6
CONTINUOUS
 62
       7
  5
398
 10
-32.82104296
 20
-46.81020807
 30
0.0
  0
VERTEX
  8
0
  6
CONTINUOUS
 62
       7
  5
399
 10
-32.88006767
 20
-47.10654197
 30
0.0
  0
VERTEX
  8
0
  6
CONTINUOUS
 62
       7
  5
39A
 10
-32.92255201
 20
-47.40989151
 30
0.0
  0
VERTEX
  8
0
  6
CONTINUOUS
 62
       7
  5
39B
 10
-32.94817263
 20
-47.71794802
 30
0.0
  0
VERTEX
  8
0
  6
CONTINUOUS
 62
       7
  5
39C
 10
-32.95673456
 20
-48.02836701
 30
0.0
  0
VERTEX
  8
0
  6
CONTINUOUS
 62
       7
  5
39D
 10
-32.94817263
 20
-48.33878599
 30
0.0
  0
VERTEX
  8
0
  6
CONTINUOUS
 62
       7
  5
39E
 10
-32.92255201
 20
-48.64684251
 30
0.0
  0
VERTEX
  8
0
  6
CONTINUOUS
 62
       7
  5
39F
 10
-32.88006767
 20
-48.95019205
 30
0.0
  0
VERTEX
  8
0
  6
CONTINUOUS
 62
       7
  5
3A0
 10
-32.82104296
 20
-49.24652594
 30
0.0
  0
VERTEX
  8
0
  6
CONTINUOUS
 62
       7
  5
3A1
 10
-32.74592708
 20
-49.53358891
 30
0.0
  0
VERTEX
  8
0
  6
CONTINUOUS
 62
       7
  5
3A2
 10
-32.65529172
 20
-49.80919623
 30
0.0
  0
VERTEX
  8
0
  6
CONTINUOUS
 62
       7
  5
3A3
 10
-32.54982666
 20
-50.07125037
 30
0.0
  0
VERTEX
  8
0
  6
CONTINUOUS
 62
       7
  5
3A4
 10
-32.43033456
 20
-50.31775693
 30
0.0
  0
VERTEX
  8
0
  6
CONTINUOUS
 62
       7
  5
3A5
 10
-32.29772482
 20
-50.54683985
 30
0.0
  0
VERTEX
  8
0
  6
CONTINUOUS
 62
       7
  5
3A6
 10
-32.15300668
 20
-50.75675567
 30
0.0
  0
VERTEX
  8
0
  6
CONTINUOUS
 62
       7
  5
3A7
 10
-31.99728154
 20
-50.94590681
 30
0.0
  0
VERTEX
  8
0
  6
CONTINUOUS
 62
       7
  5
3A8
 10
-31.83173456
 20
-51.11285371
 30
0.0
  0
VERTEX
  8
0
  6
CONTINUOUS
 62
       7
  5
3A9
 10
-31.65762565
 20
-51.2563258
 30
0.0
  0
VERTEX
  8
0
  6
CONTINUOUS
 62
       7
  5
3AA
 10
-31.47627988
 20
-51.37523117
 30
0.0
  0
VERTEX
  8
0
  6
CONTINUOUS
 62
       7
  5
3AB
 10
-31.28907741
 20
-51.46866489
 30
0.0
  0
VERTEX
  8
0
  6
CONTINUOUS
 62
       7
  5
3AC
 10
-31.09744296
 20
-51.53591587
 30
0.0
  0
VERTEX
  8
0
  6
CONTINUOUS
 62
       7
  5
3AD
 10
-30.90283498
 20
-51.57647228
 30
0.0
  0
VERTEX
  8
0
  6
CONTINUOUS
 62
       7
  5
3AE
 10
-30.70673456
 20
-51.59002546
 30
0.0
  0
SEQEND
  8
0
  6
CONTINUOUS
 62
       7
  5
3AF
  0
POLYLINE
  8
0
  6
CONTINUOUS
 62
       7
  5
11A
 66
       1
 10
0.0
 20
0.0
 30
0.0
  0
VERTEX
  8
0
  6
CONTINUOUS
 62
       7
  5
3B0
 10
-30.89091785
 20
-44.47866183
 30
0.0
  0
VERTEX
  8
0
  6
CONTINUOUS
 62
       7
  5
3B1
 10
-30.64138158
 20
-44.25714224
 30
0.0
  0
VERTEX
  8
0
  6
CONTINUOUS
 62
       7
  5
3B2
 10
-30.37908808
 20
-44.10566108
 30
0.0
  0
VERTEX
  8
0
  6
CONTINUOUS
 62
       7
  5
3B3
 10
-30.10892475
 20
-44.02704092
 30
0.0
  0
VERTEX
  8
0
  6
CONTINUOUS
 62
       7
  5
3B4
 10
-29.83592562
 20
-44.02274674
 30
0.0
  0
VERTEX
  8
0
  6
CONTINUOUS
 62
       7
  5
3B5
 10
-29.56517755
 20
-44.09285853
 30
0.0
  0
VERTEX
  8
0
  6
CONTINUOUS
 62
       7
  5
3B6
 10
-29.30172548
 20
-44.23606989
 30
0.0
  0
VERTEX
  8
0
  6
CONTINUOUS
 62
       7
  5
3B7
 10
-29.05047838
 20
-44.44971232
 30
0.0
  0
VERTEX
  8
0
  6
CONTINUOUS
 62
       7
  5
3B8
 10
-28.8161178
 20
-44.72980496
 30
0.0
  0
VERTEX
  8
0
  6
CONTINUOUS
 62
       7
  5
3B9
 10
-28.60301066
 20
-45.07112876
 30
0.0
  0
VERTEX
  8
0
  6
CONTINUOUS
 62
       7
  5
3BA
 10
-28.41512785
 20
-45.46732374
 30
0.0
  0
VERTEX
  8
0
  6
CONTINUOUS
 62
       7
  5
3BB
 10
-28.25597023
 20
-45.91100749
 30
0.0
  0
VERTEX
  8
0
  6
CONTINUOUS
 62
       7
  5
3BC
 10
-28.12850343
 20
-46.39391271
 30
0.0
  0
VERTEX
  8
0
  6
CONTINUOUS
 62
       7
  5
3BD
 10
-28.03510258
 20
-46.90704131
 30
0.0
  0
VERTEX
  8
0
  6
CONTINUOUS
 62
       7
  5
3BE
 10
-27.97750805
 20
-47.44083201
 30
0.0
  0
VERTEX
  8
0
  6
CONTINUOUS
 62
       7
  5
3BF
 10
-27.95679301
 20
-47.98533854
 30
0.0
  0
VERTEX
  8
0
  6
CONTINUOUS
 62
       7
  5
3C0
 10
-27.97334345
 20
-48.53041495
 30
0.0
  0
VERTEX
  8
0
  6
CONTINUOUS
 62
       7
  5
3C1
 10
-28.02685097
 20
-49.06590468
 30
0.0
  0
VERTEX
  8
0
  6
CONTINUOUS
 62
       7
  5
3C2
 10
-28.11631857
 20
-49.58182979
 30
0.0
  0
VERTEX
  8
0
  6
CONTINUOUS
 62
       7
  5
3C3
 10
-28.24007916
 20
-50.06857691
 30
0.0
  0
VERTEX
  8
0
  6
CONTINUOUS
 62
       7
  5
3C4
 10
-28.39582667
 20
-50.51707634
 30
0.0
  0
VERTEX
  8
0
  6
CONTINUOUS
 62
       7
  5
3C5
 10
-28.58065903
 20
-50.91897106
 30
0.0
  0
VERTEX
  8
0
  6
CONTINUOUS
 62
       7
  5
3C6
 10
-28.79113219
 20
-51.26677246
 30
0.0
  0
VERTEX
  8
0
  6
CONTINUOUS
 62
       7
  5
3C7
 10
-29.02332435
 20
-51.55399985
 30
0.0
  0
VERTEX
  8
0
  6
CONTINUOUS
 62
       7
  5
3C8
 10
-29.27290901
 20
-51.77530124
 30
0.0
  0
VERTEX
  8
0
  6
CONTINUOUS
 62
       7
  5
3C9
 10
-29.53523559
 20
-51.92655306
 30
0.0
  0
VERTEX
  8
0
  6
CONTINUOUS
 62
       7
  5
3CA
 10
-29.80541607
 20
-52.00493699
 30
0.0
  0
VERTEX
  8
0
  6
CONTINUOUS
 62
       7
  5
3CB
 10
-30.07841612
 20
-52.00899249
 30
0.0
  0
VERTEX
  8
0
  6
CONTINUOUS
 62
       7
  5
3CC
 10
-30.34914884
 20
-51.93864398
 30
0.0
  0
VERTEX
  8
0
  6
CONTINUOUS
 62
       7
  5
3CD
 10
-30.61256959
 20
-51.79520229
 30
0.0
  0
VERTEX
  8
0
  6
CONTINUOUS
 62
       7
  5
3CE
 10
-30.86376998
 20
-51.58134021
 30
0.0
  0
SEQEND
  8
0
  6
CONTINUOUS
 62
       7
  5
3CF
  0
LINE
  8
0
  6
CONTINUOUS
 62
       7
  5
11B
 10
11.19224695
 20
-79.50720763
 30
0.0
 11
-43.66970928
 21
-79.50720763
 31
0.0
  0
LINE
  8
0
  6
CONTINUOUS
 62
       7
  5
11C
 10
-35.10811131
 20
-79.50720763
 30
0.0
 11
-36.10823152
 21
-78.50708742
 31
0.0
  0
LINE
  8
0
  6
CONTINUOUS
 62
       2
  5
11D
 10
-34.17437243
 20
-48.01592262
 30
0.0
 11
-26.42226265
 21
-48.01592262
 31
0.0
  0
LINE
  8
0
  6
CONTINUOUS
 62
       7
  5
11E
 10
-36.10823152
 20
-78.50708742
 30
0.0
 11
1.44224597
 21
-78.50708742
 31
0.0
  0
LINE
  8
0
  6
CONTINUOUS
 62
       7
  5
11F
 10
5.89681716
 20
-54.01664386
 30
0.0
 11
-36.10823152
 21
-54.01664386
 31
0.0
  0
POLYLINE
  8
0
  6
CONTINUOUS
 62
       7
  5
120
 66
       1
 10
0.0
 20
0.0
 30
0.0
 70
       1
  0
VERTEX
  8
0
  6
CONTINUOUS
 62
       7
  5
3D0
 10
-90.70673456
 20
-51.59002546
 30
0.0
  0
VERTEX
  8
0
  6
CONTINUOUS
 62
       7
  5
3D1
 10
-90.51063414
 20
-51.57647228
 30
0.0
  0
VERTEX
  8
0
  6
CONTINUOUS
 62
       7
  5
3D2
 10
-90.31602616
 20
-51.53591587
 30
0.0
  0
VERTEX
  8
0
  6
CONTINUOUS
 62
       7
  5
3D3
 10
-90.12439171
 20
-51.46866489
 30
0.0
  0
VERTEX
  8
0
  6
CONTINUOUS
 62
       7
  5
3D4
 10
-89.93718924
 20
-51.37523117
 30
0.0
  0
VERTEX
  8
0
  6
CONTINUOUS
 62
       7
  5
3D5
 10
-89.75584347
 20
-51.2563258
 30
0.0
  0
VERTEX
  8
0
  6
CONTINUOUS
 62
       7
  5
3D6
 10
-89.58173456
 20
-51.11285371
 30
0.0
  0
VERTEX
  8
0
  6
CONTINUOUS
 62
       7
  5
3D7
 10
-89.41618758
 20
-50.94590681
 30
0.0
  0
VERTEX
  8
0
  6
CONTINUOUS
 62
       7
  5
3D8
 10
-89.26046244
 20
-50.75675567
 30
0.0
  0
VERTEX
  8
0
  6
CONTINUOUS
 62
       7
  5
3D9
 10
-89.1157443
 20
-50.54683985
 30
0.0
  0
VERTEX
  8
0
  6
CONTINUOUS
 62
       7
  5
3DA
 10
-88.98313456
 20
-50.31775693
 30
0.0
  0
VERTEX
  8
0
  6
CONTINUOUS
 62
       7
  5
3DB
 10
-88.86364246
 20
-50.07125037
 30
0.0
  0
VERTEX
  8
0
  6
CONTINUOUS
 62
       7
  5
3DC
 10
-88.7581774
 20
-49.80919623
 30
0.0
  0
VERTEX
  8
0
  6
CONTINUOUS
 62
       7
  5
3DD
 10
-88.66754204
 20
-49.53358891
 30
0.0
  0
VERTEX
  8
0
  6
CONTINUOUS
 62
       7
  5
3DE
 10
-88.59242617
 20
-49.24652594
 30
0.0
  0
VERTEX
  8
0
  6
CONTINUOUS
 62
       7
  5
3DF
 10
-88.53340145
 20
-48.95019205
 30
0.0
  0
VERTEX
  8
0
  6
CONTINUOUS
 62
       7
  5
3E0
 10
-88.49091712
 20
-48.64684251
 30
0.0
  0
VERTEX
  8
0
  6
CONTINUOUS
 62
       7
  5
3E1
 10
-88.46529649
 20
-48.33878599
 30
0.0
  0
VERTEX
  8
0
  6
CONTINUOUS
 62
       7
  5
3E2
 10
-88.45673456
 20
-48.02836701
 30
0.0
  0
VERTEX
  8
0
  6
CONTINUOUS
 62
       7
  5
3E3
 10
-88.46529649
 20
-47.71794802
 30
0.0
  0
VERTEX
  8
0
  6
CONTINUOUS
 62
       7
  5
3E4
 10
-88.49091712
 20
-47.40989151
 30
0.0
  0
VERTEX
  8
0
  6
CONTINUOUS
 62
       7
  5
3E5
 10
-88.53340145
 20
-47.10654197
 30
0.0
  0
VERTEX
  8
0
  6
CONTINUOUS
 62
       7
  5
3E6
 10
-88.59242617
 20
-46.81020807
 30
0.0
  0
VERTEX
  8
0
  6
CONTINUOUS
 62
       7
  5
3E7
 10
-88.66754204
 20
-46.5231451
 30
0.0
  0
VERTEX
  8
0
  6
CONTINUOUS
 62
       7
  5
3E8
 10
-88.7581774
 20
-46.24753778
 30
0.0
  0
VERTEX
  8
0
  6
CONTINUOUS
 62
       7
  5
3E9
 10
-88.86364246
 20
-45.98548364
 30
0.0
  0
VERTEX
  8
0
  6
CONTINUOUS
 62
       7
  5
3EA
 10
-88.98313456
 20
-45.73897708
 30
0.0
  0
VERTEX
  8
0
  6
CONTINUOUS
 62
       7
  5
3EB
 10
-89.1157443
 20
-45.50989416
 30
0.0
  0
VERTEX
  8
0
  6
CONTINUOUS
 62
       7
  5
3EC
 10
-89.26046244
 20
-45.29997834
 30
0.0
  0
VERTEX
  8
0
  6
CONTINUOUS
 62
       7
  5
3ED
 10
-89.41618758
 20
-45.1108272
 30
0.0
  0
VERTEX
  8
0
  6
CONTINUOUS
 62
       7
  5
3EE
 10
-89.58173456
 20
-44.9438803
 30
0.0
  0
VERTEX
  8
0
  6
CONTINUOUS
 62
       7
  5
3EF
 10
-89.75584347
 20
-44.80040821
 30
0.0
  0
VERTEX
  8
0
  6
CONTINUOUS
 62
       7
  5
3F0
 10
-89.93718924
 20
-44.68150284
 30
0.0
  0
VERTEX
  8
0
  6
CONTINUOUS
 62
       7
  5
3F1
 10
-90.12439171
 20
-44.58806912
 30
0.0
  0
VERTEX
  8
0
  6
CONTINUOUS
 62
       7
  5
3F2
 10
-90.31602616
 20
-44.52081814
 30
0.0
  0
VERTEX
  8
0
  6
CONTINUOUS
 62
       7
  5
3F3
 10
-90.51063414
 20
-44.48026174
 30
0.0
  0
VERTEX
  8
0
  6
CONTINUOUS
 62
       7
  5
3F4
 10
-90.70673456
 20
-44.46670855
 30
0.0
  0
VERTEX
  8
0
  6
CONTINUOUS
 62
       7
  5
3F5
 10
-90.90283498
 20
-44.48026174
 30
0.0
  0
VERTEX
  8
0
  6
CONTINUOUS
 62
       7
  5
3F6
 10
-91.09744296
 20
-44.52081814
 30
0.0
  0
VERTEX
  8
0
  6
CONTINUOUS
 62
       7
  5
3F7
 10
-91.28907741
 20
-44.58806912
 30
0.0
  0
VERTEX
  8
0
  6
CONTINUOUS
 62
       7
  5
3F8
 10
-91.47627988
 20
-44.68150284
 30
0.0
  0
VERTEX
  8
0
  6
CONTINUOUS
 62
       7
  5
3F9
 10
-91.65762565
 20
-44.80040821
 30
0.0
  0
VERTEX
  8
0
  6
CONTINUOUS
 62
       7
  5
3FA
 10
-91.83173456
 20
-44.9438803
 30
0.0
  0
VERTEX
  8
0
  6
CONTINUOUS
 62
       7
  5
3FB
 10
-91.99728154
 20
-45.1108272
 30
0.0
  0
VERTEX
  8
0
  6
CONTINUOUS
 62
       7
  5
3FC
 10
-92.15300668
 20
-45.29997834
 30
0.0
  0
VERTEX
  8
0
  6
CONTINUOUS
 62
       7
  5
3FD
 10
-92.29772482
 20
-45.50989416
 30
0.0
  0
VERTEX
  8
0
  6
CONTINUOUS
 62
       7
  5
3FE
 10
-92.43033456
 20
-45.73897708
 30
0.0
  0
VERTEX
  8
0
  6
CONTINUOUS
 62
       7
  5
3FF
 10
-92.54982666
 20
-45.98548364
 30
0.0
  0
VERTEX
  8
0
  6
CONTINUOUS
 62
       7
  5
400
 10
-92.65529172
 20
-46.24753778
 30
0.0
  0
VERTEX
  8
0
  6
CONTINUOUS
 62
       7
  5
401
 10
-92.74592708
 20
-46.5231451
 30
0.0
  0
VERTEX
  8
0
  6
CONTINUOUS
 62
       7
  5
402
 10
-92.82104296
 20
-46.81020807
 30
0.0
  0
VERTEX
  8
0
  6
CONTINUOUS
 62
       7
  5
403
 10
-92.88006767
 20
-47.10654197
 30
0.0
  0
VERTEX
  8
0
  6
CONTINUOUS
 62
       7
  5
404
 10
-92.92255201
 20
-47.40989151
 30
0.0
  0
VERTEX
  8
0
  6
CONTINUOUS
 62
       7
  5
405
 10
-92.94817263
 20
-47.71794802
 30
0.0
  0
VERTEX
  8
0
  6
CONTINUOUS
 62
       7
  5
406
 10
-92.95673456
 20
-48.02836701
 30
0.0
  0
VERTEX
  8
0
  6
CONTINUOUS
 62
       7
  5
407
 10
-92.94817263
 20
-48.33878599
 30
0.0
  0
VERTEX
  8
0
  6
CONTINUOUS
 62
       7
  5
408
 10
-92.92255201
 20
-48.64684251
 30
0.0
  0
VERTEX
  8
0
  6
CONTINUOUS
 62
       7
  5
409
 10
-92.88006767
 20
-48.95019205
 30
0.0
  0
VERTEX
  8
0
  6
CONTINUOUS
 62
       7
  5
40A
 10
-92.82104296
 20
-49.24652594
 30
0.0
  0
VERTEX
  8
0
  6
CONTINUOUS
 62
       7
  5
40B
 10
-92.74592708
 20
-49.53358891
 30
0.0
  0
VERTEX
  8
0
  6
CONTINUOUS
 62
       7
  5
40C
 10
-92.65529172
 20
-49.80919623
 30
0.0
  0
VERTEX
  8
0
  6
CONTINUOUS
 62
       7
  5
40D
 10
-92.54982666
 20
-50.07125037
 30
0.0
  0
VERTEX
  8
0
  6
CONTINUOUS
 62
       7
  5
40E
 10
-92.43033456
 20
-50.31775693
 30
0.0
  0
VERTEX
  8
0
  6
CONTINUOUS
 62
       7
  5
40F
 10
-92.29772482
 20
-50.54683985
 30
0.0
  0
VERTEX
  8
0
  6
CONTINUOUS
 62
       7
  5
410
 10
-92.15300668
 20
-50.75675567
 30
0.0
  0
VERTEX
  8
0
  6
CONTINUOUS
 62
       7
  5
411
 10
-91.99728154
 20
-50.94590681
 30
0.0
  0
VERTEX
  8
0
  6
CONTINUOUS
 62
       7
  5
412
 10
-91.83173456
 20
-51.11285371
 30
0.0
  0
VERTEX
  8
0
  6
CONTINUOUS
 62
       7
  5
413
 10
-91.65762565
 20
-51.2563258
 30
0.0
  0
VERTEX
  8
0
  6
CONTINUOUS
 62
       7
  5
414
 10
-91.47627988
 20
-51.37523117
 30
0.0
  0
VERTEX
  8
0
  6
CONTINUOUS
 62
       7
  5
415
 10
-91.28907741
 20
-51.46866489
 30
0.0
  0
VERTEX
  8
0
  6
CONTINUOUS
 62
       7
  5
416
 10
-91.09744296
 20
-51.53591587
 30
0.0
  0
VERTEX
  8
0
  6
CONTINUOUS
 62
       7
  5
417
 10
-90.90283498
 20
-51.57647228
 30
0.0
  0
VERTEX
  8
0
  6
CONTINUOUS
 62
       7
  5
418
 10
-90.70673456
 20
-51.59002546
 30
0.0
  0
SEQEND
  8
0
  6
CONTINUOUS
 62
       7
  5
419
  0
POLYLINE
  8
0
  6
CONTINUOUS
 62
       7
  5
121
 66
       1
 10
0.0
 20
0.0
 30
0.0
  0
VERTEX
  8
0
  6
CONTINUOUS
 62
       7
  5
41A
 10
-90.89091785
 20
-44.47866183
 30
0.0
  0
VERTEX
  8
0
  6
CONTINUOUS
 62
       7
  5
41B
 10
-90.64138158
 20
-44.25714224
 30
0.0
  0
VERTEX
  8
0
  6
CONTINUOUS
 62
       7
  5
41C
 10
-90.37908808
 20
-44.10566108
 30
0.0
  0
VERTEX
  8
0
  6
CONTINUOUS
 62
       7
  5
41D
 10
-90.10892475
 20
-44.02704092
 30
0.0
  0
VERTEX
  8
0
  6
CONTINUOUS
 62
       7
  5
41E
 10
-89.83592562
 20
-44.02274674
 30
0.0
  0
VERTEX
  8
0
  6
CONTINUOUS
 62
       7
  5
41F
 10
-89.56517755
 20
-44.09285853
 30
0.0
  0
VERTEX
  8
0
  6
CONTINUOUS
 62
       7
  5
420
 10
-89.30172548
 20
-44.23606989
 30
0.0
  0
VERTEX
  8
0
  6
CONTINUOUS
 62
       7
  5
421
 10
-89.05047838
 20
-44.44971232
 30
0.0
  0
VERTEX
  8
0
  6
CONTINUOUS
 62
       7
  5
422
 10
-88.8161178
 20
-44.72980496
 30
0.0
  0
VERTEX
  8
0
  6
CONTINUOUS
 62
       7
  5
423
 10
-88.60301066
 20
-45.07112876
 30
0.0
  0
VERTEX
  8
0
  6
CONTINUOUS
 62
       7
  5
424
 10
-88.41512785
 20
-45.46732374
 30
0.0
  0
VERTEX
  8
0
  6
CONTINUOUS
 62
       7
  5
425
 10
-88.25597023
 20
-45.91100749
 30
0.0
  0
VERTEX
  8
0
  6
CONTINUOUS
 62
       7
  5
426
 10
-88.12850343
 20
-46.39391271
 30
0.0
  0
VERTEX
  8
0
  6
CONTINUOUS
 62
       7
  5
427
 10
-88.03510258
 20
-46.90704131
 30
0.0
  0
VERTEX
  8
0
  6
CONTINUOUS
 62
       7
  5
428
 10
-87.97750805
 20
-47.44083201
 30
0.0
  0
VERTEX
  8
0
  6
CONTINUOUS
 62
       7
  5
429
 10
-87.95679301
 20
-47.98533854
 30
0.0
  0
VERTEX
  8
0
  6
CONTINUOUS
 62
       7
  5
42A
 10
-87.97334345
 20
-48.53041495
 30
0.0
  0
VERTEX
  8
0
  6
CONTINUOUS
 62
       7
  5
42B
 10
-88.02685097
 20
-49.06590468
 30
0.0
  0
VERTEX
  8
0
  6
CONTINUOUS
 62
       7
  5
42C
 10
-88.11631857
 20
-49.58182979
 30
0.0
  0
VERTEX
  8
0
  6
CONTINUOUS
 62
       7
  5
42D
 10
-88.24007916
 20
-50.06857691
 30
0.0
  0
VERTEX
  8
0
  6
CONTINUOUS
 62
       7
  5
42E
 10
-88.39582667
 20
-50.51707634
 30
0.0
  0
VERTEX
  8
0
  6
CONTINUOUS
 62
       7
  5
42F
 10
-88.58065903
 20
-50.91897106
 30
0.0
  0
VERTEX
  8
0
  6
CONTINUOUS
 62
       7
  5
430
 10
-88.79113219
 20
-51.26677246
 30
0.0
  0
VERTEX
  8
0
  6
CONTINUOUS
 62
       7
  5
431
 10
-89.02332435
 20
-51.55399985
 30
0.0
  0
VERTEX
  8
0
  6
CONTINUOUS
 62
       7
  5
432
 10
-89.27290901
 20
-51.77530124
 30
0.0
  0
VERTEX
  8
0
  6
CONTINUOUS
 62
       7
  5
433
 10
-89.53523559
 20
-51.92655306
 30
0.0
  0
VERTEX
  8
0
  6
CONTINUOUS
 62
       7
  5
434
 10
-89.80541607
 20
-52.00493699
 30
0.0
  0
VERTEX
  8
0
  6
CONTINUOUS
 62
       7
  5
435
 10
-90.07841612
 20
-52.00899249
 30
0.0
  0
VERTEX
  8
0
  6
CONTINUOUS
 62
       7
  5
436
 10
-90.34914884
 20
-51.93864398
 30
0.0
  0
VERTEX
  8
0
  6
CONTINUOUS
 62
       7
  5
437
 10
-90.61256959
 20
-51.79520229
 30
0.0
  0
VERTEX
  8
0
  6
CONTINUOUS
 62
       7
  5
438
 10
-90.86376998
 20
-51.58134021
 30
0.0
  0
SEQEND
  8
0
  6
CONTINUOUS
 62
       7
  5
439
  0
LINE
  8
0
  6
CONTINUOUS
 62
       7
  5
122
 10
-54.10318284
 20
-75.81266456
 30
0.0
 11
-54.10318284
 21
-12.51165528
 31
0.0
  0
LINE
  8
0
  6
CONTINUOUS
 62
       7
  5
123
 10
-96.10823152
 20
-78.50708742
 30
0.0
 11
-96.10823152
 21
-12.51165528
 31
0.0
  0
LINE
  8
0
  6
CONTINUOUS
 62
       2
  5
124
 10
-76.9000361
 20
20.1225613
 30
0.0
 11
-76.9000361
 21
-5.45853509
 31
0.0
  0
LINE
  8
0
  6
CONTINUOUS
 62
       2
  5
125
 10
-73.29549924
 20
20.42426262
 30
0.0
 11
-73.29549924
 21
-6.55418726
 31
0.0
  0
LINE
  8
0
  6
CONTINUOUS
 62
       7
  5
126
 10
-70.19909092
 20
-4.90276949
 30
0.0
 11
-79.99644441
 21
-4.90276949
 31
0.0
  0
LINE
  8
0
  6
CONTINUOUS
 62
       7
  5
127
 10
-77.99568827
 20
10.18229666
 30
0.0
 11
-77.99568827
 21
3.57662559
 31
0.0
  0
LINE
  8
0
  6
CONTINUOUS
 62
       7
  5
128
 10
-75.80438393
 20
10.18229666
 30
0.0
 11
-75.80438393
 21
3.57662559
 31
0.0
  0
LINE
  8
0
  6
CONTINUOUS
 62
       7
  5
129
 10
-77.99568827
 20
2.06811897
 30
0.0
 11
-77.99568827
 21
-4.90276949
 31
0.0
  0
LINE
  8
0
  6
CONTINUOUS
 62
       7
  5
12A
 10
-75.80438393
 20
2.06811897
 30
0.0
 11
-75.80438393
 21
-4.90276949
 31
0.0
  0
LINE
  8
0
  6
CONTINUOUS
 62
       7
  5
12B
 10
-77.99568827
 20
10.18229666
 30
0.0
 11
-75.80438393
 21
10.18229666
 31
0.0
  0
LINE
  8
0
  6
CONTINUOUS
 62
       7
  5
12C
 10
-77.20173742
 20
19.01103011
 30
0.0
 11
-77.20173742
 21
10.18229666
 31
0.0
  0
LINE
  8
0
  6
CONTINUOUS
 62
       7
  5
12D
 10
-76.59833478
 20
19.01103011
 30
0.0
 11
-76.59833478
 21
10.18229666
 31
0.0
  0
LINE
  8
0
  6
CONTINUOUS
 62
       7
  5
12E
 10
-77.20173742
 20
-0.98896989
 30
0.0
 11
-76.59833478
 21
-0.98896989
 31
0.0
  0
LINE
  8
0
  6
CONTINUOUS
 62
       7
  5
12F
 10
-72.19984707
 20
10.18229666
 30
0.0
 11
-72.19984707
 21
3.57662559
 31
0.0
  0
LINE
  8
0
  6
CONTINUOUS
 62
       7
  5
130
 10
-74.40703043
 20
10.18229666
 30
0.0
 11
-74.40703043
 21
3.57662559
 31
0.0
  0
LINE
  8
0
  6
CONTINUOUS
 62
       7
  5
131
 10
-72.19984707
 20
2.06811897
 30
0.0
 11
-72.19984707
 21
-4.90276949
 31
0.0
  0
LINE
  8
0
  6
CONTINUOUS
 62
       7
  5
132
 10
-74.40703043
 20
2.06811897
 30
0.0
 11
-74.40703043
 21
-4.90276949
 31
0.0
  0
LINE
  8
0
  6
CONTINUOUS
 62
       7
  5
133
 10
-72.19984707
 20
10.18229666
 30
0.0
 11
-74.40703043
 21
10.18229666
 31
0.0
  0
LINE
  8
0
  6
CONTINUOUS
 62
       7
  5
134
 10
-72.99379792
 20
19.01103011
 30
0.0
 11
-72.99379792
 21
10.18229666
 31
0.0
  0
LINE
  8
0
  6
CONTINUOUS
 62
       7
  5
135
 10
-73.59720056
 20
19.01103011
 30
0.0
 11
-73.59720056
 21
10.18229666
 31
0.0
  0
LINE
  8
0
  6
CONTINUOUS
 62
       7
  5
136
 10
-72.99379792
 20
-0.98896989
 30
0.0
 11
-73.59720056
 21
-0.98896989
 31
0.0
  0
ARC
  8
0
  6
CONTINUOUS
 62
       7
  5
137
 10
-76.9000361
 20
3.57662559
 30
0.0
 40
1.09565384
 50
180.0
 51
0.0
  0
ARC
  8
0
  6
CONTINUOUS
 62
       7
  5
138
 10
-76.9000361
 20
2.07795747
 30
0.0
 40
1.09569634
 50
180.51447824
 51
359.48552176
  0
ARC
  8
0
  6
CONTINUOUS
 62
       7
  5
139
 10
-73.30343875
 20
3.57662559
 30
0.0
 40
1.10359333
 50
0.0
 51
180.0
  0
ARC
  8
0
  6
CONTINUOUS
 62
       7
  5
13A
 10
-73.30343875
 20
2.07795719
 30
0.0
 40
1.10363553
 50
359.48923727
 51
180.51076273
  0
ARC
  8
0
  6
CONTINUOUS
 62
       7
  5
13B
 10
-80.00811464
 20
-6.49487998
 30
0.0
 40
1.59215326
 50
89.58002727
 51
180.41997273
  0
ARC
  8
0
  6
CONTINUOUS
 62
       7
  5
13C
 10
-70.19851643
 20
-6.50597572
 30
0.0
 40
1.60320633
 50
359.97946873
 51
90.02053127
  0
ARC
  8
0
  6
CONTINUOUS
 62
       7
  5
13D
 10
-90.10471163
 20
-12.51445393
 30
0.0
 40
6.00352054
 50
90.02670948
 51
179.97329052
  0
ARC
  8
0
  6
CONTINUOUS
 62
       7
  5
13E
 10
-60.09762384
 20
-12.50537504
 30
0.0
 40
5.99444429
 50
359.93997253
 51
90.06002747
  0
LINE
  8
0
  6
CONTINUOUS
 62
       7
  5
13F
 10
-60.10390408
 20
-6.51093404
 30
0.0
 11
-90.10751028
 21
-6.51093404
 31
0.0
  0
LINE
  8
0
  6
CONTINUOUS
 62
       7
  5
140
 10
-69.10498594
 20
-6.41092202
 30
0.0
 11
-69.10498594
 21
-6.51093404
 31
0.0
  0
LINE
  8
0
  6
CONTINUOUS
 62
       7
  5
141
 10
-48.80775305
 20
-83.5076885
 30
0.0
 11
-48.80775305
 21
-79.50720761
 31
0.0
  0
LINE
  8
0
  6
CONTINUOUS
 62
       7
  5
142
 10
-103.66970928
 20
-83.5076885
 30
0.0
 11
-103.66970928
 21
-79.50720761
 31
0.0
  0
LINE
  8
0
  6
CONTINUOUS
 62
       2
  5
143
 10
-98.66971012
 20
-86.9662368
 30
0.0
 11
-98.66971012
 21
-73.59552572
 31
0.0
  0
LINE
  8
0
  6
CONTINUOUS
 62
       2
  5
144
 10
-53.80775403
 20
-86.9662368
 30
0.0
 11
-53.80775403
 21
-73.59552572
 31
0.0
  0
ARC
  8
0
  6
CONTINUOUS
 62
       7
  5
145
 10
-57.49108742
 20
-77.93318247
 30
0.0
 40
1.0666666
 50
122.08995858
 51
180.00001799
  0
LINE
  8
0
  6
CONTINUOUS
 62
       7
  5
146
 10
-58.55775403
 20
-77.93318247
 30
0.0
 11
-58.55775403
 21
-79.50720763
 31
0.0
  0
ARC
  8
0
  6
CONTINUOUS
 62
       7
  5
147
 10
-50.12442063
 20
-77.93318247
 30
0.0
 40
1.0666666
 50
359.99998201
 51
57.91004142
  0
LINE
  8
0
  6
CONTINUOUS
 62
       7
  5
148
 10
-49.05775403
 20
-77.93318247
 30
0.0
 11
-49.05775403
 21
-79.50720763
 31
0.0
  0
LINE
  8
0
  6
CONTINUOUS
 62
       7
  5
149
 10
-53.80775409
 20
-75.8072078
 30
0.0
 11
-55.65807394
 21
-77.65752765
 31
0.0
  0
LINE
  8
0
  6
CONTINUOUS
 62
       7
  5
14A
 10
-53.80775397
 20
-75.8072078
 30
0.0
 11
-51.95743411
 21
-77.65752765
 31
0.0
  0
ARC
  8
0
  6
CONTINUOUS
 62
       7
  5
14B
 10
-53.80775403
 20
-83.80720782
 30
0.0
 40
8.0
 50
57.91004142
 51
122.08988664
  0
LINE
  8
0
  6
CONTINUOUS
 62
       7
  5
14C
 10
-103.41971012
 20
-77.93318247
 30
0.0
 11
-103.41971012
 21
-79.50720763
 31
0.0
  0
LINE
  8
0
  6
CONTINUOUS
 62
       7
  5
14D
 10
-98.66971018
 20
-75.8072078
 30
0.0
 11
-100.52003003
 21
-77.65752765
 31
0.0
  0
LINE
  8
0
  6
CONTINUOUS
 62
       7
  5
14E
 10
-98.66971006
 20
-75.8072078
 30
0.0
 11
-96.8193902
 21
-77.65752765
 31
0.0
  0
ARC
  8
0
  6
CONTINUOUS
 62
       7
  5
14F
 10
-102.35304351
 20
-77.93318247
 30
0.0
 40
1.0666666
 50
122.08995858
 51
180.00001799
  0
ARC
  8
0
  6
CONTINUOUS
 62
       7
  5
150
 10
-98.66971012
 20
-83.80720782
 30
0.0
 40
8.0
 50
71.32589733
 51
122.08988664
  0
LINE
  8
0
  6
CONTINUOUS
 62
       7
  5
151
 10
-92.09263584
 20
-46.78507201
 30
0.0
 11
-90.64160689
 21
-49.53800052
 31
0.0
  0
LINE
  8
0
  6
CONTINUOUS
 62
       7
  5
152
 10
-90.77771638
 20
-46.72561367
 30
0.0
 11
-92.18754688
 21
-49.45638145
 31
0.0
  0
POLYLINE
  8
0
  6
CONTINUOUS
 62
       7
  5
153
 66
       1
 10
0.0
 20
0.0
 30
0.0
 70
       1
  0
VERTEX
  8
0
  6
CONTINUOUS
 62
       7
  5
43A
 10
-90.70673456
 20
-51.59002546
 30
0.0
  0
VERTEX
  8
0
  6
CONTINUOUS
 62
       7
  5
43B
 10
-90.51063414
 20
-51.57647228
 30
0.0
  0
VERTEX
  8
0
  6
CONTINUOUS
 62
       7
  5
43C
 10
-90.31602616
 20
-51.53591587
 30
0.0
  0
VERTEX
  8
0
  6
CONTINUOUS
 62
       7
  5
43D
 10
-90.12439171
 20
-51.46866489
 30
0.0
  0
VERTEX
  8
0
  6
CONTINUOUS
 62
       7
  5
43E
 10
-89.93718924
 20
-51.37523117
 30
0.0
  0
VERTEX
  8
0
  6
CONTINUOUS
 62
       7
  5
43F
 10
-89.75584347
 20
-51.2563258
 30
0.0
  0
VERTEX
  8
0
  6
CONTINUOUS
 62
       7
  5
440
 10
-89.58173456
 20
-51.11285371
 30
0.0
  0
VERTEX
  8
0
  6
CONTINUOUS
 62
       7
  5
441
 10
-89.41618758
 20
-50.94590681
 30
0.0
  0
VERTEX
  8
0
  6
CONTINUOUS
 62
       7
  5
442
 10
-89.26046244
 20
-50.75675567
 30
0.0
  0
VERTEX
  8
0
  6
CONTINUOUS
 62
       7
  5
443
 10
-89.1157443
 20
-50.54683985
 30
0.0
  0
VERTEX
  8
0
  6
CONTINUOUS
 62
       7
  5
444
 10
-88.98313456
 20
-50.31775693
 30
0.0
  0
VERTEX
  8
0
  6
CONTINUOUS
 62
       7
  5
445
 10
-88.86364246
 20
-50.07125037
 30
0.0
  0
VERTEX
  8
0
  6
CONTINUOUS
 62
       7
  5
446
 10
-88.7581774
 20
-49.80919623
 30
0.0
  0
VERTEX
  8
0
  6
CONTINUOUS
 62
       7
  5
447
 10
-88.66754204
 20
-49.53358891
 30
0.0
  0
VERTEX
  8
0
  6
CONTINUOUS
 62
       7
  5
448
 10
-88.59242617
 20
-49.24652594
 30
0.0
  0
VERTEX
  8
0
  6
CONTINUOUS
 62
       7
  5
449
 10
-88.53340145
 20
-48.95019205
 30
0.0
  0
VERTEX
  8
0
  6
CONTINUOUS
 62
       7
  5
44A
 10
-88.49091712
 20
-48.64684251
 30
0.0
  0
VERTEX
  8
0
  6
CONTINUOUS
 62
       7
  5
44B
 10
-88.46529649
 20
-48.33878599
 30
0.0
  0
VERTEX
  8
0
  6
CONTINUOUS
 62
       7
  5
44C
 10
-88.45673456
 20
-48.02836701
 30
0.0
  0
VERTEX
  8
0
  6
CONTINUOUS
 62
       7
  5
44D
 10
-88.46529649
 20
-47.71794802
 30
0.0
  0
VERTEX
  8
0
  6
CONTINUOUS
 62
       7
  5
44E
 10
-88.49091712
 20
-47.40989151
 30
0.0
  0
VERTEX
  8
0
  6
CONTINUOUS
 62
       7
  5
44F
 10
-88.53340145
 20
-47.10654197
 30
0.0
  0
VERTEX
  8
0
  6
CONTINUOUS
 62
       7
  5
450
 10
-88.59242617
 20
-46.81020807
 30
0.0
  0
VERTEX
  8
0
  6
CONTINUOUS
 62
       7
  5
451
 10
-88.66754204
 20
-46.5231451
 30
0.0
  0
VERTEX
  8
0
  6
CONTINUOUS
 62
       7
  5
452
 10
-88.7581774
 20
-46.24753778
 30
0.0
  0
VERTEX
  8
0
  6
CONTINUOUS
 62
       7
  5
453
 10
-88.86364246
 20
-45.98548364
 30
0.0
  0
VERTEX
  8
0
  6
CONTINUOUS
 62
       7
  5
454
 10
-88.98313456
 20
-45.73897708
 30
0.0
  0
VERTEX
  8
0
  6
CONTINUOUS
 62
       7
  5
455
 10
-89.1157443
 20
-45.50989416
 30
0.0
  0
VERTEX
  8
0
  6
CONTINUOUS
 62
       7
  5
456
 10
-89.26046244
 20
-45.29997834
 30
0.0
  0
VERTEX
  8
0
  6
CONTINUOUS
 62
       7
  5
457
 10
-89.41618758
 20
-45.1108272
 30
0.0
  0
VERTEX
  8
0
  6
CONTINUOUS
 62
       7
  5
458
 10
-89.58173456
 20
-44.9438803
 30
0.0
  0
VERTEX
  8
0
  6
CONTINUOUS
 62
       7
  5
459
 10
-89.75584347
 20
-44.80040821
 30
0.0
  0
VERTEX
  8
0
  6
CONTINUOUS
 62
       7
  5
45A
 10
-89.93718924
 20
-44.68150284
 30
0.0
  0
VERTEX
  8
0
  6
CONTINUOUS
 62
       7
  5
45B
 10
-90.12439171
 20
-44.58806912
 30
0.0
  0
VERTEX
  8
0
  6
CONTINUOUS
 62
       7
  5
45C
 10
-90.31602616
 20
-44.52081814
 30
0.0
  0
VERTEX
  8
0
  6
CONTINUOUS
 62
       7
  5
45D
 10
-90.51063414
 20
-44.48026174
 30
0.0
  0
VERTEX
  8
0
  6
CONTINUOUS
 62
       7
  5
45E
 10
-90.70673456
 20
-44.46670855
 30
0.0
  0
VERTEX
  8
0
  6
CONTINUOUS
 62
       7
  5
45F
 10
-90.90283498
 20
-44.48026174
 30
0.0
  0
VERTEX
  8
0
  6
CONTINUOUS
 62
       7
  5
460
 10
-91.09744296
 20
-44.52081814
 30
0.0
  0
VERTEX
  8
0
  6
CONTINUOUS
 62
       7
  5
461
 10
-91.28907741
 20
-44.58806912
 30
0.0
  0
VERTEX
  8
0
  6
CONTINUOUS
 62
       7
  5
462
 10
-91.47627988
 20
-44.68150284
 30
0.0
  0
VERTEX
  8
0
  6
CONTINUOUS
 62
       7
  5
463
 10
-91.65762565
 20
-44.80040821
 30
0.0
  0
VERTEX
  8
0
  6
CONTINUOUS
 62
       7
  5
464
 10
-91.83173456
 20
-44.9438803
 30
0.0
  0
VERTEX
  8
0
  6
CONTINUOUS
 62
       7
  5
465
 10
-91.99728154
 20
-45.1108272
 30
0.0
  0
VERTEX
  8
0
  6
CONTINUOUS
 62
       7
  5
466
 10
-92.15300668
 20
-45.29997834
 30
0.0
  0
VERTEX
  8
0
  6
CONTINUOUS
 62
       7
  5
467
 10
-92.29772482
 20
-45.50989416
 30
0.0
  0
VERTEX
  8
0
  6
CONTINUOUS
 62
       7
  5
468
 10
-92.43033456
 20
-45.73897708
 30
0.0
  0
VERTEX
  8
0
  6
CONTINUOUS
 62
       7
  5
469
 10
-92.54982666
 20
-45.98548364
 30
0.0
  0
VERTEX
  8
0
  6
CONTINUOUS
 62
       7
  5
46A
 10
-92.65529172
 20
-46.24753778
 30
0.0
  0
VERTEX
  8
0
  6
CONTINUOUS
 62
       7
  5
46B
 10
-92.74592708
 20
-46.5231451
 30
0.0
  0
VERTEX
  8
0
  6
CONTINUOUS
 62
       7
  5
46C
 10
-92.82104296
 20
-46.81020807
 30
0.0
  0
VERTEX
  8
0
  6
CONTINUOUS
 62
       7
  5
46D
 10
-92.88006767
 20
-47.10654197
 30
0.0
  0
VERTEX
  8
0
  6
CONTINUOUS
 62
       7
  5
46E
 10
-92.92255201
 20
-47.40989151
 30
0.0
  0
VERTEX
  8
0
  6
CONTINUOUS
 62
       7
  5
46F
 10
-92.94817263
 20
-47.71794802
 30
0.0
  0
VERTEX
  8
0
  6
CONTINUOUS
 62
       7
  5
470
 10
-92.95673456
 20
-48.02836701
 30
0.0
  0
VERTEX
  8
0
  6
CONTINUOUS
 62
       7
  5
471
 10
-92.94817263
 20
-48.33878599
 30
0.0
  0
VERTEX
  8
0
  6
CONTINUOUS
 62
       7
  5
472
 10
-92.92255201
 20
-48.64684251
 30
0.0
  0
VERTEX
  8
0
  6
CONTINUOUS
 62
       7
  5
473
 10
-92.88006767
 20
-48.95019205
 30
0.0
  0
VERTEX
  8
0
  6
CONTINUOUS
 62
       7
  5
474
 10
-92.82104296
 20
-49.24652594
 30
0.0
  0
VERTEX
  8
0
  6
CONTINUOUS
 62
       7
  5
475
 10
-92.74592708
 20
-49.53358891
 30
0.0
  0
VERTEX
  8
0
  6
CONTINUOUS
 62
       7
  5
476
 10
-92.65529172
 20
-49.80919623
 30
0.0
  0
VERTEX
  8
0
  6
CONTINUOUS
 62
       7
  5
477
 10
-92.54982666
 20
-50.07125037
 30
0.0
  0
VERTEX
  8
0
  6
CONTINUOUS
 62
       7
  5
478
 10
-92.43033456
 20
-50.31775693
 30
0.0
  0
VERTEX
  8
0
  6
CONTINUOUS
 62
       7
  5
479
 10
-92.29772482
 20
-50.54683985
 30
0.0
  0
VERTEX
  8
0
  6
CONTINUOUS
 62
       7
  5
47A
 10
-92.15300668
 20
-50.75675567
 30
0.0
  0
VERTEX
  8
0
  6
CONTINUOUS
 62
       7
  5
47B
 10
-91.99728154
 20
-50.94590681
 30
0.0
  0
VERTEX
  8
0
  6
CONTINUOUS
 62
       7
  5
47C
 10
-91.83173456
 20
-51.11285371
 30
0.0
  0
VERTEX
  8
0
  6
CONTINUOUS
 62
       7
  5
47D
 10
-91.65762565
 20
-51.2563258
 30
0.0
  0
VERTEX
  8
0
  6
CONTINUOUS
 62
       7
  5
47E
 10
-91.47627988
 20
-51.37523117
 30
0.0
  0
VERTEX
  8
0
  6
CONTINUOUS
 62
       7
  5
47F
 10
-91.28907741
 20
-51.46866489
 30
0.0
  0
VERTEX
  8
0
  6
CONTINUOUS
 62
       7
  5
480
 10
-91.09744296
 20
-51.53591587
 30
0.0
  0
VERTEX
  8
0
  6
CONTINUOUS
 62
       7
  5
481
 10
-90.90283498
 20
-51.57647228
 30
0.0
  0
VERTEX
  8
0
  6
CONTINUOUS
 62
       7
  5
482
 10
-90.70673456
 20
-51.59002546
 30
0.0
  0
SEQEND
  8
0
  6
CONTINUOUS
 62
       7
  5
483
  0
POLYLINE
  8
0
  6
CONTINUOUS
 62
       7
  5
154
 66
       1
 10
0.0
 20
0.0
 30
0.0
  0
VERTEX
  8
0
  6
CONTINUOUS
 62
       7
  5
484
 10
-90.89091785
 20
-44.47866183
 30
0.0
  0
VERTEX
  8
0
  6
CONTINUOUS
 62
       7
  5
485
 10
-90.64138158
 20
-44.25714224
 30
0.0
  0
VERTEX
  8
0
  6
CONTINUOUS
 62
       7
  5
486
 10
-90.37908808
 20
-44.10566108
 30
0.0
  0
VERTEX
  8
0
  6
CONTINUOUS
 62
       7
  5
487
 10
-90.10892475
 20
-44.02704092
 30
0.0
  0
VERTEX
  8
0
  6
CONTINUOUS
 62
       7
  5
488
 10
-89.83592562
 20
-44.02274674
 30
0.0
  0
VERTEX
  8
0
  6
CONTINUOUS
 62
       7
  5
489
 10
-89.56517755
 20
-44.09285853
 30
0.0
  0
VERTEX
  8
0
  6
CONTINUOUS
 62
       7
  5
48A
 10
-89.30172548
 20
-44.23606989
 30
0.0
  0
VERTEX
  8
0
  6
CONTINUOUS
 62
       7
  5
48B
 10
-89.05047838
 20
-44.44971232
 30
0.0
  0
VERTEX
  8
0
  6
CONTINUOUS
 62
       7
  5
48C
 10
-88.8161178
 20
-44.72980496
 30
0.0
  0
VERTEX
  8
0
  6
CONTINUOUS
 62
       7
  5
48D
 10
-88.60301066
 20
-45.07112876
 30
0.0
  0
VERTEX
  8
0
  6
CONTINUOUS
 62
       7
  5
48E
 10
-88.41512785
 20
-45.46732374
 30
0.0
  0
VERTEX
  8
0
  6
CONTINUOUS
 62
       7
  5
48F
 10
-88.25597023
 20
-45.91100749
 30
0.0
  0
VERTEX
  8
0
  6
CONTINUOUS
 62
       7
  5
490
 10
-88.12850343
 20
-46.39391271
 30
0.0
  0
VERTEX
  8
0
  6
CONTINUOUS
 62
       7
  5
491
 10
-88.03510258
 20
-46.90704131
 30
0.0
  0
VERTEX
  8
0
  6
CONTINUOUS
 62
       7
  5
492
 10
-87.97750805
 20
-47.44083201
 30
0.0
  0
VERTEX
  8
0
  6
CONTINUOUS
 62
       7
  5
493
 10
-87.95679301
 20
-47.98533854
 30
0.0
  0
VERTEX
  8
0
  6
CONTINUOUS
 62
       7
  5
494
 10
-87.97334345
 20
-48.53041495
 30
0.0
  0
VERTEX
  8
0
  6
CONTINUOUS
 62
       7
  5
495
 10
-88.02685097
 20
-49.06590468
 30
0.0
  0
VERTEX
  8
0
  6
CONTINUOUS
 62
       7
  5
496
 10
-88.11631857
 20
-49.58182979
 30
0.0
  0
VERTEX
  8
0
  6
CONTINUOUS
 62
       7
  5
497
 10
-88.24007916
 20
-50.06857691
 30
0.0
  0
VERTEX
  8
0
  6
CONTINUOUS
 62
       7
  5
498
 10
-88.39582667
 20
-50.51707634
 30
0.0
  0
VERTEX
  8
0
  6
CONTINUOUS
 62
       7
  5
499
 10
-88.58065903
 20
-50.91897106
 30
0.0
  0
VERTEX
  8
0
  6
CONTINUOUS
 62
       7
  5
49A
 10
-88.79113219
 20
-51.26677246
 30
0.0
  0
VERTEX
  8
0
  6
CONTINUOUS
 62
       7
  5
49B
 10
-89.02332435
 20
-51.55399985
 30
0.0
  0
VERTEX
  8
0
  6
CONTINUOUS
 62
       7
  5
49C
 10
-89.27290901
 20
-51.77530124
 30
0.0
  0
VERTEX
  8
0
  6
CONTINUOUS
 62
       7
  5
49D
 10
-89.53523559
 20
-51.92655306
 30
0.0
  0
VERTEX
  8
0
  6
CONTINUOUS
 62
       7
  5
49E
 10
-89.80541607
 20
-52.00493699
 30
0.0
  0
VERTEX
  8
0
  6
CONTINUOUS
 62
       7
  5
49F
 10
-90.07841612
 20
-52.00899249
 30
0.0
  0
VERTEX
  8
0
  6
CONTINUOUS
 62
       7
  5
4A0
 10
-90.34914884
 20
-51.93864398
 30
0.0
  0
VERTEX
  8
0
  6
CONTINUOUS
 62
       7
  5
4A1
 10
-90.61256959
 20
-51.79520229
 30
0.0
  0
VERTEX
  8
0
  6
CONTINUOUS
 62
       7
  5
4A2
 10
-90.86376998
 20
-51.58134021
 30
0.0
  0
SEQEND
  8
0
  6
CONTINUOUS
 62
       7
  5
4A3
  0
LINE
  8
0
  6
CONTINUOUS
 62
       2
  5
155
 10
-89.95673456
 20
-42.77838419
 30
0.0
 11
-89.95673456
 21
-77.78499851
 31
0.0
  0
LINE
  8
0
  6
CONTINUOUS
 62
       7
  5
156
 10
-48.80775305
 20
-79.50720763
 30
0.0
 11
-103.66970928
 21
-79.50720763
 31
0.0
  0
LINE
  8
0
  6
CONTINUOUS
 62
       7
  5
157
 10
-95.10811131
 20
-79.50720763
 30
0.0
 11
-96.10823152
 21
-78.50708742
 31
0.0
  0
LINE
  8
0
  6
CONTINUOUS
 62
       2
  5
158
 10
-94.17437243
 20
-48.01592262
 30
0.0
 11
-86.42226265
 21
-48.01592262
 31
0.0
  0
LINE
  8
0
  6
CONTINUOUS
 62
       7
  5
159
 10
-96.10823152
 20
-78.50708742
 30
0.0
 11
-58.55775403
 21
-78.50708742
 31
0.0
  0
LINE
  8
0
  6
CONTINUOUS
 62
       7
  5
15A
 10
-54.10318284
 20
-54.01664386
 30
0.0
 11
-96.10823152
 21
-54.01664386
 31
0.0
  0
CIRCLE
  8
0
  6
CONTINUOUS
 62
       7
  5
15B
 10
44.89429282
 20
122.77150199
 30
0.0
 40
21.00252434
  0
LINE
  8
0
  6
CONTINUOUS
 62
       2
  5
15C
 10
58.67646994
 20
136.55367911
 30
0.0
 11
62.83926177
 21
140.71647094
 31
0.0
  0
LINE
  8
0
  6
CONTINUOUS
 62
       7
  5
15D
 10
16.93225819
 20
131.38106757
 30
0.0
 11
24.68990446
 21
117.03663324
 31
0.0
  0
LINE
  8
0
  6
CONTINUOUS
 62
       7
  5
15E
 10
62.22019394
 20
135.14765564
 30
0.0
 11
63.28013277
 21
136.20759447
 31
0.0
  0
ARC
  8
0
  6
CONTINUOUS
 62
       7
  5
15F
 10
57.34115742
 20
135.21836659
 30
0.0
 40
6.5
 50
17.96430821
 51
45.0
  0
ARC
  8
0
  6
CONTINUOUS
 62
       7
  5
160
 10
59.03749208
 20
140.45023516
 30
0.0
 40
1.0
 50
72.03569179
 51
135.0
  0
LINE
  8
0
  6
CONTINUOUS
 62
       7
  5
161
 10
57.27044647
 20
140.09740311
 30
0.0
 11
58.3303853
 21
141.15734194
 31
0.0
  0
ARC
  8
0
  6
CONTINUOUS
 62
       7
  5
162
 10
57.34115742
 20
135.21836659
 30
0.0
 40
6.5
 50
45.0
 51
72.03569179
  0
LINE
  8
0
  6
CONTINUOUS
 62
       7
  5
163
 10
57.27044647
 20
140.09740311
 30
0.0
 11
62.22019394
 21
135.14765564
 31
0.0
  0
ARC
  8
0
  6
CONTINUOUS
 62
       7
  5
164
 10
21.33029072
 20
133.75957758
 30
0.0
 40
5.0
 50
101.59492905
 51
208.40506714
  0
CIRCLE
  8
0
  6
CONTINUOUS
 62
       7
  5
165
 10
21.33029036
 20
133.7595768
 30
0.0
 40
4.75
  0
LINE
  8
0
  6
CONTINUOUS
 62
       7
  5
166
 10
19.52716769
 20
135.56269908
 30
0.0
 11
23.13341181
 21
131.95645466
 31
0.0
  0
LINE
  8
0
  6
CONTINUOUS
 62
       7
  5
167
 10
19.52716693
 20
131.95645394
 30
0.0
 11
23.1334127
 21
135.5626994
 31
0.0
  0
ARC
  8
0
  6
CONTINUOUS
 62
       7
  5
168
 10
62.57302599
 20
136.91470125
 30
0.0
 40
1.0
 50
315.0
 51
17.96430821
  0
LINE
  8
0
  6
CONTINUOUS
 62
       7
  5
169
 10
20.32533461
 20
138.65754279
 30
0.0
 11
36.30032793
 21
141.93526457
 31
0.0
  0
LINE
  8
0
  6
CONTINUOUS
 62
       7
  5
16A
 10
65.78758042
 20
124.91079204
 30
0.0
 11
70.93648725
 21
109.43718127
 31
0.0
  0
CIRCLE
  8
0
  6
CONTINUOUS
 62
       7
  5
16B
 10
44.89429282
 20
122.77150199
 30
0.0
 40
6.5
  0
CIRCLE
  8
0
  6
CONTINUOUS
 62
       7
  5
16C
 10
44.89429282
 20
120.97150199
 30
0.0
 40
1.25
  0
LINE
  8
0
  6
CONTINUOUS
 62
       2
  5
16D
 10
47.65048525
 20
120.97150199
 30
0.0
 11
42.23832558
 21
120.97150199
 31
0.0
  0
CIRCLE
  8
0
  6
CONTINUOUS
 62
       7
  5
16E
 10
44.89429282
 20
124.57150199
 30
0.0
 40
1.25
  0
LINE
  8
0
  6
CONTINUOUS
 62
       2
  5
16F
 10
47.65048525
 20
124.57150199
 30
0.0
 11
42.23832558
 21
124.57150199
 31
0.0
  0
LINE
  8
0
  6
CONTINUOUS
 62
       7
  5
170
 10
66.33141328
 20
102.86045314
 30
0.0
 11
50.02994563
 21
102.40655419
 31
0.0
  0
LINE
  8
0
  6
CONTINUOUS
 62
       7
  5
171
 10
32.51813917
 20
105.44560087
 30
0.0
 11
27.5683917
 21
110.39534834
 31
0.0
  0
ARC
  8
0
  6
CONTINUOUS
 62
       7
  5
172
 10
27.21555966
 20
108.62830273
 30
0.0
 40
1.0
 50
135.0
 51
197.96430821
  0
LINE
  8
0
  6
CONTINUOUS
 62
       2
  5
173
 10
31.1121157
 20
108.98932487
 30
0.0
 11
26.94932387
 21
104.82653304
 31
0.0
  0
ARC
  8
0
  6
CONTINUOUS
 62
       7
  5
174
 10
32.44742822
 20
110.32463739
 30
0.0
 40
6.5
 50
225.0
 51
252.03569179
  0
ARC
  8
0
  6
CONTINUOUS
 62
       7
  5
175
 10
32.44742822
 20
110.32463739
 30
0.0
 40
6.5
 50
197.96430821
 51
225.0
  0
ARC
  8
0
  6
CONTINUOUS
 62
       7
  5
176
 10
30.75109356
 20
105.09276883
 30
0.0
 40
1.0
 50
252.03569179
 51
315.0
  0
LINE
  8
0
  6
CONTINUOUS
 62
       7
  5
177
 10
32.51813917
 20
105.44560087
 30
0.0
 11
31.45820034
 21
104.38566205
 31
0.0
  0
ARC
  8
0
  6
CONTINUOUS
 62
       7
  5
178
 10
66.19224695
 20
107.85851604
 30
0.0
 40
5.0
 50
271.5949347
 51
18.40507279
  0
CIRCLE
  8
0
  6
CONTINUOUS
 62
       7
  5
179
 10
66.19224597
 20
107.85851465
 30
0.0
 40
4.75
  0
LINE
  8
0
  6
CONTINUOUS
 62
       7
  5
17A
 10
64.38912331
 20
109.66163693
 30
0.0
 11
67.99536743
 21
106.05539251
 31
0.0
  0
LINE
  8
0
  6
CONTINUOUS
 62
       7
  5
17B
 10
64.38912254
 20
106.05539179
 30
0.0
 11
67.99536831
 21
109.66163725
 31
0.0
  0
LINE
  8
0
  6
CONTINUOUS
 62
       7
  5
17C
 10
27.5683917
 20
110.39534834
 30
0.0
 11
26.50845288
 21
109.33540951
 31
0.0
  0
CIRCLE
  8
0
  6
CONTINUOUS
 62
       7
  5
17D
 10
-15.10570718
 20
122.77150199
 30
0.0
 40
21.00252434
  0
LINE
  8
0
  6
CONTINUOUS
 62
       2
  5
17E
 10
-1.32353006
 20
136.55367911
 30
0.0
 11
2.83926177
 21
140.71647094
 31
0.0
  0
LINE
  8
0
  6
CONTINUOUS
 62
       7
  5
17F
 10
-43.06774181
 20
131.38106757
 30
0.0
 11
-35.31009554
 21
117.03663324
 31
0.0
  0
LINE
  8
0
  6
CONTINUOUS
 62
       7
  5
180
 10
2.22019394
 20
135.14765564
 30
0.0
 11
3.28013277
 21
136.20759447
 31
0.0
  0
ARC
  8
0
  6
CONTINUOUS
 62
       7
  5
181
 10
-2.65884258
 20
135.21836659
 30
0.0
 40
6.5
 50
17.96430821
 51
45.0
  0
ARC
  8
0
  6
CONTINUOUS
 62
       7
  5
182
 10
-0.96250792
 20
140.45023516
 30
0.0
 40
1.0
 50
72.03569179
 51
135.0
  0
LINE
  8
0
  6
CONTINUOUS
 62
       7
  5
183
 10
-2.72955353
 20
140.09740311
 30
0.0
 11
-1.6696147
 21
141.15734194
 31
0.0
  0
ARC
  8
0
  6
CONTINUOUS
 62
       7
  5
184
 10
-2.65884258
 20
135.21836659
 30
0.0
 40
6.5
 50
45.0
 51
72.03569179
  0
LINE
  8
0
  6
CONTINUOUS
 62
       7
  5
185
 10
-2.72955353
 20
140.09740311
 30
0.0
 11
2.22019394
 21
135.14765564
 31
0.0
  0
ARC
  8
0
  6
CONTINUOUS
 62
       7
  5
186
 10
-38.66970928
 20
133.75957758
 30
0.0
 40
5.0
 50
101.59492905
 51
208.40506714
  0
CIRCLE
  8
0
  6
CONTINUOUS
 62
       7
  5
187
 10
-38.66970964
 20
133.7595768
 30
0.0
 40
4.75
  0
LINE
  8
0
  6
CONTINUOUS
 62
       7
  5
188
 10
-40.47283231
 20
135.56269908
 30
0.0
 11
-36.86658819
 21
131.95645466
 31
0.0
  0
LINE
  8
0
  6
CONTINUOUS
 62
       7
  5
189
 10
-40.47283307
 20
131.95645394
 30
0.0
 11
-36.8665873
 21
135.5626994
 31
0.0
  0
ARC
  8
0
  6
CONTINUOUS
 62
       7
  5
18A
 10
2.57302599
 20
136.91470125
 30
0.0
 40
1.0
 50
315.0
 51
17.96430821
  0
LINE
  8
0
  6
CONTINUOUS
 62
       7
  5
18B
 10
-39.67466539
 20
138.65754279
 30
0.0
 11
-23.69967207
 21
141.93526457
 31
0.0
  0
LINE
  8
0
  6
CONTINUOUS
 62
       7
  5
18C
 10
5.78758042
 20
124.91079204
 30
0.0
 11
10.93648725
 21
109.43718127
 31
0.0
  0
CIRCLE
  8
0
  6
CONTINUOUS
 62
       7
  5
18D
 10
-15.10570718
 20
122.77150199
 30
0.0
 40
6.5
  0
CIRCLE
  8
0
  6
CONTINUOUS
 62
       7
  5
18E
 10
-15.10570718
 20
120.97150199
 30
0.0
 40
1.25
  0
LINE
  8
0
  6
CONTINUOUS
 62
       2
  5
18F
 10
-12.34951475
 20
120.97150199
 30
0.0
 11
-17.76167442
 21
120.97150199
 31
0.0
  0
CIRCLE
  8
0
  6
CONTINUOUS
 62
       7
  5
190
 10
-15.10570718
 20
124.57150199
 30
0.0
 40
1.25
  0
LINE
  8
0
  6
CONTINUOUS
 62
       2
  5
191
 10
-12.34951475
 20
124.57150199
 30
0.0
 11
-17.76167442
 21
124.57150199
 31
0.0
  0
LINE
  8
0
  6
CONTINUOUS
 62
       7
  5
192
 10
6.33141328
 20
102.86045314
 30
0.0
 11
-9.97005437
 21
102.40655419
 31
0.0
  0
LINE
  8
0
  6
CONTINUOUS
 62
       7
  5
193
 10
-27.48186083
 20
105.44560087
 30
0.0
 11
-32.4316083
 21
110.39534834
 31
0.0
  0
ARC
  8
0
  6
CONTINUOUS
 62
       7
  5
194
 10
-32.78444034
 20
108.62830273
 30
0.0
 40
1.0
 50
135.0
 51
197.96430821
  0
LINE
  8
0
  6
CONTINUOUS
 62
       2
  5
195
 10
-28.8878843
 20
108.98932487
 30
0.0
 11
-33.05067613
 21
104.82653304
 31
0.0
  0
ARC
  8
0
  6
CONTINUOUS
 62
       7
  5
196
 10
-27.55257178
 20
110.32463739
 30
0.0
 40
6.5
 50
225.0
 51
252.03569179
  0
ARC
  8
0
  6
CONTINUOUS
 62
       7
  5
197
 10
-27.55257178
 20
110.32463739
 30
0.0
 40
6.5
 50
197.96430821
 51
225.0
  0
ARC
  8
0
  6
CONTINUOUS
 62
       7
  5
198
 10
-29.24890644
 20
105.09276883
 30
0.0
 40
1.0
 50
252.03569179
 51
315.0
  0
LINE
  8
0
  6
CONTINUOUS
 62
       7
  5
199
 10
-27.48186083
 20
105.44560087
 30
0.0
 11
-28.54179966
 21
104.38566205
 31
0.0
  0
ARC
  8
0
  6
CONTINUOUS
 62
       7
  5
19A
 10
6.19224695
 20
107.85851604
 30
0.0
 40
5.0
 50
271.5949347
 51
18.40507279
  0
CIRCLE
  8
0
  6
CONTINUOUS
 62
       7
  5
19B
 10
6.19224597
 20
107.85851465
 30
0.0
 40
4.75
  0
LINE
  8
0
  6
CONTINUOUS
 62
       7
  5
19C
 10
4.38912331
 20
109.66163693
 30
0.0
 11
7.99536743
 21
106.05539251
 31
0.0
  0
LINE
  8
0
  6
CONTINUOUS
 62
       7
  5
19D
 10
4.38912254
 20
106.05539179
 30
0.0
 11
7.99536831
 21
109.66163725
 31
0.0
  0
LINE
  8
0
  6
CONTINUOUS
 62
       7
  5
19E
 10
-32.4316083
 20
110.39534834
 30
0.0
 11
-33.49154712
 21
109.33540951
 31
0.0
  0
CIRCLE
  8
0
  6
CONTINUOUS
 62
       7
  5
19F
 10
-75.10570718
 20
122.77150199
 30
0.0
 40
21.00252434
  0
LINE
  8
0
  6
CONTINUOUS
 62
       2
  5
1A0
 10
-61.32353006
 20
136.55367911
 30
0.0
 11
-57.16073823
 21
140.71647094
 31
0.0
  0
LINE
  8
0
  6
CONTINUOUS
 62
       7
  5
1A1
 10
-103.06774181
 20
131.38106757
 30
0.0
 11
-95.31009554
 21
117.03663324
 31
0.0
  0
LINE
  8
0
  6
CONTINUOUS
 62
       7
  5
1A2
 10
-57.77980606
 20
135.14765564
 30
0.0
 11
-56.71986723
 21
136.20759447
 31
0.0
  0
ARC
  8
0
  6
CONTINUOUS
 62
       7
  5
1A3
 10
-62.65884258
 20
135.21836659
 30
0.0
 40
6.5
 50
17.96430821
 51
45.0
  0
ARC
  8
0
  6
CONTINUOUS
 62
       7
  5
1A4
 10
-60.96250792
 20
140.45023516
 30
0.0
 40
1.0
 50
72.03569179
 51
135.0
  0
LINE
  8
0
  6
CONTINUOUS
 62
       7
  5
1A5
 10
-62.72955353
 20
140.09740311
 30
0.0
 11
-61.6696147
 21
141.15734194
 31
0.0
  0
ARC
  8
0
  6
CONTINUOUS
 62
       7
  5
1A6
 10
-62.65884258
 20
135.21836659
 30
0.0
 40
6.5
 50
45.0
 51
72.03569179
  0
LINE
  8
0
  6
CONTINUOUS
 62
       7
  5
1A7
 10
-62.72955353
 20
140.09740311
 30
0.0
 11
-57.77980606
 21
135.14765564
 31
0.0
  0
ARC
  8
0
  6
CONTINUOUS
 62
       7
  5
1A8
 10
-98.66970928
 20
133.75957758
 30
0.0
 40
5.0
 50
101.59492905
 51
208.40506714
  0
CIRCLE
  8
0
  6
CONTINUOUS
 62
       7
  5
1A9
 10
-98.66970964
 20
133.7595768
 30
0.0
 40
4.75
  0
LINE
  8
0
  6
CONTINUOUS
 62
       7
  5
1AA
 10
-100.47283231
 20
135.56269908
 30
0.0
 11
-96.86658819
 21
131.95645466
 31
0.0
  0
LINE
  8
0
  6
CONTINUOUS
 62
       7
  5
1AB
 10
-100.47283307
 20
131.95645394
 30
0.0
 11
-96.8665873
 21
135.5626994
 31
0.0
  0
ARC
  8
0
  6
CONTINUOUS
 62
       7
  5
1AC
 10
-57.42697401
 20
136.91470125
 30
0.0
 40
1.0
 50
315.0
 51
17.96430821
  0
LINE
  8
0
  6
CONTINUOUS
 62
       7
  5
1AD
 10
-99.67466539
 20
138.65754279
 30
0.0
 11
-83.69967207
 21
141.93526457
 31
0.0
  0
LINE
  8
0
  6
CONTINUOUS
 62
       7
  5
1AE
 10
-54.21241958
 20
124.91079204
 30
0.0
 11
-49.06351275
 21
109.43718127
 31
0.0
  0
CIRCLE
  8
0
  6
CONTINUOUS
 62
       7
  5
1AF
 10
-75.10570718
 20
122.77150199
 30
0.0
 40
6.5
  0
CIRCLE
  8
0
  6
CONTINUOUS
 62
       7
  5
1B0
 10
-75.10570718
 20
120.97150199
 30
0.0
 40
1.25
  0
LINE
  8
0
  6
CONTINUOUS
 62
       2
  5
1B1
 10
-72.34951475
 20
120.97150199
 30
0.0
 11
-77.76167442
 21
120.97150199
 31
0.0
  0
CIRCLE
  8
0
  6
CONTINUOUS
 62
       7
  5
1B2
 10
-75.10570718
 20
124.57150199
 30
0.0
 40
1.25
  0
LINE
  8
0
  6
CONTINUOUS
 62
       2
  5
1B3
 10
-72.34951475
 20
124.57150199
 30
0.0
 11
-77.76167442
 21
124.57150199
 31
0.0
  0
LINE
  8
0
  6
CONTINUOUS
 62
       7
  5
1B4
 10
-53.66858672
 20
102.86045314
 30
0.0
 11
-69.97005437
 21
102.40655419
 31
0.0
  0
LINE
  8
0
  6
CONTINUOUS
 62
       7
  5
1B5
 10
-87.48186083
 20
105.44560087
 30
0.0
 11
-92.4316083
 21
110.39534834
 31
0.0
  0
ARC
  8
0
  6
CONTINUOUS
 62
       7
  5
1B6
 10
-92.78444034
 20
108.62830273
 30
0.0
 40
1.0
 50
135.0
 51
197.96430821
  0
LINE
  8
0
  6
CONTINUOUS
 62
       2
  5
1B7
 10
-88.8878843
 20
108.98932487
 30
0.0
 11
-93.05067613
 21
104.82653304
 31
0.0
  0
ARC
  8
0
  6
CONTINUOUS
 62
       7
  5
1B8
 10
-87.55257178
 20
110.32463739
 30
0.0
 40
6.5
 50
225.0
 51
252.03569179
  0
ARC
  8
0
  6
CONTINUOUS
 62
       7
  5
1B9
 10
-87.55257178
 20
110.32463739
 30
0.0
 40
6.5
 50
197.96430821
 51
225.0
  0
ARC
  8
0
  6
CONTINUOUS
 62
       7
  5
1BA
 10
-89.24890644
 20
105.09276883
 30
0.0
 40
1.0
 50
252.03569179
 51
315.0
  0
LINE
  8
0
  6
CONTINUOUS
 62
       7
  5
1BB
 10
-87.48186083
 20
105.44560087
 30
0.0
 11
-88.54179966
 21
104.38566205
 31
0.0
  0
ARC
  8
0
  6
CONTINUOUS
 62
       7
  5
1BC
 10
-53.80775305
 20
107.85851604
 30
0.0
 40
5.0
 50
271.5949347
 51
18.40507279
  0
CIRCLE
  8
0
  6
CONTINUOUS
 62
       7
  5
1BD
 10
-53.80775403
 20
107.85851465
 30
0.0
 40
4.75
  0
LINE
  8
0
  6
CONTINUOUS
 62
       7
  5
1BE
 10
-55.61087669
 20
109.66163693
 30
0.0
 11
-52.00463257
 21
106.05539251
 31
0.0
  0
LINE
  8
0
  6
CONTINUOUS
 62
       7
  5
1BF
 10
-55.61087746
 20
106.05539179
 30
0.0
 11
-52.00463169
 21
109.66163725
 31
0.0
  0
LINE
  8
0
  6
CONTINUOUS
 62
       7
  5
1C0
 10
-92.4316083
 20
110.39534834
 30
0.0
 11
-93.49154712
 21
109.33540951
 31
0.0
  0
LINE
  8
0
  6
CONTINUOUS
 62
       7
  5
1C1
 10
-103.10907297
 20
144.27150199
 30
0.0
 11
-131.10570718
 21
144.27150199
 31
0.0
  0
LINE
  8
0
  6
CONTINUOUS
 62
       7
  5
1C2
 10
-103.10907297
 20
109.27150199
 30
0.0
 11
-131.10570718
 21
109.27150199
 31
0.0
  0
LINE
  8
0
  6
CONTINUOUS
 62
       2
  5
1C3
 10
-101.66431334
 20
126.77150199
 30
0.0
 11
-148.15144758
 21
126.77150199
 31
0.0
  0
CIRCLE
  8
0
  6
CONTINUOUS
 62
       7
  5
1C4
 10
-114.10907297
 20
126.77150199
 30
0.0
 40
2.75
  0
CIRCLE
  8
0
  6
CONTINUOUS
 62
       7
  5
1C5
 10
-138.10907297
 20
126.77150199
 30
0.0
 40
2.75
  0
LINE
  8
0
  6
CONTINUOUS
 62
       2
  5
1C6
 10
-114.10907297
 20
120.77150199
 30
0.0
 11
-114.10907297
 21
132.77150199
 31
0.0
  0
LINE
  8
0
  6
CONTINUOUS
 62
       2
  5
1C7
 10
-138.10907297
 20
120.77150199
 30
0.0
 11
-138.10907297
 21
132.77150199
 31
0.0
  0
CIRCLE
  8
0
  6
CONTINUOUS
 62
       7
  5
1C8
 10
-126.10907297
 20
114.77150199
 30
0.0
 40
2.75
  0
CIRCLE
  8
0
  6
CONTINUOUS
 62
       7
  5
1C9
 10
-126.10907297
 20
138.77150199
 30
0.0
 40
2.75
  0
LINE
  8
0
  6
CONTINUOUS
 62
       2
  5
1CA
 10
-120.10907297
 20
114.77150199
 30
0.0
 11
-132.10907297
 21
114.77150199
 31
0.0
  0
LINE
  8
0
  6
CONTINUOUS
 62
       2
  5
1CB
 10
-120.10907297
 20
138.77150199
 30
0.0
 11
-132.10907297
 21
138.77150199
 31
0.0
  0
CIRCLE
  8
0
  6
CONTINUOUS
 62
       7
  5
1CC
 10
-126.10907297
 20
126.77150199
 30
0.0
 40
7.25
  0
LINE
  8
0
  6
CONTINUOUS
 62
       2
  5
1CD
 10
-126.10907297
 20
110.09829831
 30
0.0
 11
-126.10907297
 21
143.21682441
 31
0.0
  0
ARC
  8
0
  6
CONTINUOUS
 62
       7
  5
1CE
 10
-131.10570718
 20
121.77150199
 30
0.0
 40
12.5
 50
180.0
 51
270.0
  0
ARC
  8
0
  6
CONTINUOUS
 62
       7
  5
1CF
 10
-131.10570718
 20
131.77150199
 30
0.0
 40
12.5
 50
90.0
 51
180.0
  0
LINE
  8
0
  6
CONTINUOUS
 62
       7
  5
1D0
 10
-143.60570718
 20
121.77150199
 30
0.0
 11
-143.60570718
 21
131.77150199
 31
0.0
  0
LINE
  8
0
  6
CONTINUOUS
 62
       7
  5
1D1
 10
-105.40907297
 20
109.27150199
 30
0.0
 11
-105.40907297
 21
144.27150199
 31
0.0
  0
LINE
  8
0
  6
CONTINUOUS
 62
       7
  5
1D2
 10
-103.10907297
 20
101.77150199
 30
0.0
 11
-103.10907297
 21
131.4574918
 31
0.0
  0
LINE
  8
0
  6
CONTINUOUS
 62
       7
  5
1D3
 10
-103.10907297
 20
101.77150199
 30
0.0
 11
72.89092703
 21
101.77150199
 31
0.0
  0
LINE
  8
0
  6
CONTINUOUS
 62
       2
  5
1D4
 10
-75.10570718
 20
23.06607722
 30
0.0
 11
-75.10570718
 21
-103.13180575
 31
0.0
  0
LINE
  8
0
  6
CONTINUOUS
 62
       2
  5
1D5
 10
-15.10570718
 20
23.06607722
 30
0.0
 11
-15.10570718
 21
-103.13180575
 31
0.0
  0
LINE
  8
0
  6
CONTINUOUS
 62
       2
  5
1D6
 10
44.89429282
 20
23.06607722
 30
0.0
 11
44.89429282
 21
-103.13180575
 31
0.0
  0
LINE
  8
0
  6
CONTINUOUS
 62
       7
  5
1D7
 10
75.19092707
 20
-97.21093404
 30
0.0
 11
77.30653278
 21
-97.21093404
 31
0.0
  0
ARC
  8
0
  6
CONTINUOUS
 62
       7
  5
1D8
 10
77.30653282
 20
-98.21093404
 30
0.0
 40
1.0
 50
23.57817848
 51
90.0
  0
ARC
  8
0
  6
CONTINUOUS
 62
       7
  5
1D9
 10
70.89092684
 20
-101.01093404
 30
0.0
 40
8.0
 50
336.42182152
 51
0.0
  0
LINE
  8
0
  6
CONTINUOUS
 62
       7
  5
1DA
 10
75.19092707
 20
-104.81093404
 30
0.0
 11
77.30653278
 21
-104.81093404
 31
0.0
  0
ARC
  8
0
  6
CONTINUOUS
 62
       7
  5
1DB
 10
77.30653282
 20
-103.81093404
 30
0.0
 40
1.0
 50
270.0
 51
336.42182152
  0
LINE
  8
0
  6
CONTINUOUS
 62
       2
  5
1DC
 10
-97.02039334
 20
-101.01093404
 30
0.0
 11
-111.05388361
 21
-101.01093404
 31
0.0
  0
LINE
  8
0
  6
CONTINUOUS
 62
       7
  5
1DD
 10
-105.40570721
 20
-97.21093404
 30
0.0
 11
-107.52131292
 21
-97.21093404
 31
0.0
  0
LINE
  8
0
  6
CONTINUOUS
 62
       7
  5
1DE
 10
-105.40570721
 20
-104.81093404
 30
0.0
 11
-107.52131292
 21
-104.81093404
 31
0.0
  0
ARC
  8
0
  6
CONTINUOUS
 62
       7
  5
1DF
 10
-107.52131296
 20
-103.81093404
 30
0.0
 40
1.0
 50
203.57817848
 51
270.0
  0
ARC
  8
0
  6
CONTINUOUS
 62
       7
  5
1E0
 10
-101.10570699
 20
-101.01093404
 30
0.0
 40
8.0
 50
180.0
 51
203.57817848
  0
ARC
  8
0
  6
CONTINUOUS
 62
       7
  5
1E1
 10
-107.52131296
 20
-98.21093404
 30
0.0
 40
1.0
 50
90.0
 51
156.42182152
  0
LINE
  8
0
  6
CONTINUOUS
 62
       7
  5
1E2
 10
-109.10570699
 20
-101.01093404
 30
0.0
 11
-107.04493348
 21
-98.95016053
 31
0.0
  0
LINE
  8
0
  6
CONTINUOUS
 62
       7
  5
1E3
 10
-109.10570699
 20
-101.01093404
 30
0.0
 11
-107.04493348
 21
-103.07170755
 31
0.0
  0
ARC
  8
0
  6
CONTINUOUS
 62
       7
  5
1E4
 10
-101.10570699
 20
-101.01093404
 30
0.0
 40
8.0
 50
156.42182152
 51
180.0
  0
LINE
  8
0
  6
CONTINUOUS
 62
       2
  5
1E5
 10
66.8056132
 20
138.77150199
 30
0.0
 11
80.83910347
 21
138.77150199
 31
0.0
  0
LINE
  8
0
  6
CONTINUOUS
 62
       7
  5
1E6
 10
75.19092707
 20
142.57150199
 30
0.0
 11
77.30653278
 21
142.57150199
 31
0.0
  0
LINE
  8
0
  6
CONTINUOUS
 62
       7
  5
1E7
 10
75.19092707
 20
134.97150199
 30
0.0
 11
77.30653278
 21
134.97150199
 31
0.0
  0
ARC
  8
0
  6
CONTINUOUS
 62
       7
  5
1E8
 10
77.30653282
 20
135.97150199
 30
0.0
 40
1.0
 50
270.0
 51
336.42182152
  0
ARC
  8
0
  6
CONTINUOUS
 62
       7
  5
1E9
 10
70.89092684
 20
138.77150199
 30
0.0
 40
8.0
 50
336.42182152
 51
0.0
  0
ARC
  8
0
  6
CONTINUOUS
 62
       7
  5
1EA
 10
77.30653282
 20
141.57150199
 30
0.0
 40
1.0
 50
23.57817848
 51
90.0
  0
LINE
  8
0
  6
CONTINUOUS
 62
       7
  5
1EB
 10
78.89092684
 20
138.77150199
 30
0.0
 11
76.83015333
 21
140.8322755
 31
0.0
  0
LINE
  8
0
  6
CONTINUOUS
 62
       7
  5
1EC
 10
78.89092684
 20
138.77150199
 30
0.0
 11
76.83015333
 21
136.71072848
 31
0.0
  0
ARC
  8
0
  6
CONTINUOUS
 62
       7
  5
1ED
 10
70.89092684
 20
138.77150199
 30
0.0
 40
8.0
 50
0.0
 51
23.57817848
  0
LINE
  8
0
  6
CONTINUOUS
 62
       2
  5
1EE
 10
66.8056132
 20
114.77150199
 30
0.0
 11
80.83910347
 21
114.77150199
 31
0.0
  0
LINE
  8
0
  6
CONTINUOUS
 62
       7
  5
1EF
 10
75.19092707
 20
110.97150199
 30
0.0
 11
77.30653278
 21
110.97150199
 31
0.0
  0
LINE
  8
0
  6
CONTINUOUS
 62
       7
  5
1F0
 10
75.19092707
 20
118.57150199
 30
0.0
 11
77.30653278
 21
118.57150199
 31
0.0
  0
ARC
  8
0
  6
CONTINUOUS
 62
       7
  5
1F1
 10
77.30653282
 20
117.57150199
 30
0.0
 40
1.0
 50
23.57817848
 51
90.0
  0
ARC
  8
0
  6
CONTINUOUS
 62
       7
  5
1F2
 10
70.89092684
 20
114.77150199
 30
0.0
 40
8.0
 50
0.0
 51
23.57817848
  0
ARC
  8
0
  6
CONTINUOUS
 62
       7
  5
1F3
 10
77.30653282
 20
111.97150199
 30
0.0
 40
1.0
 50
270.0
 51
336.42182152
  0
LINE
  8
0
  6
CONTINUOUS
 62
       7
  5
1F4
 10
78.89092684
 20
114.77150199
 30
0.0
 11
76.83015333
 21
112.71072848
 31
0.0
  0
LINE
  8
0
  6
CONTINUOUS
 62
       7
  5
1F5
 10
78.89092684
 20
114.77150199
 30
0.0
 11
76.83015333
 21
116.8322755
 31
0.0
  0
ARC
  8
0
  6
CONTINUOUS
 62
       7
  5
1F6
 10
70.89092684
 20
114.77150199
 30
0.0
 40
8.0
 50
336.42182152
 51
0.0
  0
LINE
  8
0
  6
CONTINUOUS
 62
       2
  5
1F7
 10
-97.02375913
 20
138.77150199
 30
0.0
 11
-111.0572494
 21
138.77150199
 31
0.0
  0
LINE
  8
0
  6
CONTINUOUS
 62
       7
  5
1F8
 10
-105.409073
 20
142.57150199
 30
0.0
 11
-107.52467871
 21
142.57150199
 31
0.0
  0
LINE
  8
0
  6
CONTINUOUS
 62
       7
  5
1F9
 10
-105.409073
 20
134.97150199
 30
0.0
 11
-107.52467871
 21
134.97150199
 31
0.0
  0
LINE
  8
0
  6
CONTINUOUS
 62
       7
  5
1FA
 10
-109.10907278
 20
138.77150199
 30
0.0
 11
-107.04829927
 21
140.8322755
 31
0.0
  0
LINE
  8
0
  6
CONTINUOUS
 62
       7
  5
1FB
 10
-109.10907278
 20
138.77150199
 30
0.0
 11
-107.04829927
 21
136.71072848
 31
0.0
  0
ARC
  8
0
  6
CONTINUOUS
 62
       7
  5
1FC
 10
-101.10907278
 20
138.77150199
 30
0.0
 40
8.0
 50
156.42182152
 51
180.0
  0
ARC
  8
0
  6
CONTINUOUS
 62
       7
  5
1FD
 10
-107.52467875
 20
141.57150199
 30
0.0
 40
1.0
 50
90.0
 51
156.42182152
  0
ARC
  8
0
  6
CONTINUOUS
 62
       7
  5
1FE
 10
-101.10907278
 20
138.77150199
 30
0.0
 40
8.0
 50
180.0
 51
203.57817848
  0
ARC
  8
0
  6
CONTINUOUS
 62
       7
  5
1FF
 10
-107.52467875
 20
135.97150199
 30
0.0
 40
1.0
 50
203.57817848
 51
270.0
  0
LINE
  8
0
  6
CONTINUOUS
 62
       2
  5
200
 10
-97.02375913
 20
114.77150199
 30
0.0
 11
-111.0572494
 21
114.77150199
 31
0.0
  0
LINE
  8
0
  6
CONTINUOUS
 62
       7
  5
201
 10
-105.409073
 20
110.97150199
 30
0.0
 11
-107.52467871
 21
110.97150199
 31
0.0
  0
LINE
  8
0
  6
CONTINUOUS
 62
       7
  5
202
 10
-105.409073
 20
118.57150199
 30
0.0
 11
-107.52467871
 21
118.57150199
 31
0.0
  0
LINE
  8
0
  6
CONTINUOUS
 62
       7
  5
203
 10
-109.10907278
 20
114.77150199
 30
0.0
 11
-107.04829927
 21
112.71072848
 31
0.0
  0
LINE
  8
0
  6
CONTINUOUS
 62
       7
  5
204
 10
-109.10907278
 20
114.77150199
 30
0.0
 11
-107.04829927
 21
116.8322755
 31
0.0
  0
ARC
  8
0
  6
CONTINUOUS
 62
       7
  5
205
 10
-107.52467875
 20
117.57150199
 30
0.0
 40
1.0
 50
90.0
 51
156.42182152
  0
ARC
  8
0
  6
CONTINUOUS
 62
       7
  5
206
 10
-101.10907278
 20
114.77150199
 30
0.0
 40
8.0
 50
156.42182152
 51
180.0
  0
ARC
  8
0
  6
CONTINUOUS
 62
       7
  5
207
 10
-107.52467875
 20
111.97150199
 30
0.0
 40
1.0
 50
203.57817848
 51
270.0
  0
ARC
  8
0
  6
CONTINUOUS
 62
       7
  5
208
 10
-101.10907278
 20
114.77150199
 30
0.0
 40
8.0
 50
180.0
 51
203.57817848
  0
POLYLINE
  8
0
  6
CONTINUOUS
 62
       7
  5
209
 66
       1
 10
0.0
 20
0.0
 30
0.0
 70
       1
  0
VERTEX
  8
0
  6
CONTINUOUS
 62
       7
  5
4A4
 10
-89.90738774
 20
-63.50695884
 30
0.0
  0
VERTEX
  8
0
  6
CONTINUOUS
 62
       7
  5
4A5
 10
-90.30007632
 20
-63.52886237
 30
0.0
  0
VERTEX
  8
0
  6
CONTINUOUS
 62
       7
  5
4A6
 10
-90.69013827
 20
-63.60014183
 30
0.0
  0
VERTEX
  8
0
  6
CONTINUOUS
 62
       7
  5
4A7
 10
-91.07460499
 20
-63.72025475
 30
0.0
  0
VERTEX
  8
0
  6
CONTINUOUS
 62
       7
  5
4A8
 10
-91.45055046
 20
-63.888287
 30
0.0
  0
VERTEX
  8
0
  6
CONTINUOUS
 62
       7
  5
4A9
 10
-91.8151135
 20
-64.10295974
 30
0.0
  0
VERTEX
  8
0
  6
CONTINUOUS
 62
       7
  5
4AA
 10
-92.16551958
 20
-64.36263918
 30
0.0
  0
VERTEX
  8
0
  6
CONTINUOUS
 62
       7
  5
4AB
 10
-92.49910187
 20
-64.66534902
 30
0.0
  0
VERTEX
  8
0
  6
CONTINUOUS
 62
       7
  5
4AC
 10
-92.81332164
 20
-65.00878544
 30
0.0
  0
VERTEX
  8
0
  6
CONTINUOUS
 62
       7
  5
4AD
 10
-93.10578747
 20
-65.39033469
 30
0.0
  0
VERTEX
  8
0
  6
CONTINUOUS
 62
       7
  5
4AE
 10
-93.37427351
 20
-65.80709294
 30
0.0
  0
VERTEX
  8
0
  6
CONTINUOUS
 62
       7
  5
4AF
 10
-93.61673644
 20
-66.25588842
 30
0.0
  0
VERTEX
  8
0
  6
CONTINUOUS
 62
       7
  5
4B0
 10
-93.83133096
 20
-66.73330551
 30
0.0
  0
VERTEX
  8
0
  6
CONTINUOUS
 62
       7
  5
4B1
 10
-94.01642388
 20
-67.2357108
 30
0.0
  0
VERTEX
  8
0
  6
CONTINUOUS
 62
       7
  5
4B2
 10
-94.17060652
 20
-67.75928066
 30
0.0
  0
VERTEX
  8
0
  6
CONTINUOUS
 62
       7
  5
4B3
 10
-94.29270547
 20
-68.30003043
 30
0.0
  0
VERTEX
  8
0
  6
CONTINUOUS
 62
       7
  5
4B4
 10
-94.38179148
 20
-68.85384465
 30
0.0
  0
VERTEX
  8
0
  6
CONTINUOUS
 62
       7
  5
4B5
 10
-94.43718655
 20
-69.41650848
 30
0.0
  0
VERTEX
  8
0
  6
CONTINUOUS
 62
       7
  5
4B6
 10
-94.45846909
 20
-69.9837397
 30
0.0
  0
VERTEX
  8
0
  6
CONTINUOUS
 62
       7
  5
4B7
 10
-94.44547712
 20
-70.55122135
 30
0.0
  0
VERTEX
  8
0
  6
CONTINUOUS
 62
       7
  5
4B8
 10
-94.39830953
 20
-71.11463453
 30
0.0
  0
VERTEX
  8
0
  6
CONTINUOUS
 62
       7
  5
4B9
 10
-94.31732529
 20
-71.66969135
 30
0.0
  0
VERTEX
  8
0
  6
CONTINUOUS
 62
       7
  5
4BA
 10
-94.20314074
 20
-72.21216747
 30
0.0
  0
VERTEX
  8
0
  6
CONTINUOUS
 62
       7
  5
4BB
 10
-94.05662488
 20
-72.73793434
 30
0.0
  0
VERTEX
  8
0
  6
CONTINUOUS
 62
       7
  5
4BC
 10
-93.8788928
 20
-73.24299054
 30
0.0
  0
VERTEX
  8
0
  6
CONTINUOUS
 62
       7
  5
4BD
 10
-93.67129714
 20
-73.72349229
 30
0.0
  0
VERTEX
  8
0
  6
CONTINUOUS
 62
       7
  5
4BE
 10
-93.43541783
 20
-74.17578269
 30
0.0
  0
VERTEX
  8
0
  6
CONTINUOUS
 62
       7
  5
4BF
 10
-93.17305006
 20
-74.59641953
 30
0.0
  0
VERTEX
  8
0
  6
CONTINUOUS
 62
       7
  5
4C0
 10
-92.8861906
 20
-74.98220151
 30
0.0
  0
VERTEX
  8
0
  6
CONTINUOUS
 62
       7
  5
4C1
 10
-92.57702263
 20
-75.3301926
 30
0.0
  0
VERTEX
  8
0
  6
CONTINUOUS
 62
       7
  5
4C2
 10
-92.2478991
 20
-75.63774438
 30
0.0
  0
VERTEX
  8
0
  6
CONTINUOUS
 62
       7
  5
4C3
 10
-91.90132483
 20
-75.90251619
 30
0.0
  0
VERTEX
  8
0
  6
CONTINUOUS
 62
       7
  5
4C4
 10
-91.53993748
 20
-76.12249295
 30
0.0
  0
VERTEX
  8
0
  6
CONTINUOUS
 62
       7
  5
4C5
 10
-91.16648741
 20
-76.29600052
 30
0.0
  0
VERTEX
  8
0
  6
CONTINUOUS
 62
       7
  5
4C6
 10
-90.7838168
 20
-76.42171839
 30
0.0
  0
VERTEX
  8
0
  6
CONTINUOUS
 62
       7
  5
4C7
 10
-90.39483802
 20
-76.49868978
 30
0.0
  0
VERTEX
  8
0
  6
CONTINUOUS
 62
       7
  5
4C8
 10
-90.00251142
 20
-76.52632888
 30
0.0
  0
VERTEX
  8
0
  6
CONTINUOUS
 62
       7
  5
4C9
 10
-89.60982285
 20
-76.50442535
 30
0.0
  0
VERTEX
  8
0
  6
CONTINUOUS
 62
       7
  5
4CA
 10
-89.21976089
 20
-76.43314588
 30
0.0
  0
VERTEX
  8
0
  6
CONTINUOUS
 62
       7
  5
4CB
 10
-88.83529417
 20
-76.31303296
 30
0.0
  0
VERTEX
  8
0
  6
CONTINUOUS
 62
       7
  5
4CC
 10
-88.4593487
 20
-76.14500072
 30
0.0
  0
VERTEX
  8
0
  6
CONTINUOUS
 62
       7
  5
4CD
 10
-88.09478566
 20
-75.93032798
 30
0.0
  0
VERTEX
  8
0
  6
CONTINUOUS
 62
       7
  5
4CE
 10
-87.74437959
 20
-75.67064853
 30
0.0
  0
VERTEX
  8
0
  6
CONTINUOUS
 62
       7
  5
4CF
 10
-87.41079729
 20
-75.3679387
 30
0.0
  0
VERTEX
  8
0
  6
CONTINUOUS
 62
       7
  5
4D0
 10
-87.09657753
 20
-75.02450228
 30
0.0
  0
VERTEX
  8
0
  6
CONTINUOUS
 62
       7
  5
4D1
 10
-86.8041117
 20
-74.64295303
 30
0.0
  0
VERTEX
  8
0
  6
CONTINUOUS
 62
       7
  5
4D2
 10
-86.53562565
 20
-74.22619477
 30
0.0
  0
VERTEX
  8
0
  6
CONTINUOUS
 62
       7
  5
4D3
 10
-86.29316272
 20
-73.7773993
 30
0.0
  0
VERTEX
  8
0
  6
CONTINUOUS
 62
       7
  5
4D4
 10
-86.0785682
 20
-73.2999822
 30
0.0
  0
VERTEX
  8
0
  6
CONTINUOUS
 62
       7
  5
4D5
 10
-85.89347529
 20
-72.79757691
 30
0.0
  0
VERTEX
  8
0
  6
CONTINUOUS
 62
       7
  5
4D6
 10
-85.73929264
 20
-72.27400705
 30
0.0
  0
VERTEX
  8
0
  6
CONTINUOUS
 62
       7
  5
4D7
 10
-85.61719369
 20
-71.73325729
 30
0.0
  0
VERTEX
  8
0
  6
CONTINUOUS
 62
       7
  5
4D8
 10
-85.52810768
 20
-71.17944306
 30
0.0
  0
VERTEX
  8
0
  6
CONTINUOUS
 62
       7
  5
4D9
 10
-85.47271262
 20
-70.61677923
 30
0.0
  0
VERTEX
  8
0
  6
CONTINUOUS
 62
       7
  5
4DA
 10
-85.45143008
 20
-70.04954801
 30
0.0
  0
VERTEX
  8
0
  6
CONTINUOUS
 62
       7
  5
4DB
 10
-85.46442204
 20
-69.48206637
 30
0.0
  0
VERTEX
  8
0
  6
CONTINUOUS
 62
       7
  5
4DC
 10
-85.51158963
 20
-68.91865318
 30
0.0
  0
VERTEX
  8
0
  6
CONTINUOUS
 62
       7
  5
4DD
 10
-85.59257387
 20
-68.36359637
 30
0.0
  0
VERTEX
  8
0
  6
CONTINUOUS
 62
       7
  5
4DE
 10
-85.70675843
 20
-67.82112024
 30
0.0
  0
VERTEX
  8
0
  6
CONTINUOUS
 62
       7
  5
4DF
 10
-85.85327428
 20
-67.29535338
 30
0.0
  0
VERTEX
  8
0
  6
CONTINUOUS
 62
       7
  5
4E0
 10
-86.03100637
 20
-66.79029718
 30
0.0
  0
VERTEX
  8
0
  6
CONTINUOUS
 62
       7
  5
4E1
 10
-86.23860202
 20
-66.30979542
 30
0.0
  0
VERTEX
  8
0
  6
CONTINUOUS
 62
       7
  5
4E2
 10
-86.47448133
 20
-65.85750503
 30
0.0
  0
VERTEX
  8
0
  6
CONTINUOUS
 62
       7
  5
4E3
 10
-86.7368491
 20
-65.43686818
 30
0.0
  0
VERTEX
  8
0
  6
CONTINUOUS
 62
       7
  5
4E4
 10
-87.02370856
 20
-65.0510862
 30
0.0
  0
VERTEX
  8
0
  6
CONTINUOUS
 62
       7
  5
4E5
 10
-87.33287654
 20
-64.70309511
 30
0.0
  0
VERTEX
  8
0
  6
CONTINUOUS
 62
       7
  5
4E6
 10
-87.66200007
 20
-64.39554333
 30
0.0
  0
VERTEX
  8
0
  6
CONTINUOUS
 62
       7
  5
4E7
 10
-88.00857433
 20
-64.13077153
 30
0.0
  0
VERTEX
  8
0
  6
CONTINUOUS
 62
       7
  5
4E8
 10
-88.36996169
 20
-63.91079476
 30
0.0
  0
VERTEX
  8
0
  6
CONTINUOUS
 62
       7
  5
4E9
 10
-88.74341176
 20
-63.7372872
 30
0.0
  0
VERTEX
  8
0
  6
CONTINUOUS
 62
       7
  5
4EA
 10
-89.12608236
 20
-63.61156932
 30
0.0
  0
VERTEX
  8
0
  6
CONTINUOUS
 62
       7
  5
4EB
 10
-89.51506114
 20
-63.53459794
 30
0.0
  0
VERTEX
  8
0
  6
CONTINUOUS
 62
       7
  5
4EC
 10
-89.90738774
 20
-63.50695884
 30
0.0
  0
SEQEND
  8
0
  6
CONTINUOUS
 62
       7
  5
4ED
  0
POLYLINE
  8
0
  6
CONTINUOUS
 62
       7
  5
20A
 66
       1
 10
0.0
 20
0.0
 30
0.0
  0
VERTEX
  8
0
  6
CONTINUOUS
 62
       7
  5
4EE
 10
-87.782874
 20
-64.29677329
 30
0.0
  0
VERTEX
  8
0
  6
CONTINUOUS
 62
       7
  5
4EF
 10
-88.2945347
 20
-64.76379042
 30
0.0
  0
VERTEX
  8
0
  6
CONTINUOUS
 62
       7
  5
4F0
 10
-88.75876719
 20
-65.32517061
 30
0.0
  0
VERTEX
  8
0
  6
CONTINUOUS
 62
       7
  5
4F1
 10
-89.16723192
 20
-65.97082915
 30
0.0
  0
VERTEX
  8
0
  6
CONTINUOUS
 62
       7
  5
4F2
 10
-89.51259117
 20
-66.68916732
 30
0.0
  0
VERTEX
  8
0
  6
CONTINUOUS
 62
       7
  5
4F3
 10
-89.78864086
 20
-67.46728079
 30
0.0
  0
VERTEX
  8
0
  6
CONTINUOUS
 62
       7
  5
4F4
 10
-89.99042197
 20
-68.29119141
 30
0.0
  0
VERTEX
  8
0
  6
CONTINUOUS
 62
       7
  5
4F5
 10
-90.1143097
 20
-69.14609833
 30
0.0
  0
VERTEX
  8
0
  6
CONTINUOUS
 62
       7
  5
4F6
 10
-90.15807849
 20
-70.01664386
 30
0.0
  0
VERTEX
  8
0
  6
CONTINUOUS
 62
       7
  5
4F7
 10
-90.12094208
 20
-70.88718938
 30
0.0
  0
VERTEX
  8
0
  6
CONTINUOUS
 62
       7
  5
4F8
 10
-90.00356759
 20
-71.7420963
 30
0.0
  0
VERTEX
  8
0
  6
CONTINUOUS
 62
       7
  5
4F9
 10
-89.80806356
 20
-72.56600692
 30
0.0
  0
VERTEX
  8
0
  6
CONTINUOUS
 62
       7
  5
4FA
 10
-89.53794206
 20
-73.34412039
 30
0.0
  0
VERTEX
  8
0
  6
CONTINUOUS
 62
       7
  5
4FB
 10
-89.19805557
 20
-74.06245857
 30
0.0
  0
VERTEX
  8
0
  6
CONTINUOUS
 62
       7
  5
4FC
 10
-88.79450989
 20
-74.7081171
 30
0.0
  0
VERTEX
  8
0
  6
CONTINUOUS
 62
       7
  5
4FD
 10
-88.33455436
 20
-75.26949729
 30
0.0
  0
VERTEX
  8
0
  6
CONTINUOUS
 62
       7
  5
4FE
 10
-87.82645169
 20
-75.73651442
 30
0.0
  0
SEQEND
  8
0
  6
CONTINUOUS
 62
       7
  5
4FF
  0
LINE
  8
0
  6
CONTINUOUS
 62
       7
  5
20B
 10
72.89092703
 20
101.77150199
 30
0.0
 11
72.89092703
 21
144.27150199
 31
0.0
  0
LINE
  8
0
  6
CONTINUOUS
 62
       7
  5
20C
 10
-103.10907297
 20
136.06002319
 30
0.0
 11
-103.10907297
 21
144.27150199
 31
0.0
  0
LINE
  8
0
  6
CONTINUOUS
 62
       2
  5
20D
 10
-29.95673456
 20
-42.77838419
 30
0.0
 11
-29.95673456
 21
-77.87430464
 31
0.0
  0
LINE
  8
0
  6
CONTINUOUS
 62
       2
  5
20E
 10
-24.11855223
 20
-70.01664386
 30
0.0
 11
-35.36261313
 21
-70.01664386
 31
0.0
  0
POLYLINE
  8
0
  6
CONTINUOUS
 62
       7
  5
20F
 66
       1
 10
0.0
 20
0.0
 30
0.0
  0
VERTEX
  8
0
  6
CONTINUOUS
 62
       7
  5
500
 10
-27.782874
 20
-64.29677329
 30
0.0
  0
VERTEX
  8
0
  6
CONTINUOUS
 62
       7
  5
501
 10
-28.2945347
 20
-64.76379042
 30
0.0
  0
VERTEX
  8
0
  6
CONTINUOUS
 62
       7
  5
502
 10
-28.75876719
 20
-65.32517061
 30
0.0
  0
VERTEX
  8
0
  6
CONTINUOUS
 62
       7
  5
503
 10
-29.16723192
 20
-65.97082915
 30
0.0
  0
VERTEX
  8
0
  6
CONTINUOUS
 62
       7
  5
504
 10
-29.51259117
 20
-66.68916732
 30
0.0
  0
VERTEX
  8
0
  6
CONTINUOUS
 62
       7
  5
505
 10
-29.78864086
 20
-67.46728079
 30
0.0
  0
VERTEX
  8
0
  6
CONTINUOUS
 62
       7
  5
506
 10
-29.99042197
 20
-68.29119141
 30
0.0
  0
VERTEX
  8
0
  6
CONTINUOUS
 62
       7
  5
507
 10
-30.1143097
 20
-69.14609833
 30
0.0
  0
VERTEX
  8
0
  6
CONTINUOUS
 62
       7
  5
508
 10
-30.15807849
 20
-70.01664386
 30
0.0
  0
VERTEX
  8
0
  6
CONTINUOUS
 62
       7
  5
509
 10
-30.12094208
 20
-70.88718938
 30
0.0
  0
VERTEX
  8
0
  6
CONTINUOUS
 62
       7
  5
50A
 10
-30.00356759
 20
-71.7420963
 30
0.0
  0
VERTEX
  8
0
  6
CONTINUOUS
 62
       7
  5
50B
 10
-29.80806356
 20
-72.56600692
 30
0.0
  0
VERTEX
  8
0
  6
CONTINUOUS
 62
       7
  5
50C
 10
-29.53794206
 20
-73.34412039
 30
0.0
  0
VERTEX
  8
0
  6
CONTINUOUS
 62
       7
  5
50D
 10
-29.19805557
 20
-74.06245857
 30
0.0
  0
VERTEX
  8
0
  6
CONTINUOUS
 62
       7
  5
50E
 10
-28.79450989
 20
-74.7081171
 30
0.0
  0
VERTEX
  8
0
  6
CONTINUOUS
 62
       7
  5
50F
 10
-28.33455436
 20
-75.26949729
 30
0.0
  0
VERTEX
  8
0
  6
CONTINUOUS
 62
       7
  5
510
 10
-27.82645169
 20
-75.73651442
 30
0.0
  0
SEQEND
  8
0
  6
CONTINUOUS
 62
       7
  5
511
  0
POLYLINE
  8
0
  6
CONTINUOUS
 62
       7
  5
210
 66
       1
 10
0.0
 20
0.0
 30
0.0
 70
       1
  0
VERTEX
  8
0
  6
CONTINUOUS
 62
       7
  5
512
 10
-29.90738774
 20
-63.50695884
 30
0.0
  0
VERTEX
  8
0
  6
CONTINUOUS
 62
       7
  5
513
 10
-30.30007632
 20
-63.52886237
 30
0.0
  0
VERTEX
  8
0
  6
CONTINUOUS
 62
       7
  5
514
 10
-30.69013827
 20
-63.60014183
 30
0.0
  0
VERTEX
  8
0
  6
CONTINUOUS
 62
       7
  5
515
 10
-31.07460499
 20
-63.72025475
 30
0.0
  0
VERTEX
  8
0
  6
CONTINUOUS
 62
       7
  5
516
 10
-31.45055046
 20
-63.888287
 30
0.0
  0
VERTEX
  8
0
  6
CONTINUOUS
 62
       7
  5
517
 10
-31.8151135
 20
-64.10295974
 30
0.0
  0
VERTEX
  8
0
  6
CONTINUOUS
 62
       7
  5
518
 10
-32.16551958
 20
-64.36263918
 30
0.0
  0
VERTEX
  8
0
  6
CONTINUOUS
 62
       7
  5
519
 10
-32.49910187
 20
-64.66534902
 30
0.0
  0
VERTEX
  8
0
  6
CONTINUOUS
 62
       7
  5
51A
 10
-32.81332164
 20
-65.00878544
 30
0.0
  0
VERTEX
  8
0
  6
CONTINUOUS
 62
       7
  5
51B
 10
-33.10578747
 20
-65.39033469
 30
0.0
  0
VERTEX
  8
0
  6
CONTINUOUS
 62
       7
  5
51C
 10
-33.37427351
 20
-65.80709294
 30
0.0
  0
VERTEX
  8
0
  6
CONTINUOUS
 62
       7
  5
51D
 10
-33.61673644
 20
-66.25588842
 30
0.0
  0
VERTEX
  8
0
  6
CONTINUOUS
 62
       7
  5
51E
 10
-33.83133096
 20
-66.73330551
 30
0.0
  0
VERTEX
  8
0
  6
CONTINUOUS
 62
       7
  5
51F
 10
-34.01642388
 20
-67.2357108
 30
0.0
  0
VERTEX
  8
0
  6
CONTINUOUS
 62
       7
  5
520
 10
-34.17060652
 20
-67.75928066
 30
0.0
  0
VERTEX
  8
0
  6
CONTINUOUS
 62
       7
  5
521
 10
-34.29270547
 20
-68.30003043
 30
0.0
  0
VERTEX
  8
0
  6
CONTINUOUS
 62
       7
  5
522
 10
-34.38179148
 20
-68.85384465
 30
0.0
  0
VERTEX
  8
0
  6
CONTINUOUS
 62
       7
  5
523
 10
-34.43718655
 20
-69.41650848
 30
0.0
  0
VERTEX
  8
0
  6
CONTINUOUS
 62
       7
  5
524
 10
-34.45846909
 20
-69.9837397
 30
0.0
  0
VERTEX
  8
0
  6
CONTINUOUS
 62
       7
  5
525
 10
-34.44547712
 20
-70.55122135
 30
0.0
  0
VERTEX
  8
0
  6
CONTINUOUS
 62
       7
  5
526
 10
-34.39830953
 20
-71.11463453
 30
0.0
  0
VERTEX
  8
0
  6
CONTINUOUS
 62
       7
  5
527
 10
-34.31732529
 20
-71.66969135
 30
0.0
  0
VERTEX
  8
0
  6
CONTINUOUS
 62
       7
  5
528
 10
-34.20314074
 20
-72.21216747
 30
0.0
  0
VERTEX
  8
0
  6
CONTINUOUS
 62
       7
  5
529
 10
-34.05662488
 20
-72.73793434
 30
0.0
  0
VERTEX
  8
0
  6
CONTINUOUS
 62
       7
  5
52A
 10
-33.8788928
 20
-73.24299054
 30
0.0
  0
VERTEX
  8
0
  6
CONTINUOUS
 62
       7
  5
52B
 10
-33.67129714
 20
-73.72349229
 30
0.0
  0
VERTEX
  8
0
  6
CONTINUOUS
 62
       7
  5
52C
 10
-33.43541783
 20
-74.17578269
 30
0.0
  0
VERTEX
  8
0
  6
CONTINUOUS
 62
       7
  5
52D
 10
-33.17305006
 20
-74.59641953
 30
0.0
  0
VERTEX
  8
0
  6
CONTINUOUS
 62
       7
  5
52E
 10
-32.8861906
 20
-74.98220151
 30
0.0
  0
VERTEX
  8
0
  6
CONTINUOUS
 62
       7
  5
52F
 10
-32.57702263
 20
-75.3301926
 30
0.0
  0
VERTEX
  8
0
  6
CONTINUOUS
 62
       7
  5
530
 10
-32.2478991
 20
-75.63774438
 30
0.0
  0
VERTEX
  8
0
  6
CONTINUOUS
 62
       7
  5
531
 10
-31.90132483
 20
-75.90251619
 30
0.0
  0
VERTEX
  8
0
  6
CONTINUOUS
 62
       7
  5
532
 10
-31.53993748
 20
-76.12249295
 30
0.0
  0
VERTEX
  8
0
  6
CONTINUOUS
 62
       7
  5
533
 10
-31.16648741
 20
-76.29600052
 30
0.0
  0
VERTEX
  8
0
  6
CONTINUOUS
 62
       7
  5
534
 10
-30.7838168
 20
-76.42171839
 30
0.0
  0
VERTEX
  8
0
  6
CONTINUOUS
 62
       7
  5
535
 10
-30.39483802
 20
-76.49868978
 30
0.0
  0
VERTEX
  8
0
  6
CONTINUOUS
 62
       7
  5
536
 10
-30.00251142
 20
-76.52632888
 30
0.0
  0
VERTEX
  8
0
  6
CONTINUOUS
 62
       7
  5
537
 10
-29.60982285
 20
-76.50442535
 30
0.0
  0
VERTEX
  8
0
  6
CONTINUOUS
 62
       7
  5
538
 10
-29.21976089
 20
-76.43314588
 30
0.0
  0
VERTEX
  8
0
  6
CONTINUOUS
 62
       7
  5
539
 10
-28.83529417
 20
-76.31303296
 30
0.0
  0
VERTEX
  8
0
  6
CONTINUOUS
 62
       7
  5
53A
 10
-28.4593487
 20
-76.14500072
 30
0.0
  0
VERTEX
  8
0
  6
CONTINUOUS
 62
       7
  5
53B
 10
-28.09478566
 20
-75.93032798
 30
0.0
  0
VERTEX
  8
0
  6
CONTINUOUS
 62
       7
  5
53C
 10
-27.74437959
 20
-75.67064853
 30
0.0
  0
VERTEX
  8
0
  6
CONTINUOUS
 62
       7
  5
53D
 10
-27.41079729
 20
-75.3679387
 30
0.0
  0
VERTEX
  8
0
  6
CONTINUOUS
 62
       7
  5
53E
 10
-27.09657753
 20
-75.02450228
 30
0.0
  0
VERTEX
  8
0
  6
CONTINUOUS
 62
       7
  5
53F
 10
-26.8041117
 20
-74.64295303
 30
0.0
  0
VERTEX
  8
0
  6
CONTINUOUS
 62
       7
  5
540
 10
-26.53562565
 20
-74.22619477
 30
0.0
  0
VERTEX
  8
0
  6
CONTINUOUS
 62
       7
  5
541
 10
-26.29316272
 20
-73.7773993
 30
0.0
  0
VERTEX
  8
0
  6
CONTINUOUS
 62
       7
  5
542
 10
-26.0785682
 20
-73.2999822
 30
0.0
  0
VERTEX
  8
0
  6
CONTINUOUS
 62
       7
  5
543
 10
-25.89347529
 20
-72.79757691
 30
0.0
  0
VERTEX
  8
0
  6
CONTINUOUS
 62
       7
  5
544
 10
-25.73929264
 20
-72.27400705
 30
0.0
  0
VERTEX
  8
0
  6
CONTINUOUS
 62
       7
  5
545
 10
-25.61719369
 20
-71.73325729
 30
0.0
  0
VERTEX
  8
0
  6
CONTINUOUS
 62
       7
  5
546
 10
-25.52810768
 20
-71.17944306
 30
0.0
  0
VERTEX
  8
0
  6
CONTINUOUS
 62
       7
  5
547
 10
-25.47271262
 20
-70.61677923
 30
0.0
  0
VERTEX
  8
0
  6
CONTINUOUS
 62
       7
  5
548
 10
-25.45143008
 20
-70.04954801
 30
0.0
  0
VERTEX
  8
0
  6
CONTINUOUS
 62
       7
  5
549
 10
-25.46442204
 20
-69.48206637
 30
0.0
  0
VERTEX
  8
0
  6
CONTINUOUS
 62
       7
  5
54A
 10
-25.51158963
 20
-68.91865318
 30
0.0
  0
VERTEX
  8
0
  6
CONTINUOUS
 62
       7
  5
54B
 10
-25.59257387
 20
-68.36359637
 30
0.0
  0
VERTEX
  8
0
  6
CONTINUOUS
 62
       7
  5
54C
 10
-25.70675843
 20
-67.82112024
 30
0.0
  0
VERTEX
  8
0
  6
CONTINUOUS
 62
       7
  5
54D
 10
-25.85327428
 20
-67.29535338
 30
0.0
  0
VERTEX
  8
0
  6
CONTINUOUS
 62
       7
  5
54E
 10
-26.03100637
 20
-66.79029718
 30
0.0
  0
VERTEX
  8
0
  6
CONTINUOUS
 62
       7
  5
54F
 10
-26.23860202
 20
-66.30979542
 30
0.0
  0
VERTEX
  8
0
  6
CONTINUOUS
 62
       7
  5
550
 10
-26.47448133
 20
-65.85750503
 30
0.0
  0
VERTEX
  8
0
  6
CONTINUOUS
 62
       7
  5
551
 10
-26.7368491
 20
-65.43686818
 30
0.0
  0
VERTEX
  8
0
  6
CONTINUOUS
 62
       7
  5
552
 10
-27.02370856
 20
-65.0510862
 30
0.0
  0
VERTEX
  8
0
  6
CONTINUOUS
 62
       7
  5
553
 10
-27.33287654
 20
-64.70309511
 30
0.0
  0
VERTEX
  8
0
  6
CONTINUOUS
 62
       7
  5
554
 10
-27.66200007
 20
-64.39554333
 30
0.0
  0
VERTEX
  8
0
  6
CONTINUOUS
 62
       7
  5
555
 10
-28.00857433
 20
-64.13077153
 30
0.0
  0
VERTEX
  8
0
  6
CONTINUOUS
 62
       7
  5
556
 10
-28.36996169
 20
-63.91079476
 30
0.0
  0
VERTEX
  8
0
  6
CONTINUOUS
 62
       7
  5
557
 10
-28.74341176
 20
-63.7372872
 30
0.0
  0
VERTEX
  8
0
  6
CONTINUOUS
 62
       7
  5
558
 10
-29.12608236
 20
-63.61156932
 30
0.0
  0
VERTEX
  8
0
  6
CONTINUOUS
 62
       7
  5
559
 10
-29.51506114
 20
-63.53459794
 30
0.0
  0
VERTEX
  8
0
  6
CONTINUOUS
 62
       7
  5
55A
 10
-29.90738774
 20
-63.50695884
 30
0.0
  0
SEQEND
  8
0
  6
CONTINUOUS
 62
       7
  5
55B
  0
LINE
  8
0
  6
CONTINUOUS
 62
       2
  5
211
 10
30.04326544
 20
-42.77838419
 30
0.0
 11
30.04326544
 21
-77.96095212
 31
0.0
  0
LINE
  8
0
  6
CONTINUOUS
 62
       2
  5
212
 10
35.88144777
 20
-70.01664386
 30
0.0
 11
24.63738687
 21
-70.01664386
 31
0.0
  0
POLYLINE
  8
0
  6
CONTINUOUS
 62
       7
  5
213
 66
       1
 10
0.0
 20
0.0
 30
0.0
  0
VERTEX
  8
0
  6
CONTINUOUS
 62
       7
  5
55C
 10
32.217126
 20
-64.29677329
 30
0.0
  0
VERTEX
  8
0
  6
CONTINUOUS
 62
       7
  5
55D
 10
31.7054653
 20
-64.76379042
 30
0.0
  0
VERTEX
  8
0
  6
CONTINUOUS
 62
       7
  5
55E
 10
31.24123281
 20
-65.32517061
 30
0.0
  0
VERTEX
  8
0
  6
CONTINUOUS
 62
       7
  5
55F
 10
30.83276808
 20
-65.97082915
 30
0.0
  0
VERTEX
  8
0
  6
CONTINUOUS
 62
       7
  5
560
 10
30.48740883
 20
-66.68916732
 30
0.0
  0
VERTEX
  8
0
  6
CONTINUOUS
 62
       7
  5
561
 10
30.21135914
 20
-67.46728079
 30
0.0
  0
VERTEX
  8
0
  6
CONTINUOUS
 62
       7
  5
562
 10
30.00957803
 20
-68.29119141
 30
0.0
  0
VERTEX
  8
0
  6
CONTINUOUS
 62
       7
  5
563
 10
29.8856903
 20
-69.14609833
 30
0.0
  0
VERTEX
  8
0
  6
CONTINUOUS
 62
       7
  5
564
 10
29.84192151
 20
-70.01664386
 30
0.0
  0
VERTEX
  8
0
  6
CONTINUOUS
 62
       7
  5
565
 10
29.87905792
 20
-70.88718938
 30
0.0
  0
VERTEX
  8
0
  6
CONTINUOUS
 62
       7
  5
566
 10
29.99643241
 20
-71.7420963
 30
0.0
  0
VERTEX
  8
0
  6
CONTINUOUS
 62
       7
  5
567
 10
30.19193644
 20
-72.56600692
 30
0.0
  0
VERTEX
  8
0
  6
CONTINUOUS
 62
       7
  5
568
 10
30.46205794
 20
-73.34412039
 30
0.0
  0
VERTEX
  8
0
  6
CONTINUOUS
 62
       7
  5
569
 10
30.80194443
 20
-74.06245857
 30
0.0
  0
VERTEX
  8
0
  6
CONTINUOUS
 62
       7
  5
56A
 10
31.20549011
 20
-74.7081171
 30
0.0
  0
VERTEX
  8
0
  6
CONTINUOUS
 62
       7
  5
56B
 10
31.66544564
 20
-75.26949729
 30
0.0
  0
VERTEX
  8
0
  6
CONTINUOUS
 62
       7
  5
56C
 10
32.17354831
 20
-75.73651442
 30
0.0
  0
SEQEND
  8
0
  6
CONTINUOUS
 62
       7
  5
56D
  0
POLYLINE
  8
0
  6
CONTINUOUS
 62
       7
  5
214
 66
       1
 10
0.0
 20
0.0
 30
0.0
 70
       1
  0
VERTEX
  8
0
  6
CONTINUOUS
 62
       7
  5
56E
 10
30.09261226
 20
-63.50695884
 30
0.0
  0
VERTEX
  8
0
  6
CONTINUOUS
 62
       7
  5
56F
 10
29.69992368
 20
-63.52886237
 30
0.0
  0
VERTEX
  8
0
  6
CONTINUOUS
 62
       7
  5
570
 10
29.30986173
 20
-63.60014183
 30
0.0
  0
VERTEX
  8
0
  6
CONTINUOUS
 62
       7
  5
571
 10
28.92539501
 20
-63.72025475
 30
0.0
  0
VERTEX
  8
0
  6
CONTINUOUS
 62
       7
  5
572
 10
28.54944954
 20
-63.888287
 30
0.0
  0
VERTEX
  8
0
  6
CONTINUOUS
 62
       7
  5
573
 10
28.1848865
 20
-64.10295974
 30
0.0
  0
VERTEX
  8
0
  6
CONTINUOUS
 62
       7
  5
574
 10
27.83448042
 20
-64.36263918
 30
0.0
  0
VERTEX
  8
0
  6
CONTINUOUS
 62
       7
  5
575
 10
27.50089813
 20
-64.66534902
 30
0.0
  0
VERTEX
  8
0
  6
CONTINUOUS
 62
       7
  5
576
 10
27.18667836
 20
-65.00878544
 30
0.0
  0
VERTEX
  8
0
  6
CONTINUOUS
 62
       7
  5
577
 10
26.89421253
 20
-65.39033469
 30
0.0
  0
VERTEX
  8
0
  6
CONTINUOUS
 62
       7
  5
578
 10
26.62572649
 20
-65.80709294
 30
0.0
  0
VERTEX
  8
0
  6
CONTINUOUS
 62
       7
  5
579
 10
26.38326356
 20
-66.25588842
 30
0.0
  0
VERTEX
  8
0
  6
CONTINUOUS
 62
       7
  5
57A
 10
26.16866904
 20
-66.73330551
 30
0.0
  0
VERTEX
  8
0
  6
CONTINUOUS
 62
       7
  5
57B
 10
25.98357612
 20
-67.2357108
 30
0.0
  0
VERTEX
  8
0
  6
CONTINUOUS
 62
       7
  5
57C
 10
25.82939348
 20
-67.75928066
 30
0.0
  0
VERTEX
  8
0
  6
CONTINUOUS
 62
       7
  5
57D
 10
25.70729453
 20
-68.30003043
 30
0.0
  0
VERTEX
  8
0
  6
CONTINUOUS
 62
       7
  5
57E
 10
25.61820852
 20
-68.85384465
 30
0.0
  0
VERTEX
  8
0
  6
CONTINUOUS
 62
       7
  5
57F
 10
25.56281345
 20
-69.41650848
 30
0.0
  0
VERTEX
  8
0
  6
CONTINUOUS
 62
       7
  5
580
 10
25.54153091
 20
-69.9837397
 30
0.0
  0
VERTEX
  8
0
  6
CONTINUOUS
 62
       7
  5
581
 10
25.55452288
 20
-70.55122135
 30
0.0
  0
VERTEX
  8
0
  6
CONTINUOUS
 62
       7
  5
582
 10
25.60169047
 20
-71.11463453
 30
0.0
  0
VERTEX
  8
0
  6
CONTINUOUS
 62
       7
  5
583
 10
25.68267471
 20
-71.66969135
 30
0.0
  0
VERTEX
  8
0
  6
CONTINUOUS
 62
       7
  5
584
 10
25.79685926
 20
-72.21216747
 30
0.0
  0
VERTEX
  8
0
  6
CONTINUOUS
 62
       7
  5
585
 10
25.94337512
 20
-72.73793434
 30
0.0
  0
VERTEX
  8
0
  6
CONTINUOUS
 62
       7
  5
586
 10
26.1211072
 20
-73.24299054
 30
0.0
  0
VERTEX
  8
0
  6
CONTINUOUS
 62
       7
  5
587
 10
26.32870286
 20
-73.72349229
 30
0.0
  0
VERTEX
  8
0
  6
CONTINUOUS
 62
       7
  5
588
 10
26.56458217
 20
-74.17578269
 30
0.0
  0
VERTEX
  8
0
  6
CONTINUOUS
 62
       7
  5
589
 10
26.82694994
 20
-74.59641953
 30
0.0
  0
VERTEX
  8
0
  6
CONTINUOUS
 62
       7
  5
58A
 10
27.1138094
 20
-74.98220151
 30
0.0
  0
VERTEX
  8
0
  6
CONTINUOUS
 62
       7
  5
58B
 10
27.42297737
 20
-75.3301926
 30
0.0
  0
VERTEX
  8
0
  6
CONTINUOUS
 62
       7
  5
58C
 10
27.7521009
 20
-75.63774438
 30
0.0
  0
VERTEX
  8
0
  6
CONTINUOUS
 62
       7
  5
58D
 10
28.09867517
 20
-75.90251619
 30
0.0
  0
VERTEX
  8
0
  6
CONTINUOUS
 62
       7
  5
58E
 10
28.46006252
 20
-76.12249295
 30
0.0
  0
VERTEX
  8
0
  6
CONTINUOUS
 62
       7
  5
58F
 10
28.83351259
 20
-76.29600052
 30
0.0
  0
VERTEX
  8
0
  6
CONTINUOUS
 62
       7
  5
590
 10
29.2161832
 20
-76.42171839
 30
0.0
  0
VERTEX
  8
0
  6
CONTINUOUS
 62
       7
  5
591
 10
29.60516198
 20
-76.49868978
 30
0.0
  0
VERTEX
  8
0
  6
CONTINUOUS
 62
       7
  5
592
 10
29.99748858
 20
-76.52632888
 30
0.0
  0
VERTEX
  8
0
  6
CONTINUOUS
 62
       7
  5
593
 10
30.39017715
 20
-76.50442535
 30
0.0
  0
VERTEX
  8
0
  6
CONTINUOUS
 62
       7
  5
594
 10
30.78023911
 20
-76.43314588
 30
0.0
  0
VERTEX
  8
0
  6
CONTINUOUS
 62
       7
  5
595
 10
31.16470583
 20
-76.31303296
 30
0.0
  0
VERTEX
  8
0
  6
CONTINUOUS
 62
       7
  5
596
 10
31.5406513
 20
-76.14500072
 30
0.0
  0
VERTEX
  8
0
  6
CONTINUOUS
 62
       7
  5
597
 10
31.90521434
 20
-75.93032798
 30
0.0
  0
VERTEX
  8
0
  6
CONTINUOUS
 62
       7
  5
598
 10
32.25562041
 20
-75.67064853
 30
0.0
  0
VERTEX
  8
0
  6
CONTINUOUS
 62
       7
  5
599
 10
32.58920271
 20
-75.3679387
 30
0.0
  0
VERTEX
  8
0
  6
CONTINUOUS
 62
       7
  5
59A
 10
32.90342247
 20
-75.02450228
 30
0.0
  0
VERTEX
  8
0
  6
CONTINUOUS
 62
       7
  5
59B
 10
33.1958883
 20
-74.64295303
 30
0.0
  0
VERTEX
  8
0
  6
CONTINUOUS
 62
       7
  5
59C
 10
33.46437435
 20
-74.22619477
 30
0.0
  0
VERTEX
  8
0
  6
CONTINUOUS
 62
       7
  5
59D
 10
33.70683728
 20
-73.7773993
 30
0.0
  0
VERTEX
  8
0
  6
CONTINUOUS
 62
       7
  5
59E
 10
33.9214318
 20
-73.2999822
 30
0.0
  0
VERTEX
  8
0
  6
CONTINUOUS
 62
       7
  5
59F
 10
34.10652471
 20
-72.79757691
 30
0.0
  0
VERTEX
  8
0
  6
CONTINUOUS
 62
       7
  5
5A0
 10
34.26070736
 20
-72.27400705
 30
0.0
  0
VERTEX
  8
0
  6
CONTINUOUS
 62
       7
  5
5A1
 10
34.38280631
 20
-71.73325729
 30
0.0
  0
VERTEX
  8
0
  6
CONTINUOUS
 62
       7
  5
5A2
 10
34.47189232
 20
-71.17944306
 30
0.0
  0
VERTEX
  8
0
  6
CONTINUOUS
 62
       7
  5
5A3
 10
34.52728738
 20
-70.61677923
 30
0.0
  0
VERTEX
  8
0
  6
CONTINUOUS
 62
       7
  5
5A4
 10
34.54856992
 20
-70.04954801
 30
0.0
  0
VERTEX
  8
0
  6
CONTINUOUS
 62
       7
  5
5A5
 10
34.53557796
 20
-69.48206637
 30
0.0
  0
VERTEX
  8
0
  6
CONTINUOUS
 62
       7
  5
5A6
 10
34.48841037
 20
-68.91865318
 30
0.0
  0
VERTEX
  8
0
  6
CONTINUOUS
 62
       7
  5
5A7
 10
34.40742613
 20
-68.36359637
 30
0.0
  0
VERTEX
  8
0
  6
CONTINUOUS
 62
       7
  5
5A8
 10
34.29324157
 20
-67.82112024
 30
0.0
  0
VERTEX
  8
0
  6
CONTINUOUS
 62
       7
  5
5A9
 10
34.14672572
 20
-67.29535338
 30
0.0
  0
VERTEX
  8
0
  6
CONTINUOUS
 62
       7
  5
5AA
 10
33.96899363
 20
-66.79029718
 30
0.0
  0
VERTEX
  8
0
  6
CONTINUOUS
 62
       7
  5
5AB
 10
33.76139798
 20
-66.30979542
 30
0.0
  0
VERTEX
  8
0
  6
CONTINUOUS
 62
       7
  5
5AC
 10
33.52551867
 20
-65.85750503
 30
0.0
  0
VERTEX
  8
0
  6
CONTINUOUS
 62
       7
  5
5AD
 10
33.2631509
 20
-65.43686818
 30
0.0
  0
VERTEX
  8
0
  6
CONTINUOUS
 62
       7
  5
5AE
 10
32.97629144
 20
-65.0510862
 30
0.0
  0
VERTEX
  8
0
  6
CONTINUOUS
 62
       7
  5
5AF
 10
32.66712346
 20
-64.70309511
 30
0.0
  0
VERTEX
  8
0
  6
CONTINUOUS
 62
       7
  5
5B0
 10
32.33799993
 20
-64.39554333
 30
0.0
  0
VERTEX
  8
0
  6
CONTINUOUS
 62
       7
  5
5B1
 10
31.99142567
 20
-64.13077153
 30
0.0
  0
VERTEX
  8
0
  6
CONTINUOUS
 62
       7
  5
5B2
 10
31.63003831
 20
-63.91079476
 30
0.0
  0
VERTEX
  8
0
  6
CONTINUOUS
 62
       7
  5
5B3
 10
31.25658824
 20
-63.7372872
 30
0.0
  0
VERTEX
  8
0
  6
CONTINUOUS
 62
       7
  5
5B4
 10
30.87391764
 20
-63.61156932
 30
0.0
  0
VERTEX
  8
0
  6
CONTINUOUS
 62
       7
  5
5B5
 10
30.48493886
 20
-63.53459794
 30
0.0
  0
VERTEX
  8
0
  6
CONTINUOUS
 62
       7
  5
5B6
 10
30.09261226
 20
-63.50695884
 30
0.0
  0
SEQEND
  8
0
  6
CONTINUOUS
 62
       7
  5
5B7
  0
LINE
  8
0
  6
CONTINUOUS
 62
       2
  5
215
 10
-84.37290385
 20
-70.01664386
 30
0.0
 11
-95.31503077
 21
-70.01664386
 31
0.0
  0
LINE
  8
0
  6
CONTINUOUS
 62
       7
  5
216
 10
-82.10570718
 20
-90.35298793
 30
0.0
 11
-82.10570718
 21
-92.662389
 31
0.0
  0
LINE
  8
0
  6
CONTINUOUS
 62
       7
  5
217
 10
-84.10570716
 20
-89.1982874
 30
0.0
 11
-82.10570718
 21
-90.35298793
 31
0.0
  0
LINE
  8
0
  6
CONTINUOUS
 62
       7
  5
218
 10
-86.10570718
 20
-90.35298795
 30
0.0
 11
-84.10570716
 21
-89.1982874
 31
0.0
  0
LINE
  8
0
  6
CONTINUOUS
 62
       7
  5
219
 10
-84.10570716
 20
-93.81708953
 30
0.0
 11
-82.10570718
 21
-92.662389
 31
0.0
  0
LINE
  8
0
  6
CONTINUOUS
 62
       7
  5
21A
 10
-86.10570718
 20
-92.66238898
 30
0.0
 11
-84.10570716
 21
-93.81708953
 31
0.0
  0
LINE
  8
0
  6
CONTINUOUS
 62
       7
  5
21B
 10
-86.10570718
 20
-92.66238898
 30
0.0
 11
-86.10570718
 21
-90.35298795
 31
0.0
  0
CIRCLE
  8
0
  6
CONTINUOUS
 62
       7
  5
21C
 10
-84.10570718
 20
-91.50768845
 30
0.0
 40
2.30940107
  0
LINE
  8
0
  6
CONTINUOUS
 62
       7
  5
21D
 10
-24.10570716
 20
-89.1982874
 30
0.0
 11
-22.10570718
 21
-90.35298793
 31
0.0
  0
LINE
  8
0
  6
CONTINUOUS
 62
       7
  5
21E
 10
-26.10570718
 20
-90.35298795
 30
0.0
 11
-24.10570716
 21
-89.1982874
 31
0.0
  0
LINE
  8
0
  6
CONTINUOUS
 62
       7
  5
21F
 10
-24.10570716
 20
-93.81708953
 30
0.0
 11
-22.10570718
 21
-92.662389
 31
0.0
  0
LINE
  8
0
  6
CONTINUOUS
 62
       7
  5
220
 10
-26.10570718
 20
-92.66238898
 30
0.0
 11
-24.10570716
 21
-93.81708953
 31
0.0
  0
CIRCLE
  8
0
  6
CONTINUOUS
 62
       7
  5
221
 10
-24.10570718
 20
-91.50768845
 30
0.0
 40
2.30940107
  0
LINE
  8
0
  6
CONTINUOUS
 62
       7
  5
222
 10
-26.10570718
 20
-92.66238898
 30
0.0
 11
-26.10570718
 21
-90.35298795
 31
0.0
  0
LINE
  8
0
  6
CONTINUOUS
 62
       7
  5
223
 10
-22.10570718
 20
-90.35298793
 30
0.0
 11
-22.10570718
 21
-92.662389
 31
0.0
  0
LINE
  8
0
  6
CONTINUOUS
 62
       7
  5
224
 10
35.89429284
 20
-89.1982874
 30
0.0
 11
37.89429282
 21
-90.35298793
 31
0.0
  0
LINE
  8
0
  6
CONTINUOUS
 62
       7
  5
225
 10
33.89429282
 20
-90.35298795
 30
0.0
 11
35.89429284
 21
-89.1982874
 31
0.0
  0
LINE
  8
0
  6
CONTINUOUS
 62
       7
  5
226
 10
35.89429284
 20
-93.81708953
 30
0.0
 11
37.89429282
 21
-92.662389
 31
0.0
  0
LINE
  8
0
  6
CONTINUOUS
 62
       7
  5
227
 10
33.89429282
 20
-92.66238898
 30
0.0
 11
35.89429284
 21
-93.81708953
 31
0.0
  0
CIRCLE
  8
0
  6
CONTINUOUS
 62
       7
  5
228
 10
35.89429282
 20
-91.50768845
 30
0.0
 40
2.30940107
  0
LINE
  8
0
  6
CONTINUOUS
 62
       7
  5
229
 10
33.89429282
 20
-92.66238898
 30
0.0
 11
33.89429282
 21
-90.35298795
 31
0.0
  0
LINE
  8
0
  6
CONTINUOUS
 62
       7
  5
22A
 10
37.89429282
 20
-90.35298793
 30
0.0
 11
37.89429282
 21
-92.662389
 31
0.0
  0
LINE
  8
0
  6
CONTINUOUS
 62
       2
  5
22B
 10
-106.3725445
 20
122.77150199
 30
0.0
 11
113.38756124
 21
122.77150199
 31
0.0
  0
LINE
  8
0
  6
CONTINUOUS
 62
       2
  5
22C
 10
-75.10570718
 20
87.36253577
 30
0.0
 11
-75.10570718
 21
156.13764324
 31
0.0
  0
LINE
  8
0
  6
CONTINUOUS
 62
       2
  5
22D
 10
-15.10570718
 20
87.36253577
 30
0.0
 11
-15.10570718
 21
156.13764324
 31
0.0
  0
LINE
  8
0
  6
CONTINUOUS
 62
       2
  5
22E
 10
44.89429282
 20
87.36253577
 30
0.0
 11
44.89429282
 21
156.13764324
 31
0.0
  0
TEXT
  8
0
  6
CONTINUOUS
 62
       7
  5
22F
 10
-268.26600006
 20
177.3499999
 30
0.0
 40
6.30000019
  1
MODEL:MM3
 41
1.08
  7
MX_NOTE_STANDARD
 11
-268.26600006
 21
180.5
 31
0.0
 73
       2
  0
LINE
  8
0
  6
CONTINUOUS
 62
       7
  5
230
 10
282.09985352
 20
195.5
 30
0.0
 11
282.09985352
 21
-195.0
 31
0.0
  0
LINE
  8
0
  6
CONTINUOUS
 62
       7
  5
231
 10
-281.25
 20
195.5
 30
0.0
 11
282.09985352
 21
195.5
 31
0.0
  0
LINE
  8
0
  6
CONTINUOUS
 62
       7
  5
232
 10
-281.25
 20
195.5
 30
0.0
 11
-281.25
 21
-195.0
 31
0.0
  0
LINE
  8
0
  6
CONTINUOUS
 62
       7
  5
233
 10
-281.25
 20
-195.0
 30
0.0
 11
282.09985352
 21
-195.0
 31
0.0
  0
ENDSEC
  0
EOF
