  0
SECTION
  2
HEADER
  9
$ACADVER
  1
AC1003
  9
$EXTMIN
 10
-3.99250000E+02
 20
-2.76750000E+02
  9
$EXTMAX
 10
3.99799805E+02
 20
2.76250000E+02
  9
$LIMMIN
 10
-3.99251000E+02
 20
-2.76751000E+02
  9
$LIMMAX
 10
3.99800805E+02
 20
2.76251000E+02
  9
$SNAPUNIT
 10
1
 20
1
  9
$SNAPBASE
 10
0
 20
0
  9
$GRIDMODE
 70
0
  9
$GRIDUNIT
 10
0
 20
0
  9
$LTSCALE
 40
1.33174967E+01
  9
$TEXTSIZE
 40
3.2
  9
$DIMTAD
 70
0
  9
$LUNITS
 70
2
  9
$LUPREC
 70
4
  9
$FILLETRAD
 40
0
  9
$AUNITS
 70
0
  9
$AUPREC
 70
0
  0
ENDSEC
  0
SECTION
  2
TABLES
  0
TABLE
  2
LTYPE
 70
2
  0
LTYPE
  2
CONTINUOUS
 70
64
  3
Solid-Line
 72
65
 73
0
 40
0
  0
LTYPE
  2
DASHED
 70
64
  3
DASHED
 72
65
 73
2
 40
.75
 49
.5
 49
-.25
  0
LTYPE
  2
HIDDEN
 70
64
  3
HIDDEN
 72
65
 73
2
 40
.375
 49
.25
 49
-.125
  0
LTYPE
  2
CENTER
 70
64
  3
CENTER
 72
65
 73
4
 40
2
 49
1.25
 49
-.25
 49
.25
 49
-.25
  0
LTYPE
  2
PHANTOM
 70
64
  3
PHANTOM
 72
65
 73
6
 40
2.5
 49
1.25
 49
-.25
 49
.25
 49
-.25
 49
.25
 49
-.25
  0
ENDTAB
  0
TABLE
  2
LAYER
 70
1
  0
LAYER
  2
0
 70
0
 62
3
  6
CONTINUOUS
 0
ENDTAB
  0
TABLE
  2
STYLE
 70
2
  0
STYLE
  2
MONOTXT
 70
0
 40
0
 41
1
 50
0
 71
0
 42
.2
  3
monotxt
  0
STYLE
  2
BIGFONT
 70
0
 40
0
 41
1
 50
0
 71
0
 42
.2
  3
txt
  4
bigfont
  0
ENDTAB
  0
ENDSEC
  0
SECTION
  2
ENTITIES
  0
LINE
  8
0
  6
CENTER
 62
2
 10
-2.12025098E+02
 20
6.07500000E+01
 11
-2.12025098E+02
 21
-2.26330000E+02
  0
LINE
  8
0
 62
7
 10
-2.67025098E+02
 20
-4.02300000E+01
 11
-1.57025098E+02
 21
-4.02300000E+01
  0
LINE
  8
0
 62
7
 10
-2.72025098E+02
 20
-2.52300000E+01
 11
-1.52025098E+02
 21
-2.52300000E+01
  0
LINE
  8
0
 62
7
 10
-1.57025098E+02
 20
-2.67300000E+01
 11
-1.57025098E+02
 21
-5.02300000E+01
  0
LINE
  8
0
 62
7
 10
-2.67025098E+02
 20
-2.67300000E+01
 11
-2.67025098E+02
 21
-5.02300000E+01
  0
LINE
  8
0
 62
7
 10
-2.49525098E+02
 20
-2.72300000E+01
 11
-2.49525098E+02
 21
-3.33300000E+01
  0
LINE
  8
0
 62
7
 10
-1.74525098E+02
 20
-2.72300000E+01
 11
-1.74525098E+02
 21
-3.33300000E+01
  0
LINE
  8
0
 62
7
 10
-2.65025098E+02
 20
-3.38300000E+01
 11
-2.50025098E+02
 21
-3.38300000E+01
  0
LINE
  8
0
 62
7
 10
-1.74025098E+02
 20
-3.38300000E+01
 11
-1.59025098E+02
 21
-3.38300000E+01
  0
LINE
  8
0
  6
CENTER
 62
2
 10
-1.67025098E+02
 20
-2.12300000E+01
 11
-1.67025098E+02
 21
-3.78300000E+01
  0
LINE
  8
0
  6
CENTER
 62
2
 10
-2.57025098E+02
 20
-2.12300000E+01
 11
-2.57025098E+02
 21
-3.78300000E+01
  0
LINE
  8
0
 62
7
 10
-2.67025098E+02
 20
-5.02300000E+01
 11
-1.57025098E+02
 21
-5.02300000E+01
  0
LINE
  8
0
 62
7
 10
-2.57025098E+02
 20
-1.40230000E+02
 11
-1.67025098E+02
 21
-1.40230000E+02
  0
LINE
  8
0
 62
7
 10
-2.62965098E+02
 20
-5.21500000E+01
 11
-2.59945098E+02
 21
-1.38570000E+02
  0
LINE
  8
0
 62
7
 10
-1.61085098E+02
 20
-5.21500000E+01
 11
-1.64105098E+02
 21
-1.38570000E+02
  0
LINE
  8
0
 62
7
 10
-2.58445098E+02
 20
-1.41050000E+02
 11
-2.48465098E+02
 21
-1.46810000E+02
  0
LINE
  8
0
 62
7
 10
-1.65605098E+02
 20
-1.41050000E+02
 11
-1.75585098E+02
 21
-1.46810000E+02
  0
LINE
  8
0
 62
7
 10
-2.44525098E+02
 20
-1.47650000E+02
 11
-1.79525098E+02
 21
-1.47650000E+02
  0
LINE
  8
0
  6
CENTER
 62
2
 10
-2.36025098E+02
 20
-1.70230000E+02
 11
-1.88025098E+02
 21
-1.70230000E+02
  0
LINE
  8
0
  6
CENTER
 62
2
 10
-2.94245098E+02
 20
-2.50000000E-01
 11
-1.29805098E+02
 21
-2.50000000E-01
  0
LINE
  8
0
 62
7
 10
-1.53525098E+02
 20
2.47500000E+01
 11
-1.53525098E+02
 21
-2.52300000E+01
  0
LINE
  8
0
 62
7
 10
-2.70525098E+02
 20
2.47500000E+01
 11
-1.53525098E+02
 21
2.47500000E+01
  0
LINE
  8
0
 62
7
 10
-1.52025098E+02
 20
2.32500000E+01
 11
-1.52025098E+02
 21
-2.52300000E+01
  0
LINE
  8
0
 62
7
 10
-2.72025098E+02
 20
2.32500000E+01
 11
-2.72025098E+02
 21
-2.52300000E+01
  0
LINE
  8
0
 62
7
 10
-2.72025098E+02
 20
2.32500000E+01
 11
-2.70525098E+02
 21
2.47500000E+01
  0
LINE
  8
0
 62
7
 10
-1.53525098E+02
 20
2.47500000E+01
 11
-1.52025098E+02
 21
2.32500000E+01
  0
LINE
  8
0
 62
7
 10
-2.72025098E+02
 20
2.32500000E+01
 11
-1.52025098E+02
 21
2.32500000E+01
  0
LINE
  8
0
 62
7
 10
-2.46245098E+02
 20
2.17500000E+01
 11
-1.77805098E+02
 21
2.17500000E+01
  0
LINE
  8
0
 62
7
 10
-1.59025098E+02
 20
1.47500000E+01
 11
-1.59025098E+02
 21
-1.52300000E+01
  0
LINE
  8
0
 62
7
 10
-1.73025098E+02
 20
1.47500000E+01
 11
-1.73025098E+02
 21
-1.52300000E+01
  0
LINE
  8
0
 62
7
 10
-2.49445098E+02
 20
-2.52300000E+01
 11
-2.47845098E+02
 21
2.02500000E+01
  0
LINE
  8
0
 62
7
 10
-1.74605098E+02
 20
-2.52300000E+01
 11
-1.76205098E+02
 21
2.02500000E+01
  0
LINE
  8
0
 62
7
 10
-2.47845098E+02
 20
2.02500000E+01
 11
-2.46245098E+02
 21
2.17500000E+01
  0
LINE
  8
0
 62
7
 10
-1.76185098E+02
 20
2.02500000E+01
 11
-1.77805098E+02
 21
2.17500000E+01
  0
LINE
  8
0
 62
7
 10
-2.47845098E+02
 20
2.02500000E+01
 11
-1.76205098E+02
 21
2.02500000E+01
  0
LINE
  8
0
 62
7
 10
-1.73025098E+02
 20
1.47500000E+01
 11
-1.59025098E+02
 21
1.47500000E+01
  0
LINE
  8
0
 62
7
 10
-1.73025098E+02
 20
-1.52300000E+01
 11
-1.59025098E+02
 21
-1.52300000E+01
  0
LINE
  8
0
 62
7
 10
-1.72145098E+02
 20
1.39300000E+01
 11
-1.72145098E+02
 21
-1.43900000E+01
  0
LINE
  8
0
 62
7
 10
-1.59905098E+02
 20
1.39300000E+01
 11
-1.59905098E+02
 21
-1.43900000E+01
  0
LINE
  8
0
 62
7
 10
-1.72145098E+02
 20
1.39300000E+01
 11
-1.59905098E+02
 21
1.39300000E+01
  0
LINE
  8
0
 62
7
 10
-1.72145098E+02
 20
-1.43900000E+01
 11
-1.59905098E+02
 21
-1.43900000E+01
  0
LINE
  8
0
 62
7
 10
-1.73025098E+02
 20
-1.52300000E+01
 11
-1.72145098E+02
 21
-1.43900000E+01
  0
LINE
  8
0
 62
7
 10
-1.59905098E+02
 20
-1.43900000E+01
 11
-1.59025098E+02
 21
-1.52300000E+01
  0
LINE
  8
0
 62
7
 10
-1.59025098E+02
 20
1.47500000E+01
 11
-1.59905098E+02
 21
1.39300000E+01
  0
LINE
  8
0
 62
7
 10
-1.73025098E+02
 20
1.47500000E+01
 11
-1.72145098E+02
 21
1.39300000E+01
  0
LINE
  8
0
 62
7
 10
-2.65025098E+02
 20
1.47500000E+01
 11
-2.65025098E+02
 21
-1.52300000E+01
  0
LINE
  8
0
 62
7
 10
-2.51025098E+02
 20
1.47500000E+01
 11
-2.51025098E+02
 21
-1.52300000E+01
  0
LINE
  8
0
 62
7
 10
-2.51025098E+02
 20
1.47500000E+01
 11
-2.65025098E+02
 21
1.47500000E+01
  0
LINE
  8
0
 62
7
 10
-2.51025098E+02
 20
-1.52300000E+01
 11
-2.65025098E+02
 21
-1.52300000E+01
  0
LINE
  8
0
 62
7
 10
-2.51905098E+02
 20
1.39300000E+01
 11
-2.51905098E+02
 21
-1.43900000E+01
  0
LINE
  8
0
 62
7
 10
-2.64145098E+02
 20
1.39300000E+01
 11
-2.64145098E+02
 21
-1.43900000E+01
  0
LINE
  8
0
 62
7
 10
-2.51905098E+02
 20
1.39300000E+01
 11
-2.64145098E+02
 21
1.39300000E+01
  0
LINE
  8
0
 62
7
 10
-2.51905098E+02
 20
-1.43900000E+01
 11
-2.64145098E+02
 21
-1.43900000E+01
  0
LINE
  8
0
 62
7
 10
-2.51025098E+02
 20
-1.52300000E+01
 11
-2.51905098E+02
 21
-1.43900000E+01
  0
LINE
  8
0
 62
7
 10
-2.64145098E+02
 20
-1.43900000E+01
 11
-2.65025098E+02
 21
-1.52300000E+01
  0
LINE
  8
0
 62
7
 10
-2.65025098E+02
 20
1.47500000E+01
 11
-2.64145098E+02
 21
1.39300000E+01
  0
LINE
  8
0
 62
7
 10
-2.51025098E+02
 20
1.47500000E+01
 11
-2.51905098E+02
 21
1.39300000E+01
  0
LINE
  8
0
 62
7
 10
-2.70525098E+02
 20
2.47500000E+01
 11
-2.70525098E+02
 21
-2.52300000E+01
  0
LINE
  8
0
  6
CENTER
 62
2
 10
-2.47025098E+02
 20
3.04300000E+01
 11
-2.47025098E+02
 21
2.07500000E+01
  0
LINE
  8
0
  6
CENTER
 62
2
 10
-1.77025098E+02
 20
3.04300000E+01
 11
-1.77025098E+02
 21
2.07500000E+01
  0
LINE
  8
0
 62
4
 10
-2.52385098E+02
 20
2.64300000E+01
 11
-2.41665098E+02
 21
2.64300000E+01
  0
LINE
  8
0
 62
6
 10
-2.41305098E+02
 20
2.62300000E+01
 11
-2.41305098E+02
 21
2.47500000E+01
  0
LINE
  8
0
 62
6
 10
-2.52745098E+02
 20
2.62300000E+01
 11
-2.52745098E+02
 21
2.47500000E+01
  0
LINE
  8
0
 62
4
 10
-2.53605098E+02
 20
2.57300000E+01
 11
-2.40445098E+02
 21
2.57300000E+01
  0
LINE
  8
0
 62
4
 10
-2.53605098E+02
 20
2.57300000E+01
 11
-2.52385098E+02
 21
2.64300000E+01
  0
LINE
  8
0
 62
4
 10
-2.41665098E+02
 20
2.64300000E+01
 11
-2.40445098E+02
 21
2.57300000E+01
  0
LINE
  8
0
 62
4
 10
-2.53605098E+02
 20
2.57300000E+01
 11
-2.53565098E+02
 21
2.47500000E+01
  0
LINE
  8
0
 62
4
 10
-2.40445098E+02
 20
2.57300000E+01
 11
-2.40465098E+02
 21
2.47500000E+01
  0
LINE
  8
0
  6
PHANTOM
 62
6
 10
-2.61025098E+02
 20
5.47500000E+01
 11
-1.63025098E+02
 21
5.47500000E+01
  0
LINE
  8
0
  6
PHANTOM
 62
6
 10
-2.66025098E+02
 20
4.97500000E+01
 11
-2.66025098E+02
 21
2.47500000E+01
  0
LINE
  8
0
  6
PHANTOM
 62
6
 10
-1.58025098E+02
 20
4.97500000E+01
 11
-1.58025098E+02
 21
2.47500000E+01
  0
LINE
  8
0
  6
PHANTOM
 62
6
 10
-2.61025098E+02
 20
5.47500000E+01
 11
-2.66025098E+02
 21
4.97500000E+01
  0
LINE
  8
0
  6
PHANTOM
 62
6
 10
-1.63025098E+02
 20
5.47500000E+01
 11
-1.58025098E+02
 21
4.97500000E+01
  0
LINE
  8
0
  6
CENTER
 62
6
 10
-2.62765098E+02
 20
4.47500000E+01
 11
-2.41265098E+02
 21
4.47500000E+01
  0
LINE
  8
0
  6
CENTER
 62
6
 10
-2.52025098E+02
 20
5.30100000E+01
 11
-2.52025098E+02
 21
3.65100000E+01
  0
LINE
  8
0
  6
CENTER
 62
6
 10
-2.49525098E+02
 20
5.30100000E+01
 11
-2.49525098E+02
 21
3.65100000E+01
  0
LINE
  8
0
  6
CENTER
 62
6
 10
-2.54525098E+02
 20
5.30100000E+01
 11
-2.54525098E+02
 21
3.65100000E+01
  0
LINE
  8
0
  6
PHANTOM
 62
6
 10
-2.54525098E+02
 20
4.90100000E+01
 11
-2.49525098E+02
 21
4.90100000E+01
  0
LINE
  8
0
  6
PHANTOM
 62
6
 10
-2.54525098E+02
 20
4.05100000E+01
 11
-2.49525098E+02
 21
4.05100000E+01
  0
LINE
  8
0
  6
CENTER
 62
6
 10
-1.74525098E+02
 20
5.30100000E+01
 11
-1.74525098E+02
 21
3.65100000E+01
  0
LINE
  8
0
  6
CENTER
 62
6
 10
-1.72025098E+02
 20
5.30100000E+01
 11
-1.72025098E+02
 21
3.65100000E+01
  0
LINE
  8
0
  6
PHANTOM
 62
6
 10
-1.69525098E+02
 20
4.90100000E+01
 11
-1.74525098E+02
 21
4.90100000E+01
  0
LINE
  8
0
  6
CENTER
 62
6
 10
-1.69525098E+02
 20
5.30100000E+01
 11
-1.69525098E+02
 21
3.65100000E+01
  0
LINE
  8
0
  6
CENTER
 62
6
 10
-1.61265098E+02
 20
4.47500000E+01
 11
-1.82765098E+02
 21
4.47500000E+01
  0
LINE
  8
0
  6
PHANTOM
 62
6
 10
-1.69525098E+02
 20
4.05100000E+01
 11
-1.74525098E+02
 21
4.05100000E+01
  0
LINE
  8
0
 62
7
 10
-2.27405098E+02
 20
-2.00230000E+02
 11
-1.96625098E+02
 21
-2.00230000E+02
  0
LINE
  8
0
 62
7
 10
-2.43025098E+02
 20
-1.90230000E+02
 11
-1.81025098E+02
 21
-1.90230000E+02
  0
LINE
  8
0
 62
7
 10
-2.46965098E+02
 20
-1.49310000E+02
 11
-2.45585098E+02
 21
-1.88570000E+02
  0
LINE
  8
0
 62
7
 10
-1.77085098E+02
 20
-1.49310000E+02
 11
-1.78445098E+02
 21
-1.88570000E+02
  0
LINE
  8
0
 62
7
 10
-2.44105098E+02
 20
-1.91050000E+02
 11
-2.28905098E+02
 21
-1.99830000E+02
  0
LINE
  8
0
 62
7
 10
-1.79945098E+02
 20
-1.91050000E+02
 11
-1.95125098E+02
 21
-1.99830000E+02
  0
LINE
  8
0
 62
4
 10
-2.19605098E+02
 20
-2.05630000E+02
 11
-2.04445098E+02
 21
-2.05630000E+02
  0
LINE
  8
0
 62
4
 10
-2.03945098E+02
 20
-2.00230000E+02
 11
-2.03945098E+02
 21
-2.05130000E+02
  0
LINE
  8
0
 62
4
 10
-2.20105098E+02
 20
-2.00230000E+02
 11
-2.20105098E+02
 21
-2.05130000E+02
  0
LINE
  8
0
 62
4
 10
-2.18765098E+02
 20
-2.20330000E+02
 11
-2.05265098E+02
 21
-2.20330000E+02
  0
LINE
  8
0
 62
4
 10
-2.19765098E+02
 20
-2.07330000E+02
 11
-2.19765098E+02
 21
-2.19330000E+02
  0
LINE
  8
0
 62
4
 10
-2.04265098E+02
 20
-2.07330000E+02
 11
-2.04265098E+02
 21
-2.19330000E+02
  0
LINE
  8
0
 62
4
 10
-2.19765098E+02
 20
-2.19330000E+02
 11
-2.18765098E+02
 21
-2.20330000E+02
  0
LINE
  8
0
 62
4
 10
-2.05265098E+02
 20
-2.20330000E+02
 11
-2.04265098E+02
 21
-2.19330000E+02
  0
LINE
  8
0
 62
4
 10
-2.19625098E+02
 20
-2.09830000E+02
 11
-2.18465098E+02
 21
-2.09830000E+02
  0
LINE
  8
0
 62
4
 10
-2.19265098E+02
 20
-2.06830000E+02
 11
-2.04765098E+02
 21
-2.06830000E+02
  0
LINE
  8
0
 62
4
 10
-2.19765098E+02
 20
-2.07330000E+02
 11
-2.19265098E+02
 21
-2.06830000E+02
  0
LINE
  8
0
 62
4
 10
-2.04765098E+02
 20
-2.06830000E+02
 11
-2.04265098E+02
 21
-2.07330000E+02
  0
LINE
  8
0
 62
4
 10
-2.18025098E+02
 20
-2.05630000E+02
 11
-2.18025098E+02
 21
-2.06830000E+02
  0
LINE
  8
0
 62
4
 10
-2.06025098E+02
 20
-2.05630000E+02
 11
-2.06025098E+02
 21
-2.06830000E+02
  0
LINE
  8
0
 62
4
 10
-2.20105098E+02
 20
-2.05130000E+02
 11
-2.19605098E+02
 21
-2.05630000E+02
  0
LINE
  8
0
 62
4
 10
-2.03945098E+02
 20
-2.05130000E+02
 11
-2.04445098E+02
 21
-2.05630000E+02
  0
LINE
  8
0
 62
4
 10
-2.20105098E+02
 20
-2.05130000E+02
 11
-2.03945098E+02
 21
-2.05130000E+02
  0
LINE
  8
0
 62
4
 10
-2.19765098E+02
 20
-2.07330000E+02
 11
-2.04265098E+02
 21
-2.07330000E+02
  0
LINE
  8
0
 62
4
 10
-2.19625098E+02
 20
-2.10110000E+02
 11
-2.19045098E+02
 21
-2.10110000E+02
  0
LINE
  8
0
 62
4
 10
-2.19765098E+02
 20
-2.19330000E+02
 11
-2.19625098E+02
 21
-2.19330000E+02
  0
LINE
  8
0
 62
4
 10
-2.13525098E+02
 20
-2.09830000E+02
 11
-2.13525098E+02
 21
-2.19330000E+02
  0
LINE
  8
0
 62
4
 10
-2.10525098E+02
 20
-2.09830000E+02
 11
-2.10525098E+02
 21
-2.19330000E+02
  0
LINE
  8
0
 62
4
 10
-2.10525098E+02
 20
-2.09830000E+02
 11
-2.07705098E+02
 21
-2.09830000E+02
  0
LINE
  8
0
 62
4
 10
-2.10185098E+02
 20
-2.10110000E+02
 11
-2.08365098E+02
 21
-2.10110000E+02
  0
LINE
  8
0
 62
4
 10
-2.13525098E+02
 20
-2.19330000E+02
 11
-2.10525098E+02
 21
-2.19330000E+02
  0
LINE
  8
0
 62
4
 10
-2.07705098E+02
 20
-2.19330000E+02
 11
-2.05585098E+02
 21
-2.19330000E+02
  0
LINE
  8
0
 62
4
 10
-2.19265098E+02
 20
-2.19830000E+02
 11
-2.19045098E+02
 21
-2.19830000E+02
  0
LINE
  8
0
 62
4
 10
-2.10185098E+02
 20
-2.10110000E+02
 11
-2.10185098E+02
 21
-2.19830000E+02
  0
LINE
  8
0
 62
4
 10
-2.13865098E+02
 20
-2.10110000E+02
 11
-2.13865098E+02
 21
-2.19830000E+02
  0
LINE
  8
0
 62
4
 10
-2.13865098E+02
 20
-2.19830000E+02
 11
-2.10185098E+02
 21
-2.19830000E+02
  0
LINE
  8
0
 62
4
 10
-2.08365098E+02
 20
-2.19830000E+02
 11
-2.05585098E+02
 21
-2.19830000E+02
  0
LINE
  8
0
 62
4
 10
-2.08365098E+02
 20
-2.10110000E+02
 11
-2.08365098E+02
 21
-2.19830000E+02
  0
LINE
  8
0
 62
4
 10
-2.15685098E+02
 20
-2.10110000E+02
 11
-2.15685098E+02
 21
-2.19830000E+02
  0
LINE
  8
0
 62
4
 10
-2.16345098E+02
 20
-2.09830000E+02
 11
-2.16345098E+02
 21
-2.19330000E+02
  0
LINE
  8
0
 62
4
 10
-2.07705098E+02
 20
-2.09830000E+02
 11
-2.07705098E+02
 21
-2.19330000E+02
  0
LINE
  8
0
 62
4
 10
-2.05585098E+02
 20
-2.09830000E+02
 11
-2.04425098E+02
 21
-2.09830000E+02
  0
LINE
  8
0
 62
4
 10
-2.05005098E+02
 20
-2.10110000E+02
 11
-2.04425098E+02
 21
-2.10110000E+02
  0
LINE
  8
0
 62
4
 10
-2.16345098E+02
 20
-2.09830000E+02
 11
-2.13525098E+02
 21
-2.09830000E+02
  0
LINE
  8
0
 62
4
 10
-2.15685098E+02
 20
-2.10110000E+02
 11
-2.13865098E+02
 21
-2.10110000E+02
  0
LINE
  8
0
 62
4
 10
-2.18465098E+02
 20
-2.19330000E+02
 11
-2.16345098E+02
 21
-2.19330000E+02
  0
LINE
  8
0
 62
4
 10
-2.18465098E+02
 20
-2.19830000E+02
 11
-2.15685098E+02
 21
-2.19830000E+02
  0
LINE
  8
0
 62
4
 10
-2.04425098E+02
 20
-2.19330000E+02
 11
-2.04265098E+02
 21
-2.19330000E+02
  0
LINE
  8
0
 62
4
 10
-2.05005098E+02
 20
-2.19830000E+02
 11
-2.04765098E+02
 21
-2.19830000E+02
  0
LINE
  8
0
 62
4
 10
-2.18465098E+02
 20
-2.09830000E+02
 11
-2.18465098E+02
 21
-2.19830000E+02
  0
LINE
  8
0
 62
4
 10
-2.05585098E+02
 20
-2.09830000E+02
 11
-2.05585098E+02
 21
-2.19830000E+02
  0
LINE
  8
0
 62
4
 10
-2.19045098E+02
 20
-2.10110000E+02
 11
-2.19045098E+02
 21
-2.19830000E+02
  0
LINE
  8
0
 62
4
 10
-2.05005098E+02
 20
-2.10110000E+02
 11
-2.05005098E+02
 21
-2.19830000E+02
  0
LINE
  8
0
 62
4
 10
-2.19625098E+02
 20
-2.09830000E+02
 11
-2.19625098E+02
 21
-2.19330000E+02
  0
LINE
  8
0
 62
4
 10
-2.04425098E+02
 20
-2.09830000E+02
 11
-2.04425098E+02
 21
-2.19330000E+02
  0
LINE
  8
0
 62
4
 10
-2.13865098E+02
 20
-2.10110000E+02
 11
-2.13525098E+02
 21
-2.09830000E+02
  0
LINE
  8
0
 62
4
 10
-2.10525098E+02
 20
-2.09830000E+02
 11
-2.10185098E+02
 21
-2.10110000E+02
  0
LINE
  8
0
 62
4
 10
-2.10525098E+02
 20
-2.19330000E+02
 11
-2.10185098E+02
 21
-2.19830000E+02
  0
LINE
  8
0
 62
4
 10
-2.13525098E+02
 20
-2.19330000E+02
 11
-2.13865098E+02
 21
-2.19830000E+02
  0
LINE
  8
0
 62
4
 10
-2.16345098E+02
 20
-2.09830000E+02
 11
-2.15685098E+02
 21
-2.10110000E+02
  0
LINE
  8
0
 62
4
 10
-2.08365098E+02
 20
-2.10110000E+02
 11
-2.07705098E+02
 21
-2.09830000E+02
  0
LINE
  8
0
 62
4
 10
-2.07705098E+02
 20
-2.19330000E+02
 11
-2.08365098E+02
 21
-2.19830000E+02
  0
LINE
  8
0
 62
4
 10
-2.16345098E+02
 20
-2.19330000E+02
 11
-2.15685098E+02
 21
-2.19830000E+02
  0
LINE
  8
0
 62
4
 10
-2.19025098E+02
 20
-2.10110000E+02
 11
-2.18465098E+02
 21
-2.09890000E+02
  0
LINE
  8
0
 62
4
 10
-2.05585098E+02
 20
-2.09890000E+02
 11
-2.05005098E+02
 21
-2.10110000E+02
  0
LINE
  8
0
 62
4
 10
-2.19625098E+02
 20
-2.19330000E+02
 11
-2.19025098E+02
 21
-2.19830000E+02
  0
LINE
  8
0
 62
4
 10
-2.04425098E+02
 20
-2.19330000E+02
 11
-2.05005098E+02
 21
-2.19830000E+02
  0
LINE
  8
0
 62
4
 10
-1.82385098E+02
 20
2.64300000E+01
 11
-1.71665098E+02
 21
2.64300000E+01
  0
LINE
  8
0
 62
4
 10
-1.83605098E+02
 20
2.57300000E+01
 11
-1.70445098E+02
 21
2.57300000E+01
  0
LINE
  8
0
 62
6
 10
-1.82745098E+02
 20
2.62300000E+01
 11
-1.82745098E+02
 21
2.47500000E+01
  0
LINE
  8
0
 62
4
 10
-1.83605098E+02
 20
2.57300000E+01
 11
-1.83565098E+02
 21
2.47500000E+01
  0
LINE
  8
0
 62
4
 10
-1.83605098E+02
 20
2.57300000E+01
 11
-1.82385098E+02
 21
2.64300000E+01
  0
LINE
  8
0
 62
4
 10
-1.71665098E+02
 20
2.64300000E+01
 11
-1.70445098E+02
 21
2.57300000E+01
  0
LINE
  8
0
 62
4
 10
-1.70445098E+02
 20
2.57300000E+01
 11
-1.70465098E+02
 21
2.47500000E+01
  0
LINE
  8
0
 62
6
 10
-1.71305098E+02
 20
2.62300000E+01
 11
-1.71305098E+02
 21
2.47500000E+01
  0
ARC
  8
0
 62
7
 10
-2.68530655E+02
 20
-2.67355577E+01
 40
1.50556791E+00
 50
2.11502134E-01
 51
8.97884980E+01
  0
ARC
  8
0
 62
7
 10
-1.55526187E+02
 20
-2.67289111E+01
 40
1.49891145E+00
 50
8.99583748E+01
 51
1.80041625E+02
  0
ARC
  8
0
 62
7
 10
-2.50026225E+02
 20
-3.33288729E+01
 40
5.01128377E-01
 50
2.70128867E+02
 51
3.59871133E+02
  0
ARC
  8
0
 62
7
 10
-1.74030657E+02
 20
-3.33355591E+01
 40
4.94472149E-01
 50
1.79355839E+02
 51
2.70644161E+02
  0
ARC
  8
0
 62
7
 10
-2.47526189E+02
 20
-2.72289085E+01
 40
1.99890878E+00
 50
8.99687133E+01
 51
1.80031287E+02
  0
ARC
  8
0
 62
7
 10
-1.76530655E+02
 20
-2.72355576E+01
 40
2.00556525E+00
 50
1.58770572E-01
 51
8.98412296E+01
  0
ARC
  8
0
 62
7
 10
-2.65026186E+02
 20
-3.58289115E+01
 40
1.99891183E+00
 50
8.99688009E+01
 51
1.80031199E+02
  0
ARC
  8
0
 62
7
 10
-1.59030658E+02
 20
-3.58355606E+01
 40
2.00556831E+00
 50
1.58857466E-01
 51
8.98411425E+01
  0
ARC
  8
0
 62
7
 10
-2.64965588E+02
 20
-5.22320680E+01
 40
2.00217287E+00
 50
2.34918226E+00
 51
8.94136260E+01
  0
ARC
  8
0
 62
7
 10
-1.59091016E+02
 20
-5.22255022E+01
 40
1.99551101E+00
 50
8.98300844E+01
 51
1.77831637E+02
  0
ARC
  8
0
 62
7
 10
-2.56956044E+02
 20
-1.38455734E+02
 40
2.99123663E+00
 50
1.82189249E+02
 51
2.40145097E+02
  0
ARC
  8
0
 62
7
 10
-1.67103928E+02
 20
-1.38449820E+02
 40
3.00123789E+00
 50
2.99960588E+02
 51
3.57705066E+02
  0
ARC
  8
0
 62
7
 10
-2.49976324E+02
 20
-1.49416736E+02
 40
3.01311790E+00
 50
2.03005889E+00
 51
5.98974542E+01
  0
ARC
  8
0
 62
7
 10
-1.74083617E+02
 20
-1.49410889E+02
 40
3.00317594E+00
 50
1.19997640E+02
 51
1.78074847E+02
  0
ARC
  8
0
  6
PHANTOM
 62
6
 10
-2.54525098E+02
 20
4.47600000E+01
 40
4.25000521E+00
 50
9.00000002E+01
 51
2.70000000E+02
  0
ARC
  8
0
  6
PHANTOM
 62
6
 10
-2.49525098E+02
 20
4.47600000E+01
 40
4.25000521E+00
 50
2.70000000E+02
 51
9.00000002E+01
  0
ARC
  8
0
  6
PHANTOM
 62
6
 10
-1.74525098E+02
 20
4.47600000E+01
 40
4.25000521E+00
 50
9.00000002E+01
 51
2.70000000E+02
  0
ARC
  8
0
  6
PHANTOM
 62
6
 10
-1.69525098E+02
 20
4.47600000E+01
 40
4.25000521E+00
 50
2.70000000E+02
 51
9.00000002E+01
  0
CIRCLE
  8
0
 62
7
 10
-2.12031754E+02
 20
-1.70234458E+02
 40
1.55000000E+01
  0
CIRCLE
  8
0
 62
7
 10
-2.12031754E+02
 20
-1.70234458E+02
 40
1.99999981E+01
  0
CIRCLE
  8
0
 62
7
 10
-2.12031754E+02
 20
-1.70234458E+02
 40
1.90000000E+01
  0
CIRCLE
  8
0
 62
7
 10
-2.12031754E+02
 20
-1.70234458E+02
 40
1.50000000E+01
  0
ARC
  8
0
 62
7
 10
-2.42602500E+02
 20
-1.88471676E+02
 40
2.98421777E+00
 50
1.81888129E+02
 51
2.39767196E+02
  0
ARC
  8
0
 62
7
 10
-2.27410343E+02
 20
-1.97237169E+02
 40
2.99283573E+00
 50
2.40036753E+02
 51
2.70100413E+02
  0
ARC
  8
0
 62
7
 10
-1.96622079E+02
 20
-1.97228820E+02
 40
3.00118141E+00
 50
2.69942370E+02
 51
2.99920465E+02
  0
ARC
  8
0
 62
7
 10
-1.81446819E+02
 20
-1.88448072E+02
 40
3.00419684E+00
 50
2.99991700E+02
 51
3.57673954E+02
  0
CIRCLE
  8
0
 62
7
 10
-2.16867753E+02
 20
-1.82453788E+02
 40
1.00000000E+00
  0
CIRCLE
  8
0
 62
7
 10
-2.07195756E+02
 20
-1.82453788E+02
 40
1.00000000E+00
  0
LINE
  8
0
 62
7
 10
-2.50531754E+02
 20
-2.63344641E+01
 11
-2.51401754E+02
 21
-2.58344641E+01
  0
LINE
  8
0
 62
7
 10
-2.50531754E+02
 20
-2.63344641E+01
 11
-2.50531754E+02
 21
-3.38344641E+01
  0
LINE
  8
0
 62
7
 10
-2.63531754E+02
 20
-2.63344641E+01
 11
-2.50531754E+02
 21
-2.63344641E+01
  0
LINE
  8
0
 62
7
 10
-2.62661754E+02
 20
-2.58344641E+01
 11
-2.51401754E+02
 21
-2.58344641E+01
  0
LINE
  8
0
 62
7
 10
-2.63531754E+02
 20
-2.63344641E+01
 11
-2.62661754E+02
 21
-2.58344641E+01
  0
LINE
  8
0
 62
7
 10
-2.63531754E+02
 20
-2.63344641E+01
 11
-2.63531754E+02
 21
-3.38344641E+01
  0
LINE
  8
0
 62
7
 10
-1.60531754E+02
 20
-2.63344641E+01
 11
-1.61401754E+02
 21
-2.58344641E+01
  0
LINE
  8
0
 62
7
 10
-1.60531754E+02
 20
-2.63344641E+01
 11
-1.60531754E+02
 21
-3.38344641E+01
  0
LINE
  8
0
 62
7
 10
-1.73531754E+02
 20
-2.63344641E+01
 11
-1.60531754E+02
 21
-2.63344641E+01
  0
LINE
  8
0
 62
7
 10
-1.72661754E+02
 20
-2.58344641E+01
 11
-1.61401754E+02
 21
-2.58344641E+01
  0
LINE
  8
0
 62
7
 10
-1.73531754E+02
 20
-2.63344641E+01
 11
-1.72661754E+02
 21
-2.58344641E+01
  0
LINE
  8
0
 62
7
 10
-1.73531754E+02
 20
-2.63344641E+01
 11
-1.73531754E+02
 21
-3.38344641E+01
  0
ARC
  8
0
 62
7
 10
-2.07202095E+02
 20
-1.82457628E+02
 40
1.51004724E+00
 50
4.74913752E+01
 51
1.94842970E+02
  0
ARC
  8
0
 62
7
 10
-2.12031754E+02
 20
-1.70984458E+02
 40
1.34437532E+01
 50
3.09052512E+02
 51
2.30947488E+02
  0
ARC
  8
0
 62
7
 10
-2.19237851E+02
 20
-1.79874789E+02
 40
1.99973131E+00
 50
2.30799466E+02
 51
3.12698427E+02
  0
ARC
  8
0
 62
7
 10
-2.16861413E+02
 20
-1.82457628E+02
 40
1.51004724E+00
 50
3.45157030E+02
 51
1.32508625E+02
  0
ARC
  8
0
 62
7
 10
-2.04825657E+02
 20
-1.79874789E+02
 40
1.99973131E+00
 50
2.27301573E+02
 51
3.09200534E+02
  0
ARC
  8
0
 62
7
 10
-2.12031754E+02
 20
-1.70234458E+02
 40
1.49908239E+01
 50
2.54999647E+02
 51
2.85000353E+02
  0
LINE
  8
0
 62
7
 10
-2.15401754E+02
 20
-1.82844458E+02
 11
-2.15911754E+02
 21
-1.84714458E+02
  0
LINE
  8
0
 62
7
 10
-2.08661754E+02
 20
-1.82844458E+02
 11
-2.08151754E+02
 21
-1.84714458E+02
  0
LINE
  8
0
  6
CENTER
 62
2
 10
-2.32250977E+01
 20
-2.50000000E-01
 11
2.37749023E+01
 21
-2.50000000E-01
  0
LINE
  8
0
  6
CENTER
 62
2
 10
2.74902344E-01
 20
3.08500000E+01
 11
2.74902344E-01
 21
-2.26330000E+02
  0
LINE
  8
0
 62
7
 10
-2.32250977E+01
 20
2.47500000E+01
 11
2.37749023E+01
 21
2.47500000E+01
  0
LINE
  8
0
 62
7
 10
-5.47250977E+01
 20
-4.02300000E+01
 11
5.52749023E+01
 21
-4.02300000E+01
  0
LINE
  8
0
 62
7
 10
-5.47250977E+01
 20
-2.72300000E+01
 11
-5.47250977E+01
 21
-5.02300000E+01
  0
LINE
  8
0
 62
7
 10
5.52749023E+01
 20
-2.72300000E+01
 11
5.52749023E+01
 21
-5.02300000E+01
  0
LINE
  8
0
 62
7
 10
-2.47250977E+01
 20
2.32500000E+01
 11
-2.47250977E+01
 21
-2.37300000E+01
  0
LINE
  8
0
 62
7
 10
2.52749023E+01
 20
2.32500000E+01
 11
2.52749023E+01
 21
-2.37300000E+01
  0
LINE
  8
0
 62
7
 10
-2.32250977E+01
 20
2.47500000E+01
 11
-2.47250977E+01
 21
2.32500000E+01
  0
LINE
  8
0
 62
7
 10
2.37749023E+01
 20
2.47500000E+01
 11
2.52749023E+01
 21
2.32500000E+01
  0
LINE
  8
0
 62
7
 10
-2.47250977E+01
 20
2.32500000E+01
 11
2.52749023E+01
 21
2.32500000E+01
  0
LINE
  8
0
 62
7
 10
-4.15250977E+01
 20
2.17500000E+01
 11
-2.47250977E+01
 21
2.17500000E+01
  0
LINE
  8
0
 62
7
 10
2.52749023E+01
 20
2.17500000E+01
 11
4.21349023E+01
 21
2.17500000E+01
  0
LINE
  8
0
 62
7
 10
-4.46650977E+01
 20
-2.32900000E+01
 11
-4.31450977E+01
 21
2.02500000E+01
  0
LINE
  8
0
 62
7
 10
4.52149023E+01
 20
-2.32900000E+01
 11
4.36949023E+01
 21
2.02100000E+01
  0
LINE
  8
0
 62
7
 10
-4.31250977E+01
 20
2.02500000E+01
 11
-4.15250977E+01
 21
2.17500000E+01
  0
LINE
  8
0
 62
7
 10
4.21349023E+01
 20
2.17500000E+01
 11
4.36949023E+01
 21
2.02100000E+01
  0
LINE
  8
0
 62
7
 10
-4.31450977E+01
 20
2.02500000E+01
 11
-2.47250977E+01
 21
2.02500000E+01
  0
LINE
  8
0
 62
7
 10
4.36949023E+01
 20
2.02100000E+01
 11
2.52749023E+01
 21
2.02100000E+01
  0
LINE
  8
0
 62
7
 10
-3.72250977E+01
 20
-2.72300000E+01
 11
-3.72250977E+01
 21
-3.33300000E+01
  0
LINE
  8
0
 62
7
 10
3.77749023E+01
 20
-2.72300000E+01
 11
3.77749023E+01
 21
-3.33300000E+01
  0
LINE
  8
0
 62
7
 10
-5.27250977E+01
 20
-3.38300000E+01
 11
-3.77250977E+01
 21
-3.38300000E+01
  0
LINE
  8
0
 62
7
 10
3.82749023E+01
 20
-3.38300000E+01
 11
5.32749023E+01
 21
-3.38300000E+01
  0
LINE
  8
0
  6
CENTER
 62
2
 10
-4.47250977E+01
 20
-2.12300000E+01
 11
-4.47250977E+01
 21
-3.78300000E+01
  0
LINE
  8
0
  6
CENTER
 62
2
 10
4.52749023E+01
 20
-2.12300000E+01
 11
4.52749023E+01
 21
-3.78300000E+01
  0
LINE
  8
0
 62
7
 10
-2.32250977E+01
 20
2.47500000E+01
 11
-2.32250977E+01
 21
-2.52300000E+01
  0
LINE
  8
0
 62
7
 10
2.37749023E+01
 20
2.47500000E+01
 11
2.37749023E+01
 21
-2.52300000E+01
  0
LINE
  8
0
 62
7
 10
-5.27250977E+01
 20
-2.52300000E+01
 11
5.32749023E+01
 21
-2.52300000E+01
  0
LINE
  8
0
 62
7
 10
5.52749023E+01
 20
-5.02300000E+01
 11
-5.47250977E+01
 21
-5.02300000E+01
  0
LINE
  8
0
 62
7
 10
1.56749023E+01
 20
-2.00230000E+02
 11
-1.51050977E+01
 21
-2.00230000E+02
  0
LINE
  8
0
 62
7
 10
4.52749023E+01
 20
-1.40230000E+02
 11
-4.47250977E+01
 21
-1.40230000E+02
  0
LINE
  8
0
 62
7
 10
5.12149023E+01
 20
-5.21500000E+01
 11
4.81949023E+01
 21
-1.38570000E+02
  0
LINE
  8
0
 62
7
 10
-5.06650977E+01
 20
-5.21500000E+01
 11
-4.76450977E+01
 21
-1.38570000E+02
  0
LINE
  8
0
 62
7
 10
4.66949023E+01
 20
-1.41050000E+02
 11
3.67149023E+01
 21
-1.46810000E+02
  0
LINE
  8
0
 62
7
 10
-4.61450977E+01
 20
-1.41050000E+02
 11
-3.61650977E+01
 21
-1.46810000E+02
  0
LINE
  8
0
 62
7
 10
3.27749023E+01
 20
-1.47650000E+02
 11
-3.22250977E+01
 21
-1.47650000E+02
  0
LINE
  8
0
 62
7
 10
3.12749023E+01
 20
-1.90230000E+02
 11
-3.07250977E+01
 21
-1.90230000E+02
  0
LINE
  8
0
 62
7
 10
3.52149023E+01
 20
-1.49310000E+02
 11
3.38549023E+01
 21
-1.88570000E+02
  0
LINE
  8
0
 62
7
 10
3.23549023E+01
 20
-1.91050000E+02
 11
1.71749023E+01
 21
-1.99830000E+02
  0
LINE
  8
0
 62
7
 10
-3.18050977E+01
 20
-1.91050000E+02
 11
-1.66050977E+01
 21
-1.99830000E+02
  0
LINE
  8
0
 62
7
 10
-4.77250977E+01
 20
-1.51230000E+02
 11
-4.77250977E+01
 21
-1.89230000E+02
  0
LINE
  8
0
 62
7
 10
-4.67250977E+01
 20
-1.90230000E+02
 11
-3.29650977E+01
 21
-1.90230000E+02
  0
LINE
  8
0
 62
7
 10
-4.67250977E+01
 20
-1.50230000E+02
 11
-4.14650977E+01
 21
-1.50230000E+02
  0
LINE
  8
0
  6
CENTER
 62
2
 10
-5.17250977E+01
 20
-1.70230000E+02
 11
-2.99250977E+01
 21
-1.70230000E+02
  0
LINE
  8
0
 62
7
 10
-4.77250977E+01
 20
-1.51230000E+02
 11
-4.67250977E+01
 21
-1.50230000E+02
  0
LINE
  8
0
 62
7
 10
-4.67250977E+01
 20
-1.90230000E+02
 11
-4.77250977E+01
 21
-1.89230000E+02
  0
LINE
  8
0
 62
7
 10
-4.67250977E+01
 20
-1.90230000E+02
 11
-4.67250977E+01
 21
-1.50230000E+02
  0
LINE
  8
0
 62
7
 10
-3.46650977E+01
 20
-1.49310000E+02
 11
-3.33050977E+01
 21
-1.88570000E+02
  0
LINE
  8
0
 62
4
 10
6.71490234E+00
 20
-2.09890000E+02
 11
7.29490234E+00
 21
-2.10110000E+02
  0
LINE
  8
0
 62
4
 10
7.87490234E+00
 20
-2.19330000E+02
 11
7.29490234E+00
 21
-2.19830000E+02
  0
LINE
  8
0
 62
4
 10
-7.32509766E+00
 20
-2.19330000E+02
 11
-6.74509766E+00
 21
-2.19830000E+02
  0
LINE
  8
0
 62
4
 10
-7.30509766E+00
 20
-2.05630000E+02
 11
7.85490234E+00
 21
-2.05630000E+02
  0
LINE
  8
0
 62
4
 10
8.35490234E+00
 20
-2.00230000E+02
 11
8.35490234E+00
 21
-2.05130000E+02
  0
LINE
  8
0
 62
4
 10
-7.80509766E+00
 20
-2.00230000E+02
 11
-7.80509766E+00
 21
-2.05130000E+02
  0
LINE
  8
0
 62
4
 10
-6.46509766E+00
 20
-2.20330000E+02
 11
7.03490234E+00
 21
-2.20330000E+02
  0
LINE
  8
0
 62
4
 10
-7.46509766E+00
 20
-2.07330000E+02
 11
-7.46509766E+00
 21
-2.19330000E+02
  0
LINE
  8
0
 62
4
 10
8.03490234E+00
 20
-2.07330000E+02
 11
8.03490234E+00
 21
-2.19330000E+02
  0
LINE
  8
0
 62
4
 10
-7.46509766E+00
 20
-2.19330000E+02
 11
-6.46509766E+00
 21
-2.20330000E+02
  0
LINE
  8
0
 62
4
 10
7.03490234E+00
 20
-2.20330000E+02
 11
8.03490234E+00
 21
-2.19330000E+02
  0
LINE
  8
0
 62
4
 10
-7.32509766E+00
 20
-2.09830000E+02
 11
-6.16509766E+00
 21
-2.09830000E+02
  0
LINE
  8
0
 62
4
 10
-6.96509766E+00
 20
-2.06830000E+02
 11
7.53490234E+00
 21
-2.06830000E+02
  0
LINE
  8
0
 62
4
 10
-7.46509766E+00
 20
-2.07330000E+02
 11
-6.96509766E+00
 21
-2.06830000E+02
  0
LINE
  8
0
 62
4
 10
7.53490234E+00
 20
-2.06830000E+02
 11
8.03490234E+00
 21
-2.07330000E+02
  0
LINE
  8
0
 62
4
 10
-5.72509766E+00
 20
-2.05630000E+02
 11
-5.72509766E+00
 21
-2.06830000E+02
  0
LINE
  8
0
 62
4
 10
6.27490234E+00
 20
-2.05630000E+02
 11
6.27490234E+00
 21
-2.06830000E+02
  0
LINE
  8
0
 62
4
 10
-7.80509766E+00
 20
-2.05130000E+02
 11
-7.30509766E+00
 21
-2.05630000E+02
  0
LINE
  8
0
 62
4
 10
8.35490234E+00
 20
-2.05130000E+02
 11
7.85490234E+00
 21
-2.05630000E+02
  0
LINE
  8
0
 62
4
 10
-7.80509766E+00
 20
-2.05130000E+02
 11
8.35490234E+00
 21
-2.05130000E+02
  0
LINE
  8
0
 62
4
 10
-7.46509766E+00
 20
-2.07330000E+02
 11
8.03490234E+00
 21
-2.07330000E+02
  0
LINE
  8
0
 62
4
 10
-7.32509766E+00
 20
-2.10110000E+02
 11
-6.74509766E+00
 21
-2.10110000E+02
  0
LINE
  8
0
 62
4
 10
-7.46509766E+00
 20
-2.19330000E+02
 11
-7.32509766E+00
 21
-2.19330000E+02
  0
LINE
  8
0
 62
4
 10
-1.22509766E+00
 20
-2.09830000E+02
 11
-1.22509766E+00
 21
-2.19330000E+02
  0
LINE
  8
0
 62
4
 10
1.77490234E+00
 20
-2.09830000E+02
 11
1.77490234E+00
 21
-2.19330000E+02
  0
LINE
  8
0
 62
4
 10
1.77490234E+00
 20
-2.09830000E+02
 11
4.59490234E+00
 21
-2.09830000E+02
  0
LINE
  8
0
 62
4
 10
2.11490234E+00
 20
-2.10110000E+02
 11
3.93490234E+00
 21
-2.10110000E+02
  0
LINE
  8
0
 62
4
 10
-1.22509766E+00
 20
-2.19330000E+02
 11
1.77490234E+00
 21
-2.19330000E+02
  0
LINE
  8
0
 62
4
 10
4.59490234E+00
 20
-2.19330000E+02
 11
6.71490234E+00
 21
-2.19330000E+02
  0
LINE
  8
0
 62
4
 10
-6.96509766E+00
 20
-2.19830000E+02
 11
-6.74509766E+00
 21
-2.19830000E+02
  0
LINE
  8
0
 62
4
 10
2.11490234E+00
 20
-2.10110000E+02
 11
2.11490234E+00
 21
-2.19830000E+02
  0
LINE
  8
0
 62
4
 10
-1.56509766E+00
 20
-2.10110000E+02
 11
-1.56509766E+00
 21
-2.19830000E+02
  0
LINE
  8
0
 62
4
 10
-1.56509766E+00
 20
-2.19830000E+02
 11
2.11490234E+00
 21
-2.19830000E+02
  0
LINE
  8
0
 62
4
 10
3.93490234E+00
 20
-2.19830000E+02
 11
6.71490234E+00
 21
-2.19830000E+02
  0
LINE
  8
0
 62
4
 10
3.93490234E+00
 20
-2.10110000E+02
 11
3.93490234E+00
 21
-2.19830000E+02
  0
LINE
  8
0
 62
4
 10
-3.38509766E+00
 20
-2.10110000E+02
 11
-3.38509766E+00
 21
-2.19830000E+02
  0
LINE
  8
0
 62
4
 10
-4.04509766E+00
 20
-2.09830000E+02
 11
-4.04509766E+00
 21
-2.19330000E+02
  0
LINE
  8
0
 62
4
 10
4.59490234E+00
 20
-2.09830000E+02
 11
4.59490234E+00
 21
-2.19330000E+02
  0
LINE
  8
0
 62
4
 10
6.71490234E+00
 20
-2.09830000E+02
 11
7.87490234E+00
 21
-2.09830000E+02
  0
LINE
  8
0
 62
4
 10
7.29490234E+00
 20
-2.10110000E+02
 11
7.87490234E+00
 21
-2.10110000E+02
  0
LINE
  8
0
 62
4
 10
-4.04509766E+00
 20
-2.09830000E+02
 11
-1.22509766E+00
 21
-2.09830000E+02
  0
LINE
  8
0
 62
4
 10
-3.38509766E+00
 20
-2.10110000E+02
 11
-1.56509766E+00
 21
-2.10110000E+02
  0
LINE
  8
0
 62
4
 10
-6.16509766E+00
 20
-2.19330000E+02
 11
-4.04509766E+00
 21
-2.19330000E+02
  0
LINE
  8
0
 62
4
 10
-6.16509766E+00
 20
-2.19830000E+02
 11
-3.38509766E+00
 21
-2.19830000E+02
  0
LINE
  8
0
 62
4
 10
7.87490234E+00
 20
-2.19330000E+02
 11
8.03490234E+00
 21
-2.19330000E+02
  0
LINE
  8
0
 62
4
 10
7.29490234E+00
 20
-2.19830000E+02
 11
7.53490234E+00
 21
-2.19830000E+02
  0
LINE
  8
0
 62
4
 10
-6.16509766E+00
 20
-2.09830000E+02
 11
-6.16509766E+00
 21
-2.19830000E+02
  0
LINE
  8
0
 62
4
 10
6.71490234E+00
 20
-2.09830000E+02
 11
6.71490234E+00
 21
-2.19830000E+02
  0
LINE
  8
0
 62
4
 10
-6.74509766E+00
 20
-2.10110000E+02
 11
-6.74509766E+00
 21
-2.19830000E+02
  0
LINE
  8
0
 62
4
 10
7.29490234E+00
 20
-2.10110000E+02
 11
7.29490234E+00
 21
-2.19830000E+02
  0
LINE
  8
0
 62
4
 10
-7.32509766E+00
 20
-2.09830000E+02
 11
-7.32509766E+00
 21
-2.19330000E+02
  0
LINE
  8
0
 62
4
 10
7.87490234E+00
 20
-2.09830000E+02
 11
7.87490234E+00
 21
-2.19330000E+02
  0
LINE
  8
0
 62
4
 10
-1.56509766E+00
 20
-2.10110000E+02
 11
-1.22509766E+00
 21
-2.09830000E+02
  0
LINE
  8
0
 62
4
 10
1.77490234E+00
 20
-2.09830000E+02
 11
2.11490234E+00
 21
-2.10110000E+02
  0
LINE
  8
0
 62
4
 10
1.77490234E+00
 20
-2.19330000E+02
 11
2.11490234E+00
 21
-2.19830000E+02
  0
LINE
  8
0
 62
4
 10
-1.22509766E+00
 20
-2.19330000E+02
 11
-1.56509766E+00
 21
-2.19830000E+02
  0
LINE
  8
0
 62
4
 10
-4.04509766E+00
 20
-2.09830000E+02
 11
-3.38509766E+00
 21
-2.10110000E+02
  0
LINE
  8
0
 62
4
 10
3.93490234E+00
 20
-2.10110000E+02
 11
4.59490234E+00
 21
-2.09830000E+02
  0
LINE
  8
0
 62
4
 10
4.59490234E+00
 20
-2.19330000E+02
 11
3.93490234E+00
 21
-2.19830000E+02
  0
LINE
  8
0
 62
4
 10
-4.04509766E+00
 20
-2.19330000E+02
 11
-3.38509766E+00
 21
-2.19830000E+02
  0
LINE
  8
0
 62
4
 10
-6.74509766E+00
 20
-2.10110000E+02
 11
-6.16509766E+00
 21
-2.09890000E+02
  0
LINE
  8
0
  6
PHANTOM
 62
6
 10
2.72749023E+01
 20
-2.20300000E+01
 11
7.22749023E+01
 21
-2.20300000E+01
  0
LINE
  8
0
  6
PHANTOM
 62
6
 10
7.72749023E+01
 20
5.47500000E+01
 11
7.72749023E+01
 21
-2.02300000E+01
  0
LINE
  8
0
  6
PHANTOM
 62
6
 10
7.40749023E+01
 20
5.47500000E+01
 11
7.40749023E+01
 21
-2.02300000E+01
  0
LINE
  8
0
  6
PHANTOM
 62
6
 10
7.40749023E+01
 20
5.47500000E+01
 11
7.72749023E+01
 21
5.47500000E+01
  0
LINE
  8
0
  6
PHANTOM
 62
6
 10
7.40749023E+01
 20
4.97500000E+01
 11
7.72749023E+01
 21
4.97500000E+01
  0
LINE
  8
0
  6
PHANTOM
 62
6
 10
5.17749023E+01
 20
-1.45300000E+01
 11
5.17749023E+01
 21
-2.20300000E+01
  0
LINE
  8
0
  6
PHANTOM
 62
6
 10
5.17749023E+01
 20
-1.45300000E+01
 11
5.09149023E+01
 21
-1.40300000E+01
  0
LINE
  8
0
  6
PHANTOM
 62
6
 10
5.09149023E+01
 20
-1.40300000E+01
 11
3.96349023E+01
 21
-1.40300000E+01
  0
LINE
  8
0
  6
PHANTOM
 62
6
 10
5.17749023E+01
 20
-1.45300000E+01
 11
3.87749023E+01
 21
-1.45300000E+01
  0
LINE
  8
0
  6
PHANTOM
 62
6
 10
3.87749023E+01
 20
-1.45300000E+01
 11
3.96349023E+01
 21
-1.40300000E+01
  0
LINE
  8
0
  6
PHANTOM
 62
6
 10
3.87749023E+01
 20
-1.45300000E+01
 11
3.87749023E+01
 21
-2.20300000E+01
  0
LINE
  8
0
  6
PHANTOM
 62
6
 10
2.72749023E+01
 20
-2.20300000E+01
 11
2.72749023E+01
 21
-2.52300000E+01
  0
LINE
  8
0
  6
PHANTOM
 62
6
 10
3.02749023E+01
 20
-2.20300000E+01
 11
3.02749023E+01
 21
-2.52300000E+01
  0
LINE
  8
0
  6
PHANTOM
 62
6
 10
5.32749023E+01
 20
-2.52300000E+01
 11
7.22749023E+01
 21
-2.52300000E+01
  0
LINE
  8
0
 62
4
 10
-5.08509766E+00
 20
2.64300000E+01
 11
5.63490234E+00
 21
2.64300000E+01
  0
LINE
  8
0
 62
4
 10
-6.30509766E+00
 20
2.57300000E+01
 11
6.85490234E+00
 21
2.57300000E+01
  0
LINE
  8
0
 62
6
 10
-5.44509766E+00
 20
2.62300000E+01
 11
-5.44509766E+00
 21
2.47500000E+01
  0
LINE
  8
0
 62
4
 10
-6.30509766E+00
 20
2.57300000E+01
 11
-6.26509766E+00
 21
2.47500000E+01
  0
LINE
  8
0
 62
4
 10
-6.30509766E+00
 20
2.57300000E+01
 11
-5.08509766E+00
 21
2.64300000E+01
  0
LINE
  8
0
 62
4
 10
5.63490234E+00
 20
2.64300000E+01
 11
6.85490234E+00
 21
2.57300000E+01
  0
LINE
  8
0
 62
4
 10
6.85490234E+00
 20
2.57300000E+01
 11
6.81490234E+00
 21
2.47500000E+01
  0
LINE
  8
0
 62
6
 10
5.99490234E+00
 20
2.62300000E+01
 11
5.99490234E+00
 21
2.47500000E+01
  0
ARC
  8
0
 62
7
 10
-4.66533872E+01
 20
-2.32411448E+01
 40
1.98888967E+00
 50
2.69662644E+02
 51
3.58592442E+02
  0
ARC
  8
0
 62
7
 10
-3.77178611E+01
 20
-3.33372365E+01
 40
4.92816597E-01
 50
2.69158637E+02
 51
8.41363530E-01
  0
ARC
  8
0
 62
7
 10
3.82777195E+01
 20
-3.33271828E+01
 40
5.02825045E-01
 50
1.80321010E+02
 51
2.69678990E+02
  0
ARC
  8
0
 62
7
 10
-5.27178851E+01
 20
-2.72372126E+01
 40
2.00722555E+00
 50
9.02058823E+01
 51
1.79794118E+02
  0
ARC
  8
0
 62
7
 10
5.32776572E+01
 20
-2.72272451E+01
 40
1.99724701E+00
 50
3.59920969E+02
 51
9.00790305E+01
  0
ARC
  8
0
 62
7
 10
-5.27178820E+01
 20
-3.58372156E+01
 40
2.00722860E+00
 50
9.02059688E+01
 51
1.79794031E+02
  0
ARC
  8
0
 62
7
 10
-3.52178545E+01
 20
-2.72372431E+01
 40
2.00725622E+00
 50
9.02067514E+01
 51
1.79793249E+02
  0
ARC
  8
0
 62
7
 10
3.57776572E+01
 20
-2.72272451E+01
 40
1.99724701E+00
 50
3.59920969E+02
 51
9.00790305E+01
  0
ARC
  8
0
 62
7
 10
5.32776542E+01
 20
-3.58272482E+01
 40
1.99725007E+00
 50
3.59921057E+02
 51
9.00789429E+01
  0
CIRCLE
  8
0
 62
7
 10
2.74902344E-01
 20
-2.50000000E-01
 40
2.10000000E+01
  0
ARC
  8
0
 62
7
 10
2.67776877E+01
 20
-2.37272147E+01
 40
1.50278793E+00
 50
1.80106195E+02
 51
2.69893805E+02
  0
ARC
  8
0
 62
7
 10
-2.62178743E+01
 20
-2.37372234E+01
 40
1.49279408E+00
 50
2.69722754E+02
 51
2.77246450E-01
  0
ARC
  8
0
 62
7
 10
-1.51092407E+01
 20
-1.97233036E+02
 40
2.99696655E+00
 50
2.40057960E+02
 51
2.70079206E+02
  0
ARC
  8
0
 62
7
 10
-3.03009224E+01
 20
-1.88446588E+02
 40
3.00670914E+00
 50
1.82352406E+02
 51
2.39981939E+02
  0
ARC
  8
0
 62
7
 10
1.56790445E+01
 20
-1.97233033E+02
 40
2.99696961E+00
 50
2.69920810E+02
 51
2.99942024E+02
  0
ARC
  8
0
 62
7
 10
5.32169492E+01
 20
-5.22337988E+01
 40
2.00379981E+00
 50
9.00585255E+01
 51
1.77603196E+02
  0
ARC
  8
0
 62
7
 10
-5.26576022E+01
 20
-5.22238590E+01
 40
1.99387304E+00
 50
2.12289070E+00
 51
9.02153882E+01
  0
ARC
  8
0
 62
7
 10
4.52083206E+01
 20
-1.38457229E+02
 40
2.98871003E+00
 50
2.99828075E+02
 51
3.57837580E+02
  0
ARC
  8
0
 62
7
 10
-4.46438365E+01
 20
-1.38448350E+02
 40
3.00372560E+00
 50
1.82321095E+02
 51
2.40013250E+02
  0
ARC
  8
0
 62
7
 10
3.82285798E+01
 20
-1.49418206E+02
 40
3.01561941E+00
 50
1.20128816E+02
 51
1.77943671E+02
  0
ARC
  8
0
 62
7
 10
3.08653894E+01
 20
-1.88455456E+02
 40
2.99170657E+00
 50
2.99859887E+02
 51
3.57805767E+02
  0
ARC
  8
0
 62
7
 10
-4.14477425E+01
 20
-1.47233756E+02
 40
2.99629441E+00
 50
2.69668129E+02
 51
6.03417131E+01
  0
ARC
  8
0
 62
7
 10
-3.76641092E+01
 20
-1.49409407E+02
 40
3.00065856E+00
 50
1.89846278E+00
 51
6.00290500E+01
  0
ARC
  8
0
 62
7
 10
-3.29685075E+01
 20
-1.90728310E+02
 40
4.98321427E-01
 50
3.96997116E+01
 51
8.96079366E+01
  0
ARC
  8
0
  6
PHANTOM
 62
6
 10
7.22821275E+01
 20
-2.02372252E+01
 40
4.99278004E+00
 50
2.69917086E+02
 51
8.29142890E-02
  0
ARC
  8
0
  6
PHANTOM
 62
6
 10
7.22821262E+01
 20
-2.02372238E+01
 40
1.79279073E+00
 50
2.69769134E+02
 51
2.30866738E-01
  0
CIRCLE
  8
0
 62
2
 10
2.74902344E-01
 20
-2.50000000E-01
 40
1.04774990E+01
  0
CIRCLE
  8
0
 62
7
 10
2.74902344E-01
 20
-2.50000000E-01
 40
9.31550026E+00
  0
ARC
  8
0
 62
7
 10
4.72128727E+01
 20
-2.32311646E+01
 40
1.99883644E+00
 50
1.81686735E+02
 51
2.70058179E+02
  0
LINE
  8
0
 62
7
 10
-3.82151343E+01
 20
-2.63344641E+01
 11
-3.90851343E+01
 21
-2.58344641E+01
  0
LINE
  8
0
 62
7
 10
-3.82151343E+01
 20
-2.63344641E+01
 11
-3.82151343E+01
 21
-3.38344641E+01
  0
LINE
  8
0
 62
7
 10
-5.12151343E+01
 20
-2.63344641E+01
 11
-3.82151343E+01
 21
-2.63344641E+01
  0
LINE
  8
0
 62
7
 10
-5.03451343E+01
 20
-2.58344641E+01
 11
-3.90851343E+01
 21
-2.58344641E+01
  0
LINE
  8
0
 62
7
 10
-5.12151343E+01
 20
-2.63344641E+01
 11
-5.03451343E+01
 21
-2.58344641E+01
  0
LINE
  8
0
 62
7
 10
-5.12151343E+01
 20
-2.63344641E+01
 11
-5.12151343E+01
 21
-3.38344641E+01
  0
LINE
  8
0
 62
7
 10
5.17849268E+01
 20
-2.63344641E+01
 11
5.09149268E+01
 21
-2.58344641E+01
  0
LINE
  8
0
 62
7
 10
5.17849268E+01
 20
-2.63344641E+01
 11
5.17849268E+01
 21
-3.38344641E+01
  0
LINE
  8
0
 62
7
 10
3.87849268E+01
 20
-2.63344641E+01
 11
5.17849268E+01
 21
-2.63344641E+01
  0
LINE
  8
0
 62
7
 10
3.96549268E+01
 20
-2.58344641E+01
 11
5.09149268E+01
 21
-2.58344641E+01
  0
LINE
  8
0
 62
7
 10
3.87849268E+01
 20
-2.63344641E+01
 11
3.96549268E+01
 21
-2.58344641E+01
  0
LINE
  8
0
 62
7
 10
3.87849268E+01
 20
-2.63344641E+01
 11
3.87849268E+01
 21
-3.38344641E+01
  0
LINE
  8
0
  6
CENTER
 62
2
 10
-2.12025098E+02
 20
1.03566676E+02
 11
-2.12025098E+02
 21
2.46566676E+02
  0
LINE
  8
0
  6
CENTER
 62
2
 10
-2.77025098E+02
 20
1.63566676E+02
 11
-1.47025098E+02
 21
1.63566676E+02
  0
LINE
  8
0
 62
7
 10
-1.52025098E+02
 20
1.87066676E+02
 11
-1.52025098E+02
 21
1.40066676E+02
  0
LINE
  8
0
 62
7
 10
-2.72025098E+02
 20
1.87066676E+02
 11
-2.72025098E+02
 21
1.40066676E+02
  0
LINE
  8
0
 62
7
 10
-2.70525098E+02
 20
1.88566676E+02
 11
-1.53525098E+02
 21
1.88566676E+02
  0
LINE
  8
0
 62
7
 10
-2.70525098E+02
 20
1.38566676E+02
 11
-1.53525098E+02
 21
1.38566676E+02
  0
LINE
  8
0
 62
7
 10
-2.72025098E+02
 20
1.87066676E+02
 11
-2.70525098E+02
 21
1.88566676E+02
  0
LINE
  8
0
 62
7
 10
-1.52025098E+02
 20
1.87066676E+02
 11
-1.53525098E+02
 21
1.88566676E+02
  0
LINE
  8
0
 62
7
 10
-1.53525098E+02
 20
1.38566676E+02
 11
-1.52025098E+02
 21
1.40066676E+02
  0
LINE
  8
0
 62
7
 10
-2.72025098E+02
 20
1.40066676E+02
 11
-2.70525098E+02
 21
1.38566676E+02
  0
LINE
  8
0
 62
7
 10
-2.72025098E+02
 20
1.87066676E+02
 11
-1.52025098E+02
 21
1.87066676E+02
  0
LINE
  8
0
 62
7
 10
-2.72025098E+02
 20
1.40066676E+02
 11
-1.52025098E+02
 21
1.40066676E+02
  0
LINE
  8
0
 62
7
 10
-1.53525098E+02
 20
1.38566676E+02
 11
-1.53525098E+02
 21
1.88566676E+02
  0
LINE
  8
0
 62
7
 10
-2.70525098E+02
 20
1.38566676E+02
 11
-2.70525098E+02
 21
1.88566676E+02
  0
LINE
  8
0
 62
7
 10
-2.57025098E+02
 20
1.08566676E+02
 11
-1.67025098E+02
 21
1.08566676E+02
  0
LINE
  8
0
 62
7
 10
-2.57025098E+02
 20
2.18566676E+02
 11
-1.67025098E+02
 21
2.18566676E+02
  0
LINE
  8
0
 62
7
 10
-1.57025098E+02
 20
2.08566676E+02
 11
-1.57025098E+02
 21
1.88566676E+02
  0
LINE
  8
0
 62
7
 10
-2.67025098E+02
 20
2.08566676E+02
 11
-2.67025098E+02
 21
1.88566676E+02
  0
LINE
  8
0
 62
7
 10
-2.67025098E+02
 20
1.38566676E+02
 11
-2.67025098E+02
 21
1.18566676E+02
  0
LINE
  8
0
 62
7
 10
-1.57025098E+02
 20
1.38566676E+02
 11
-1.57025098E+02
 21
1.18566676E+02
  0
LINE
  8
0
  6
CENTER
 62
2
 10
-1.78025098E+02
 20
1.18566676E+02
 11
-1.56025098E+02
 21
1.18566676E+02
  0
LINE
  8
0
  6
CENTER
 62
2
 10
-1.78025098E+02
 20
2.08566676E+02
 11
-1.56025098E+02
 21
2.08566676E+02
  0
LINE
  8
0
  6
CENTER
 62
2
 10
-2.68025098E+02
 20
2.08566676E+02
 11
-2.46025098E+02
 21
2.08566676E+02
  0
LINE
  8
0
  6
CENTER
 62
2
 10
-2.68025098E+02
 20
1.18566676E+02
 11
-2.46025098E+02
 21
1.18566676E+02
  0
LINE
  8
0
  6
CENTER
 62
2
 10
-2.57025098E+02
 20
1.29566676E+02
 11
-2.57025098E+02
 21
1.07566676E+02
  0
LINE
  8
0
  6
CENTER
 62
2
 10
-2.57025098E+02
 20
2.19566676E+02
 11
-2.57025098E+02
 21
1.97566676E+02
  0
LINE
  8
0
  6
CENTER
 62
2
 10
-1.67025098E+02
 20
2.19566676E+02
 11
-1.67025098E+02
 21
1.97566676E+02
  0
LINE
  8
0
  6
CENTER
 62
2
 10
-1.67025098E+02
 20
1.29566676E+02
 11
-1.67025098E+02
 21
1.07566676E+02
  0
LINE
  8
0
 62
7
 10
-1.67025098E+02
 20
1.26066676E+02
 11
-1.59025098E+02
 21
1.26066676E+02
  0
LINE
  8
0
 62
7
 10
-2.57025098E+02
 20
1.26066676E+02
 11
-2.65025098E+02
 21
1.26066676E+02
  0
LINE
  8
0
 62
7
 10
-2.57025098E+02
 20
2.01066676E+02
 11
-2.65025098E+02
 21
2.01066676E+02
  0
LINE
  8
0
 62
7
 10
-1.67025098E+02
 20
2.01066676E+02
 11
-1.59025098E+02
 21
2.01066676E+02
  0
LINE
  8
0
 62
7
 10
-2.49525098E+02
 20
2.08566676E+02
 11
-2.49525098E+02
 21
2.16566676E+02
  0
LINE
  8
0
 62
7
 10
-1.74525098E+02
 20
2.08566676E+02
 11
-1.74525098E+02
 21
2.16566676E+02
  0
LINE
  8
0
 62
7
 10
-1.74525098E+02
 20
1.18566676E+02
 11
-1.74525098E+02
 21
1.10566676E+02
  0
LINE
  8
0
 62
7
 10
-2.49525098E+02
 20
1.18566676E+02
 11
-2.49525098E+02
 21
1.10566676E+02
  0
LINE
  8
0
 62
7
 10
-2.63025098E+02
 20
1.66566676E+02
 11
-2.63025098E+02
 21
1.60566676E+02
  0
LINE
  8
0
 62
7
 10
-2.63025098E+02
 20
1.66566676E+02
 11
-2.54785098E+02
 21
1.63566676E+02
  0
LINE
  8
0
 62
7
 10
-2.63025098E+02
 20
1.60566676E+02
 11
-2.54785098E+02
 21
1.63566676E+02
  0
LINE
  8
0
  6
CENTER
 62
2
 10
-2.47025098E+02
 20
1.73566676E+02
 11
-2.47025098E+02
 21
1.53566676E+02
  0
LINE
  8
0
  6
CENTER
 62
2
 10
-1.77025098E+02
 20
1.73566676E+02
 11
-1.77025098E+02
 21
1.53566676E+02
  0
LINE
  8
0
  6
PHANTOM
 62
6
 10
-2.66025098E+02
 20
2.40566676E+02
 11
-1.58025098E+02
 21
2.40566676E+02
  0
LINE
  8
0
  6
PHANTOM
 62
6
 10
-1.58025098E+02
 20
1.93566676E+02
 11
-1.58025098E+02
 21
2.40566676E+02
  0
LINE
  8
0
  6
PHANTOM
 62
6
 10
-2.66025098E+02
 20
1.93566676E+02
 11
-2.66025098E+02
 21
2.40566676E+02
  0
LINE
  8
0
  6
PHANTOM
 62
6
 10
-2.63025098E+02
 20
1.90566676E+02
 11
-2.50485098E+02
 21
1.90566676E+02
  0
LINE
  8
0
  6
PHANTOM
 62
6
 10
-2.66025098E+02
 20
1.93566676E+02
 11
-2.63025098E+02
 21
1.90566676E+02
  0
LINE
  8
0
  6
PHANTOM
 62
6
 10
-1.61025098E+02
 20
1.90566676E+02
 11
-1.58025098E+02
 21
1.93566676E+02
  0
LINE
  8
0
  6
PHANTOM
 62
6
 10
-2.66025098E+02
 20
2.37366676E+02
 11
-1.58025098E+02
 21
2.37366676E+02
  0
LINE
  8
0
  6
PHANTOM
 62
6
 10
-2.61025098E+02
 20
2.37366676E+02
 11
-2.61025098E+02
 21
2.40566676E+02
  0
LINE
  8
0
  6
PHANTOM
 62
6
 10
-1.63025098E+02
 20
2.37366676E+02
 11
-1.63025098E+02
 21
2.40566676E+02
  0
LINE
  8
0
  6
PHANTOM
 62
6
 10
-1.73545098E+02
 20
1.90566676E+02
 11
-1.61025098E+02
 21
1.90566676E+02
  0
ARC
  8
0
 62
7
 10
-2.57033998E+02
 20
2.08575576E+02
 40
9.99110346E+00
 50
8.99489582E+01
 51
1.80051042E+02
  0
ARC
  8
0
 62
7
 10
-1.67022857E+02
 20
2.08568916E+02
 40
9.99775995E+00
 50
3.59987161E+02
 51
9.00128390E+01
  0
ARC
  8
0
 62
7
 10
-1.67033983E+02
 20
1.18575561E+02
 40
1.00088897E+01
 50
2.70050867E+02
 51
3.59949134E+02
  0
ARC
  8
0
 62
7
 10
-2.57022865E+02
 20
1.18568908E+02
 40
1.00022332E+01
 50
1.80012791E+02
 51
2.69987209E+02
  0
ARC
  8
0
 62
7
 10
-2.12025098E+02
 20
1.63577820E+02
 40
4.49966586E+01
 50
3.37347654E+01
 51
1.46265234E+02
  0
ARC
  8
0
 62
7
 10
-2.12025098E+02
 20
1.63577821E+02
 40
4.50090412E+01
 50
2.13758363E+02
 51
3.26241637E+02
  0
ARC
  8
0
 62
7
 10
-2.12025098E+02
 20
1.63577820E+02
 40
4.23727659E+01
 50
3.61384601E+01
 51
1.43861540E+02
  0
ARC
  8
0
 62
7
 10
-2.12025098E+02
 20
1.63577820E+02
 40
4.36751106E+01
 50
3.49005134E+01
 51
1.45099486E+02
  0
ARC
  8
0
 62
7
 10
-2.12025098E+02
 20
1.63577821E+02
 40
4.23859150E+01
 50
2.16162794E+02
 51
3.23837206E+02
  0
ARC
  8
0
 62
7
 10
-2.12025098E+02
 20
1.63577821E+02
 40
4.36878678E+01
 50
2.14924489E+02
 51
3.25075511E+02
  0
ARC
  8
0
 62
7
 10
-2.57033999E+02
 20
2.08575577E+02
 40
7.50890637E+00
 50
2.70067919E+02
 51
3.59932081E+02
  0
ARC
  8
0
 62
7
 10
-1.67022848E+02
 20
2.08568925E+02
 40
7.50224988E+00
 50
1.80017180E+02
 51
2.69982820E+02
  0
ARC
  8
0
 62
7
 10
-1.67033983E+02
 20
1.18575561E+02
 40
7.49112010E+00
 50
8.99320417E+01
 51
1.80067958E+02
  0
ARC
  8
0
 62
7
 10
-2.57022874E+02
 20
1.18568899E+02
 40
7.49777659E+00
 50
3.59983007E+02
 51
9.00169930E+01
  0
ARC
  8
0
 62
7
 10
-2.47522849E+02
 20
1.10568924E+02
 40
2.00225000E+00
 50
1.80064349E+02
 51
2.69935651E+02
  0
ARC
  8
0
 62
7
 10
-1.76533984E+02
 20
1.10575562E+02
 40
2.00890640E+00
 50
2.70253459E+02
 51
3.59746541E+02
  0
ARC
  8
0
 62
7
 10
-1.59033984E+02
 20
1.28075562E+02
 40
2.00890640E+00
 50
2.70253459E+02
 51
3.59746541E+02
  0
ARC
  8
0
 62
7
 10
-1.59022934E+02
 20
1.99068839E+02
 40
1.99783748E+00
 50
3.59937948E+02
 51
9.00620521E+01
  0
ARC
  8
0
 62
7
 10
-1.76522873E+02
 20
2.16568900E+02
 40
1.99777678E+00
 50
3.59936203E+02
 51
9.00637967E+01
  0
ARC
  8
0
 62
7
 10
-2.47533997E+02
 20
2.16575575E+02
 40
1.99112039E+00
 50
8.97439104E+01
 51
1.80256090E+02
  0
ARC
  8
0
 62
7
 10
-2.65033936E+02
 20
1.99075514E+02
 40
1.99118109E+00
 50
8.97456722E+01
 51
1.80254328E+02
  0
ARC
  8
0
 62
7
 10
-2.65022849E+02
 20
1.28068924E+02
 40
2.00225000E+00
 50
1.80064349E+02
 51
2.69935651E+02
  0
CIRCLE
  8
0
 62
6
 10
-2.47031754E+02
 20
1.63577821E+02
 40
5.72250366E+00
  0
CIRCLE
  8
0
 62
4
 10
-2.47031754E+02
 20
1.63577821E+02
 40
6.57850647E+00
  0
CIRCLE
  8
0
 62
4
 10
-1.77031754E+02
 20
1.63577821E+02
 40
6.57850647E+00
  0
CIRCLE
  8
0
 62
6
 10
-1.77031754E+02
 20
1.63577821E+02
 40
5.72250366E+00
  0
ARC
  8
0
  6
PHANTOM
 62
6
 10
-2.47015098E+02
 20
2.37377749E+02
 40
7.99978202E+00
 50
1.86395291E+02
 51
3.53604709E+02
  0
ARC
  8
0
  6
PHANTOM
 62
6
 10
-2.38084543E+02
 20
2.36380376E+02
 40
9.86299641E-01
 50
9.00000002E+01
 51
1.73812869E+02
  0
ARC
  8
0
  6
PHANTOM
 62
6
 10
-2.55960428E+02
 20
2.36363801E+02
 40
1.00288581E+00
 50
7.03764020E+00
 51
9.02668054E+01
  0
ARC
  8
0
  6
PHANTOM
 62
6
 10
-1.68084543E+02
 20
2.36380376E+02
 40
9.86299641E-01
 50
9.00000002E+01
 51
1.73812869E+02
  0
ARC
  8
0
  6
PHANTOM
 62
6
 10
-1.77015098E+02
 20
2.37377749E+02
 40
7.99978202E+00
 50
1.86395291E+02
 51
3.53604709E+02
  0
ARC
  8
0
  6
PHANTOM
 62
6
 10
-1.85960428E+02
 20
2.36363801E+02
 40
1.00288581E+00
 50
7.03764020E+00
 51
9.02668054E+01
  0
ARC
  8
0
  6
PHANTOM
 62
6
 10
-2.12015098E+02
 20
1.63577819E+02
 40
4.69929706E+01
 50
3.50518075E+01
 51
1.44948192E+02
  0
CIRCLE
  8
0
 62
7
 10
-2.57031754E+02
 20
1.18577790E+02
 40
3.46410084E+00
  0
CIRCLE
  8
0
 62
7
 10
-2.57031754E+02
 20
1.18577790E+02
 40
5.63397503E+00
  0
CIRCLE
  8
0
 62
7
 10
-2.57031754E+02
 20
1.18577790E+02
 40
6.50000000E+00
  0
LINE
  8
0
 62
7
 10
-2.54031754E+02
 20
1.20307790E+02
 11
-2.54031754E+02
 21
1.16847790E+02
  0
LINE
  8
0
 62
7
 10
-2.57031754E+02
 20
1.15117790E+02
 11
-2.54031754E+02
 21
1.16847790E+02
  0
LINE
  8
0
 62
7
 10
-2.60031754E+02
 20
1.16847790E+02
 11
-2.57031754E+02
 21
1.15117790E+02
  0
LINE
  8
0
 62
7
 10
-2.60031754E+02
 20
1.20307790E+02
 11
-2.60031754E+02
 21
1.16847790E+02
  0
LINE
  8
0
 62
7
 10
-2.60031754E+02
 20
1.20307790E+02
 11
-2.57031754E+02
 21
1.22037790E+02
  0
LINE
  8
0
 62
7
 10
-2.57031754E+02
 20
1.22037790E+02
 11
-2.54031754E+02
 21
1.20307790E+02
  0
CIRCLE
  8
0
 62
7
 10
-1.67031754E+02
 20
1.18577790E+02
 40
3.46410084E+00
  0
CIRCLE
  8
0
 62
7
 10
-1.67031754E+02
 20
1.18577790E+02
 40
5.63397503E+00
  0
CIRCLE
  8
0
 62
7
 10
-1.67031754E+02
 20
1.18577790E+02
 40
6.50000000E+00
  0
LINE
  8
0
 62
7
 10
-1.64031754E+02
 20
1.20307790E+02
 11
-1.64031754E+02
 21
1.16847790E+02
  0
LINE
  8
0
 62
7
 10
-1.67031754E+02
 20
1.15117790E+02
 11
-1.64031754E+02
 21
1.16847790E+02
  0
LINE
  8
0
 62
7
 10
-1.70031754E+02
 20
1.16847790E+02
 11
-1.67031754E+02
 21
1.15117790E+02
  0
LINE
  8
0
 62
7
 10
-1.70031754E+02
 20
1.20307790E+02
 11
-1.70031754E+02
 21
1.16847790E+02
  0
LINE
  8
0
 62
7
 10
-1.70031754E+02
 20
1.20307790E+02
 11
-1.67031754E+02
 21
1.22037790E+02
  0
LINE
  8
0
 62
7
 10
-1.67031754E+02
 20
1.22037790E+02
 11
-1.64031754E+02
 21
1.20307790E+02
  0
CIRCLE
  8
0
 62
7
 10
-1.67031754E+02
 20
2.08577821E+02
 40
3.46410084E+00
  0
CIRCLE
  8
0
 62
7
 10
-1.67031754E+02
 20
2.08577821E+02
 40
5.63397503E+00
  0
CIRCLE
  8
0
 62
7
 10
-1.67031754E+02
 20
2.08577821E+02
 40
6.50000000E+00
  0
LINE
  8
0
 62
7
 10
-1.64031754E+02
 20
2.10307821E+02
 11
-1.64031754E+02
 21
2.06847821E+02
  0
LINE
  8
0
 62
7
 10
-1.67031754E+02
 20
2.05117821E+02
 11
-1.64031754E+02
 21
2.06847821E+02
  0
LINE
  8
0
 62
7
 10
-1.70031754E+02
 20
2.06847821E+02
 11
-1.67031754E+02
 21
2.05117821E+02
  0
LINE
  8
0
 62
7
 10
-1.70031754E+02
 20
2.10307821E+02
 11
-1.70031754E+02
 21
2.06847821E+02
  0
LINE
  8
0
 62
7
 10
-1.70031754E+02
 20
2.10307821E+02
 11
-1.67031754E+02
 21
2.12037821E+02
  0
LINE
  8
0
 62
7
 10
-1.67031754E+02
 20
2.12037821E+02
 11
-1.64031754E+02
 21
2.10307821E+02
  0
CIRCLE
  8
0
 62
7
 10
-2.57031754E+02
 20
2.08577821E+02
 40
3.46410084E+00
  0
CIRCLE
  8
0
 62
7
 10
-2.57031754E+02
 20
2.08577821E+02
 40
5.63397503E+00
  0
CIRCLE
  8
0
 62
7
 10
-2.57031754E+02
 20
2.08577821E+02
 40
6.50000000E+00
  0
LINE
  8
0
 62
7
 10
-2.54031754E+02
 20
2.10307821E+02
 11
-2.54031754E+02
 21
2.06847821E+02
  0
LINE
  8
0
 62
7
 10
-2.57031754E+02
 20
2.05117821E+02
 11
-2.54031754E+02
 21
2.06847821E+02
  0
LINE
  8
0
 62
7
 10
-2.60031754E+02
 20
2.06847821E+02
 11
-2.57031754E+02
 21
2.05117821E+02
  0
LINE
  8
0
 62
7
 10
-2.60031754E+02
 20
2.10307821E+02
 11
-2.60031754E+02
 21
2.06847821E+02
  0
LINE
  8
0
 62
7
 10
-2.60031754E+02
 20
2.10307821E+02
 11
-2.57031754E+02
 21
2.12037821E+02
  0
LINE
  8
0
 62
7
 10
-2.57031754E+02
 20
2.12037821E+02
 11
-2.54031754E+02
 21
2.10307821E+02
  0
LINE
  8
0
 62
7
 10
-2.63031754E+02
 20
1.60577821E+02
 11
-2.54791754E+02
 21
1.63577821E+02
  0
LINE
  8
0
 62
7
 10
-2.63031754E+02
 20
1.66577821E+02
 11
-2.54791754E+02
 21
1.63577821E+02
  0
LINE
  8
0
 62
7
 10
-2.63031754E+02
 20
1.66577821E+02
 11
-2.63031754E+02
 21
1.60577821E+02
  0
ARC
  8
0
 62
4
 10
2.83160567E+02
 20
5.50156650E+01
 40
1.04943365E+01
 50
3.59969071E+02
 51
9.00309290E+01
  0
ARC
  8
0
 62
4
 10
2.83160566E+02
 20
5.50156640E+01
 40
4.99433920E+00
 50
3.59935022E+02
 51
9.00649782E+01
  0
ARC
  8
0
 62
4
 10
2.95154994E+02
 20
3.72700893E+01
 40
2.50012629E+00
 50
2.33129654E+02
 51
2.93075491E+02
  0
ARC
  8
0
 62
4
 10
2.90904902E+02
 20
4.25824391E+01
 40
7.81244297E+00
 50
2.49390150E+02
 51
2.90609851E+02
  0
ARC
  8
0
 62
4
 10
2.86654850E+02
 20
3.72697645E+01
 40
2.49984293E+00
 50
2.46920763E+02
 51
3.06874092E+02
  0
ARC
  8
0
 62
4
 10
2.95136768E+02
 20
4.12677655E+01
 40
2.49095711E+00
 50
6.63778453E+01
 51
1.26505355E+02
  0
ARC
  8
0
 62
4
 10
2.86673073E+02
 20
4.12680863E+01
 40
2.49067771E+00
 50
5.34909248E+01
 51
1.13625875E+02
  0
ARC
  8
0
 62
4
 10
2.90904902E+02
 20
3.59575304E+01
 40
7.81247154E+00
 50
6.93902287E+01
 51
1.10609772E+02
  0
ARC
  8
0
 62
4
 10
2.96965669E+02
 20
2.71916277E+01
 40
3.57184051E+00
 50
6.42951511E+01
 51
1.24649109E+02
  0
ARC
  8
0
 62
4
 10
2.90894902E+02
 20
1.73952090E+01
 40
1.33602583E+01
 50
7.23988295E+01
 51
1.07601170E+02
  0
ARC
  8
0
 62
4
 10
2.84832868E+02
 20
2.71927124E+01
 40
3.56598922E+00
 50
5.54564085E+01
 51
1.15549288E+02
  0
ARC
  8
0
 62
4
 10
2.08396639E+02
 20
4.78117363E+01
 40
2.18055625E-02
 50
1.84567156E+02
 51
2.65432843E+02
  0
CIRCLE
  8
0
 62
4
 10
2.20906295E+02
 20
5.27700000E+01
 40
1.75000012E+00
  0
CIRCLE
  8
0
 62
4
 10
2.20906295E+02
 20
5.27700000E+01
 40
1.50000000E+00
  0
CIRCLE
  8
0
 62
4
 10
2.20906295E+02
 20
5.27700000E+01
 40
1.45000000E+01
  0
CIRCLE
  8
0
 62
4
 10
2.20906295E+02
 20
5.27700000E+01
 40
2.05000000E+01
  0
CIRCLE
  8
0
 62
4
 10
2.20906295E+02
 20
5.27700000E+01
 40
2.20000000E+01
  0
LINE
  8
0
 62
4
 10
2.14154902E+02
 20
2.77700000E+01
 11
2.27654902E+02
 21
2.77700000E+01
  0
LINE
  8
0
 62
4
 10
2.14154902E+02
 20
2.97700000E+01
 11
2.14154902E+02
 21
2.77700000E+01
  0
LINE
  8
0
 62
4
 10
2.27654902E+02
 20
2.97700000E+01
 11
2.27654902E+02
 21
2.77700000E+01
  0
LINE
  8
0
 62
4
 10
2.12394902E+02
 20
2.97700000E+01
 11
2.29394902E+02
 21
2.97700000E+01
  0
LINE
  8
0
 62
4
 10
2.12394902E+02
 20
3.24700000E+01
 11
2.12394902E+02
 21
2.97700000E+01
  0
LINE
  8
0
 62
4
 10
2.29394902E+02
 20
3.24700000E+01
 11
2.29394902E+02
 21
2.97700000E+01
  0
LINE
  8
0
 62
4
 10
2.41674902E+02
 20
6.00100000E+01
 11
2.83154902E+02
 21
6.00100000E+01
  0
LINE
  8
0
 62
4
 10
2.38834902E+02
 20
6.55100000E+01
 11
2.83154902E+02
 21
6.55100000E+01
  0
LINE
  8
0
 62
4
 10
2.93654902E+02
 20
5.50100000E+01
 11
2.93654902E+02
 21
4.37700000E+01
  0
LINE
  8
0
 62
4
 10
2.88154902E+02
 20
5.50100000E+01
 11
2.88154902E+02
 21
4.37700000E+01
  0
LINE
  8
0
 62
4
 10
2.96654902E+02
 20
3.52700000E+01
 11
2.95774902E+02
 21
3.47700000E+01
  0
LINE
  8
0
 62
4
 10
2.95774902E+02
 20
3.47700000E+01
 11
2.86014902E+02
 21
3.47700000E+01
  0
LINE
  8
0
 62
4
 10
2.85154902E+02
 20
3.52700000E+01
 11
2.86014902E+02
 21
3.47700000E+01
  0
LINE
  8
0
 62
4
 10
2.96654902E+02
 20
4.32700000E+01
 11
2.95774902E+02
 21
4.37700000E+01
  0
LINE
  8
0
 62
4
 10
2.85154902E+02
 20
4.32700000E+01
 11
2.86014902E+02
 21
4.37700000E+01
  0
LINE
  8
0
 62
4
 10
2.88154902E+02
 20
4.32700000E+01
 11
2.88154902E+02
 21
3.52700000E+01
  0
LINE
  8
0
 62
4
 10
2.93654902E+02
 20
4.32700000E+01
 11
2.93654902E+02
 21
3.52700000E+01
  0
LINE
  8
0
 62
4
 10
2.96654902E+02
 20
4.32700000E+01
 11
2.96654902E+02
 21
3.52700000E+01
  0
LINE
  8
0
 62
4
 10
2.85154902E+02
 20
4.32700000E+01
 11
2.85154902E+02
 21
3.52700000E+01
  0
LINE
  8
0
 62
4
 10
2.95774902E+02
 20
4.37700000E+01
 11
2.86014902E+02
 21
4.37700000E+01
  0
LINE
  8
0
 62
4
 10
2.87394902E+02
 20
3.47700000E+01
 11
2.87394902E+02
 21
3.07700000E+01
  0
LINE
  8
0
 62
4
 10
2.94394902E+02
 20
3.47700000E+01
 11
2.94394902E+02
 21
3.07700000E+01
  0
LINE
  8
0
 62
4
 10
2.98974902E+02
 20
3.01300000E+01
 11
2.98974902E+02
 21
2.57700000E+01
  0
LINE
  8
0
 62
4
 10
2.97894902E+02
 20
3.07700000E+01
 11
2.98974902E+02
 21
3.01300000E+01
  0
LINE
  8
0
 62
4
 10
2.94934902E+02
 20
3.01300000E+01
 11
2.94934902E+02
 21
2.57700000E+01
  0
LINE
  8
0
 62
4
 10
2.86854902E+02
 20
3.01300000E+01
 11
2.86854902E+02
 21
2.57700000E+01
  0
LINE
  8
0
 62
4
 10
2.98974902E+02
 20
2.57700000E+01
 11
2.82814902E+02
 21
2.57700000E+01
  0
LINE
  8
0
 62
4
 10
2.82814902E+02
 20
3.01300000E+01
 11
2.82814902E+02
 21
2.57700000E+01
  0
LINE
  8
0
 62
4
 10
2.83894902E+02
 20
3.07700000E+01
 11
2.82814902E+02
 21
3.01300000E+01
  0
LINE
  8
0
 62
4
 10
2.97894902E+02
 20
3.07700000E+01
 11
2.83894902E+02
 21
3.07700000E+01
  0
LINE
  8
0
 62
4
 10
2.97474902E+02
 20
2.57700000E+01
 11
2.97474902E+02
 21
2.47700000E+01
  0
LINE
  8
0
 62
4
 10
2.84314902E+02
 20
2.57700000E+01
 11
2.84314902E+02
 21
2.47700000E+01
  0
LINE
  8
0
 62
4
 10
2.22634902E+02
 20
5.29700000E+01
 11
2.28374902E+02
 21
5.50700000E+01
  0
LINE
  8
0
 62
4
 10
2.22314902E+02
 20
5.37900000E+01
 11
2.27894902E+02
 21
5.61700000E+01
  0
LINE
  8
0
 62
4
 10
2.27894902E+02
 20
5.61700000E+01
 11
2.28374902E+02
 21
5.50700000E+01
  0
LINE
  8
0
 62
4
 10
2.08374902E+02
 20
4.78100000E+01
 11
2.19174902E+02
 21
5.24300000E+01
  0
LINE
  8
0
 62
4
 10
2.08394902E+02
 20
4.77900000E+01
 11
2.19434902E+02
 21
5.18100000E+01
  0
LINE
  8
0
  6
CENTER
 62
6
 10
1.93394902E+02
 20
5.27700000E+01
 11
2.48394902E+02
 21
5.27700000E+01
  0
LINE
  8
0
  6
CENTER
 62
6
 10
2.20894902E+02
 20
7.97700000E+01
 11
2.20894902E+02
 21
2.07700000E+01
  0
LINE
  8
0
 62
4
 10
2.27574902E+02
 20
2.77700000E+01
 11
2.27474902E+02
 21
2.47700000E+01
  0
LINE
  8
0
 62
6
 10
2.26614902E+02
 20
2.77700000E+01
 11
2.26614902E+02
 21
2.47700000E+01
  0
LINE
  8
0
 62
6
 10
2.15174902E+02
 20
2.77700000E+01
 11
2.15174902E+02
 21
2.47700000E+01
  0
LINE
  8
0
 62
4
 10
2.14234902E+02
 20
2.77700000E+01
 11
2.14314902E+02
 21
2.47700000E+01
  0
LINE
  8
0
  6
CENTER
 62
6
 10
2.90894902E+02
 20
4.67700000E+01
 11
2.90894902E+02
 21
2.07700000E+01
  0
LINE
  8
0
 62
4
 10
2.58754902E+02
 20
-2.09753324E+02
 11
2.58754902E+02
 21
-2.11653324E+02
  0
LINE
  8
0
 62
4
 10
2.59154902E+02
 20
-2.11653324E+02
 11
2.58694902E+02
 21
-2.14253324E+02
  0
LINE
  8
0
 62
4
 10
2.59154902E+02
 20
-2.14253324E+02
 11
2.58694902E+02
 21
-2.16853324E+02
  0
LINE
  8
0
 62
4
 10
2.53114902E+02
 20
-2.16853324E+02
 11
2.58694902E+02
 21
-2.16853324E+02
  0
LINE
  8
0
 62
4
 10
2.52654902E+02
 20
-2.14253324E+02
 11
2.53114902E+02
 21
-2.16853324E+02
  0
LINE
  8
0
 62
4
 10
2.52654902E+02
 20
-2.14253324E+02
 11
2.59154902E+02
 21
-2.14253324E+02
  0
LINE
  8
0
 62
4
 10
2.52654902E+02
 20
-2.11653324E+02
 11
2.53114902E+02
 21
-2.14253324E+02
  0
LINE
  8
0
 62
4
 10
2.52654902E+02
 20
-2.11653324E+02
 11
2.59154902E+02
 21
-2.11653324E+02
  0
LINE
  8
0
 62
4
 10
2.53054902E+02
 20
-2.09753324E+02
 11
2.53054902E+02
 21
-2.11653324E+02
  0
LINE
  8
0
 62
4
 10
2.63494902E+02
 20
-2.07353324E+02
 11
2.62914902E+02
 21
-2.07853324E+02
  0
LINE
  8
0
 62
4
 10
2.48294902E+02
 20
-2.07353324E+02
 11
2.48894902E+02
 21
-2.07853324E+02
  0
LINE
  8
0
 62
4
 10
2.62334902E+02
 20
-1.97933324E+02
 11
2.62914902E+02
 21
-1.98153324E+02
  0
LINE
  8
0
 62
4
 10
2.48894902E+02
 20
-1.98153324E+02
 11
2.49454902E+02
 21
-1.97933324E+02
  0
LINE
  8
0
 62
4
 10
2.51574902E+02
 20
-2.07353324E+02
 11
2.52234902E+02
 21
-2.07853324E+02
  0
LINE
  8
0
 62
4
 10
2.60214902E+02
 20
-2.07353324E+02
 11
2.59554902E+02
 21
-2.07853324E+02
  0
LINE
  8
0
 62
4
 10
2.59554902E+02
 20
-1.98153324E+02
 11
2.60214902E+02
 21
-1.97853324E+02
  0
LINE
  8
0
 62
4
 10
2.51574902E+02
 20
-1.97853324E+02
 11
2.52234902E+02
 21
-1.98153324E+02
  0
LINE
  8
0
 62
4
 10
2.54394902E+02
 20
-2.07353324E+02
 11
2.54054902E+02
 21
-2.07853324E+02
  0
LINE
  8
0
 62
4
 10
2.57394902E+02
 20
-2.07353324E+02
 11
2.57734902E+02
 21
-2.07853324E+02
  0
LINE
  8
0
 62
4
 10
2.57394902E+02
 20
-1.97853324E+02
 11
2.57734902E+02
 21
-1.98153324E+02
  0
LINE
  8
0
 62
4
 10
2.54054902E+02
 20
-1.98153324E+02
 11
2.54394902E+02
 21
-1.97853324E+02
  0
LINE
  8
0
 62
4
 10
2.63494902E+02
 20
-1.97853324E+02
 11
2.63494902E+02
 21
-2.07353324E+02
  0
LINE
  8
0
 62
4
 10
2.48294902E+02
 20
-1.97853324E+02
 11
2.48294902E+02
 21
-2.07353324E+02
  0
LINE
  8
0
 62
4
 10
2.62914902E+02
 20
-1.98153324E+02
 11
2.62914902E+02
 21
-2.07853324E+02
  0
LINE
  8
0
 62
4
 10
2.48894902E+02
 20
-1.98153324E+02
 11
2.48894902E+02
 21
-2.07853324E+02
  0
LINE
  8
0
 62
4
 10
2.62334902E+02
 20
-1.97853324E+02
 11
2.62334902E+02
 21
-2.07853324E+02
  0
LINE
  8
0
 62
4
 10
2.49454902E+02
 20
-1.97853324E+02
 11
2.49454902E+02
 21
-2.07853324E+02
  0
LINE
  8
0
 62
4
 10
2.62914902E+02
 20
-2.07853324E+02
 11
2.63154902E+02
 21
-2.07853324E+02
  0
LINE
  8
0
 62
4
 10
2.63494902E+02
 20
-2.07353324E+02
 11
2.63654902E+02
 21
-2.07353324E+02
  0
LINE
  8
0
 62
4
 10
2.49454902E+02
 20
-2.07853324E+02
 11
2.52234902E+02
 21
-2.07853324E+02
  0
LINE
  8
0
 62
4
 10
2.49454902E+02
 20
-2.07353324E+02
 11
2.51574902E+02
 21
-2.07353324E+02
  0
LINE
  8
0
 62
4
 10
2.52234902E+02
 20
-1.98153324E+02
 11
2.54054902E+02
 21
-1.98153324E+02
  0
LINE
  8
0
 62
4
 10
2.51574902E+02
 20
-1.97853324E+02
 11
2.54394902E+02
 21
-1.97853324E+02
  0
LINE
  8
0
 62
4
 10
2.62914902E+02
 20
-1.98153324E+02
 11
2.63494902E+02
 21
-1.98153324E+02
  0
LINE
  8
0
 62
4
 10
2.62334902E+02
 20
-1.97853324E+02
 11
2.63494902E+02
 21
-1.97853324E+02
  0
LINE
  8
0
 62
4
 10
2.60214902E+02
 20
-1.97853324E+02
 11
2.60214902E+02
 21
-2.07353324E+02
  0
LINE
  8
0
 62
4
 10
2.51574902E+02
 20
-1.97853324E+02
 11
2.51574902E+02
 21
-2.07353324E+02
  0
LINE
  8
0
 62
4
 10
2.52234902E+02
 20
-1.98153324E+02
 11
2.52234902E+02
 21
-2.07853324E+02
  0
LINE
  8
0
 62
4
 10
2.59554902E+02
 20
-1.98153324E+02
 11
2.59554902E+02
 21
-2.07853324E+02
  0
LINE
  8
0
 62
4
 10
2.59554902E+02
 20
-2.07853324E+02
 11
2.62334902E+02
 21
-2.07853324E+02
  0
LINE
  8
0
 62
4
 10
2.54054902E+02
 20
-2.07853324E+02
 11
2.57734902E+02
 21
-2.07853324E+02
  0
LINE
  8
0
 62
4
 10
2.54054902E+02
 20
-1.98153324E+02
 11
2.54054902E+02
 21
-2.07853324E+02
  0
LINE
  8
0
 62
4
 10
2.57734902E+02
 20
-1.98153324E+02
 11
2.57734902E+02
 21
-2.07853324E+02
  0
LINE
  8
0
 62
4
 10
2.48654902E+02
 20
-2.07853324E+02
 11
2.48894902E+02
 21
-2.07853324E+02
  0
LINE
  8
0
 62
4
 10
2.60214902E+02
 20
-2.07353324E+02
 11
2.62334902E+02
 21
-2.07353324E+02
  0
LINE
  8
0
 62
4
 10
2.54394902E+02
 20
-2.07353324E+02
 11
2.57394902E+02
 21
-2.07353324E+02
  0
LINE
  8
0
 62
4
 10
2.57734902E+02
 20
-1.98153324E+02
 11
2.59554902E+02
 21
-1.98153324E+02
  0
LINE
  8
0
 62
4
 10
2.57394902E+02
 20
-1.97853324E+02
 11
2.60214902E+02
 21
-1.97853324E+02
  0
LINE
  8
0
 62
4
 10
2.57394902E+02
 20
-1.97853324E+02
 11
2.57394902E+02
 21
-2.07353324E+02
  0
LINE
  8
0
 62
4
 10
2.54394902E+02
 20
-1.97853324E+02
 11
2.54394902E+02
 21
-2.07353324E+02
  0
LINE
  8
0
 62
4
 10
2.48154902E+02
 20
-2.07353324E+02
 11
2.48294902E+02
 21
-2.07353324E+02
  0
LINE
  8
0
 62
4
 10
2.48294902E+02
 20
-1.98153324E+02
 11
2.48894902E+02
 21
-1.98153324E+02
  0
LINE
  8
0
 62
4
 10
2.49394902E+02
 20
-2.09253324E+02
 11
2.62394902E+02
 21
-2.09253324E+02
  0
LINE
  8
0
 62
4
 10
2.62394902E+02
 20
-2.09253324E+02
 11
2.61894902E+02
 21
-2.09753324E+02
  0
LINE
  8
0
 62
4
 10
2.49394902E+02
 20
-2.09253324E+02
 11
2.49894902E+02
 21
-2.09753324E+02
  0
LINE
  8
0
 62
4
 10
2.62394902E+02
 20
-2.08353324E+02
 11
2.62394902E+02
 21
-2.09253324E+02
  0
LINE
  8
0
 62
4
 10
2.49394902E+02
 20
-2.08353324E+02
 11
2.49394902E+02
 21
-2.09253324E+02
  0
LINE
  8
0
 62
4
 10
2.49894902E+02
 20
-2.09753324E+02
 11
2.61894902E+02
 21
-2.09753324E+02
  0
LINE
  8
0
 62
4
 10
2.48154902E+02
 20
-1.95353324E+02
 11
2.63654902E+02
 21
-1.95353324E+02
  0
LINE
  8
0
 62
4
 10
2.47814902E+02
 20
-1.93153324E+02
 11
2.63974902E+02
 21
-1.93153324E+02
  0
LINE
  8
0
 62
4
 10
2.63974902E+02
 20
-1.93153324E+02
 11
2.63474902E+02
 21
-1.93653324E+02
  0
LINE
  8
0
 62
4
 10
2.47814902E+02
 20
-1.93153324E+02
 11
2.48314902E+02
 21
-1.93653324E+02
  0
LINE
  8
0
 62
4
 10
2.61894902E+02
 20
-1.93653324E+02
 11
2.61894902E+02
 21
-1.94853324E+02
  0
LINE
  8
0
 62
4
 10
2.49894902E+02
 20
-1.93653324E+02
 11
2.49894902E+02
 21
-1.94853324E+02
  0
LINE
  8
0
 62
4
 10
2.63154902E+02
 20
-1.94853324E+02
 11
2.63654902E+02
 21
-1.95353324E+02
  0
LINE
  8
0
 62
4
 10
2.48154902E+02
 20
-1.95353324E+02
 11
2.48654902E+02
 21
-1.94853324E+02
  0
LINE
  8
0
 62
4
 10
2.48654902E+02
 20
-1.94853324E+02
 11
2.63154902E+02
 21
-1.94853324E+02
  0
LINE
  8
0
 62
4
 10
2.48294902E+02
 20
-1.97853324E+02
 11
2.49454902E+02
 21
-1.97853324E+02
  0
LINE
  8
0
 62
4
 10
2.62654902E+02
 20
-2.08353324E+02
 11
2.63654902E+02
 21
-2.07353324E+02
  0
LINE
  8
0
 62
4
 10
2.48154902E+02
 20
-2.07353324E+02
 11
2.49154902E+02
 21
-2.08353324E+02
  0
LINE
  8
0
 62
4
 10
2.63654902E+02
 20
-1.95353324E+02
 11
2.63654902E+02
 21
-2.07353324E+02
  0
LINE
  8
0
 62
4
 10
2.48154902E+02
 20
-1.95353324E+02
 11
2.48154902E+02
 21
-2.07353324E+02
  0
LINE
  8
0
 62
4
 10
2.49154902E+02
 20
-2.08353324E+02
 11
2.62654902E+02
 21
-2.08353324E+02
  0
LINE
  8
0
 62
4
 10
2.47814902E+02
 20
-1.88253324E+02
 11
2.47814902E+02
 21
-1.93153324E+02
  0
LINE
  8
0
 62
4
 10
2.63974902E+02
 20
-1.88253324E+02
 11
2.63974902E+02
 21
-1.93153324E+02
  0
LINE
  8
0
 62
4
 10
2.48314902E+02
 20
-1.93653324E+02
 11
2.63474902E+02
 21
-1.93653324E+02
  0
TEXT
  8
0
 62
7
 10
-3.76900283E+02
 20
2.58100000E+02
 40
6.30000019E+00
  1
MICRO MIST FILTER
 41
1.07594937E+00
  7
MONOTXT
  0
LINE
  8
0
 62
7
 10
-3.99250000E+02
 20
2.56250000E+02
 11
-2.49250000E+02
 21
2.56250000E+02
  0
TEXT
  8
0
 62
7
 10
-3.95800283E+02
 20
2.68100000E+02
 40
6.30000019E+00
  1
F.R.L.LARGE FLOW SERIES
 41
1.05504587E+00
  7
MONOTXT
  0
LINE
  8
0
 62
7
 10
-2.49250000E+02
 20
2.56250000E+02
 11
-2.49250000E+02
 21
2.76250000E+02
  0
ARC
  8
0
 62
7
 10
2.86481522E+02
 20
-1.76497296E+02
 40
2.99491999E+00
 50
2.99909914E+02
 51
3.58162573E+02
  0
ARC
  8
0
 62
7
 10
2.71301555E+02
 20
-1.85265771E+02
 40
2.98756125E+00
 50
2.69872421E+02
 51
2.99990413E+02
  0
ARC
  8
0
 62
7
 10
2.40508437E+02
 20
-1.85265070E+02
 40
2.98826106E+00
 50
2.40013197E+02
 51
2.70123969E+02
  0
ARC
  8
0
 62
7
 10
2.25330332E+02
 20
-1.76496066E+02
 40
2.99700864E+00
 50
1.81859673E+02
 51
2.40067840E+02
  0
LINE
  8
0
  6
CENTER
 62
2
 10
2.55894902E+02
 20
-1.52973324E+02
 11
2.55894902E+02
 21
-2.20973324E+02
  0
LINE
  8
0
  6
CENTER
 62
2
 10
1.91894902E+02
 20
-2.30000000E-01
 11
3.19894902E+02
 21
-2.30000000E-01
  0
LINE
  8
0
  6
CENTER
 62
2
 10
2.55894902E+02
 20
2.97700000E+01
 11
2.55894902E+02
 21
-1.52300000E+01
  0
LINE
  8
0
 62
7
 10
3.14394902E+02
 20
2.47700000E+01
 11
3.14394902E+02
 21
-1.52300000E+01
  0
LINE
  8
0
 62
7
 10
1.97394902E+02
 20
2.47700000E+01
 11
1.97394902E+02
 21
-1.52300000E+01
  0
LINE
  8
0
 62
7
 10
2.87974902E+02
 20
-1.79093324E+02
 11
2.72794902E+02
 21
-1.87853324E+02
  0
LINE
  8
0
 62
7
 10
2.23834902E+02
 20
-1.79093324E+02
 11
2.39014902E+02
 21
-1.87853324E+02
  0
LINE
  8
0
 62
7
 10
2.90294902E+02
 20
-1.53073324E+02
 11
2.89474902E+02
 21
-1.76593324E+02
  0
LINE
  8
0
 62
7
 10
2.21514902E+02
 20
-1.53073324E+02
 11
2.22334902E+02
 21
-1.76593324E+02
  0
LINE
  8
0
 62
7
 10
2.24894902E+02
 20
-1.78253324E+02
 11
2.86894902E+02
 21
-1.78253324E+02
  0
LINE
  8
0
 62
7
 10
2.40514902E+02
 20
-1.88253324E+02
 11
2.71294902E+02
 21
-1.88253324E+02
  0
LINE
  8
0
 62
7
 10
2.16894902E+02
 20
1.47700000E+01
 11
2.16014902E+02
 21
1.39300000E+01
  0
LINE
  8
0
 62
7
 10
2.02894902E+02
 20
1.47700000E+01
 11
2.03774902E+02
 21
1.39300000E+01
  0
LINE
  8
0
 62
7
 10
2.03774902E+02
 20
-1.43900000E+01
 11
2.02894902E+02
 21
-1.52300000E+01
  0
LINE
  8
0
 62
7
 10
2.16894902E+02
 20
-1.52300000E+01
 11
2.16014902E+02
 21
-1.43900000E+01
  0
LINE
  8
0
 62
7
 10
2.16014902E+02
 20
-1.43900000E+01
 11
2.03774902E+02
 21
-1.43900000E+01
  0
LINE
  8
0
 62
7
 10
2.16014902E+02
 20
1.39300000E+01
 11
2.03774902E+02
 21
1.39300000E+01
  0
LINE
  8
0
 62
7
 10
2.03774902E+02
 20
1.39300000E+01
 11
2.03774902E+02
 21
-1.43900000E+01
  0
LINE
  8
0
 62
7
 10
2.16014902E+02
 20
1.39300000E+01
 11
2.16014902E+02
 21
-1.43900000E+01
  0
LINE
  8
0
 62
7
 10
2.16894902E+02
 20
-1.52300000E+01
 11
2.02894902E+02
 21
-1.52300000E+01
  0
LINE
  8
0
 62
7
 10
2.16894902E+02
 20
1.47700000E+01
 11
2.02894902E+02
 21
1.47700000E+01
  0
LINE
  8
0
 62
7
 10
2.16894902E+02
 20
1.47700000E+01
 11
2.16894902E+02
 21
-1.52300000E+01
  0
LINE
  8
0
 62
7
 10
2.02894902E+02
 20
1.47700000E+01
 11
2.02894902E+02
 21
-1.52300000E+01
  0
LINE
  8
0
 62
7
 10
2.94894902E+02
 20
1.47700000E+01
 11
2.95774902E+02
 21
1.39300000E+01
  0
LINE
  8
0
 62
7
 10
3.08894902E+02
 20
1.47700000E+01
 11
3.08014902E+02
 21
1.39300000E+01
  0
LINE
  8
0
 62
7
 10
3.08014902E+02
 20
-1.43900000E+01
 11
3.08894902E+02
 21
-1.52300000E+01
  0
LINE
  8
0
 62
7
 10
2.94894902E+02
 20
-1.52300000E+01
 11
2.95774902E+02
 21
-1.43900000E+01
  0
LINE
  8
0
 62
7
 10
2.95774902E+02
 20
-1.43900000E+01
 11
3.08014902E+02
 21
-1.43900000E+01
  0
LINE
  8
0
 62
7
 10
2.95774902E+02
 20
1.39300000E+01
 11
3.08014902E+02
 21
1.39300000E+01
  0
LINE
  8
0
 62
7
 10
3.08014902E+02
 20
1.39300000E+01
 11
3.08014902E+02
 21
-1.43900000E+01
  0
LINE
  8
0
 62
7
 10
2.95774902E+02
 20
1.39300000E+01
 11
2.95774902E+02
 21
-1.43900000E+01
  0
LINE
  8
0
 62
7
 10
2.94894902E+02
 20
-1.52300000E+01
 11
3.08894902E+02
 21
-1.52300000E+01
  0
LINE
  8
0
 62
7
 10
2.94894902E+02
 20
1.47700000E+01
 11
3.08894902E+02
 21
1.47700000E+01
  0
LINE
  8
0
 62
7
 10
2.20074902E+02
 20
2.02700000E+01
 11
2.91734902E+02
 21
2.02700000E+01
  0
LINE
  8
0
 62
7
 10
2.91734902E+02
 20
2.02700000E+01
 11
2.90114902E+02
 21
2.17700000E+01
  0
LINE
  8
0
 62
7
 10
2.20074902E+02
 20
2.02700000E+01
 11
2.21674902E+02
 21
2.17700000E+01
  0
LINE
  8
0
 62
7
 10
2.92974902E+02
 20
-1.52300000E+01
 11
2.91734902E+02
 21
2.02700000E+01
  0
LINE
  8
0
 62
7
 10
2.18834902E+02
 20
-1.52300000E+01
 11
2.20074902E+02
 21
2.02700000E+01
  0
LINE
  8
0
 62
7
 10
2.94894902E+02
 20
1.47700000E+01
 11
2.94894902E+02
 21
-1.52300000E+01
  0
LINE
  8
0
 62
7
 10
3.08894902E+02
 20
1.47700000E+01
 11
3.08894902E+02
 21
-1.52300000E+01
  0
LINE
  8
0
 62
7
 10
2.21674902E+02
 20
2.17700000E+01
 11
2.90114902E+02
 21
2.17700000E+01
  0
LINE
  8
0
 62
7
 10
1.95894902E+02
 20
2.32700000E+01
 11
3.15894902E+02
 21
2.32700000E+01
  0
LINE
  8
0
 62
7
 10
3.14394902E+02
 20
2.47700000E+01
 11
3.15894902E+02
 21
2.32700000E+01
  0
LINE
  8
0
 62
7
 10
1.95894902E+02
 20
2.32700000E+01
 11
1.97394902E+02
 21
2.47700000E+01
  0
LINE
  8
0
 62
7
 10
1.95894902E+02
 20
2.32700000E+01
 11
1.95894902E+02
 21
-1.52300000E+01
  0
LINE
  8
0
 62
7
 10
3.15894902E+02
 20
2.32700000E+01
 11
3.15894902E+02
 21
-1.52300000E+01
  0
LINE
  8
0
 62
7
 10
1.97394902E+02
 20
2.47700000E+01
 11
3.14394902E+02
 21
2.47700000E+01
  0
TEXT
  8
0
 62
7
 10
2.51866842E+02
 20
7.99818433E+01
 40
6.30000019E+00
  1
-DU
 41
1.00000000E+00
  7
MONOTXT
  0
TEXT
  8
0
 62
7
 10
2.69769226E+02
 20
-2.19578228E+02
 40
6.30000019E+00
  1
-F1,-A
 41
1.00000000E+00
  7
MONOTXT
  0
TEXT
  8
0
 62
7
 10
-3.10765409E+02
 20
7.70665640E+00
 40
6.30000019E+00
  1
IN
 41
1.00000000E+00
  7
MONOTXT
  0
TEXT
  8
0
 62
7
 10
-1.27248722E+02
 20
7.70665640E+00
 40
6.30000019E+00
  1
OUT
 41
1.00000000E+00
  7
MONOTXT
  0
LINE
  8
0
 62
7
 10
2.79799927E+02
 20
-2.56750000E+02
 11
3.99799805E+02
 21
-2.56750000E+02
  0
LINE
  8
0
 62
7
 10
2.79799927E+02
 20
-2.56750000E+02
 11
2.79799927E+02
 21
-2.76750000E+02
  0
TEXT
  8
0
 62
7
 10
2.87585240E+02
 20
-2.71250000E+02
 40
9.00000000E+00
  1
KOGANEI CORP.
 41
1.04838710E+00
  7
MONOTXT
  0
TEXT
  8
0
 62
7
 10
3.15499645E+02
 20
2.63100000E+02
 40
6.30000019E+00
  1
Ver. 1.0
 41
1.08108108E+00
  7
MONOTXT
  0
LINE
  8
0
 62
7
 10
2.79799927E+02
 20
2.56250000E+02
 11
3.99799805E+02
 21
2.56250000E+02
  0
LINE
  8
0
 62
7
 10
2.79799927E+02
 20
2.76250000E+02
 11
2.79799927E+02
 21
2.56250000E+02
  0
TEXT
  8
0
 62
7
 10
-3.85600562E+02
 20
2.38100000E+02
 40
6.30000019E+00
  1
MODEL:MMF600-04
 41
1.00000000E+00
  7
MONOTXT
  0
LINE
  8
0
 62
7
 10
-3.99250000E+02
 20
-2.76750000E+02
 11
3.99799805E+02
 21
-2.76750000E+02
  0
LINE
  8
0
 62
7
 10
-3.99250000E+02
 20
2.76250000E+02
 11
3.99799805E+02
 21
2.76250000E+02
  0
LINE
  8
0
 62
7
 10
-3.99250000E+02
 20
2.76250000E+02
 11
-3.99250000E+02
 21
-2.76750000E+02
  0
LINE
  8
0
 62
7
 10
3.99799805E+02
 20
2.76250000E+02
 11
3.99799805E+02
 21
-2.76750000E+02
  0
ENDSEC
  0
EOF
