  0
SECTION
  2
HEADER
  0
ENDSEC
  0
SECTION
  2
TABLES
  0
TABLE
  2
LTYPE
 70
     4
  0
LTYPE
  2
CONTINUOUS
 70
    64
  3
Solid line
 72
    65
 73
     0
 40
0.000000
  0
LTYPE
  2
DASHED
 70
    64
  3
__ __ __ __ __ __ __ __ __ __ __ __ __ __ __
 72
    65
 73
     2
 40
3.500000
 49
2.000000
 49
-1.500000
  0
LTYPE
  2
CENTER
 70
    64
  3
____ _ ____ _ ____ _ ____ _ ____ _ ____ _ ____
 72
    65
 73
     4
 40
17.500000
 49
13.000000
 49
-1.500000
 49
1.500000
 49
-1.500000
  0
LTYPE
  2
PHANTOM
 70
    64
  3
_____ _ _ _____ _ _ _____ _ _ _____ _ _ ____  
 72
    65
 73
     6
 40
15.500000
 49
8.000000
 49
-1.500000
 49
1.500000
 49
-1.500000
 49
1.500000
 49
-1.500000
  0
LTYPE
  2
DASHED1
 70
    64
  3
__ __ __ __ __ __ __ __ __ __ __ __ __ __ __
 72
    65
 73
     2
 40
1.500000
 49
1.000000
 49
-0.500000
  0
LTYPE
  2
DASHED2
 70
    64
  3
__ __ __ __ __ __ __ __ __ __ __ __ __ __ __
 72
    65
 73
     2
 40
3.500000
 49
2.500000
 49
-1.000000
  0
LTYPE
  2
DASHED3
 70
    64
  3
__ __ __ __ __ __ __ __ __ __ __ __ __ __ __
 72
    65
 73
     2
 40
6.000000
 49
4.000000
 49
-2.000000
  0
LTYPE
  2
DASHED4
 70
    64
  3
__ __ __ __ __ __ __ __ __ __ __ __ __ __ __
 72
    65
 73
     2
 40
12.000000
 49
10.000000
 49
-2.000000
  0
LTYPE
  2
DASHED5
 70
    64
  3
__ __ __ __ __ __ __ __ __ __ __ __ __ __ __
 72
    65
 73
     2
 40
17.000000
 49
15.000000
 49
-2.000000
  0
LTYPE
  2
DASHED6
 70
    64
  3
__ __ __ __ __ __ __ __ __ __ __ __ __ __ __
 72
    65
 73
     2
 40
29.000000
 49
27.000000
 49
-2.000000
  0
LTYPE
  2
PHANTOM1
 70
    64
  3
_____ _ _ _____ _ _ _____ _ _ _____ _ _ ____  
 72
    65
 73
     6
 40
31.000000
 49
25.000000
 49
-1.500000
 49
1.000000
 49
-1.000000
 49
1.000000
 49
-1.500000
  0
LTYPE
  2
PHANTOM2
 70
    64
  3
_____ _ _ _____ _ _ _____ _ _ _____ _ _ ____  
 72
    65
 73
     6
 40
36.000000
 49
27.000000
 49
-1.500000
 49
2.500000
 49
-1.000000
 49
2.500000
 49
-1.500000
  0
LTYPE
  2
PHANTOM3
 70
    64
  3
_____ _ _ _____ _ _ _____ _ _ _____ _ _ ____  
 72
    65
 73
     6
 40
78.000000
 49
64.000000
 49
-2.000000
 49
4.000000
 49
-2.000000
 49
4.000000
 49
-2.000000
  0
LTYPE
  2
CENTER1
 70
    64
  3
____ _ ____ _ ____ _ ____ _ ____ _ ____ _ ____
 72
    65
 73
     4
 40
19.000000
 49
14.000000
 49
-1.000000
 49
3.000000
 49
-1.000000
  0
LTYPE
  2
CENTER2
 70
    64
  3
____ _ ____ _ ____ _ ____ _ ____ _ ____ _ ____
 72
    65
 73
     4
 40
28.500000
 49
25.000000
 49
-1.000000
 49
1.500000
 49
-1.000000
  0
LTYPE
  2
CENTER3
 70
    64
  3
____ _ ____ _ ____ _ ____ _ ____ _ ____ _ ____
 72
    65
 73
     4
 40
31.500000
 49
27.000000
 49
-1.000000
 49
2.500000
 49
-1.000000
  0
LTYPE
  2
CENTER4
 70
    64
  3
____ _ ____ _ ____ _ ____ _ ____ _ ____ _ ____
 72
    65
 73
     4
 40
50.000000
 49
45.000000
 49
-1.000000
 49
3.000000
 49
-1.000000
  0
LTYPE
  2
CENTER5
 70
    64
  3
____ _ ____ _ ____ _ ____ _ ____ _ ____ _ ____
 72
    65
 73
     4
 40
100.000000
 49
92.000000
 49
-2.000000
 49
4.000000
 49
-2.000000
  0
LTYPE
  2
SBK1
 70
    64
  3
______ _ _ _ ______ _ _ _ ______ _ _ _ _____  
 72
    65
 73
     8
 40
60.500000
 49
45.000000
 49
-2.000000
 49
2.500000
 49
-2.000000
 49
2.500000
 49
-2.000000
 49
2.500000
 49
-2.000000
  0
LTYPE
  2
SBK2
 70
    64
  3
______ _ _ _ ______ _ _ _ ______ _ _ _ _____  
 72
    65
 73
     8
 40
84.000000
 49
64.000000
 49
-2.000000
 49
4.000000
 49
-2.000000
 49
4.000000
 49
-2.000000
 49
4.000000
 49
-2.000000
  0
LTYPE
  2
STCH
 70
    64
  3
__ __ __ __ __ __ __ __ __ __ __ __ __ __ __
 72
    65
 73
     2
 40
3.000000
 49
1.000000
 49
-2.000000
  0
LTYPE
  2
MTCH
 70
    64
  3
_____ _ _ _____ _ _ _____ _ _ _____ _ _ ____  
 72
    65
 73
     6
 40
80.000000
 49
66.000000
 49
-2.000000
 49
4.000000
 49
-2.000000
 49
4.000000
 49
-2.000000
  0
ENDTAB
  0
TABLE
  2
LAYER
 70
     1
  0
LAYER
  2
0
 70
     0
 62
     7
  6
CONTINUOUS
  0
ENDTAB
  0
TABLE
  2
STYLE
 70
     1
  0
STYLE
  2
STANDARD
 70
     0
 40
0.000000
 41
1.000000
 50
0.000000
 71
     0
 42
0.200000
  3
txt
  4
BIGFONT
  0
ENDTAB
  0
TABLE
  2
VIEW
 70
     0
  0
ENDTAB
  0
ENDSEC
  0
SECTION
  2
BLOCKS
  0
ENDSEC
  0
SECTION
  2
ENTITIES
  0
POINT
  8
0
 10
-250.000122
 20
-120.000061
  0
POINT
  8
0
 10
61.999878
 20
-120.000061
  0
POINT
  8
0
 10
61.999863
 20
49.999962
  0
POINT
  8
0
 10
-250.000137
 20
49.999962
  0
POINT
  8
0
 10
230.000015
 20
-120.000038
  0
POINT
  8
0
 10
251.000015
 20
-120.000038
  0
LINE
  8
0
 62
     3
 10
218.329163
 20
-225.956436
 11
370.873566
 21
-225.956436
  0
LINE
  8
0
 62
     3
 10
-218.329163
 20
225.956390
 11
-218.329163
 21
254.558487
  0
LINE
  8
0
 62
     3
 10
-370.873566
 20
225.956390
 11
-218.329163
 21
225.956390
  0
LINE
  8
0
 62
     3
 10
-370.873566
 20
254.558487
 11
370.873566
 21
254.558487
  0
LINE
  8
0
 62
     3
 10
-370.873566
 20
-254.558487
 11
370.873566
 21
-254.558487
  0
LINE
  8
0
 62
     3
 10
370.873566
 20
254.558487
 11
370.873566
 21
-254.558487
  0
LINE
  8
0
 62
     3
 10
-370.873566
 20
-254.558487
 11
-370.873566
 21
254.558487
  0
LINE
  8
0
 62
     3
 10
218.329163
 20
-225.956436
 11
218.329163
 21
-254.558487
  0
LINE
  8
0
 62
     3
 10
218.329163
 20
254.558487
 11
218.329163
 21
225.956390
  0
LINE
  8
0
 62
     3
 10
218.329163
 20
225.956390
 11
370.873566
 21
225.956390
  0
LINE
  8
0
 62
     5
 10
258.381622
 20
-232.833740
 11
258.381622
 21
-236.151566
  0
LINE
  8
0
 62
     5
 10
258.381622
 20
-236.151566
 11
270.823547
 21
-236.151566
  0
LINE
  8
0
 62
     5
 10
258.381622
 20
-249.146469
 11
275.247345
 21
-249.146469
  0
LINE
  8
0
 62
     5
 10
258.381622
 20
-245.828644
 11
270.823547
 21
-245.828644
  0
LINE
  8
0
 62
     5
 10
258.381622
 20
-232.833740
 11
273.035400
 21
-232.833740
  0
LINE
  8
0
 62
     5
 10
270.823547
 20
-236.151566
 11
270.823547
 21
-245.828644
  0
LINE
  8
0
 62
     5
 10
275.247345
 20
-235.045654
 11
275.247345
 21
-249.146469
  0
LINE
  8
0
 62
     5
 10
258.381622
 20
-245.828644
 11
258.381622
 21
-249.146469
  0
LINE
  8
0
 62
     5
 10
293.495392
 20
-236.151566
 11
293.495392
 21
-246.934647
  0
LINE
  8
0
 62
     5
 10
277.735657
 20
-232.833740
 11
277.735657
 21
-236.151566
  0
LINE
  8
0
 62
     5
 10
293.937836
 20
-232.584961
 11
295.513824
 21
-232.584961
  0
LINE
  8
0
 62
     5
 10
293.937836
 20
-230.373016
 11
295.513824
 21
-230.373016
  0
LINE
  8
0
 62
     5
 10
295.513824
 20
-230.373016
 11
295.513824
 21
-232.584961
  0
LINE
  8
0
 62
     5
 10
293.937836
 20
-230.373016
 11
293.937836
 21
-232.584961
  0
LINE
  8
0
 62
     5
 10
293.108276
 20
-230.373016
 11
293.108276
 21
-232.584961
  0
LINE
  8
0
 62
     5
 10
282.766052
 20
-230.373016
 11
286.200897
 21
-230.373016
  0
LINE
  8
0
 62
     5
 10
285.541260
 20
-232.833466
 11
286.200562
 21
-230.372711
  0
LINE
  8
0
 62
     5
 10
282.106689
 20
-232.833710
 11
282.766022
 21
-230.372986
  0
LINE
  8
0
 62
     5
 10
285.541565
 20
-232.833740
 11
290.177551
 21
-232.833740
  0
LINE
  8
0
 62
     5
 10
284.652557
 20
-236.151566
 11
289.071625
 21
-236.151566
  0
LINE
  8
0
 62
     5
 10
286.642853
 20
-249.146469
 11
291.283569
 21
-249.146469
  0
LINE
  8
0
 62
     5
 10
285.753693
 20
-245.828583
 11
286.642731
 21
-249.146347
  0
LINE
  8
0
 62
     5
 10
285.753754
 20
-245.828644
 11
289.071625
 21
-245.828644
  0
LINE
  8
0
 62
     5
 10
281.170746
 20
-249.146637
 11
284.652679
 21
-236.151733
  0
LINE
  8
0
 62
     5
 10
277.735657
 20
-236.151566
 11
281.217682
 21
-236.151566
  0
LINE
  8
0
 62
     5
 10
277.735413
 20
-249.146210
 11
281.217468
 21
-236.151337
  0
LINE
  8
0
 62
     5
 10
277.735657
 20
-249.146469
 11
281.170593
 21
-249.146469
  0
LINE
  8
0
 62
     5
 10
277.735657
 20
-232.833740
 11
282.106689
 21
-232.833740
  0
LINE
  8
0
 62
     5
 10
289.071625
 20
-236.151566
 11
289.071625
 21
-245.828644
  0
LINE
  8
0
 62
     5
 10
291.532288
 20
-230.373016
 11
293.108276
 21
-230.373016
  0
LINE
  8
0
 62
     5
 10
291.532288
 20
-232.584961
 11
293.108276
 21
-232.584961
  0
LINE
  8
0
 62
     5
 10
291.532288
 20
-230.373016
 11
291.532288
 21
-232.584961
  0
LINE
  8
0
 62
     5
 10
301.513550
 20
-230.373016
 11
305.937286
 21
-230.373016
  0
LINE
  8
0
 62
     5
 10
308.342316
 20
-240.195053
 11
311.296204
 21
-238.817642
  0
LINE
  8
0
 62
     5
 10
305.937286
 20
-242.734406
 11
305.937286
 21
-249.146469
  0
LINE
  8
0
 62
     5
 10
301.513550
 20
-243.379044
 11
301.513550
 21
-249.146469
  0
LINE
  8
0
 62
     5
 10
305.937286
 20
-232.833740
 11
310.361115
 21
-232.833740
  0
LINE
  8
0
 62
     5
 10
305.937286
 20
-230.373016
 11
305.937286
 21
-232.833740
  0
LINE
  8
0
 62
     5
 10
301.513550
 20
-230.373016
 11
301.513550
 21
-232.833740
  0
LINE
  8
0
 62
     5
 10
312.572998
 20
-235.045654
 11
312.572998
 21
-236.812775
  0
LINE
  8
0
 62
     5
 10
308.342377
 20
-240.195038
 11
312.573395
 21
-242.168030
  0
LINE
  8
0
 62
     5
 10
305.937256
 20
-242.734329
 11
312.573059
 21
-245.828613
  0
LINE
  8
0
 62
     5
 10
296.260284
 20
-242.167801
 11
296.260284
 21
-245.828644
  0
LINE
  8
0
 62
     5
 10
296.260742
 20
-242.168167
 11
309.162567
 21
-236.151932
  0
LINE
  8
0
 62
     5
 10
296.260254
 20
-245.828598
 11
301.513580
 21
-243.378937
  0
LINE
  8
0
 62
     5
 10
312.572998
 20
-242.167801
 11
312.572998
 21
-245.828644
  0
LINE
  8
0
 62
     5
 10
296.260284
 20
-232.833740
 11
296.260284
 21
-236.151566
  0
LINE
  8
0
 62
     5
 10
301.513550
 20
-249.146469
 11
305.937286
 21
-249.146469
  0
LINE
  8
0
 62
     5
 10
296.260284
 20
-236.151566
 11
309.162079
 21
-236.151566
  0
LINE
  8
0
 62
     5
 10
296.260284
 20
-232.833740
 11
301.513550
 21
-232.833740
  0
LINE
  8
0
 62
     5
 10
327.503998
 20
-236.404739
 11
328.730042
 21
-235.917068
  0
LINE
  8
0
 62
     5
 10
327.503357
 20
-236.404404
 11
327.503357
 21
-249.146469
  0
LINE
  8
0
 62
     5
 10
323.079498
 20
-249.146469
 11
327.503357
 21
-249.146469
  0
LINE
  8
0
 62
     5
 10
313.955292
 20
-241.792511
 11
323.079376
 21
-238.163742
  0
LINE
  8
0
 62
     5
 10
313.955536
 20
-238.221954
 11
326.806152
 21
-233.111084
  0
LINE
  8
0
 62
     5
 10
323.079498
 20
-238.163773
 11
323.079498
 21
-249.146469
  0
LINE
  8
0
 62
     5
 10
327.503357
 20
-231.368408
 11
327.503357
 21
-232.083389
  0
LINE
  8
0
 62
     5
 10
330.821106
 20
-231.368408
 11
330.821106
 21
-232.833755
  0
LINE
  8
0
 62
     5
 10
313.955444
 20
-238.221893
 11
313.955444
 21
-241.792496
  0
LINE
  8
0
 62
     5
 10
327.503357
 20
-231.368408
 11
330.821106
 21
-231.368408
  0
LINE
  8
0
 10
61.999878
 20
-105.000069
 11
61.999878
 21
-143.000061
  0
LINE
  8
0
 10
45.999878
 20
-105.000069
 11
45.999878
 21
-143.000061
  0
LINE
  8
0
 10
61.999878
 20
-143.000061
 11
45.999878
 21
-143.000061
  0
LINE
  8
0
 10
61.999878
 20
-105.000069
 11
45.999878
 21
-105.000069
  0
LINE
  8
0
  6
CENTER
 10
53.999878
 20
-113.500061
 11
53.999878
 21
-126.500061
  0
LINE
  8
0
 10
61.999878
 20
-141.000061
 11
45.999878
 21
-141.000061
  0
LINE
  8
0
 10
61.999878
 20
-135.000061
 11
45.999878
 21
-135.000061
  0
LINE
  8
0
  6
CENTER
 10
48.499878
 20
-135.500061
 11
48.499878
 21
-140.500061
  0
LINE
  8
0
  6
CENTER
 10
50.999878
 20
-138.000061
 11
45.999878
 21
-138.000061
  0
LINE
  8
0
  6
CENTER
 10
59.499878
 20
-135.500061
 11
59.499878
 21
-140.500061
  0
LINE
  8
0
  6
CENTER
 10
61.999878
 20
-138.000061
 11
56.999878
 21
-138.000061
  0
LINE
  8
0
 10
-231.000122
 20
-127.000069
 11
-157.000122
 21
-127.000069
  0
LINE
  8
0
 10
44.999878
 20
-106.800064
 11
44.999878
 21
-133.200073
  0
LINE
  8
0
 10
42.999878
 20
-106.800064
 11
42.999878
 21
-133.200073
  0
LINE
  8
0
 10
44.999878
 20
-133.200073
 11
45.999878
 21
-133.200073
  0
LINE
  8
0
 10
44.999878
 20
-106.800064
 11
45.999878
 21
-106.800064
  0
LINE
  8
0
  6
CENTER
 10
-255.000122
 20
-120.000061
 11
66.999878
 21
-120.000061
  0
LINE
  8
0
 10
-250.000122
 20
-105.000069
 11
-250.000122
 21
-143.000061
  0
LINE
  8
0
 10
-234.000122
 20
-105.000069
 11
-234.000122
 21
-143.000061
  0
LINE
  8
0
 10
-250.000122
 20
-143.000061
 11
-234.000122
 21
-143.000061
  0
LINE
  8
0
 10
-250.000122
 20
-105.000069
 11
-234.000122
 21
-105.000069
  0
LINE
  8
0
  6
CENTER
 10
-242.000122
 20
-113.500061
 11
-242.000122
 21
-126.500061
  0
LINE
  8
0
 10
-250.000122
 20
-141.000061
 11
-234.000122
 21
-141.000061
  0
LINE
  8
0
 10
-250.000122
 20
-135.000061
 11
-234.000122
 21
-135.000061
  0
LINE
  8
0
  6
CENTER
 10
-236.500122
 20
-135.500061
 11
-236.500122
 21
-140.500061
  0
LINE
  8
0
  6
CENTER
 10
-239.000122
 20
-138.000061
 11
-234.000122
 21
-138.000061
  0
LINE
  8
0
  6
CENTER
 10
-247.500122
 20
-135.500061
 11
-247.500122
 21
-140.500061
  0
LINE
  8
0
  6
CENTER
 10
-250.000122
 20
-138.000061
 11
-245.000122
 21
-138.000061
  0
LINE
  8
0
 10
-231.000122
 20
-99.000069
 11
-231.000122
 21
-141.000061
  0
LINE
  8
0
 10
-231.000122
 20
-99.000069
 11
-157.000122
 21
-99.000069
  0
LINE
  8
0
 10
-231.000122
 20
-141.000061
 11
-157.000122
 21
-141.000061
  0
LINE
  8
0
 10
-157.000122
 20
-133.200073
 11
42.999878
 21
-133.200073
  0
LINE
  8
0
 10
-233.000122
 20
-106.800064
 11
-233.000122
 21
-133.200073
  0
LINE
  8
0
 10
-233.000122
 20
-106.800064
 11
-234.000122
 21
-106.800064
  0
LINE
  8
0
 10
-233.000122
 20
-133.200073
 11
-234.000122
 21
-133.200073
  0
LINE
  8
0
 10
-157.000122
 20
-99.000069
 11
-157.000122
 21
-141.000061
  0
LINE
  8
0
 10
-157.000122
 20
-106.800064
 11
42.999878
 21
-106.800064
  0
LINE
  8
0
  6
CENTER
 10
-255.000137
 20
49.999962
 11
66.999863
 21
49.999962
  0
LINE
  8
0
 10
-250.000137
 20
67.999962
 11
-250.000137
 21
31.999962
  0
LINE
  8
0
 10
-234.000137
 20
67.999962
 11
-234.000137
 21
31.999962
  0
LINE
  8
0
 10
-157.000137
 20
70.999954
 11
-157.000137
 21
28.999954
  0
LINE
  8
0
 10
-231.000137
 20
70.999954
 11
-231.000137
 21
28.999954
  0
LINE
  8
0
 10
-231.000137
 20
70.999954
 11
-157.000137
 21
70.999954
  0
LINE
  8
0
 10
-231.000137
 20
28.999954
 11
-157.000137
 21
28.999954
  0
LINE
  8
0
 10
-157.000137
 20
63.199959
 11
42.999863
 21
63.199959
  0
LINE
  8
0
 10
-157.000137
 20
36.799957
 11
42.999863
 21
36.799957
  0
LINE
  8
0
 10
-233.000137
 20
63.199959
 11
-233.000137
 21
36.799957
  0
LINE
  8
0
 10
-233.000137
 20
63.199959
 11
-234.000137
 21
63.199959
  0
LINE
  8
0
 10
-233.000137
 20
36.799957
 11
-234.000137
 21
36.799957
  0
LINE
  8
0
 10
-250.000137
 20
31.999962
 11
-234.000137
 21
31.999962
  0
LINE
  8
0
 10
-250.000137
 20
67.999962
 11
-234.000137
 21
67.999962
  0
LINE
  8
0
  6
CENTER
 10
-242.000137
 20
66.499962
 11
-242.000137
 21
26.999962
  0
LINE
  8
0
  6
CENTER
 10
-246.500137
 20
61.999962
 11
-237.500137
 21
61.999962
  0
LINE
  8
0
 10
61.999863
 20
67.999962
 11
61.999863
 21
31.999962
  0
LINE
  8
0
 10
45.999863
 20
67.999962
 11
45.999863
 21
31.999962
  0
LINE
  8
0
 10
42.999863
 20
63.199959
 11
42.999863
 21
36.799957
  0
LINE
  8
0
 10
44.999863
 20
63.199959
 11
44.999863
 21
36.799957
  0
LINE
  8
0
 10
44.999863
 20
63.199959
 11
45.999863
 21
63.199959
  0
LINE
  8
0
 10
44.999863
 20
36.799957
 11
45.999863
 21
36.799957
  0
LINE
  8
0
 10
61.999863
 20
31.999962
 11
45.999863
 21
31.999962
  0
LINE
  8
0
 10
61.999863
 20
67.999962
 11
45.999863
 21
67.999962
  0
LINE
  8
0
  6
CENTER
 10
53.999863
 20
66.499962
 11
53.999863
 21
26.999962
  0
LINE
  8
0
  6
CENTER
 10
58.499863
 20
61.999962
 11
49.499863
 21
61.999962
  0
LINE
  8
0
  6
CENTER
 10
-194.000137
 20
75.999954
 11
-194.000137
 21
23.999954
  0
LINE
  8
0
  6
CENTER
 10
-215.000137
 20
38.999962
 11
-215.000137
 21
30.999962
  0
LINE
  8
0
  6
CENTER
 10
-219.000137
 20
34.999962
 11
-211.000137
 21
34.999962
  0
LINE
  8
0
  6
CENTER
 10
-215.000137
 20
60.999962
 11
-215.000137
 21
68.999962
  0
LINE
  8
0
  6
CENTER
 10
-219.000137
 20
64.999962
 11
-211.000137
 21
64.999962
  0
LINE
  8
0
  6
CENTER
 10
-173.000137
 20
38.999962
 11
-173.000137
 21
30.999962
  0
LINE
  8
0
  6
CENTER
 10
-169.000137
 20
34.999962
 11
-177.000137
 21
34.999962
  0
LINE
  8
0
  6
CENTER
 10
-173.000137
 20
60.999962
 11
-173.000137
 21
68.999962
  0
LINE
  8
0
  6
CENTER
 10
-169.000137
 20
64.999962
 11
-177.000137
 21
64.999962
  0
LINE
  8
0
  6
CENTER
 10
230.000015
 20
-94.000046
 11
230.000015
 21
-148.000046
  0
LINE
  8
0
  6
CENTER
 10
204.000015
 20
-120.000038
 11
256.000000
 21
-120.000038
  0
LINE
  8
0
 10
209.000015
 20
-99.000046
 11
251.000015
 21
-99.000046
  0
LINE
  8
0
 10
209.000015
 20
-127.000046
 11
210.201019
 21
-127.000046
  0
LINE
  8
0
 10
251.000015
 20
-99.000046
 11
251.000015
 21
-127.000046
  0
LINE
  8
0
 10
209.000015
 20
-99.000046
 11
209.000015
 21
-127.000046
  0
LINE
  8
0
 10
249.799011
 20
-127.000046
 11
251.000015
 21
-127.000046
  0
LINE
  8
0
 10
212.000015
 20
-105.000046
 11
248.000015
 21
-105.000046
  0
LINE
  8
0
 10
212.000015
 20
-135.000046
 11
213.000015
 21
-135.000046
  0
LINE
  8
0
 10
212.000015
 20
-141.000046
 11
213.000015
 21
-141.000046
  0
LINE
  8
0
 10
212.000015
 20
-143.000046
 11
248.000015
 21
-143.000046
  0
LINE
  8
0
 10
247.000015
 20
-135.000046
 11
248.000015
 21
-135.000046
  0
LINE
  8
0
 10
247.000015
 20
-141.000046
 11
248.000015
 21
-141.000046
  0
LINE
  8
0
 10
212.000015
 20
-105.000046
 11
212.000015
 21
-135.000046
  0
LINE
  8
0
 10
248.000015
 20
-105.000046
 11
248.000015
 21
-135.000046
  0
LINE
  8
0
 10
213.000015
 20
-135.000046
 11
213.000015
 21
-141.000046
  0
LINE
  8
0
 10
247.000015
 20
-135.000046
 11
247.000015
 21
-141.000046
  0
LINE
  8
0
 10
212.000015
 20
-141.000046
 11
212.000015
 21
-143.000046
  0
LINE
  8
0
 10
248.000015
 20
-141.000046
 11
248.000015
 21
-143.000046
  0
LINE
  8
0
  6
CENTER
 10
242.000000
 20
-114.500031
 11
242.000000
 21
-105.500031
  0
LINE
  8
0
  6
CENTER
 10
246.500015
 20
-110.000061
 11
237.500015
 21
-110.000061
  0
LINE
  8
0
  6
CENTER
 10
218.000015
 20
-125.500046
 11
218.000015
 21
-134.500046
  0
LINE
  8
0
  6
CENTER
 10
213.500015
 20
-130.000046
 11
222.500015
 21
-130.000046
  0
LINE
  8
0
 10
-171.750122
 20
67.165024
 11
-152.215515
 21
100.999947
  0
LINE
  8
0
 10
-171.750122
 20
67.165024
 11
-170.456024
 21
71.994652
  0
LINE
  8
0
 10
-171.750137
 20
67.165024
 11
-168.214600
 21
70.700562
  0
LINE
  8
0
 10
-152.215515
 20
100.999947
 11
-93.000000
 21
100.999947
  0
LINE
  8
0
 10
52.624870
 20
64.381500
 11
31.483229
 21
100.999916
  0
LINE
  8
0
 10
52.624870
 20
64.381500
 11
51.330776
 21
69.211128
  0
LINE
  8
0
 10
52.624870
 20
64.381500
 11
49.089336
 21
67.917030
  0
LINE
  8
0
 10
-12.775387
 20
100.999916
 11
31.483229
 21
100.999916
  0
LINE
  8
0
 10
51.567883
 20
-115.787704
 11
24.555031
 21
-69.000053
  0
LINE
  8
0
 10
51.567886
 20
-115.787712
 11
50.273788
 21
-110.958084
  0
LINE
  8
0
 10
51.567883
 20
-115.787704
 11
48.032349
 21
-112.252167
  0
LINE
  8
0
 10
-26.665577
 20
-69.000053
 11
24.555031
 21
-69.000053
  0
LINE
  8
0
 10
47.999901
 20
-138.866119
 11
29.447323
 21
-171.000122
  0
LINE
  8
0
 10
44.464367
 20
-142.401657
 11
47.999901
 21
-138.866119
  0
LINE
  8
0
 10
46.705803
 20
-143.695755
 11
47.999897
 21
-138.866119
  0
LINE
  8
0
 10
-29.000000
 20
-171.000122
 11
29.447323
 21
-171.000122
  0
LINE
  8
0
 10
243.249985
 20
-107.834984
 11
265.671326
 21
-69.000053
  0
LINE
  8
0
 10
243.249985
 20
-107.834984
 11
244.544067
 21
-103.005348
  0
LINE
  8
0
 10
243.250000
 20
-107.834991
 11
246.785522
 21
-104.299454
  0
LINE
  8
0
 10
265.671326
 20
-69.000053
 11
325.000000
 21
-69.000053
  0
ARC
  8
0
 62
     5
 10
273.035400
 20
-235.045654
 40
2.211884
 50
0.000000
 51
90.000000
  0
ARC
  8
0
 62
     5
 10
291.283569
 20
-246.934647
 40
2.211899
 50
270.000000
 51
0.000000
  0
ARC
  8
0
 62
     5
 10
290.177551
 20
-236.151566
 40
3.317841
 50
0.000000
 51
90.000000
  0
ARC
  8
0
 62
     5
 10
310.361115
 20
-236.812775
 40
2.211890
 50
294.999969
 51
0.000000
  0
ARC
  8
0
 62
     5
 10
310.361115
 20
-235.045654
 40
2.211884
 50
0.000000
 51
90.000000
  0
ARC
  8
0
 62
     5
 10
327.503357
 20
-232.833755
 40
3.317840
 50
291.688385
 51
0.000000
  0
ARC
  8
0
 62
     5
 10
326.397308
 20
-232.083389
 40
1.105946
 50
291.688965
 51
0.000000
  0
ARC
  8
0
 10
-232.000122
 20
-133.200043
 40
1.000000
 50
180.000000
 51
0.000000
  0
CIRCLE
  8
0
 10
-236.500122
 20
-138.000061
 40
0.783500
  0
CIRCLE
  8
0
 10
-247.500122
 20
-138.000061
 40
0.783500
  0
CIRCLE
  8
0
 10
-247.500122
 20
-138.000061
 40
1.000000
  0
ARC
  8
0
 10
-232.000122
 20
-106.800064
 40
1.000000
 50
0.000000
 51
180.000000
  0
CIRCLE
  8
0
 10
59.499878
 20
-138.000061
 40
0.783500
  0
CIRCLE
  8
0
 10
53.999878
 20
-120.000061
 40
4.864000
  0
CIRCLE
  8
0
 10
53.999878
 20
-120.000061
 40
4.283000
  0
CIRCLE
  8
0
 10
48.499878
 20
-138.000061
 40
1.000000
  0
CIRCLE
  8
0
 10
48.499878
 20
-138.000061
 40
0.783500
  0
CIRCLE
  8
0
 10
59.499878
 20
-138.000061
 40
1.000000
  0
ARC
  8
0
 10
43.999878
 20
-106.800064
 40
1.000000
 50
0.000000
 51
180.000000
  0
ARC
  8
0
 10
43.999878
 20
-133.200043
 40
1.000000
 50
180.000000
 51
0.000000
  0
CIRCLE
  8
0
 10
-242.000122
 20
-120.000061
 40
4.864000
  0
CIRCLE
  8
0
 10
-242.000122
 20
-120.000061
 40
4.283000
  0
CIRCLE
  8
0
 10
-236.500122
 20
-138.000061
 40
1.000000
  0
CIRCLE
  8
0
 10
-215.000137
 20
64.999962
 40
2.067000
  0
CIRCLE
  8
0
 10
-173.000137
 20
64.999962
 40
2.500000
  0
CIRCLE
  8
0
 10
-173.000137
 20
34.999962
 40
2.067000
  0
CIRCLE
  8
0
 10
-173.000137
 20
34.999962
 40
2.500000
  0
CIRCLE
  8
0
 10
-173.000137
 20
64.999962
 40
2.067000
  0
ARC
  8
0
 10
-232.000137
 20
36.799973
 40
1.000000
 50
180.000000
 51
0.000000
  0
ARC
  8
0
 10
-232.000137
 20
63.199959
 40
1.000000
 50
0.000000
 51
180.000000
  0
CIRCLE
  8
0
 10
-242.000137
 20
49.999962
 40
2.750000
  0
CIRCLE
  8
0
 10
-242.000137
 20
61.999962
 40
2.750000
  0
CIRCLE
  8
0
 10
53.999863
 20
61.999962
 40
2.750000
  0
ARC
  8
0
 10
43.999863
 20
63.199959
 40
1.000000
 50
0.000000
 51
180.000000
  0
CIRCLE
  8
0
 10
53.999863
 20
49.999962
 40
2.750000
  0
ARC
  8
0
 10
43.999863
 20
36.799973
 40
1.000000
 50
180.000000
 51
0.000000
  0
CIRCLE
  8
0
 10
-215.000137
 20
34.999962
 40
2.500000
  0
CIRCLE
  8
0
 10
-215.000137
 20
34.999962
 40
2.067000
  0
CIRCLE
  8
0
 10
-215.000137
 20
64.999962
 40
2.500000
  0
CIRCLE
  8
0
 10
218.000015
 20
-130.000046
 40
2.500000
  0
CIRCLE
  8
0
 10
242.000015
 20
-110.000031
 40
2.500000
  0
CIRCLE
  8
0
 10
218.000015
 20
-130.000046
 40
2.067000
  0
CIRCLE
  8
0
 10
242.000015
 20
-110.000031
 40
2.067000
  0
ARC
  8
0
 10
230.000015
 20
-120.000038
 40
21.000006
 50
199.471222
 51
211.002731
  0
ARC
  8
0
  6
DASHED
 10
230.000015
 20
-120.000038
 40
21.000002
 50
211.002731
 51
328.997223
  0
ARC
  8
0
 10
230.000015
 20
-120.000038
 40
21.000010
 50
328.997223
 51
340.528778
  0
TEXT
  8
0
 10
226.462494
 20
233.607468
 40
8.500000
  1
DATE : JUN ,1991
 50
0.000000
 41
1.052631
 51
0.000000
  7
STANDARD
  0
TEXT
  8
0
 10
-366.896790
 20
232.257462
 40
10.000000
  1
RODLESS CYLINDER
 50
0.000000
 41
0.937799
 51
0.000000
  7
STANDARD
  0
TEXT
  8
0
 10
-337.052124
 20
177.956390
 40
10.000000
  1
MODEL : MRC* 25xSt(200)
 50
0.000000
 41
1.052632
 51
0.000000
  7
STANDARD
  0
TEXT
  8
0
 10
-151.465515
 20
100.699944
 40
7.000000
  1
4-M5x0.8
 50
0.000000
 41
1.052632
 51
0.000000
  7
STANDARD
  0
TEXT
  8
0
 10
-12.766765
 20
100.699913
 40
7.000000
  1
4-ƒÓ5.5
 50
0.000000
 41
1.052632
 51
0.000000
  7
STANDARD
  0
TEXT
  8
0
 10
-26.694967
 20
-69.300056
 40
7.000000
  1
2-Rc1/8
 50
0.000000
 41
1.052632
 51
0.000000
  7
STANDARD
  0
TEXT
  8
0
 10
-27.802675
 20
-171.300110
 40
7.000000
  1
8-M2x0.4
 50
0.000000
 41
1.052632
 51
0.000000
  7
STANDARD
  0
TEXT
  8
0
 10
266.421387
 20
-69.300072
 40
7.000000
  1
4-M5x0.8
 50
0.000000
 41
1.052632
 51
0.000000
  7
STANDARD
  0
ENDSEC
  0
EOF
