  0
SECTION
  2
HEADER
  0
ENDSEC
  0
SECTION
  2
TABLES
  0
TABLE
  2
LTYPE
 70
     4
  0
LTYPE
  2
CONTINUOUS
 70
    64
  3
Solid line
 72
    65
 73
     0
 40
0.000000
  0
LTYPE
  2
DASHED
 70
    64
  3
__ __ __ __ __ __ __ __ __ __ __ __ __ __ __
 72
    65
 73
     2
 40
3.500000
 49
2.000000
 49
-1.500000
  0
LTYPE
  2
CENTER
 70
    64
  3
____ _ ____ _ ____ _ ____ _ ____ _ ____ _ ____
 72
    65
 73
     4
 40
17.500000
 49
13.000000
 49
-1.500000
 49
1.500000
 49
-1.500000
  0
LTYPE
  2
PHANTOM
 70
    64
  3
_____ _ _ _____ _ _ _____ _ _ _____ _ _ ____  
 72
    65
 73
     6
 40
15.500000
 49
8.000000
 49
-1.500000
 49
1.500000
 49
-1.500000
 49
1.500000
 49
-1.500000
  0
LTYPE
  2
DASHED1
 70
    64
  3
__ __ __ __ __ __ __ __ __ __ __ __ __ __ __
 72
    65
 73
     2
 40
1.500000
 49
1.000000
 49
-0.500000
  0
LTYPE
  2
DASHED2
 70
    64
  3
__ __ __ __ __ __ __ __ __ __ __ __ __ __ __
 72
    65
 73
     2
 40
3.500000
 49
2.500000
 49
-1.000000
  0
LTYPE
  2
DASHED3
 70
    64
  3
__ __ __ __ __ __ __ __ __ __ __ __ __ __ __
 72
    65
 73
     2
 40
6.000000
 49
4.000000
 49
-2.000000
  0
LTYPE
  2
DASHED4
 70
    64
  3
__ __ __ __ __ __ __ __ __ __ __ __ __ __ __
 72
    65
 73
     2
 40
12.000000
 49
10.000000
 49
-2.000000
  0
LTYPE
  2
DASHED5
 70
    64
  3
__ __ __ __ __ __ __ __ __ __ __ __ __ __ __
 72
    65
 73
     2
 40
17.000000
 49
15.000000
 49
-2.000000
  0
LTYPE
  2
DASHED6
 70
    64
  3
__ __ __ __ __ __ __ __ __ __ __ __ __ __ __
 72
    65
 73
     2
 40
29.000000
 49
27.000000
 49
-2.000000
  0
LTYPE
  2
PHANTOM1
 70
    64
  3
_____ _ _ _____ _ _ _____ _ _ _____ _ _ ____  
 72
    65
 73
     6
 40
31.000000
 49
25.000000
 49
-1.500000
 49
1.000000
 49
-1.000000
 49
1.000000
 49
-1.500000
  0
LTYPE
  2
PHANTOM2
 70
    64
  3
_____ _ _ _____ _ _ _____ _ _ _____ _ _ ____  
 72
    65
 73
     6
 40
36.000000
 49
27.000000
 49
-1.500000
 49
2.500000
 49
-1.000000
 49
2.500000
 49
-1.500000
  0
LTYPE
  2
PHANTOM3
 70
    64
  3
_____ _ _ _____ _ _ _____ _ _ _____ _ _ ____  
 72
    65
 73
     6
 40
78.000000
 49
64.000000
 49
-2.000000
 49
4.000000
 49
-2.000000
 49
4.000000
 49
-2.000000
  0
LTYPE
  2
CENTER1
 70
    64
  3
____ _ ____ _ ____ _ ____ _ ____ _ ____ _ ____
 72
    65
 73
     4
 40
19.000000
 49
14.000000
 49
-1.000000
 49
3.000000
 49
-1.000000
  0
LTYPE
  2
CENTER2
 70
    64
  3
____ _ ____ _ ____ _ ____ _ ____ _ ____ _ ____
 72
    65
 73
     4
 40
28.500000
 49
25.000000
 49
-1.000000
 49
1.500000
 49
-1.000000
  0
LTYPE
  2
CENTER3
 70
    64
  3
____ _ ____ _ ____ _ ____ _ ____ _ ____ _ ____
 72
    65
 73
     4
 40
31.500000
 49
27.000000
 49
-1.000000
 49
2.500000
 49
-1.000000
  0
LTYPE
  2
CENTER4
 70
    64
  3
____ _ ____ _ ____ _ ____ _ ____ _ ____ _ ____
 72
    65
 73
     4
 40
50.000000
 49
45.000000
 49
-1.000000
 49
3.000000
 49
-1.000000
  0
LTYPE
  2
CENTER5
 70
    64
  3
____ _ ____ _ ____ _ ____ _ ____ _ ____ _ ____
 72
    65
 73
     4
 40
100.000000
 49
92.000000
 49
-2.000000
 49
4.000000
 49
-2.000000
  0
LTYPE
  2
SBK1
 70
    64
  3
______ _ _ _ ______ _ _ _ ______ _ _ _ _____  
 72
    65
 73
     8
 40
60.500000
 49
45.000000
 49
-2.000000
 49
2.500000
 49
-2.000000
 49
2.500000
 49
-2.000000
 49
2.500000
 49
-2.000000
  0
LTYPE
  2
SBK2
 70
    64
  3
______ _ _ _ ______ _ _ _ ______ _ _ _ _____  
 72
    65
 73
     8
 40
84.000000
 49
64.000000
 49
-2.000000
 49
4.000000
 49
-2.000000
 49
4.000000
 49
-2.000000
 49
4.000000
 49
-2.000000
  0
LTYPE
  2
STCH
 70
    64
  3
__ __ __ __ __ __ __ __ __ __ __ __ __ __ __
 72
    65
 73
     2
 40
3.000000
 49
1.000000
 49
-2.000000
  0
LTYPE
  2
MTCH
 70
    64
  3
_____ _ _ _____ _ _ _____ _ _ _____ _ _ ____  
 72
    65
 73
     6
 40
80.000000
 49
66.000000
 49
-2.000000
 49
4.000000
 49
-2.000000
 49
4.000000
 49
-2.000000
  0
ENDTAB
  0
TABLE
  2
LAYER
 70
     1
  0
LAYER
  2
0
 70
     0
 62
     7
  6
CONTINUOUS
  0
ENDTAB
  0
TABLE
  2
STYLE
 70
     1
  0
STYLE
  2
STANDARD
 70
     0
 40
0.000000
 41
1.000000
 50
0.000000
 71
     0
 42
0.200000
  3
txt
  4
BIGFONT
  0
ENDTAB
  0
TABLE
  2
VIEW
 70
     0
  0
ENDTAB
  0
ENDSEC
  0
SECTION
  2
BLOCKS
  0
ENDSEC
  0
SECTION
  2
ENTITIES
  0
POINT
  8
0
 10
-364.494598
 20
219.999954
  0
POINT
  8
0
 10
-294.494476
 20
219.999954
  0
POINT
  8
0
 10
-364.494446
 20
69.999954
  0
POINT
  8
0
 10
-294.494476
 20
69.999954
  0
POINT
  8
0
 10
-144.494446
 20
69.999954
  0
POINT
  8
0
 10
-111.494415
 20
69.999954
  0
POINT
  8
0
 10
150.000122
 20
230.000000
  0
POINT
  8
0
 10
230.000122
 20
230.000000
  0
POINT
  8
0
 10
150.000000
 20
69.999954
  0
POINT
  8
0
 10
230.000137
 20
69.999954
  0
POINT
  8
0
 10
376.000122
 20
70.000008
  0
POINT
  8
0
 10
418.000183
 20
70.000008
  0
POINT
  8
0
 10
-174.494476
 20
-110.000076
  0
POINT
  8
0
 10
-74.494446
 20
-110.000076
  0
POINT
  8
0
 10
-174.494263
 20
-280.000092
  0
POINT
  8
0
 10
-74.494446
 20
-280.000092
  0
POINT
  8
0
 10
109.505722
 20
-280.000092
  0
POINT
  8
0
 10
157.505722
 20
-280.000092
  0
LINE
  8
0
 62
     3
 10
-524.494446
 20
-360.000092
 11
-524.494446
 21
360.000092
  0
LINE
  8
0
 62
     3
 10
524.494446
 20
360.000092
 11
524.494446
 21
-360.000092
  0
LINE
  8
0
 62
     3
 10
-524.494446
 20
-360.000092
 11
524.494446
 21
-360.000092
  0
LINE
  8
0
 62
     3
 10
-524.494446
 20
360.000092
 11
524.494446
 21
360.000092
  0
LINE
  8
0
 62
     3
 10
-524.494446
 20
319.550598
 11
-224.494446
 21
319.550598
  0
LINE
  8
0
 62
     3
 10
-224.494446
 20
319.550598
 11
-224.494446
 21
360.000092
  0
LINE
  8
0
 62
     3
 10
308.764069
 20
-319.550690
 11
524.494446
 21
-319.550690
  0
LINE
  8
0
 62
     5
 10
365.406830
 20
-329.276672
 11
386.130402
 21
-329.276672
  0
LINE
  8
0
 62
     5
 10
365.406830
 20
-347.654236
 11
383.002350
 21
-347.654236
  0
LINE
  8
0
 62
     5
 10
365.406830
 20
-352.346344
 11
389.258545
 21
-352.346344
  0
LINE
  8
0
 62
     5
 10
365.406830
 20
-333.968781
 11
383.002350
 21
-333.968781
  0
LINE
  8
0
 62
     5
 10
365.406830
 20
-329.276672
 11
365.406830
 21
-333.968781
  0
LINE
  8
0
 62
     5
 10
389.258545
 20
-332.404785
 11
389.258545
 21
-352.346344
  0
LINE
  8
0
 62
     5
 10
383.002350
 20
-333.968781
 11
383.002350
 21
-347.654236
  0
LINE
  8
0
 62
     5
 10
392.777557
 20
-329.276672
 11
392.777557
 21
-333.968781
  0
LINE
  8
0
 62
     5
 10
415.065186
 20
-333.968781
 11
415.065186
 21
-349.218353
  0
LINE
  8
0
 62
     5
 10
408.809052
 20
-333.968781
 11
408.809052
 21
-347.654236
  0
LINE
  8
0
 62
     5
 10
365.406830
 20
-347.654236
 11
365.406830
 21
-352.346344
  0
LINE
  8
0
 62
     5
 10
392.777557
 20
-329.276672
 11
398.959137
 21
-329.276672
  0
LINE
  8
0
 62
     5
 10
392.777557
 20
-352.346344
 11
397.635284
 21
-352.346344
  0
LINE
  8
0
 62
     5
 10
392.777435
 20
-352.346161
 11
397.701843
 21
-333.968719
  0
LINE
  8
0
 62
     5
 10
392.777557
 20
-333.968781
 11
397.701874
 21
-333.968781
  0
LINE
  8
0
 62
     5
 10
397.635559
 20
-352.346558
 11
402.559723
 21
-333.969055
  0
LINE
  8
0
 62
     5
 10
404.116852
 20
-347.654236
 11
408.809052
 21
-347.654236
  0
LINE
  8
0
 62
     5
 10
404.116730
 20
-347.654144
 11
405.373871
 21
-352.346191
  0
LINE
  8
0
 62
     5
 10
405.374237
 20
-352.346344
 11
411.937195
 21
-352.346344
  0
LINE
  8
0
 62
     5
 10
402.559540
 20
-333.968781
 11
408.809052
 21
-333.968781
  0
LINE
  8
0
 62
     5
 10
403.816772
 20
-329.276672
 11
410.373047
 21
-329.276672
  0
LINE
  8
0
 62
     5
 10
398.959198
 20
-329.276703
 11
399.891571
 21
-325.796783
  0
LINE
  8
0
 62
     5
 10
403.816467
 20
-329.276459
 11
404.748840
 21
-325.796417
  0
LINE
  8
0
 62
     5
 10
418.975342
 20
-329.276672
 11
426.404572
 21
-329.276672
  0
LINE
  8
0
 62
     5
 10
418.975342
 20
-333.968781
 11
437.221191
 21
-333.968781
  0
LINE
  8
0
 62
     5
 10
426.404572
 20
-352.346344
 11
432.660645
 21
-352.346344
  0
LINE
  8
0
 62
     5
 10
418.975342
 20
-329.276672
 11
418.975342
 21
-333.968781
  0
LINE
  8
0
 62
     5
 10
442.045044
 20
-342.477020
 11
442.045044
 21
-347.654236
  0
LINE
  8
0
 62
     5
 10
418.975037
 20
-347.654053
 11
426.404388
 21
-344.189636
  0
LINE
  8
0
 62
     5
 10
418.975769
 20
-342.477356
 11
437.221558
 21
-333.969116
  0
LINE
  8
0
 62
     5
 10
418.975342
 20
-342.477020
 11
418.975342
 21
-347.654236
  0
LINE
  8
0
 62
     5
 10
432.660492
 20
-343.278107
 11
442.044983
 21
-347.654083
  0
LINE
  8
0
 62
     5
 10
436.062103
 20
-339.687286
 11
442.045654
 21
-342.477448
  0
LINE
  8
0
 62
     5
 10
442.045044
 20
-332.404785
 11
442.045044
 21
-334.903870
  0
LINE
  8
0
 62
     5
 10
426.404572
 20
-325.796722
 11
426.404572
 21
-329.276672
  0
LINE
  8
0
 62
     5
 10
432.660645
 20
-325.796722
 11
432.660645
 21
-329.276672
  0
LINE
  8
0
 62
     5
 10
432.660645
 20
-329.276672
 11
438.916931
 21
-329.276672
  0
LINE
  8
0
 62
     5
 10
426.404572
 20
-344.189972
 11
426.404572
 21
-352.346344
  0
LINE
  8
0
 62
     5
 10
432.660645
 20
-343.278320
 11
432.660645
 21
-352.346344
  0
LINE
  8
0
 62
     5
 10
436.062073
 20
-339.687256
 11
440.239532
 21
-337.739288
  0
LINE
  8
0
 62
     5
 10
463.159668
 20
-327.204376
 11
467.851685
 21
-327.204376
  0
LINE
  8
0
 62
     5
 10
444.000122
 20
-336.896667
 11
444.000122
 21
-341.946259
  0
LINE
  8
0
 62
     5
 10
467.851685
 20
-327.204376
 11
467.851685
 21
-329.276672
  0
LINE
  8
0
 62
     5
 10
463.159668
 20
-327.204376
 11
463.159668
 21
-328.215485
  0
LINE
  8
0
 62
     5
 10
456.903442
 20
-336.814453
 11
456.903442
 21
-352.346344
  0
LINE
  8
0
 62
     5
 10
444.000275
 20
-336.896881
 11
462.173828
 21
-329.669067
  0
LINE
  8
0
 62
     5
 10
444.000092
 20
-341.946411
 11
456.903412
 21
-336.814545
  0
LINE
  8
0
 62
     5
 10
456.903442
 20
-352.346344
 11
463.159668
 21
-352.346344
  0
LINE
  8
0
 62
     5
 10
463.159668
 20
-334.326324
 11
463.159668
 21
-352.346344
  0
LINE
  8
0
 62
     5
 10
463.160126
 20
-334.326630
 11
464.894257
 21
-333.636902
  0
LINE
  8
0
 62
     5
 10
399.891602
 20
-325.796722
 11
404.749207
 21
-325.796722
  0
LINE
  8
0
 62
     5
 10
412.523682
 20
-325.796722
 11
414.517731
 21
-325.796722
  0
LINE
  8
0
 62
     5
 10
426.404572
 20
-325.796722
 11
432.660645
 21
-325.796722
  0
LINE
  8
0
 62
     5
 10
412.523682
 20
-328.924835
 11
414.517731
 21
-328.924835
  0
LINE
  8
0
 62
     5
 10
412.523682
 20
-325.796722
 11
412.523682
 21
-328.924835
  0
LINE
  8
0
 62
     5
 10
414.517731
 20
-325.796722
 11
414.517731
 21
-328.924835
  0
LINE
  8
0
 62
     5
 10
415.690887
 20
-325.796722
 11
415.690887
 21
-328.924835
  0
LINE
  8
0
 62
     5
 10
417.919678
 20
-325.796722
 11
417.919678
 21
-328.924835
  0
LINE
  8
0
 62
     5
 10
415.690887
 20
-325.796722
 11
417.919678
 21
-325.796722
  0
LINE
  8
0
 62
     5
 10
415.690887
 20
-328.924835
 11
417.919678
 21
-328.924835
  0
LINE
  8
0
 62
     3
 10
308.764069
 20
319.550598
 11
524.494446
 21
319.550598
  0
LINE
  8
0
 62
     3
 10
308.764069
 20
360.000092
 11
308.764069
 21
319.550598
  0
LINE
  8
0
 62
     3
 10
308.764069
 20
-319.550690
 11
308.764069
 21
-360.000092
  0
LINE
  8
0
 10
-524.494446
 20
-0.000046
 11
524.494446
 21
-0.000046
  0
LINE
  8
0
 10
0.000000
 20
360.000092
 11
0.000000
 21
-0.000046
  0
LINE
  8
0
  6
CENTER
 10
-439.494446
 20
219.999954
 11
-289.494446
 21
219.999954
  0
LINE
  8
0
  6
PHANTOM
 10
-401.494446
 20
48.999954
 11
-327.494446
 21
48.999954
  0
LINE
  8
0
  6
PHANTOM
 10
-327.494446
 20
90.999954
 11
-327.494446
 21
48.999954
  0
LINE
  8
0
  6
PHANTOM
 10
-401.494446
 20
90.999954
 11
-401.494446
 21
48.999954
  0
LINE
  8
0
  6
PHANTOM
 10
-401.494446
 20
90.999954
 11
-392.994446
 21
90.999954
  0
LINE
  8
0
  6
PHANTOM
 10
-401.494446
 20
62.999954
 11
-374.649139
 21
62.999954
  0
LINE
  8
0
  6
PHANTOM
 10
-327.494446
 20
233.199951
 11
-294.494446
 21
233.199951
  0
LINE
  8
0
  6
PHANTOM
 10
-327.494446
 20
206.799957
 11
-294.494446
 21
206.799957
  0
LINE
  8
0
  6
PHANTOM
 10
-327.494446
 20
240.999969
 11
-327.494446
 21
198.999969
  0
LINE
  8
0
  6
PHANTOM
 10
-401.494446
 20
240.999969
 11
-401.494446
 21
198.999969
  0
LINE
  8
0
  6
PHANTOM
 10
-401.494446
 20
240.999969
 11
-392.994446
 21
240.999969
  0
LINE
  8
0
  6
PHANTOM
 10
-401.494446
 20
198.999939
 11
-392.994446
 21
198.999939
  0
LINE
  8
0
  6
CENTER
 10
-144.494446
 20
101.999954
 11
-144.494446
 21
43.999954
  0
LINE
  8
0
  6
CENTER
 10
-182.494446
 20
69.999954
 11
-106.494446
 21
69.999954
  0
LINE
  8
0
  6
PHANTOM
 10
-123.494446
 20
90.949448
 11
-123.494446
 21
79.999954
  0
LINE
  8
0
  6
PHANTOM
 10
-165.494446
 20
90.949448
 11
-165.494446
 21
79.999954
  0
LINE
  8
0
  6
PHANTOM
 10
-401.494446
 20
233.199951
 11
-434.494446
 21
233.199951
  0
LINE
  8
0
  6
PHANTOM
 10
-401.494446
 20
206.799957
 11
-434.494446
 21
206.799957
  0
LINE
  8
0
  6
CENTER
 10
-439.494446
 20
69.999954
 11
-289.494446
 21
69.999954
  0
LINE
  8
0
  6
PHANTOM
 10
-327.494446
 20
83.199951
 11
-294.494446
 21
83.199951
  0
LINE
  8
0
  6
PHANTOM
 10
-327.494446
 20
56.799957
 11
-294.494446
 21
56.799957
  0
LINE
  8
0
  6
PHANTOM
 10
-401.494446
 20
83.199951
 11
-434.494446
 21
83.199951
  0
LINE
  8
0
  6
PHANTOM
 10
-401.494446
 20
56.799957
 11
-434.494446
 21
56.799957
  0
LINE
  8
0
  6
PHANTOM
 10
-354.339722
 20
62.999954
 11
-327.494446
 21
62.999954
  0
LINE
  8
0
  6
PHANTOM
 10
-349.994446
 20
90.999954
 11
-348.994446
 21
90.999954
  0
LINE
  8
0
  6
PHANTOM
 10
-379.994446
 20
90.999954
 11
-378.994446
 21
90.999954
  0
LINE
  8
0
  6
PHANTOM
 10
-335.994446
 20
90.999954
 11
-327.494446
 21
90.999954
  0
LINE
  8
0
  6
PHANTOM
 10
-124.695450
 20
62.999954
 11
-123.494446
 21
62.999954
  0
LINE
  8
0
  6
PHANTOM
 10
-349.994446
 20
240.999969
 11
-348.994446
 21
240.999969
  0
LINE
  8
0
  6
PHANTOM
 10
-349.994446
 20
198.999939
 11
-348.994446
 21
198.999939
  0
LINE
  8
0
  6
PHANTOM
 10
-379.994446
 20
240.999969
 11
-378.994446
 21
240.999969
  0
LINE
  8
0
  6
PHANTOM
 10
-335.994446
 20
240.999969
 11
-327.494446
 21
240.999969
  0
LINE
  8
0
  6
PHANTOM
 10
-335.994446
 20
198.999939
 11
-327.494446
 21
198.999939
  0
LINE
  8
0
  6
PHANTOM
 10
-379.994446
 20
198.999939
 11
-378.994446
 21
198.999939
  0
LINE
  8
0
  6
CENTER
 10
65.000122
 20
69.999954
 11
235.000122
 21
69.999954
  0
LINE
  8
0
  6
PHANTOM
 10
106.500000
 20
95.999954
 11
106.500000
 21
43.999947
  0
LINE
  8
0
  6
PHANTOM
 10
193.500000
 20
95.999954
 11
193.500000
 21
43.999947
  0
LINE
  8
0
  6
PHANTOM
 10
106.500000
 20
95.999954
 11
113.500000
 21
95.999954
  0
LINE
  8
0
  6
PHANTOM
 10
106.500000
 20
60.999947
 11
137.345322
 21
60.999947
  0
LINE
  8
0
  6
PHANTOM
 10
106.500000
 20
43.999947
 11
193.500000
 21
43.999947
  0
LINE
  8
0
  6
PHANTOM
 10
193.500000
 20
86.799957
 11
230.000122
 21
86.799957
  0
LINE
  8
0
  6
PHANTOM
 10
193.500000
 20
53.199959
 11
230.000122
 21
53.199959
  0
LINE
  8
0
  6
CENTER
 10
65.000122
 20
230.000000
 11
235.000122
 21
230.000000
  0
LINE
  8
0
  6
PHANTOM
 10
106.500122
 20
256.000000
 11
106.500122
 21
204.000000
  0
LINE
  8
0
  6
PHANTOM
 10
193.500122
 20
256.000000
 11
193.500122
 21
204.000000
  0
LINE
  8
0
  6
PHANTOM
 10
106.500122
 20
256.000000
 11
113.500000
 21
256.000000
  0
LINE
  8
0
  6
PHANTOM
 10
106.500122
 20
204.000000
 11
113.500000
 21
204.000000
  0
LINE
  8
0
  6
PHANTOM
 10
193.500122
 20
246.800018
 11
230.000122
 21
246.800018
  0
LINE
  8
0
  6
PHANTOM
 10
193.500122
 20
213.200012
 11
230.000122
 21
213.200012
  0
LINE
  8
0
  6
CENTER
 10
329.000122
 20
70.000008
 11
423.000122
 21
70.000008
  0
LINE
  8
0
  6
CENTER
 10
376.000122
 20
109.000000
 11
376.000122
 21
39.000008
  0
LINE
  8
0
  6
PHANTOM
 10
402.000122
 20
96.000008
 11
402.000122
 21
82.500008
  0
LINE
  8
0
  6
PHANTOM
 10
350.000122
 20
96.000008
 11
350.000122
 21
82.500008
  0
LINE
  8
0
  6
PHANTOM
 10
400.392761
 20
61.000008
 11
402.000122
 21
61.000008
  0
LINE
  8
0
  6
PHANTOM
 10
106.500122
 20
86.800011
 11
70.000122
 21
86.800011
  0
LINE
  8
0
  6
PHANTOM
 10
106.500122
 20
53.200005
 11
70.000122
 21
53.200005
  0
LINE
  8
0
  6
PHANTOM
 10
106.500122
 20
246.800018
 11
70.000122
 21
246.800018
  0
LINE
  8
0
  6
PHANTOM
 10
106.500122
 20
213.200012
 11
70.000122
 21
213.200012
  0
LINE
  8
0
  6
PHANTOM
 10
162.654663
 20
60.999947
 11
193.500000
 21
60.999947
  0
LINE
  8
0
  6
PHANTOM
 10
130.500000
 20
95.999954
 11
131.500000
 21
95.999954
  0
LINE
  8
0
  6
PHANTOM
 10
168.500000
 20
95.999954
 11
169.500000
 21
95.999954
  0
LINE
  8
0
  6
PHANTOM
 10
186.500000
 20
95.999954
 11
193.500000
 21
95.999954
  0
LINE
  8
0
  6
PHANTOM
 10
130.500000
 20
256.000000
 11
131.500000
 21
256.000000
  0
LINE
  8
0
  6
PHANTOM
 10
130.500000
 20
204.000000
 11
131.500000
 21
204.000000
  0
LINE
  8
0
  6
PHANTOM
 10
168.500000
 20
256.000000
 11
169.500000
 21
256.000000
  0
LINE
  8
0
  6
PHANTOM
 10
186.500000
 20
256.000000
 11
193.500122
 21
256.000000
  0
LINE
  8
0
  6
PHANTOM
 10
168.500000
 20
204.000000
 11
169.500000
 21
204.000000
  0
LINE
  8
0
  6
PHANTOM
 10
186.500000
 20
204.000000
 11
193.500122
 21
204.000000
  0
LINE
  8
0
  6
CENTER
 10
-279.494446
 20
-280.000092
 11
-69.494446
 21
-280.000092
  0
LINE
  8
0
  6
PHANTOM
 10
-225.494446
 20
-312.000092
 11
-123.494446
 21
-312.000092
  0
LINE
  8
0
  6
PHANTOM
 10
-225.494446
 20
-248.000092
 11
-225.494446
 21
-312.000092
  0
LINE
  8
0
  6
PHANTOM
 10
-123.494446
 20
-248.000092
 11
-123.494446
 21
-312.000092
  0
LINE
  8
0
  6
PHANTOM
 10
-123.494446
 20
-259.185089
 11
-74.494446
 21
-259.185089
  0
LINE
  8
0
  6
PHANTOM
 10
-123.494446
 20
-300.815094
 11
-74.494446
 21
-300.815094
  0
LINE
  8
0
  6
PHANTOM
 10
-225.494446
 20
-248.000092
 11
-215.994446
 21
-248.000092
  0
LINE
  8
0
  6
PHANTOM
 10
-225.494446
 20
-291.000092
 11
-189.071793
 21
-291.000092
  0
LINE
  8
0
  6
CENTER
 10
-279.494446
 20
-110.000076
 11
-69.494446
 21
-110.000076
  0
LINE
  8
0
  6
PHANTOM
 10
-225.494476
 20
-78.000076
 11
-225.494476
 21
-142.000076
  0
LINE
  8
0
  6
PHANTOM
 10
-123.494476
 20
-78.000076
 11
-123.494476
 21
-142.000076
  0
LINE
  8
0
  6
PHANTOM
 10
-123.494476
 20
-89.185074
 11
-74.494438
 21
-89.185074
  0
LINE
  8
0
  6
PHANTOM
 10
-123.494476
 20
-130.815063
 11
-74.494446
 21
-130.815063
  0
LINE
  8
0
  6
PHANTOM
 10
-225.494476
 20
-78.000076
 11
-215.994446
 21
-78.000076
  0
LINE
  8
0
  6
PHANTOM
 10
-225.494476
 20
-142.000076
 11
-215.994446
 21
-142.000076
  0
LINE
  8
0
  6
CENTER
 10
56.505722
 20
-280.000092
 11
162.505722
 21
-280.000092
  0
LINE
  8
0
  6
CENTER
 10
109.505722
 20
-235.000092
 11
109.505722
 21
-317.000092
  0
LINE
  8
0
  6
PHANTOM
 10
141.505707
 20
-248.000092
 11
141.505707
 21
-265.000092
  0
LINE
  8
0
  6
PHANTOM
 10
77.505722
 20
-248.000092
 11
77.505722
 21
-265.000092
  0
LINE
  8
0
  6
PHANTOM
 10
139.555664
 20
-291.000092
 11
141.505707
 21
-291.000092
  0
LINE
  8
0
  6
PHANTOM
 10
-225.494446
 20
-89.185089
 11
-274.494446
 21
-89.185089
  0
LINE
  8
0
  6
PHANTOM
 10
-225.494446
 20
-130.815094
 11
-274.494446
 21
-130.815094
  0
LINE
  8
0
  6
PHANTOM
 10
-225.494446
 20
-259.185089
 11
-274.494446
 21
-259.185089
  0
LINE
  8
0
  6
PHANTOM
 10
-225.494446
 20
-300.815094
 11
-274.494446
 21
-300.815094
  0
LINE
  8
0
  6
PHANTOM
 10
-151.494446
 20
-248.000092
 11
-149.994446
 21
-248.000092
  0
LINE
  8
0
  6
PHANTOM
 10
-159.917084
 20
-291.000092
 11
-123.494446
 21
-291.000092
  0
LINE
  8
0
  6
PHANTOM
 10
-198.994446
 20
-248.000092
 11
-197.494446
 21
-248.000092
  0
LINE
  8
0
  6
PHANTOM
 10
-132.994446
 20
-248.000092
 11
-123.494446
 21
-248.000092
  0
LINE
  8
0
  6
PHANTOM
 10
-198.994446
 20
-78.000076
 11
-197.494446
 21
-78.000076
  0
LINE
  8
0
  6
PHANTOM
 10
-151.494446
 20
-78.000076
 11
-149.994446
 21
-78.000076
  0
LINE
  8
0
  6
PHANTOM
 10
-151.494446
 20
-142.000076
 11
-149.994446
 21
-142.000076
  0
LINE
  8
0
  6
PHANTOM
 10
-198.994446
 20
-142.000076
 11
-197.494446
 21
-142.000076
  0
LINE
  8
0
  6
PHANTOM
 10
-132.994446
 20
-78.000076
 11
-123.494476
 21
-78.000076
  0
LINE
  8
0
  6
PHANTOM
 10
-132.994446
 20
-142.000076
 11
-123.494476
 21
-142.000076
  0
LINE
  8
0
  6
PHANTOM
 10
-165.494446
 20
62.999954
 11
-164.293427
 21
62.999954
  0
LINE
  8
0
  6
PHANTOM
 10
350.000122
 20
61.000008
 11
351.607483
 21
61.000008
  0
LINE
  8
0
  6
PHANTOM
 10
77.505722
 20
-291.000092
 11
79.455765
 21
-291.000092
  0
LINE
  8
0
 10
-378.994446
 20
96.999969
 11
-349.994446
 21
96.999969
  0
LINE
  8
0
 10
-371.762390
 20
60.999969
 11
-367.494446
 21
60.999969
  0
LINE
  8
0
 10
-349.994446
 20
96.999969
 11
-349.994446
 21
71.330086
  0
LINE
  8
0
 10
-378.994446
 20
96.999969
 11
-378.994446
 21
71.330101
  0
LINE
  8
0
 10
-367.494446
 20
77.499969
 11
-367.494446
 21
60.999969
  0
LINE
  8
0
 10
-361.494446
 20
77.499969
 11
-361.494446
 21
60.999969
  0
LINE
  8
0
 10
-361.494446
 20
60.999969
 11
-357.226501
 21
60.999969
  0
LINE
  8
0
 10
-367.494446
 20
62.999969
 11
-361.494446
 21
62.999969
  0
LINE
  8
0
 10
-374.360626
 20
62.499870
 11
-378.592682
 21
69.830002
  0
LINE
  8
0
 10
-354.628082
 20
62.499786
 11
-350.396027
 21
69.829903
  0
LINE
  8
0
 10
-392.994446
 20
94.199966
 11
-379.994446
 21
94.199966
  0
LINE
  8
0
 10
-392.994446
 20
94.199966
 11
-392.994446
 21
85.742584
  0
LINE
  8
0
 10
-335.994446
 20
94.199966
 11
-335.994446
 21
85.742615
  0
LINE
  8
0
 10
-378.822021
 20
70.327324
 11
-392.115845
 21
83.621155
  0
LINE
  8
0
 10
-350.166870
 20
70.327408
 11
-336.873047
 21
83.621223
  0
LINE
  8
0
 10
-348.994446
 20
94.199966
 11
-335.994446
 21
94.199966
  0
LINE
  8
0
 10
-348.994446
 20
94.199966
 11
-348.994446
 21
90.999969
  0
LINE
  8
0
 10
-379.994446
 20
94.199966
 11
-379.994446
 21
90.999969
  0
LINE
  8
0
  6
CENTER
 10
-364.494446
 20
101.999969
 11
-364.494446
 21
55.999969
  0
LINE
  8
0
 10
-392.994598
 20
246.199982
 11
-392.994598
 21
193.799988
  0
LINE
  8
0
 10
-379.994598
 20
246.199982
 11
-379.994598
 21
193.799988
  0
LINE
  8
0
 10
-378.994598
 20
250.899994
 11
-378.994598
 21
189.099976
  0
LINE
  8
0
 10
-349.994598
 20
250.899994
 11
-349.994598
 21
189.099976
  0
LINE
  8
0
 10
-348.994598
 20
246.199982
 11
-348.994598
 21
193.799988
  0
LINE
  8
0
  6
CENTER
 10
-343.494598
 20
228.499985
 11
-343.494598
 21
241.499985
  0
LINE
  8
0
 10
-378.994598
 20
189.099976
 11
-349.994598
 21
189.099976
  0
LINE
  8
0
 10
-378.994598
 20
250.899994
 11
-349.994598
 21
250.899994
  0
LINE
  8
0
 10
-367.494598
 20
252.999985
 11
-361.494598
 21
252.999985
  0
LINE
  8
0
 10
-367.494598
 20
186.999985
 11
-361.494598
 21
186.999985
  0
LINE
  8
0
 10
-367.494598
 20
252.999985
 11
-367.494598
 21
250.899994
  0
LINE
  8
0
 10
-361.494598
 20
252.999985
 11
-361.494598
 21
250.899994
  0
LINE
  8
0
 10
-367.494598
 20
189.099976
 11
-367.494598
 21
186.999985
  0
LINE
  8
0
 10
-361.494598
 20
189.099976
 11
-361.494598
 21
186.999985
  0
LINE
  8
0
 10
-379.994598
 20
242.999985
 11
-378.994598
 21
242.999985
  0
LINE
  8
0
 10
-392.994598
 20
193.799988
 11
-378.994598
 21
193.799988
  0
LINE
  8
0
 10
-392.994598
 20
246.199982
 11
-378.994598
 21
246.199982
  0
LINE
  8
0
 10
-349.994598
 20
246.199982
 11
-335.994598
 21
246.199982
  0
LINE
  8
0
 10
-349.994598
 20
193.799988
 11
-335.994598
 21
193.799988
  0
LINE
  8
0
 10
-349.994598
 20
242.999985
 11
-348.994598
 21
242.999985
  0
LINE
  8
0
 10
-349.994598
 20
196.999985
 11
-348.994598
 21
196.999985
  0
LINE
  8
0
 10
-379.994598
 20
196.999985
 11
-378.994598
 21
196.999985
  0
LINE
  8
0
  6
CENTER
 10
-372.994598
 20
229.999985
 11
-372.994598
 21
239.999985
  0
LINE
  8
0
  6
CENTER
 10
-355.994598
 20
229.999985
 11
-355.994598
 21
239.999985
  0
LINE
  8
0
  6
CENTER
 10
-377.994598
 20
234.999985
 11
-367.994598
 21
234.999985
  0
LINE
  8
0
  6
CENTER
 10
-350.994598
 20
234.999985
 11
-360.994598
 21
234.999985
  0
LINE
  8
0
  6
CENTER
 10
-355.994598
 20
209.999985
 11
-355.994598
 21
199.999985
  0
LINE
  8
0
  6
CENTER
 10
-350.994598
 20
204.999985
 11
-360.994598
 21
204.999985
  0
LINE
  8
0
  6
CENTER
 10
-372.994598
 20
209.999985
 11
-372.994598
 21
199.999985
  0
LINE
  8
0
  6
CENTER
 10
-364.494598
 20
258.000000
 11
-364.494598
 21
181.999985
  0
LINE
  8
0
  6
CENTER
 10
-377.994598
 20
204.999985
 11
-367.994598
 21
204.999985
  0
LINE
  8
0
  6
CENTER
 10
-385.494598
 20
211.499985
 11
-385.494598
 21
198.499985
  0
LINE
  8
0
  6
CENTER
 10
-391.994598
 20
204.999985
 11
-378.994598
 21
204.999985
  0
LINE
  8
0
  6
CENTER
 10
-385.494598
 20
228.499985
 11
-385.494598
 21
241.499985
  0
LINE
  8
0
  6
CENTER
 10
-391.994598
 20
234.999985
 11
-378.994598
 21
234.999985
  0
LINE
  8
0
 10
-335.994598
 20
246.199982
 11
-335.994598
 21
193.799988
  0
LINE
  8
0
  6
CENTER
 10
-336.994598
 20
234.999985
 11
-349.994598
 21
234.999985
  0
LINE
  8
0
  6
CENTER
 10
-343.494598
 20
211.499985
 11
-343.494598
 21
198.499985
  0
LINE
  8
0
  6
CENTER
 10
-336.994598
 20
204.999985
 11
-349.994598
 21
204.999985
  0
LINE
  8
0
 10
-387.494598
 20
203.845291
 11
-385.494598
 21
202.690582
  0
LINE
  8
0
 10
-385.494629
 20
202.690628
 11
-383.494629
 21
203.845322
  0
LINE
  8
0
 10
-383.494598
 20
203.845291
 11
-383.494598
 21
206.154694
  0
LINE
  8
0
 10
-383.494598
 20
206.154678
 11
-385.494598
 21
207.309387
  0
LINE
  8
0
 10
-385.494659
 20
207.309448
 11
-387.494690
 21
206.154739
  0
LINE
  8
0
 10
-387.494598
 20
206.154694
 11
-387.494598
 21
203.845276
  0
LINE
  8
0
 10
-385.494568
 20
232.690567
 11
-387.494598
 21
233.845276
  0
LINE
  8
0
 10
-387.494598
 20
233.845276
 11
-387.494598
 21
236.154694
  0
LINE
  8
0
 10
-387.494568
 20
236.154648
 11
-385.494537
 21
237.309357
  0
LINE
  8
0
 10
-385.494598
 20
237.309372
 11
-383.494598
 21
236.154678
  0
LINE
  8
0
 10
-383.494598
 20
236.154678
 11
-383.494598
 21
233.845276
  0
LINE
  8
0
 10
-383.494568
 20
233.845276
 11
-385.494568
 21
232.690582
  0
LINE
  8
0
 10
-343.494537
 20
207.309372
 11
-341.494537
 21
206.154663
  0
LINE
  8
0
 10
-341.494598
 20
206.154694
 11
-341.494598
 21
203.845276
  0
LINE
  8
0
 10
-341.494568
 20
203.845230
 11
-343.494568
 21
202.690536
  0
LINE
  8
0
 10
-343.494568
 20
202.690567
 11
-345.494537
 21
203.845261
  0
LINE
  8
0
 10
-345.494598
 20
203.845291
 11
-345.494598
 21
206.154694
  0
LINE
  8
0
 10
-345.494598
 20
206.154678
 11
-343.494598
 21
207.309372
  0
LINE
  8
0
 10
-343.494568
 20
232.690567
 11
-341.494568
 21
233.845261
  0
LINE
  8
0
 10
-341.494598
 20
233.845276
 11
-341.494598
 21
236.154694
  0
LINE
  8
0
 10
-341.494568
 20
236.154648
 11
-343.494598
 21
237.309357
  0
LINE
  8
0
 10
-343.494537
 20
237.309341
 11
-345.494537
 21
236.154633
  0
LINE
  8
0
 10
-345.494598
 20
236.154678
 11
-345.494598
 21
233.845276
  0
LINE
  8
0
 10
-345.494598
 20
233.845276
 11
-343.494568
 21
232.690567
  0
LINE
  8
0
 10
-162.494415
 20
90.999939
 11
-126.494415
 21
90.999939
  0
LINE
  8
0
 10
-164.994415
 20
90.999939
 11
-123.994415
 21
90.999939
  0
LINE
  8
0
 10
-167.194412
 20
96.999939
 11
-121.794418
 21
96.999939
  0
LINE
  8
0
 10
-175.394409
 20
60.999939
 11
-172.194412
 21
60.999939
  0
LINE
  8
0
 10
-175.394409
 20
70.526230
 11
-172.194412
 21
70.526230
  0
LINE
  8
0
 10
-113.594421
 20
88.799942
 11
-113.594421
 21
60.999939
  0
LINE
  8
0
 10
-175.394409
 20
88.799942
 11
-175.394409
 21
60.999939
  0
LINE
  8
0
 10
-172.194412
 20
88.799942
 11
-172.194412
 21
60.999939
  0
LINE
  8
0
 10
-116.794418
 20
88.799942
 11
-116.794418
 21
60.999939
  0
LINE
  8
0
 10
-116.794418
 20
70.526230
 11
-113.594421
 21
70.526230
  0
LINE
  8
0
 10
-116.794418
 20
60.999939
 11
-113.594421
 21
60.999939
  0
LINE
  8
0
 10
-164.994415
 20
94.199936
 11
-123.994415
 21
94.199936
  0
LINE
  8
0
 10
-170.694412
 20
84.499939
 11
-167.494415
 21
84.499939
  0
LINE
  8
0
 10
-121.494415
 20
88.499939
 11
-121.494415
 21
62.999939
  0
LINE
  8
0
 10
-167.494415
 20
88.499939
 11
-167.494415
 21
62.999939
  0
LINE
  8
0
 10
-118.294418
 20
88.499939
 11
-118.294418
 21
62.999939
  0
LINE
  8
0
 10
-170.694412
 20
88.499939
 11
-170.694412
 21
62.999939
  0
LINE
  8
0
 10
-170.694412
 20
62.999939
 11
-165.494415
 21
62.999939
  0
LINE
  8
0
 10
-121.494415
 20
84.499939
 11
-118.294418
 21
84.499939
  0
LINE
  8
0
 10
-167.194412
 20
93.799942
 11
-167.092026
 21
93.799942
  0
LINE
  8
0
 10
-121.896805
 20
93.799942
 11
-121.794418
 21
93.799942
  0
LINE
  8
0
 10
-111.494415
 20
74.999939
 11
-111.494415
 21
64.999939
  0
LINE
  8
0
 10
-177.494415
 20
74.999939
 11
-177.494415
 21
64.999939
  0
LINE
  8
0
 10
-167.494415
 20
79.999939
 11
-165.494415
 21
79.999939
  0
LINE
  8
0
 10
-123.494415
 20
79.999939
 11
-121.494415
 21
79.999939
  0
LINE
  8
0
 10
-177.494415
 20
74.999939
 11
-175.394409
 21
74.999939
  0
LINE
  8
0
 10
-177.494415
 20
64.999939
 11
-175.394409
 21
64.999939
  0
LINE
  8
0
 10
-118.294418
 20
74.999939
 11
-116.794418
 21
74.999939
  0
LINE
  8
0
 10
-118.294418
 20
64.999939
 11
-116.794418
 21
64.999939
  0
LINE
  8
0
 10
-172.194412
 20
74.999939
 11
-170.694412
 21
74.999939
  0
LINE
  8
0
 10
-172.194412
 20
64.999939
 11
-170.694412
 21
64.999939
  0
LINE
  8
0
 10
-113.594421
 20
74.999939
 11
-111.494415
 21
74.999939
  0
LINE
  8
0
 10
-113.594421
 20
64.999939
 11
-111.494415
 21
64.999939
  0
LINE
  8
0
 10
-177.494415
 20
73.999939
 11
-175.394409
 21
73.999939
  0
LINE
  8
0
 10
-177.494415
 20
65.999939
 11
-175.394409
 21
65.999939
  0
LINE
  8
0
 10
-172.194412
 20
73.999939
 11
-170.694412
 21
73.999939
  0
LINE
  8
0
 10
-172.194412
 20
65.999939
 11
-170.694412
 21
65.999939
  0
LINE
  8
0
 10
-113.594421
 20
73.999939
 11
-111.494415
 21
73.999939
  0
LINE
  8
0
 10
-113.594421
 20
65.999939
 11
-111.494415
 21
65.999939
  0
LINE
  8
0
 10
-118.294418
 20
73.999939
 11
-116.794418
 21
73.999939
  0
LINE
  8
0
 10
-118.294418
 20
65.999939
 11
-116.794418
 21
65.999939
  0
LINE
  8
0
 10
-165.494415
 20
79.999939
 11
-165.494415
 21
62.999939
  0
LINE
  8
0
 10
-123.494415
 20
79.999939
 11
-123.494415
 21
62.999939
  0
LINE
  8
0
 10
-123.494415
 20
62.999939
 11
-118.294418
 21
62.999939
  0
LINE
  8
0
 10
131.500000
 20
104.000000
 11
168.500000
 21
104.000000
  0
LINE
  8
0
 10
139.654694
 20
59.000008
 11
146.000000
 21
59.000008
  0
LINE
  8
0
 10
131.500000
 20
104.000000
 11
131.500000
 21
71.124352
  0
LINE
  8
0
 10
168.500000
 20
104.000000
 11
168.500000
 21
71.124367
  0
LINE
  8
0
 10
154.000000
 20
77.999954
 11
154.000000
 21
59.000008
  0
LINE
  8
0
 10
146.000000
 20
77.999954
 11
146.000000
 21
59.000008
  0
LINE
  8
0
 10
154.000000
 20
59.000008
 11
160.345291
 21
59.000008
  0
LINE
  8
0
 10
162.077377
 20
60.000015
 11
168.500015
 21
71.124367
  0
LINE
  8
0
 10
131.500015
 20
71.124367
 11
137.922653
 21
60.000027
  0
LINE
  8
0
 10
146.000000
 20
60.999947
 11
154.000000
 21
60.999947
  0
LINE
  8
0
 10
113.500000
 20
100.500000
 11
130.500000
 21
100.500000
  0
LINE
  8
0
 10
186.500000
 20
100.500000
 11
186.500000
 21
88.499939
  0
LINE
  8
0
 10
113.500000
 20
100.500000
 11
113.500000
 21
88.499916
  0
LINE
  8
0
 10
169.500000
 20
100.500000
 11
186.500000
 21
100.500000
  0
LINE
  8
0
 10
169.500000
 20
100.500000
 11
169.500000
 21
95.999954
  0
LINE
  8
0
 10
130.500000
 20
100.500000
 11
130.500000
 21
95.999954
  0
LINE
  8
0
 10
167.646957
 20
69.646988
 11
186.499939
 21
88.499962
  0
LINE
  8
0
 10
132.353012
 20
69.646988
 11
113.500038
 21
88.499954
  0
LINE
  8
0
  6
CENTER
 10
150.000000
 20
109.000000
 11
150.000000
 21
54.000008
  0
LINE
  8
0
 10
131.500000
 20
269.500031
 11
131.500000
 21
190.500031
  0
LINE
  8
0
 10
168.500000
 20
269.500031
 11
168.500000
 21
190.500031
  0
LINE
  8
0
 10
131.500000
 20
269.500031
 11
168.500000
 21
269.500031
  0
LINE
  8
0
 10
131.500000
 20
190.500031
 11
168.500000
 21
190.500031
  0
LINE
  8
0
 10
146.000122
 20
188.000031
 11
154.000122
 21
188.000031
  0
LINE
  8
0
 10
146.000122
 20
272.000031
 11
154.000122
 21
272.000031
  0
LINE
  8
0
 10
154.000122
 20
272.000031
 11
154.000122
 21
269.500031
  0
LINE
  8
0
 10
146.000122
 20
272.000031
 11
146.000122
 21
269.500031
  0
LINE
  8
0
 10
146.000122
 20
190.500031
 11
146.000122
 21
188.000031
  0
LINE
  8
0
 10
154.000122
 20
190.500031
 11
154.000122
 21
188.000031
  0
LINE
  8
0
 10
113.500000
 20
263.000031
 11
113.500000
 21
197.000031
  0
LINE
  8
0
 10
130.500000
 20
263.000031
 11
130.500000
 21
197.000031
  0
LINE
  8
0
 10
169.500000
 20
263.000031
 11
169.500000
 21
197.000031
  0
LINE
  8
0
 10
186.500000
 20
263.000031
 11
186.500000
 21
197.000031
  0
LINE
  8
0
 10
113.500000
 20
263.000031
 11
131.500000
 21
263.000031
  0
LINE
  8
0
 10
113.500000
 20
197.000031
 11
131.500000
 21
197.000031
  0
LINE
  8
0
 10
168.500000
 20
263.000031
 11
186.500000
 21
263.000031
  0
LINE
  8
0
 10
168.500000
 20
201.500031
 11
169.500000
 21
201.500031
  0
LINE
  8
0
 10
168.500000
 20
258.500031
 11
169.500000
 21
258.500031
  0
LINE
  8
0
 10
130.500000
 20
258.500031
 11
131.500000
 21
258.500031
  0
LINE
  8
0
 10
130.500000
 20
201.500031
 11
131.500000
 21
201.500031
  0
LINE
  8
0
 10
186.500244
 20
197.000031
 11
168.500244
 21
197.000031
  0
LINE
  8
0
  6
CENTER
 10
140.000122
 20
205.000031
 11
140.000122
 21
217.000031
  0
LINE
  8
0
  6
CENTER
 10
177.500122
 20
257.000031
 11
177.500122
 21
241.000031
  0
LINE
  8
0
  6
CENTER
 10
185.500122
 20
249.000046
 11
169.500122
 21
249.000046
  0
LINE
  8
0
  6
CENTER
 10
177.500122
 20
203.000031
 11
177.500122
 21
219.000031
  0
LINE
  8
0
  6
CENTER
 10
185.500122
 20
211.000031
 11
169.500122
 21
211.000031
  0
LINE
  8
0
  6
CENTER
 10
160.000122
 20
205.000031
 11
160.000122
 21
217.000031
  0
LINE
  8
0
  6
CENTER
 10
166.000122
 20
211.000031
 11
154.000122
 21
211.000031
  0
LINE
  8
0
  6
CENTER
 10
166.000122
 20
249.000046
 11
154.000122
 21
249.000046
  0
LINE
  8
0
  6
CENTER
 10
160.000122
 20
255.000046
 11
160.000122
 21
243.000031
  0
LINE
  8
0
  6
CENTER
 10
140.000122
 20
255.000046
 11
140.000122
 21
243.000031
  0
LINE
  8
0
  6
CENTER
 10
134.000122
 20
249.000046
 11
146.000122
 21
249.000046
  0
LINE
  8
0
  6
CENTER
 10
150.000122
 20
277.000031
 11
150.000122
 21
183.000031
  0
LINE
  8
0
  6
CENTER
 10
134.000122
 20
211.000031
 11
146.000122
 21
211.000031
  0
LINE
  8
0
  6
CENTER
 10
122.500122
 20
203.000031
 11
122.500122
 21
219.000031
  0
LINE
  8
0
  6
CENTER
 10
114.500122
 20
211.000031
 11
130.500122
 21
211.000031
  0
LINE
  8
0
  6
CENTER
 10
122.500122
 20
257.000031
 11
122.500122
 21
241.000031
  0
LINE
  8
0
  6
CENTER
 10
114.500122
 20
249.000046
 11
130.500122
 21
249.000046
  0
LINE
  8
0
 10
120.000137
 20
209.556686
 11
122.500137
 21
208.113312
  0
LINE
  8
0
 10
122.500130
 20
208.113297
 11
125.000130
 21
209.556671
  0
LINE
  8
0
 10
125.000122
 20
209.556656
 11
125.000122
 21
212.443405
  0
LINE
  8
0
 10
125.000145
 20
212.443436
 11
122.500145
 21
213.886810
  0
LINE
  8
0
 10
122.500137
 20
213.886810
 11
120.000145
 21
212.443436
  0
LINE
  8
0
 10
120.000122
 20
212.443405
 11
120.000122
 21
209.556656
  0
LINE
  8
0
 10
122.500099
 20
246.113235
 11
120.000092
 21
247.556610
  0
LINE
  8
0
 10
120.000122
 20
247.556656
 11
120.000122
 21
250.443405
  0
LINE
  8
0
 10
120.000099
 20
250.443375
 11
122.500099
 21
251.886749
  0
LINE
  8
0
 10
122.500107
 20
251.886749
 11
125.000107
 21
250.443375
  0
LINE
  8
0
 10
125.000122
 20
250.443405
 11
125.000122
 21
247.556656
  0
LINE
  8
0
 10
125.000114
 20
247.556641
 11
122.500114
 21
246.113251
  0
LINE
  8
0
 10
177.500107
 20
213.886749
 11
180.000107
 21
212.443375
  0
LINE
  8
0
 10
180.000122
 20
212.443405
 11
180.000122
 21
209.556656
  0
LINE
  8
0
 10
180.000122
 20
209.556656
 11
177.500137
 21
208.113297
  0
LINE
  8
0
 10
177.500107
 20
208.113266
 11
175.000107
 21
209.556641
  0
LINE
  8
0
 10
175.000122
 20
209.556656
 11
175.000122
 21
212.443405
  0
LINE
  8
0
 10
175.000122
 20
212.443390
 11
177.500122
 21
213.886765
  0
LINE
  8
0
 10
177.500122
 20
246.113297
 11
180.000122
 21
247.556671
  0
LINE
  8
0
 10
180.000122
 20
247.556656
 11
180.000122
 21
250.443405
  0
LINE
  8
0
 10
180.000122
 20
250.443405
 11
177.500122
 21
251.886780
  0
LINE
  8
0
 10
177.500122
 20
251.886765
 11
175.000122
 21
250.443390
  0
LINE
  8
0
 10
175.000122
 20
250.443405
 11
175.000122
 21
247.556656
  0
LINE
  8
0
 10
175.000122
 20
247.556671
 11
177.500122
 21
246.113297
  0
LINE
  8
0
 10
350.000183
 20
96.000031
 11
402.000183
 21
96.000031
  0
LINE
  8
0
 10
343.000183
 20
61.000031
 11
350.000183
 21
61.000031
  0
LINE
  8
0
 10
346.000183
 20
104.000023
 11
406.000183
 21
104.000023
  0
LINE
  8
0
 10
336.500183
 20
59.000031
 11
341.000183
 21
59.000031
  0
LINE
  8
0
 10
350.500183
 20
100.500023
 11
401.500183
 21
100.500023
  0
LINE
  8
0
 10
409.000183
 20
93.000031
 11
409.000183
 21
61.000031
  0
LINE
  8
0
 10
343.000183
 20
93.000031
 11
343.000183
 21
61.000031
  0
LINE
  8
0
 10
411.000183
 20
59.000031
 11
415.500183
 21
59.000031
  0
LINE
  8
0
 10
347.500183
 20
93.000031
 11
347.500183
 21
61.000031
  0
LINE
  8
0
 10
404.500183
 20
93.000031
 11
404.500183
 21
61.000031
  0
LINE
  8
0
 10
334.000183
 20
76.000031
 11
334.000183
 21
64.000031
  0
LINE
  8
0
 10
418.000183
 20
76.000031
 11
418.000183
 21
64.000031
  0
LINE
  8
0
 10
336.500183
 20
94.500031
 11
336.500183
 21
59.000031
  0
LINE
  8
0
 10
415.500183
 20
94.500031
 11
415.500183
 21
59.000031
  0
LINE
  8
0
 10
346.000183
 20
99.500023
 11
346.758545
 21
99.500023
  0
LINE
  8
0
 10
341.000183
 20
94.500031
 11
341.000183
 21
59.000031
  0
LINE
  8
0
 10
411.000183
 20
94.500031
 11
411.000183
 21
59.000031
  0
LINE
  8
0
 10
405.241821
 20
99.500023
 11
406.000183
 21
99.500023
  0
LINE
  8
0
 10
334.000183
 20
64.000031
 11
336.500183
 21
64.000031
  0
LINE
  8
0
 10
334.000183
 20
76.000031
 11
336.500183
 21
76.000031
  0
LINE
  8
0
 10
341.000183
 20
76.000031
 11
343.000183
 21
76.000031
  0
LINE
  8
0
 10
341.000183
 20
64.000031
 11
343.000183
 21
64.000031
  0
LINE
  8
0
 10
409.000183
 20
76.000031
 11
411.000183
 21
76.000031
  0
LINE
  8
0
 10
409.000183
 20
64.000031
 11
411.000183
 21
64.000031
  0
LINE
  8
0
 10
415.500183
 20
76.000031
 11
418.000183
 21
76.000031
  0
LINE
  8
0
 10
415.500183
 20
64.000031
 11
418.000183
 21
64.000031
  0
LINE
  8
0
 10
347.500183
 20
82.500031
 11
350.000183
 21
82.500031
  0
LINE
  8
0
 10
402.000183
 20
82.500031
 11
404.500183
 21
82.500031
  0
LINE
  8
0
 10
334.000183
 20
74.472115
 11
336.500183
 21
74.472115
  0
LINE
  8
0
 10
334.000183
 20
65.527840
 11
336.500183
 21
65.527840
  0
LINE
  8
0
 10
409.000183
 20
74.472115
 11
411.000183
 21
74.472115
  0
LINE
  8
0
 10
409.000183
 20
65.527840
 11
411.000183
 21
65.527840
  0
LINE
  8
0
 10
341.000183
 20
74.472115
 11
343.000183
 21
74.472115
  0
LINE
  8
0
 10
341.000183
 20
65.527840
 11
343.000183
 21
65.527840
  0
LINE
  8
0
 10
415.500183
 20
74.472115
 11
418.000183
 21
74.472115
  0
LINE
  8
0
 10
415.500183
 20
65.527840
 11
418.000183
 21
65.527840
  0
LINE
  8
0
 10
343.000183
 20
88.499962
 11
347.500183
 21
88.499962
  0
LINE
  8
0
 10
336.500183
 20
71.124390
 11
341.000183
 21
71.124390
  0
LINE
  8
0
 10
404.500183
 20
88.499962
 11
409.000183
 21
88.499962
  0
LINE
  8
0
 10
411.000183
 20
71.124390
 11
415.500183
 21
71.124390
  0
LINE
  8
0
 10
350.000183
 20
82.500031
 11
350.000183
 21
61.000031
  0
LINE
  8
0
 10
402.000183
 20
82.500031
 11
402.000183
 21
61.000031
  0
LINE
  8
0
 10
402.000183
 20
61.000031
 11
409.000183
 21
61.000031
  0
LINE
  8
0
 10
-149.994263
 20
-243.499969
 11
-149.994263
 21
-248.499969
  0
LINE
  8
0
 10
-215.994202
 20
-260.499939
 11
-193.958328
 21
-282.535828
  0
LINE
  8
0
 10
-132.994278
 20
-260.500000
 11
-155.030167
 21
-282.535889
  0
LINE
  8
0
 10
-198.994263
 20
-243.499969
 11
-198.994263
 21
-248.499969
  0
LINE
  8
0
 10
-197.494263
 20
-239.999969
 11
-151.494263
 21
-239.999969
  0
LINE
  8
0
 10
-187.339554
 20
-291.999969
 11
-179.494263
 21
-291.999969
  0
LINE
  8
0
 10
-169.494263
 20
-267.999969
 11
-169.494263
 21
-291.999969
  0
LINE
  8
0
 10
-179.494263
 20
-267.999969
 11
-179.494263
 21
-291.999969
  0
LINE
  8
0
 10
-169.494263
 20
-291.999969
 11
-161.648956
 21
-291.999969
  0
LINE
  8
0
 10
-151.494263
 20
-239.999969
 11
-151.494263
 21
-276.411499
  0
LINE
  8
0
 10
-197.494263
 20
-239.999969
 11
-197.494263
 21
-276.411499
  0
LINE
  8
0
 10
-215.994263
 20
-243.499969
 11
-198.994263
 21
-243.499969
  0
LINE
  8
0
 10
-159.916916
 20
-290.999939
 11
-151.494263
 21
-276.411469
  0
LINE
  8
0
 10
-189.071442
 20
-290.999878
 11
-197.494095
 21
-276.411438
  0
LINE
  8
0
 10
-179.494263
 20
-290.999969
 11
-169.494263
 21
-290.999969
  0
LINE
  8
0
 10
-149.994263
 20
-243.499969
 11
-132.994263
 21
-243.499969
  0
LINE
  8
0
 10
-132.994263
 20
-243.499969
 11
-132.994263
 21
-260.499969
  0
LINE
  8
0
 10
-215.994263
 20
-243.499969
 11
-215.994263
 21
-260.499969
  0
LINE
  8
0
  6
CENTER
 10
-174.494263
 20
-234.999969
 11
-174.494263
 21
-296.999969
  0
LINE
  8
0
  6
CENTER
 10
-206.994476
 20
-77.000076
 11
-206.994476
 21
-93.000076
  0
LINE
  8
0
 10
-197.494446
 20
-64.500076
 11
-197.494446
 21
-155.500076
  0
LINE
  8
0
 10
-151.494446
 20
-64.500076
 11
-151.494446
 21
-155.500076
  0
LINE
  8
0
 10
-197.494446
 20
-155.500076
 11
-151.494446
 21
-155.500076
  0
LINE
  8
0
 10
-197.494446
 20
-64.500076
 11
-151.494446
 21
-64.500076
  0
LINE
  8
0
 10
-179.494476
 20
-158.000076
 11
-169.494476
 21
-158.000076
  0
LINE
  8
0
 10
-179.494476
 20
-62.000076
 11
-169.494476
 21
-62.000076
  0
LINE
  8
0
 10
-169.494476
 20
-62.000076
 11
-169.494476
 21
-64.500076
  0
LINE
  8
0
 10
-179.494476
 20
-62.000076
 11
-179.494476
 21
-64.500076
  0
LINE
  8
0
 10
-179.494476
 20
-155.500076
 11
-179.494476
 21
-158.000076
  0
LINE
  8
0
 10
-169.494476
 20
-155.500076
 11
-169.494476
 21
-158.000076
  0
LINE
  8
0
 10
-215.994446
 20
-71.000076
 11
-215.994446
 21
-149.000076
  0
LINE
  8
0
 10
-198.994446
 20
-71.000076
 11
-198.994446
 21
-149.000076
  0
LINE
  8
0
 10
-149.994446
 20
-71.000076
 11
-149.994446
 21
-149.000076
  0
LINE
  8
0
 10
-132.994446
 20
-71.000076
 11
-132.994446
 21
-149.000076
  0
LINE
  8
0
 10
-215.994446
 20
-149.000076
 11
-197.494446
 21
-149.000076
  0
LINE
  8
0
 10
-215.994446
 20
-71.000076
 11
-197.494446
 21
-71.000076
  0
LINE
  8
0
 10
-198.994446
 20
-75.500076
 11
-197.494446
 21
-75.500076
  0
LINE
  8
0
 10
-198.994446
 20
-144.500076
 11
-197.494446
 21
-144.500076
  0
LINE
  8
0
  6
CENTER
 10
-206.994476
 20
-143.000061
 11
-206.994476
 21
-127.000061
  0
LINE
  8
0
  6
CENTER
 10
-214.994476
 20
-135.000061
 11
-198.994476
 21
-135.000061
  0
LINE
  8
0
 10
-151.494446
 20
-75.500076
 11
-149.994446
 21
-75.500076
  0
LINE
  8
0
 10
-151.494446
 20
-144.500076
 11
-149.994446
 21
-144.500076
  0
LINE
  8
0
 10
-151.494446
 20
-149.000076
 11
-132.994446
 21
-149.000076
  0
LINE
  8
0
 10
-151.494446
 20
-71.000076
 11
-132.994446
 21
-71.000076
  0
LINE
  8
0
  6
CENTER
 10
-174.494476
 20
-57.000076
 11
-174.494476
 21
-163.000076
  0
LINE
  8
0
  6
CENTER
 10
-214.994476
 20
-85.000076
 11
-198.994476
 21
-85.000076
  0
LINE
  8
0
  6
CENTER
 10
-195.494476
 20
-85.000076
 11
-183.494476
 21
-85.000076
  0
LINE
  8
0
  6
CENTER
 10
-189.494476
 20
-79.000076
 11
-189.494476
 21
-91.000076
  0
LINE
  8
0
  6
CENTER
 10
-189.494476
 20
-141.000061
 11
-189.494476
 21
-129.000061
  0
LINE
  8
0
  6
CENTER
 10
-195.494476
 20
-135.000061
 11
-183.494476
 21
-135.000061
  0
LINE
  8
0
  6
CENTER
 10
-159.494476
 20
-141.000061
 11
-159.494476
 21
-129.000061
  0
LINE
  8
0
  6
CENTER
 10
-153.494476
 20
-135.000061
 11
-165.494476
 21
-135.000061
  0
LINE
  8
0
  6
CENTER
 10
-153.494476
 20
-85.000076
 11
-165.494476
 21
-85.000076
  0
LINE
  8
0
  6
CENTER
 10
-159.494476
 20
-79.000076
 11
-159.494476
 21
-91.000076
  0
LINE
  8
0
  6
CENTER
 10
-141.994476
 20
-77.000076
 11
-141.994476
 21
-93.000076
  0
LINE
  8
0
  6
CENTER
 10
-133.994476
 20
-85.000076
 11
-149.994476
 21
-85.000076
  0
LINE
  8
0
  6
CENTER
 10
-141.994476
 20
-143.000061
 11
-141.994476
 21
-127.000061
  0
LINE
  8
0
  6
CENTER
 10
-133.994476
 20
-135.000061
 11
-149.994476
 21
-135.000061
  0
LINE
  8
0
 10
-209.494507
 20
-136.443436
 11
-206.994492
 21
-137.886810
  0
LINE
  8
0
 10
-206.994492
 20
-137.886826
 11
-204.494492
 21
-136.443451
  0
LINE
  8
0
 10
-204.494476
 20
-136.443436
 11
-204.494476
 21
-133.556686
  0
LINE
  8
0
 10
-204.494492
 20
-133.556686
 11
-206.994492
 21
-132.113312
  0
LINE
  8
0
 10
-206.994492
 20
-132.113327
 11
-209.494492
 21
-133.556702
  0
LINE
  8
0
 10
-209.494476
 20
-133.556686
 11
-209.494476
 21
-136.443436
  0
LINE
  8
0
 10
-209.494476
 20
-86.443466
 11
-209.494476
 21
-83.556717
  0
LINE
  8
0
 10
-206.994476
 20
-87.886856
 11
-209.494492
 21
-86.443474
  0
LINE
  8
0
 10
-204.494476
 20
-86.443466
 11
-206.994476
 21
-87.886841
  0
LINE
  8
0
 10
-204.494476
 20
-83.556717
 11
-204.494476
 21
-86.443466
  0
LINE
  8
0
 10
-206.994507
 20
-82.113350
 11
-204.494492
 21
-83.556732
  0
LINE
  8
0
 10
-209.494492
 20
-83.556725
 11
-206.994476
 21
-82.113335
  0
LINE
  8
0
 10
-139.494476
 20
-133.556686
 11
-139.494476
 21
-136.443436
  0
LINE
  8
0
 10
-141.994492
 20
-132.113327
 11
-139.494492
 21
-133.556702
  0
LINE
  8
0
 10
-144.494476
 20
-133.556686
 11
-141.994476
 21
-132.113312
  0
LINE
  8
0
 10
-144.494476
 20
-136.443436
 11
-144.494476
 21
-133.556686
  0
LINE
  8
0
 10
-141.994492
 20
-137.886841
 11
-144.494492
 21
-136.443466
  0
LINE
  8
0
 10
-139.494476
 20
-136.443436
 11
-141.994476
 21
-137.886826
  0
LINE
  8
0
 10
-139.494476
 20
-86.443466
 11
-139.494476
 21
-83.556717
  0
LINE
  8
0
 10
-141.994492
 20
-87.886848
 11
-139.494476
 21
-86.443466
  0
LINE
  8
0
 10
-144.494492
 20
-86.443466
 11
-141.994492
 21
-87.886848
  0
LINE
  8
0
 10
-144.494476
 20
-83.556717
 11
-144.494476
 21
-86.443466
  0
LINE
  8
0
 10
-141.994446
 20
-82.113327
 11
-144.494461
 21
-83.556709
  0
LINE
  8
0
 10
-139.494476
 20
-83.556709
 11
-141.994476
 21
-82.113327
  0
LINE
  8
0
 10
77.505722
 20
-248.000000
 11
141.505707
 21
-248.000000
  0
LINE
  8
0
 10
70.505722
 20
-291.000000
 11
77.505722
 21
-291.000000
  0
LINE
  8
0
 10
73.505722
 20
-240.000000
 11
145.505722
 21
-240.000000
  0
LINE
  8
0
 10
64.005722
 20
-292.000000
 11
68.505722
 21
-292.000000
  0
LINE
  8
0
 10
148.505722
 20
-251.000000
 11
148.505722
 21
-291.000000
  0
LINE
  8
0
 10
70.505722
 20
-251.000000
 11
70.505722
 21
-291.000000
  0
LINE
  8
0
 10
157.505722
 20
-272.000000
 11
157.505722
 21
-288.000000
  0
LINE
  8
0
 10
61.505722
 20
-272.000000
 11
61.505722
 21
-288.000000
  0
LINE
  8
0
 10
78.005722
 20
-243.500000
 11
141.005722
 21
-243.500000
  0
LINE
  8
0
 10
75.005722
 20
-251.000000
 11
75.005722
 21
-291.000000
  0
LINE
  8
0
 10
144.005722
 20
-251.000000
 11
144.005722
 21
-291.000000
  0
LINE
  8
0
 10
150.505722
 20
-292.000000
 11
155.005722
 21
-292.000000
  0
LINE
  8
0
 10
75.005722
 20
-265.000000
 11
77.505722
 21
-265.000000
  0
LINE
  8
0
 10
141.505707
 20
-265.000000
 11
144.005722
 21
-265.000000
  0
LINE
  8
0
 10
64.005722
 20
-249.500000
 11
64.005722
 21
-292.000000
  0
LINE
  8
0
 10
155.005722
 20
-249.500000
 11
155.005722
 21
-292.000000
  0
LINE
  8
0
 10
68.505722
 20
-249.500000
 11
68.505722
 21
-292.000000
  0
LINE
  8
0
 10
150.505722
 20
-249.500000
 11
150.505722
 21
-292.000000
  0
LINE
  8
0
 10
73.505722
 20
-244.500000
 11
74.264069
 21
-244.500000
  0
LINE
  8
0
 10
144.747375
 20
-244.500000
 11
145.505722
 21
-244.500000
  0
LINE
  8
0
 10
61.505722
 20
-272.000000
 11
64.005722
 21
-272.000000
  0
LINE
  8
0
 10
61.505722
 20
-288.000000
 11
64.005722
 21
-288.000000
  0
LINE
  8
0
 10
148.505722
 20
-272.000000
 11
150.505722
 21
-272.000000
  0
LINE
  8
0
 10
148.505722
 20
-288.000000
 11
150.505722
 21
-288.000000
  0
LINE
  8
0
 10
68.505722
 20
-272.000000
 11
70.505722
 21
-272.000000
  0
LINE
  8
0
 10
68.505722
 20
-288.000000
 11
70.505722
 21
-288.000000
  0
LINE
  8
0
 10
155.005722
 20
-272.000000
 11
157.505722
 21
-272.000000
  0
LINE
  8
0
 10
155.005722
 20
-288.000000
 11
157.505722
 21
-288.000000
  0
LINE
  8
0
 10
61.505722
 20
-273.755005
 11
64.005722
 21
-273.755005
  0
LINE
  8
0
 10
61.505722
 20
-286.244995
 11
64.005722
 21
-286.244995
  0
LINE
  8
0
 10
148.505722
 20
-273.755005
 11
150.505722
 21
-273.755005
  0
LINE
  8
0
 10
148.505722
 20
-286.244995
 11
150.505722
 21
-286.244995
  0
LINE
  8
0
 10
68.505722
 20
-273.755005
 11
70.505722
 21
-273.755005
  0
LINE
  8
0
 10
68.505722
 20
-286.244995
 11
70.505722
 21
-286.244995
  0
LINE
  8
0
 10
155.005722
 20
-273.755005
 11
157.505722
 21
-273.755005
  0
LINE
  8
0
 10
155.005722
 20
-286.244995
 11
157.505722
 21
-286.244995
  0
LINE
  8
0
 10
70.505722
 20
-260.500000
 11
75.005722
 21
-260.500000
  0
LINE
  8
0
 10
64.005722
 20
-276.411530
 11
68.505722
 21
-276.411530
  0
LINE
  8
0
 10
144.005722
 20
-260.500000
 11
148.505722
 21
-260.500000
  0
LINE
  8
0
 10
150.505722
 20
-276.411530
 11
155.005722
 21
-276.411530
  0
LINE
  8
0
 10
141.505707
 20
-291.000000
 11
148.505722
 21
-291.000000
  0
LINE
  8
0
 10
141.505707
 20
-265.000000
 11
141.505707
 21
-291.000000
  0
LINE
  8
0
 10
77.505722
 20
-265.000000
 11
77.505722
 21
-291.000000
  0
ARC
  8
0
 62
     5
 10
386.130402
 20
-332.404785
 40
3.128082
 50
0.000000
 51
90.000000
  0
ARC
  8
0
 62
     5
 10
411.937195
 20
-349.218353
 40
3.128082
 50
270.000000
 51
0.000000
  0
ARC
  8
0
 62
     5
 10
410.373047
 20
-333.968781
 40
4.692139
 50
0.000000
 51
90.000000
  0
ARC
  8
0
 62
     5
 10
438.916931
 20
-332.404785
 40
3.128082
 50
0.000000
 51
90.000000
  0
ARC
  8
0
 62
     5
 10
438.916931
 20
-334.903870
 40
3.128100
 50
294.999969
 51
0.000000
  0
ARC
  8
0
 62
     5
 10
463.159668
 20
-329.276672
 40
4.692149
 50
291.688202
 51
0.000000
  0
ARC
  8
0
 62
     5
 10
461.595520
 20
-328.215485
 40
1.564059
 50
291.688049
 51
0.000000
  0
ARC
  8
0
  6
PHANTOM
 10
-144.494446
 20
69.999954
 40
21.000004
 50
199.471191
 51
340.528778
  0
ARC
  8
0
  6
PHANTOM
 10
-275.614807
 20
226.599945
 40
19.999987
 50
160.731247
 51
199.268738
  0
ARC
  8
0
  6
PHANTOM
 10
-313.374084
 20
213.399963
 40
19.999987
 50
340.731232
 51
19.268761
  0
ARC
  8
0
  6
PHANTOM
 10
-415.614807
 20
213.399963
 40
19.999992
 50
160.731201
 51
199.268692
  0
ARC
  8
0
  6
PHANTOM
 10
-453.374084
 20
226.599945
 40
19.999987
 50
340.731232
 51
19.268690
  0
ARC
  8
0
  6
PHANTOM
 10
-275.614807
 20
76.599953
 40
19.999987
 50
160.731247
 51
199.268707
  0
ARC
  8
0
  6
PHANTOM
 10
-313.374084
 20
63.399956
 40
19.999990
 50
340.731232
 51
19.268782
  0
ARC
  8
0
  6
PHANTOM
 10
-415.614807
 20
63.399956
 40
19.999992
 50
160.731201
 51
199.268707
  0
ARC
  8
0
  6
PHANTOM
 10
-453.374084
 20
76.599953
 40
19.999990
 50
340.731232
 51
19.268711
  0
CIRCLE
  8
0
  6
PHANTOM
 10
-144.494446
 20
69.999954
 40
13.200000
  0
ARC
  8
0
  6
PHANTOM
 10
376.000122
 20
70.000008
 40
26.000013
 50
200.252213
 51
339.747742
  0
ARC
  8
0
  6
PHANTOM
 10
98.800110
 20
78.400009
 40
30.000002
 50
163.739807
 51
196.260178
  0
ARC
  8
0
  6
PHANTOM
 10
41.200134
 20
61.600014
 40
30.000004
 50
343.739807
 51
16.260206
  0
ARC
  8
0
  6
PHANTOM
 10
258.800110
 20
78.400009
 40
30.000002
 50
163.739807
 51
196.260178
  0
ARC
  8
0
  6
PHANTOM
 10
201.200119
 20
61.600014
 40
30.000004
 50
343.739807
 51
16.260206
  0
ARC
  8
0
  6
PHANTOM
 10
41.200134
 20
221.600006
 40
30.000002
 50
343.739807
 51
16.260191
  0
ARC
  8
0
  6
PHANTOM
 10
258.800110
 20
238.400009
 40
30.000002
 50
163.739807
 51
196.260162
  0
ARC
  8
0
  6
PHANTOM
 10
201.200119
 20
221.600006
 40
30.000002
 50
343.739807
 51
16.260191
  0
ARC
  8
0
  6
PHANTOM
 10
98.800110
 20
238.400009
 40
30.000002
 50
163.739807
 51
196.260162
  0
CIRCLE
  8
0
  6
PHANTOM
 10
376.000122
 20
70.000008
 40
16.799999
  0
ARC
  8
0
  6
PHANTOM
 10
109.505722
 20
-280.000092
 40
32.000008
 50
200.105499
 51
339.894501
  0
ARC
  8
0
  6
PHANTOM
 10
-235.872131
 20
-99.592590
 40
39.999989
 50
164.918823
 51
195.081161
  0
ARC
  8
0
  6
PHANTOM
 10
-313.116760
 20
-120.407593
 40
39.999992
 50
344.918793
 51
15.081193
  0
ARC
  8
0
  6
PHANTOM
 10
-35.872116
 20
-99.592590
 40
40.000004
 50
164.918823
 51
195.081161
  0
ARC
  8
0
  6
PHANTOM
 10
-113.116776
 20
-120.407593
 40
39.999996
 50
344.918823
 51
15.081190
  0
ARC
  8
0
  6
PHANTOM
 10
-235.872131
 20
-269.592590
 40
39.999992
 50
164.918808
 51
195.081146
  0
ARC
  8
0
  6
PHANTOM
 10
-313.116760
 20
-290.407593
 40
39.999992
 50
344.918793
 51
15.081193
  0
ARC
  8
0
  6
PHANTOM
 10
-35.872116
 20
-269.592590
 40
40.000004
 50
164.918808
 51
195.081146
  0
ARC
  8
0
  6
PHANTOM
 10
-113.116776
 20
-290.407593
 40
39.999996
 50
344.918823
 51
15.081190
  0
CIRCLE
  8
0
  6
PHANTOM
 10
109.505722
 20
-280.000092
 40
20.799999
  0
ARC
  8
0
 10
-364.494446
 20
69.999969
 40
5.000000
 50
233.130096
 51
306.869904
  0
ARC
  8
0
 10
-364.494446
 20
69.999969
 40
5.000000
 50
53.130104
 51
126.869896
  0
ARC
  8
0
 10
-350.994446
 20
90.999969
 40
1.999998
 50
300.000031
 51
0.000000
  0
ARC
  8
0
 10
-377.994446
 20
90.999969
 40
2.000000
 50
180.000000
 51
239.999954
  0
ARC
  8
0
 10
-338.994446
 20
85.742615
 40
2.999992
 50
314.999786
 51
0.000000
  0
ARC
  8
0
 10
-389.994446
 20
85.742584
 40
3.000000
 50
180.000000
 51
225.000214
  0
ARC
  8
0
 10
-375.994446
 20
71.330101
 40
3.000000
 50
180.000000
 51
209.999924
  0
ARC
  8
0
 10
-352.994446
 20
71.330086
 40
3.000006
 50
330.000061
 51
0.000000
  0
ARC
  8
0
 10
-357.226501
 20
63.999969
 40
3.000000
 50
270.000000
 51
330.000000
  0
ARC
  8
0
 10
-371.762390
 20
63.999969
 40
3.000004
 50
209.999863
 51
270.000000
  0
ARC
  8
0
 10
-364.494446
 20
69.999969
 40
10.000001
 50
79.011810
 51
100.988190
  0
ARC
  8
0
 10
-364.494446
 20
77.499969
 40
3.000000
 50
0.000000
 51
180.000000
  0
CIRCLE
  8
0
 10
-343.494598
 20
234.999985
 40
4.650000
  0
CIRCLE
  8
0
 10
-343.494598
 20
204.999985
 40
4.650000
  0
CIRCLE
  8
0
 10
-385.494598
 20
234.999985
 40
4.650000
  0
CIRCLE
  8
0
 10
-385.494598
 20
204.999985
 40
4.650000
  0
CIRCLE
  8
0
 10
-355.994598
 20
234.999985
 40
2.750000
  0
CIRCLE
  8
0
 10
-355.994598
 20
204.999985
 40
2.750000
  0
CIRCLE
  8
0
 10
-372.994598
 20
234.999985
 40
2.750000
  0
CIRCLE
  8
0
 10
-372.994598
 20
204.999985
 40
2.750000
  0
ARC
  8
0
 10
-164.994415
 20
88.499939
 40
5.699997
 50
90.000000
 51
180.000000
  0
ARC
  8
0
 10
-123.994415
 20
88.499939
 40
5.699997
 50
0.000000
 51
90.000000
  0
ARC
  8
0
 10
-123.994415
 20
88.499939
 40
2.500000
 50
0.000000
 51
90.000000
  0
ARC
  8
0
 10
-164.994415
 20
88.499939
 40
2.500000
 50
90.000000
 51
180.000000
  0
ARC
  8
0
 10
-167.194412
 20
88.799942
 40
8.199997
 50
90.000000
 51
179.999954
  0
ARC
  8
0
 10
-121.794418
 20
88.799942
 40
8.199997
 50
0.000000
 51
90.000000
  0
ARC
  8
0
 10
-121.794418
 20
88.799942
 40
5.000000
 50
0.000000
 51
90.000000
  0
ARC
  8
0
 10
-167.194412
 20
88.799942
 40
5.000000
 50
90.000000
 51
180.000000
  0
ARC
  8
0
 10
132.500000
 20
95.999954
 40
2.000000
 50
180.000000
 51
239.999954
  0
ARC
  8
0
 10
167.500000
 20
95.999954
 40
1.999998
 50
300.000031
 51
0.000000
  0
ARC
  8
0
 10
150.000000
 20
69.999954
 40
6.000001
 50
228.189697
 51
311.810303
  0
ARC
  8
0
 10
150.000000
 20
69.999954
 40
6.000001
 50
48.189693
 51
131.810303
  0
ARC
  8
0
 10
139.654694
 20
61.000008
 40
2.000002
 50
209.999832
 51
270.000000
  0
ARC
  8
0
 10
160.345291
 20
61.000008
 40
2.000000
 50
270.000000
 51
330.000153
  0
ARC
  8
0
 10
150.000000
 20
77.999954
 40
4.000000
 50
0.000000
 51
180.000000
  0
CIRCLE
  8
0
 10
177.500122
 20
249.000046
 40
5.650000
  0
CIRCLE
  8
0
 10
177.500122
 20
211.000031
 40
5.650000
  0
CIRCLE
  8
0
 10
122.500122
 20
249.000046
 40
5.650000
  0
CIRCLE
  8
0
 10
122.500122
 20
211.000031
 40
5.650000
  0
CIRCLE
  8
0
 10
160.000122
 20
211.000031
 40
3.300000
  0
CIRCLE
  8
0
 10
140.000122
 20
211.000031
 40
3.300000
  0
CIRCLE
  8
0
 10
160.000122
 20
249.000046
 40
3.300000
  0
CIRCLE
  8
0
 10
140.000122
 20
249.000046
 40
3.300000
  0
ARC
  8
0
 10
346.000183
 20
94.500031
 40
5.000000
 50
90.000000
 51
180.000000
  0
ARC
  8
0
 10
406.000183
 20
94.500031
 40
5.000000
 50
0.000000
 51
90.000000
  0
ARC
  8
0
 10
406.000183
 20
94.500031
 40
9.500000
 50
0.000000
 51
90.000000
  0
ARC
  8
0
 10
346.000183
 20
94.500031
 40
9.500000
 50
90.000000
 51
179.999954
  0
ARC
  8
0
 10
401.500183
 20
93.000031
 40
3.000000
 50
0.000000
 51
80.405930
  0
ARC
  8
0
 10
350.500183
 20
93.000031
 40
2.999999
 50
99.594070
 51
180.000000
  0
ARC
  8
0
 10
350.500183
 20
93.000031
 40
7.500000
 50
90.000000
 51
179.999939
  0
ARC
  8
0
 10
401.500183
 20
93.000031
 40
7.500000
 50
0.000000
 51
90.000000
  0
ARC
  8
0
 10
-151.994263
 20
-248.499969
 40
2.000001
 50
284.477509
 51
0.000000
  0
ARC
  8
0
 10
-196.994263
 20
-248.499969
 40
2.000000
 50
180.000000
 51
255.522491
  0
ARC
  8
0
 10
-187.339554
 20
-289.999969
 40
2.000004
 50
209.999924
 51
270.000000
  0
ARC
  8
0
 10
-161.648956
 20
-289.999969
 40
2.000000
 50
270.000000
 51
330.000061
  0
ARC
  8
0
 10
-174.494263
 20
-279.999969
 40
15.000010
 50
72.853806
 51
107.146194
  0
ARC
  8
0
 10
-174.494263
 20
-279.999969
 40
7.999998
 50
231.317795
 51
308.682190
  0
ARC
  8
0
 10
-174.494263
 20
-279.999969
 40
7.999998
 50
51.317799
 51
128.682205
  0
ARC
  8
0
 10
-174.494263
 20
-267.999969
 40
5.000000
 50
0.000000
 51
180.000000
  0
CIRCLE
  8
0
 10
-141.994476
 20
-85.000076
 40
5.650000
  0
CIRCLE
  8
0
 10
-141.994476
 20
-135.000061
 40
5.650000
  0
CIRCLE
  8
0
 10
-189.494476
 20
-135.000061
 40
3.300000
  0
CIRCLE
  8
0
 10
-159.494476
 20
-85.000076
 40
3.300000
  0
CIRCLE
  8
0
 10
-189.494476
 20
-85.000076
 40
3.300000
  0
CIRCLE
  8
0
 10
-206.994476
 20
-85.000076
 40
5.650000
  0
CIRCLE
  8
0
 10
-206.994476
 20
-135.000061
 40
5.650000
  0
CIRCLE
  8
0
 10
-159.494476
 20
-135.000061
 40
3.300000
  0
ARC
  8
0
 10
141.005722
 20
-251.000000
 40
7.500000
 50
0.000000
 51
90.000000
  0
ARC
  8
0
 10
73.505722
 20
-249.500000
 40
5.000000
 50
90.000000
 51
180.000000
  0
ARC
  8
0
 10
145.505722
 20
-249.500000
 40
5.000000
 50
0.000000
 51
90.000000
  0
ARC
  8
0
 10
145.505722
 20
-249.500000
 40
9.500000
 50
0.000000
 51
90.000000
  0
ARC
  8
0
 10
73.505722
 20
-249.500000
 40
9.500000
 50
90.000000
 51
180.000000
  0
ARC
  8
0
 10
78.005722
 20
-251.000000
 40
2.999999
 50
99.594070
 51
180.000000
  0
ARC
  8
0
 10
141.005722
 20
-251.000000
 40
3.000000
 50
0.000000
 51
80.406212
  0
ARC
  8
0
 10
78.005722
 20
-251.000000
 40
7.500000
 50
90.000000
 51
180.000000
  0
TEXT
  8
0
 10
320.176178
 20
329.975403
 40
12.000000
  1
DATE : SEP ,1991
 50
0.000000
 41
1.052631
 51
0.000000
  7
STANDARD
  0
TEXT
  8
0
 10
-453.244446
 20
328.175323
 40
14.000000
  1
MRC M MOUNT
 50
0.000000
 41
1.052632
 51
0.000000
  7
STANDARD
  0
TEXT
  8
0
 10
-173.244446
 20
317.950592
 40
14.000000
  1
BORE : 25
 50
0.000000
 41
1.052632
 51
0.000000
  7
STANDARD
  0
TEXT
  8
0
 10
21.250002
 20
317.950592
 40
14.000000
  1
BORE : 32
 50
0.000000
 41
1.052632
 51
0.000000
  7
STANDARD
  0
TEXT
  8
0
 10
-483.244446
 20
-41.600048
 40
14.000000
  1
BORE : 40
 50
0.000000
 41
1.052632
 51
0.000000
  7
STANDARD
  0
ENDSEC
  0
EOF
