  0
SECTION
  2
HEADER
  0
ENDSEC
  0
SECTION
  2
TABLES
  0
TABLE
  2
LTYPE
 70
     4
  0
LTYPE
  2
CONTINUOUS
 70
    64
  3
Solid line
 72
    65
 73
     0
 40
0.000000
  0
LTYPE
  2
DASHED
 70
    64
  3
__ __ __ __ __ __ __ __ __ __ __ __ __ __ __
 72
    65
 73
     2
 40
3.500000
 49
2.000000
 49
-1.500000
  0
LTYPE
  2
CENTER
 70
    64
  3
____ _ ____ _ ____ _ ____ _ ____ _ ____ _ ____
 72
    65
 73
     4
 40
17.500000
 49
13.000000
 49
-1.500000
 49
1.500000
 49
-1.500000
  0
LTYPE
  2
PHANTOM
 70
    64
  3
_____ _ _ _____ _ _ _____ _ _ _____ _ _ ____  
 72
    65
 73
     6
 40
15.500000
 49
8.000000
 49
-1.500000
 49
1.500000
 49
-1.500000
 49
1.500000
 49
-1.500000
  0
LTYPE
  2
DASHED1
 70
    64
  3
__ __ __ __ __ __ __ __ __ __ __ __ __ __ __
 72
    65
 73
     2
 40
1.500000
 49
1.000000
 49
-0.500000
  0
LTYPE
  2
DASHED2
 70
    64
  3
__ __ __ __ __ __ __ __ __ __ __ __ __ __ __
 72
    65
 73
     2
 40
3.500000
 49
2.500000
 49
-1.000000
  0
LTYPE
  2
DASHED3
 70
    64
  3
__ __ __ __ __ __ __ __ __ __ __ __ __ __ __
 72
    65
 73
     2
 40
6.000000
 49
4.000000
 49
-2.000000
  0
LTYPE
  2
DASHED4
 70
    64
  3
__ __ __ __ __ __ __ __ __ __ __ __ __ __ __
 72
    65
 73
     2
 40
12.000000
 49
10.000000
 49
-2.000000
  0
LTYPE
  2
DASHED5
 70
    64
  3
__ __ __ __ __ __ __ __ __ __ __ __ __ __ __
 72
    65
 73
     2
 40
17.000000
 49
15.000000
 49
-2.000000
  0
LTYPE
  2
DASHED6
 70
    64
  3
__ __ __ __ __ __ __ __ __ __ __ __ __ __ __
 72
    65
 73
     2
 40
29.000000
 49
27.000000
 49
-2.000000
  0
LTYPE
  2
PHANTOM1
 70
    64
  3
_____ _ _ _____ _ _ _____ _ _ _____ _ _ ____  
 72
    65
 73
     6
 40
31.000000
 49
25.000000
 49
-1.500000
 49
1.000000
 49
-1.000000
 49
1.000000
 49
-1.500000
  0
LTYPE
  2
PHANTOM2
 70
    64
  3
_____ _ _ _____ _ _ _____ _ _ _____ _ _ ____  
 72
    65
 73
     6
 40
36.000000
 49
27.000000
 49
-1.500000
 49
2.500000
 49
-1.000000
 49
2.500000
 49
-1.500000
  0
LTYPE
  2
PHANTOM3
 70
    64
  3
_____ _ _ _____ _ _ _____ _ _ _____ _ _ ____  
 72
    65
 73
     6
 40
78.000000
 49
64.000000
 49
-2.000000
 49
4.000000
 49
-2.000000
 49
4.000000
 49
-2.000000
  0
LTYPE
  2
CENTER1
 70
    64
  3
____ _ ____ _ ____ _ ____ _ ____ _ ____ _ ____
 72
    65
 73
     4
 40
19.000000
 49
14.000000
 49
-1.000000
 49
3.000000
 49
-1.000000
  0
LTYPE
  2
CENTER2
 70
    64
  3
____ _ ____ _ ____ _ ____ _ ____ _ ____ _ ____
 72
    65
 73
     4
 40
28.500000
 49
25.000000
 49
-1.000000
 49
1.500000
 49
-1.000000
  0
LTYPE
  2
CENTER3
 70
    64
  3
____ _ ____ _ ____ _ ____ _ ____ _ ____ _ ____
 72
    65
 73
     4
 40
31.500000
 49
27.000000
 49
-1.000000
 49
2.500000
 49
-1.000000
  0
LTYPE
  2
CENTER4
 70
    64
  3
____ _ ____ _ ____ _ ____ _ ____ _ ____ _ ____
 72
    65
 73
     4
 40
50.000000
 49
45.000000
 49
-1.000000
 49
3.000000
 49
-1.000000
  0
LTYPE
  2
CENTER5
 70
    64
  3
____ _ ____ _ ____ _ ____ _ ____ _ ____ _ ____
 72
    65
 73
     4
 40
100.000000
 49
92.000000
 49
-2.000000
 49
4.000000
 49
-2.000000
  0
LTYPE
  2
SBK1
 70
    64
  3
______ _ _ _ ______ _ _ _ ______ _ _ _ _____  
 72
    65
 73
     8
 40
60.500000
 49
45.000000
 49
-2.000000
 49
2.500000
 49
-2.000000
 49
2.500000
 49
-2.000000
 49
2.500000
 49
-2.000000
  0
LTYPE
  2
SBK2
 70
    64
  3
______ _ _ _ ______ _ _ _ ______ _ _ _ _____  
 72
    65
 73
     8
 40
84.000000
 49
64.000000
 49
-2.000000
 49
4.000000
 49
-2.000000
 49
4.000000
 49
-2.000000
 49
4.000000
 49
-2.000000
  0
LTYPE
  2
STCH
 70
    64
  3
__ __ __ __ __ __ __ __ __ __ __ __ __ __ __
 72
    65
 73
     2
 40
3.000000
 49
1.000000
 49
-2.000000
  0
LTYPE
  2
MTCH
 70
    64
  3
_____ _ _ _____ _ _ _____ _ _ _____ _ _ ____  
 72
    65
 73
     6
 40
80.000000
 49
66.000000
 49
-2.000000
 49
4.000000
 49
-2.000000
 49
4.000000
 49
-2.000000
  0
ENDTAB
  0
TABLE
  2
LAYER
 70
     1
  0
LAYER
  2
0
 70
     0
 62
     7
  6
CONTINUOUS
  0
ENDTAB
  0
TABLE
  2
STYLE
 70
     1
  0
STYLE
  2
STANDARD
 70
     0
 40
0.000000
 41
1.000000
 50
0.000000
 71
     0
 42
0.200000
  3
txt
  4
BIGFONT
  0
ENDTAB
  0
TABLE
  2
VIEW
 70
     0
  0
ENDTAB
  0
ENDSEC
  0
SECTION
  2
BLOCKS
  0
ENDSEC
  0
SECTION
  2
ENTITIES
  0
POINT
  8
0
 10
-270.873566
 20
-39.999996
  0
POINT
  8
0
 10
-100.873535
 20
125.999969
  0
POINT
  8
0
 10
-100.873573
 20
-40.000000
  0
POINT
  8
0
 10
-100.873589
 20
-196.000046
  0
POINT
  8
0
 10
232.873581
 20
-39.999985
  0
POINT
  8
0
 10
95.126427
 20
-40.000000
  0
POINT
  8
0
 10
95.126465
 20
125.999969
  0
POINT
  8
0
 10
270.873596
 20
-39.999985
  0
POINT
  8
0
 10
95.126411
 20
-196.000046
  0
POINT
  8
0
 10
-232.873566
 20
-39.999996
  0
LINE
  8
0
 62
     3
 10
218.329163
 20
-225.956436
 11
370.873566
 21
-225.956436
  0
LINE
  8
0
 62
     3
 10
-218.329163
 20
225.956390
 11
-218.329163
 21
254.558487
  0
LINE
  8
0
 62
     3
 10
-370.873566
 20
225.956390
 11
-218.329163
 21
225.956390
  0
LINE
  8
0
 62
     3
 10
-370.873566
 20
254.558487
 11
370.873566
 21
254.558487
  0
LINE
  8
0
 62
     3
 10
-370.873566
 20
-254.558487
 11
370.873566
 21
-254.558487
  0
LINE
  8
0
 62
     3
 10
370.873566
 20
254.558487
 11
370.873566
 21
-254.558487
  0
LINE
  8
0
 62
     3
 10
-370.873566
 20
-254.558487
 11
-370.873566
 21
254.558487
  0
LINE
  8
0
 62
     3
 10
218.329163
 20
-225.956436
 11
218.329163
 21
-254.558487
  0
LINE
  8
0
 62
     3
 10
218.329163
 20
254.558487
 11
218.329163
 21
225.956390
  0
LINE
  8
0
 62
     3
 10
218.329163
 20
225.956390
 11
370.873566
 21
225.956390
  0
LINE
  8
0
 62
     5
 10
258.381622
 20
-232.833740
 11
258.381622
 21
-236.151566
  0
LINE
  8
0
 62
     5
 10
258.381622
 20
-236.151566
 11
270.823547
 21
-236.151566
  0
LINE
  8
0
 62
     5
 10
258.381622
 20
-249.146469
 11
275.247345
 21
-249.146469
  0
LINE
  8
0
 62
     5
 10
258.381622
 20
-245.828644
 11
270.823547
 21
-245.828644
  0
LINE
  8
0
 62
     5
 10
258.381622
 20
-232.833740
 11
273.035400
 21
-232.833740
  0
LINE
  8
0
 62
     5
 10
270.823547
 20
-236.151566
 11
270.823547
 21
-245.828644
  0
LINE
  8
0
 62
     5
 10
275.247345
 20
-235.045654
 11
275.247345
 21
-249.146469
  0
LINE
  8
0
 62
     5
 10
258.381622
 20
-245.828644
 11
258.381622
 21
-249.146469
  0
LINE
  8
0
 62
     5
 10
293.495392
 20
-236.151566
 11
293.495392
 21
-246.934647
  0
LINE
  8
0
 62
     5
 10
277.735657
 20
-232.833740
 11
277.735657
 21
-236.151566
  0
LINE
  8
0
 62
     5
 10
293.937836
 20
-232.584961
 11
295.513824
 21
-232.584961
  0
LINE
  8
0
 62
     5
 10
293.937836
 20
-230.373016
 11
295.513824
 21
-230.373016
  0
LINE
  8
0
 62
     5
 10
295.513824
 20
-230.373016
 11
295.513824
 21
-232.584961
  0
LINE
  8
0
 62
     5
 10
293.937836
 20
-230.373016
 11
293.937836
 21
-232.584961
  0
LINE
  8
0
 62
     5
 10
293.108276
 20
-230.373016
 11
293.108276
 21
-232.584961
  0
LINE
  8
0
 62
     5
 10
282.766052
 20
-230.373016
 11
286.200897
 21
-230.373016
  0
LINE
  8
0
 62
     5
 10
285.541260
 20
-232.833466
 11
286.200562
 21
-230.372711
  0
LINE
  8
0
 62
     5
 10
282.106689
 20
-232.833710
 11
282.766022
 21
-230.372986
  0
LINE
  8
0
 62
     5
 10
285.541565
 20
-232.833740
 11
290.177551
 21
-232.833740
  0
LINE
  8
0
 62
     5
 10
284.652557
 20
-236.151566
 11
289.071625
 21
-236.151566
  0
LINE
  8
0
 62
     5
 10
286.642853
 20
-249.146469
 11
291.283569
 21
-249.146469
  0
LINE
  8
0
 62
     5
 10
285.753693
 20
-245.828583
 11
286.642731
 21
-249.146347
  0
LINE
  8
0
 62
     5
 10
285.753754
 20
-245.828644
 11
289.071625
 21
-245.828644
  0
LINE
  8
0
 62
     5
 10
281.170746
 20
-249.146637
 11
284.652679
 21
-236.151733
  0
LINE
  8
0
 62
     5
 10
277.735657
 20
-236.151566
 11
281.217682
 21
-236.151566
  0
LINE
  8
0
 62
     5
 10
277.735413
 20
-249.146210
 11
281.217468
 21
-236.151337
  0
LINE
  8
0
 62
     5
 10
277.735657
 20
-249.146469
 11
281.170593
 21
-249.146469
  0
LINE
  8
0
 62
     5
 10
277.735657
 20
-232.833740
 11
282.106689
 21
-232.833740
  0
LINE
  8
0
 62
     5
 10
289.071625
 20
-236.151566
 11
289.071625
 21
-245.828644
  0
LINE
  8
0
 62
     5
 10
291.532288
 20
-230.373016
 11
293.108276
 21
-230.373016
  0
LINE
  8
0
 62
     5
 10
291.532288
 20
-232.584961
 11
293.108276
 21
-232.584961
  0
LINE
  8
0
 62
     5
 10
291.532288
 20
-230.373016
 11
291.532288
 21
-232.584961
  0
LINE
  8
0
 62
     5
 10
301.513550
 20
-230.373016
 11
305.937286
 21
-230.373016
  0
LINE
  8
0
 62
     5
 10
308.342316
 20
-240.195053
 11
311.296204
 21
-238.817642
  0
LINE
  8
0
 62
     5
 10
305.937286
 20
-242.734406
 11
305.937286
 21
-249.146469
  0
LINE
  8
0
 62
     5
 10
301.513550
 20
-243.379044
 11
301.513550
 21
-249.146469
  0
LINE
  8
0
 62
     5
 10
305.937286
 20
-232.833740
 11
310.361115
 21
-232.833740
  0
LINE
  8
0
 62
     5
 10
305.937286
 20
-230.373016
 11
305.937286
 21
-232.833740
  0
LINE
  8
0
 62
     5
 10
301.513550
 20
-230.373016
 11
301.513550
 21
-232.833740
  0
LINE
  8
0
 62
     5
 10
312.572998
 20
-235.045654
 11
312.572998
 21
-236.812775
  0
LINE
  8
0
 62
     5
 10
308.342377
 20
-240.195038
 11
312.573395
 21
-242.168030
  0
LINE
  8
0
 62
     5
 10
305.937256
 20
-242.734329
 11
312.573059
 21
-245.828613
  0
LINE
  8
0
 62
     5
 10
296.260284
 20
-242.167801
 11
296.260284
 21
-245.828644
  0
LINE
  8
0
 62
     5
 10
296.260742
 20
-242.168167
 11
309.162567
 21
-236.151932
  0
LINE
  8
0
 62
     5
 10
296.260254
 20
-245.828598
 11
301.513580
 21
-243.378937
  0
LINE
  8
0
 62
     5
 10
312.572998
 20
-242.167801
 11
312.572998
 21
-245.828644
  0
LINE
  8
0
 62
     5
 10
296.260284
 20
-232.833740
 11
296.260284
 21
-236.151566
  0
LINE
  8
0
 62
     5
 10
301.513550
 20
-249.146469
 11
305.937286
 21
-249.146469
  0
LINE
  8
0
 62
     5
 10
296.260284
 20
-236.151566
 11
309.162079
 21
-236.151566
  0
LINE
  8
0
 62
     5
 10
296.260284
 20
-232.833740
 11
301.513550
 21
-232.833740
  0
LINE
  8
0
 62
     5
 10
327.503998
 20
-236.404739
 11
328.730042
 21
-235.917068
  0
LINE
  8
0
 62
     5
 10
327.503357
 20
-236.404404
 11
327.503357
 21
-249.146469
  0
LINE
  8
0
 62
     5
 10
323.079498
 20
-249.146469
 11
327.503357
 21
-249.146469
  0
LINE
  8
0
 62
     5
 10
313.955292
 20
-241.792511
 11
323.079376
 21
-238.163742
  0
LINE
  8
0
 62
     5
 10
313.955536
 20
-238.221954
 11
326.806152
 21
-233.111084
  0
LINE
  8
0
 62
     5
 10
323.079498
 20
-238.163773
 11
323.079498
 21
-249.146469
  0
LINE
  8
0
 62
     5
 10
327.503357
 20
-231.368408
 11
327.503357
 21
-232.083389
  0
LINE
  8
0
 62
     5
 10
330.821106
 20
-231.368408
 11
330.821106
 21
-232.833755
  0
LINE
  8
0
 62
     5
 10
313.955444
 20
-238.221893
 11
313.955444
 21
-241.792496
  0
LINE
  8
0
 62
     5
 10
327.503357
 20
-231.368408
 11
330.821106
 21
-231.368408
  0
LINE
  8
0
 10
-96.623573
 20
-174.834946
 11
-119.622284
 21
-135.000000
  0
LINE
  8
0
 10
-96.623581
 20
-174.834946
 11
-98.047081
 21
-169.522354
  0
LINE
  8
0
 10
-96.623566
 20
-174.834930
 11
-100.512650
 21
-170.945847
  0
LINE
  8
0
 10
-177.822144
 20
-135.000000
 11
-119.622284
 21
-135.000000
  0
LINE
  8
0
 10
-34.123562
 20
-22.834932
 11
-9.392801
 21
19.999996
  0
LINE
  8
0
 10
-34.123562
 20
-22.834932
 11
-32.700054
 21
-17.522341
  0
LINE
  8
0
 10
-34.123562
 20
-22.834932
 11
-30.234476
 21
-18.945845
  0
LINE
  8
0
 10
-9.392801
 20
19.999996
 11
49.533539
 21
19.999996
  0
LINE
  8
0
 10
-100.873573
 20
-75.000000
 11
-100.873573
 21
-5.000000
  0
LINE
  8
0
  6
CENTER
 10
-105.873573
 20
-40.000000
 11
100.126427
 21
-40.000000
  0
LINE
  8
0
 10
-100.873573
 20
-5.000000
 11
-83.873573
 21
-5.000000
  0
LINE
  8
0
 10
-100.873573
 20
-75.000000
 11
-83.873573
 21
-75.000000
  0
LINE
  8
0
 10
-83.873573
 20
-75.000000
 11
-83.873573
 21
-5.000000
  0
LINE
  8
0
  6
CENTER
 10
-106.373573
 20
-58.000000
 11
-97.873573
 21
-58.000000
  0
LINE
  8
0
  6
CENTER
 10
-89.873573
 20
-47.500000
 11
-89.873573
 21
-62.500000
  0
LINE
  8
0
  6
CENTER
 10
-97.373573
 20
-55.000000
 11
-82.373573
 21
-55.000000
  0
LINE
  8
0
  6
CENTER
 10
-89.873573
 20
-32.500000
 11
-89.873573
 21
-17.500000
  0
LINE
  8
0
  6
CENTER
 10
-97.373573
 20
-25.000000
 11
-82.373573
 21
-25.000000
  0
LINE
  8
0
 10
95.126427
 20
-75.000000
 11
95.126427
 21
-5.000000
  0
LINE
  8
0
 10
95.126427
 20
-75.000000
 11
78.126427
 21
-75.000000
  0
LINE
  8
0
 10
95.126427
 20
-5.000000
 11
78.126427
 21
-5.000000
  0
LINE
  8
0
 10
78.126427
 20
-75.000000
 11
78.126427
 21
-5.000000
  0
LINE
  8
0
  6
CENTER
 10
102.126427
 20
-15.000000
 11
-25.873573
 21
-15.000000
  0
LINE
  8
0
 10
99.126427
 20
-19.458996
 11
99.126427
 21
-10.541000
  0
LINE
  8
0
 10
98.585411
 20
-10.000000
 11
95.126427
 21
-10.000000
  0
LINE
  8
0
 10
99.126427
 20
-10.541000
 11
95.126427
 21
-10.541000
  0
LINE
  8
0
 10
99.126450
 20
-10.540997
 11
98.585442
 21
-9.999999
  0
LINE
  8
0
 10
99.126427
 20
-19.459000
 11
95.126427
 21
-19.459000
  0
LINE
  8
0
 10
98.585411
 20
-20.000000
 11
95.126427
 21
-20.000000
  0
LINE
  8
0
 10
99.126442
 20
-19.459013
 11
98.585426
 21
-20.000019
  0
LINE
  8
0
 10
98.585411
 20
-10.000000
 11
98.585411
 21
-20.000000
  0
LINE
  8
0
  6
CENTER
 10
84.126427
 20
-47.500000
 11
84.126427
 21
-62.500000
  0
LINE
  8
0
  6
CENTER
 10
84.126427
 20
-32.500000
 11
84.126427
 21
-17.500000
  0
LINE
  8
0
  6
CENTER
 10
91.626427
 20
-25.000000
 11
76.626427
 21
-25.000000
  0
LINE
  8
0
  6
CENTER
 10
91.626427
 20
-55.000000
 11
76.626427
 21
-55.000000
  0
LINE
  8
0
 10
94.126427
 20
-75.000000
 11
94.126427
 21
-71.000000
  0
LINE
  8
0
 10
86.126427
 20
-75.000000
 11
86.126427
 21
-71.000000
  0
LINE
  8
0
  6
CENTER
 10
90.126427
 20
-65.000000
 11
90.126427
 21
-77.000000
  0
LINE
  8
0
  6
CENTER
 10
84.126427
 20
-71.000000
 11
96.126427
 21
-71.000000
  0
LINE
  8
0
 10
88.626427
 20
-71.866013
 11
90.126419
 21
-72.732033
  0
LINE
  8
0
 10
90.126434
 20
-72.732086
 11
91.626442
 21
-71.866058
  0
LINE
  8
0
 10
91.626427
 20
-71.866028
 11
91.626427
 21
-70.133972
  0
LINE
  8
0
 10
91.626434
 20
-70.133965
 11
90.126442
 21
-69.267944
  0
LINE
  8
0
 10
90.126442
 20
-69.268005
 11
88.626457
 21
-70.134026
  0
LINE
  8
0
 10
88.626427
 20
-70.133972
 11
88.626427
 21
-71.866020
  0
LINE
  8
0
  6
CENTER
 10
-52.873573
 20
-77.000000
 11
-52.873573
 21
-3.000000
  0
LINE
  8
0
 10
-22.873573
 20
-74.000000
 11
-22.873573
 21
-6.000000
  0
LINE
  8
0
 10
-82.873573
 20
-74.000000
 11
-82.873573
 21
-6.000000
  0
LINE
  8
0
 10
-81.273575
 20
-74.000000
 11
-81.273575
 21
-6.000000
  0
LINE
  8
0
 10
-24.473572
 20
-74.000000
 11
-24.473572
 21
-6.000000
  0
LINE
  8
0
 10
-82.873573
 20
-74.000000
 11
-22.873573
 21
-74.000000
  0
LINE
  8
0
 10
-82.873573
 20
-6.000000
 11
-22.873573
 21
-6.000000
  0
LINE
  8
0
  6
CENTER
 10
-74.873573
 20
-55.000000
 11
-65.873573
 21
-55.000000
  0
LINE
  8
0
  6
CENTER
 10
-70.373573
 20
-50.500000
 11
-70.373573
 21
-59.500000
  0
LINE
  8
0
  6
CENTER
 10
-35.373573
 20
-50.500000
 11
-35.373573
 21
-59.500000
  0
LINE
  8
0
  6
CENTER
 10
-30.873573
 20
-55.000000
 11
-39.873573
 21
-55.000000
  0
LINE
  8
0
  6
CENTER
 10
-70.373573
 20
-29.500000
 11
-70.373573
 21
-20.500000
  0
LINE
  8
0
  6
CENTER
 10
-74.873573
 20
-25.000000
 11
-65.873573
 21
-25.000000
  0
LINE
  8
0
  6
CENTER
 10
-35.373573
 20
-29.500000
 11
-35.373573
 21
-20.500000
  0
LINE
  8
0
  6
CENTER
 10
-30.873573
 20
-25.000000
 11
-39.873573
 21
-25.000000
  0
LINE
  8
0
  6
CENTER
 10
-57.373573
 20
-55.000000
 11
-48.373573
 21
-55.000000
  0
LINE
  8
0
  6
CENTER
 10
-57.373573
 20
-25.000000
 11
-48.373573
 21
-25.000000
  0
LINE
  8
0
 10
-55.373573
 20
-26.000000
 11
-55.373573
 21
-24.000000
  0
LINE
  8
0
 10
-50.373573
 20
-26.000000
 11
-50.373573
 21
-24.000000
  0
LINE
  8
0
 10
-81.273575
 20
-47.000000
 11
-24.473572
 21
-47.000000
  0
LINE
  8
0
 10
-81.273575
 20
-33.000000
 11
-24.473572
 21
-33.000000
  0
LINE
  8
0
 10
-83.873573
 20
-31.299999
 11
-82.873573
 21
-31.299999
  0
LINE
  8
0
 10
-83.873573
 20
-48.700001
 11
-82.873573
 21
-48.700001
  0
LINE
  8
0
 10
-22.873573
 20
-31.299999
 11
78.126427
 21
-31.299999
  0
LINE
  8
0
 10
-22.873573
 20
-48.700001
 11
78.126427
 21
-48.700001
  0
LINE
  8
0
 10
78.126427
 20
-21.000000
 11
-22.873573
 21
-21.000000
  0
LINE
  8
0
 10
78.126427
 20
-9.000000
 11
-22.873573
 21
-9.000000
  0
LINE
  8
0
 10
-82.873573
 20
-9.000000
 11
-83.873573
 21
-9.000000
  0
LINE
  8
0
 10
-82.873573
 20
-21.000000
 11
-83.873573
 21
-21.000000
  0
LINE
  8
0
 10
-82.873573
 20
-71.000000
 11
-83.873573
 21
-71.000000
  0
LINE
  8
0
 10
-82.873573
 20
-59.000000
 11
-83.873573
 21
-59.000000
  0
LINE
  8
0
 10
78.126427
 20
-71.000000
 11
-22.873573
 21
-71.000000
  0
LINE
  8
0
  6
CENTER
 10
102.126427
 20
-65.000000
 11
-25.873573
 21
-65.000000
  0
LINE
  8
0
 10
78.126427
 20
-59.000000
 11
-22.873573
 21
-59.000000
  0
LINE
  8
0
  6
CENTER
 10
-107.873573
 20
-15.000000
 11
-80.873573
 21
-15.000000
  0
LINE
  8
0
 10
-104.873573
 20
-19.458996
 11
-104.873573
 21
-10.541000
  0
LINE
  8
0
 10
-104.332565
 20
-10.000000
 11
-100.873573
 21
-10.000000
  0
LINE
  8
0
 10
-104.873573
 20
-10.541000
 11
-100.873573
 21
-10.541000
  0
LINE
  8
0
 10
-104.873573
 20
-10.541002
 11
-104.332558
 21
-10.000000
  0
LINE
  8
0
 10
-104.873573
 20
-19.459000
 11
-100.873573
 21
-19.459000
  0
LINE
  8
0
 10
-104.332565
 20
-20.000000
 11
-100.873573
 21
-20.000000
  0
LINE
  8
0
 10
-104.873589
 20
-19.459007
 11
-104.332573
 21
-20.000015
  0
LINE
  8
0
 10
-104.332565
 20
-10.000000
 11
-104.332565
 21
-20.000000
  0
LINE
  8
0
 10
-103.060974
 20
-55.979279
 11
-101.186165
 21
-55.979279
  0
LINE
  8
0
 10
-103.060974
 20
-60.020721
 11
-101.186172
 21
-60.020721
  0
LINE
  8
0
 10
-103.060974
 20
-53.958561
 11
-101.186172
 21
-53.958561
  0
LINE
  8
0
 10
-103.373573
 20
-61.499992
 11
-103.373573
 21
-58.500000
  0
LINE
  8
0
 10
-103.373566
 20
-54.499996
 11
-103.060966
 21
-53.958557
  0
LINE
  8
0
 10
-103.060966
 20
-62.041439
 11
-101.186172
 21
-62.041439
  0
LINE
  8
0
 10
-103.373589
 20
-61.500015
 11
-103.060989
 21
-62.041454
  0
LINE
  8
0
 10
-100.873581
 20
-61.500008
 11
-101.186172
 21
-62.041439
  0
LINE
  8
0
 10
-100.873604
 20
-54.500015
 11
-101.186203
 21
-53.958576
  0
LINE
  8
0
 10
-101.873573
 20
-58.500000
 11
-101.873573
 21
-57.500000
  0
LINE
  8
0
 10
-103.373573
 20
-57.500000
 11
-101.873573
 21
-57.500000
  0
LINE
  8
0
 10
-103.373573
 20
-58.500000
 11
-101.873573
 21
-58.500000
  0
LINE
  8
0
 10
-103.373573
 20
-57.500000
 11
-103.373573
 21
-54.500000
  0
LINE
  8
0
 10
-20.073570
 20
-8.000000
 11
-20.073570
 21
-9.000000
  0
LINE
  8
0
 10
-20.073570
 20
-8.000000
 11
-22.873573
 21
-8.000000
  0
LINE
  8
0
 10
-20.073570
 20
-22.000000
 11
-22.873573
 21
-22.000000
  0
LINE
  8
0
 10
-20.073570
 20
-21.000000
 11
-20.073570
 21
-22.000000
  0
LINE
  8
0
 10
-83.873573
 20
-8.000000
 11
-82.873573
 21
-8.000000
  0
LINE
  8
0
 10
-83.873573
 20
-22.000000
 11
-82.873573
 21
-22.000000
  0
LINE
  8
0
  6
CENTER
 10
-107.873535
 20
113.999969
 11
-6.673538
 21
113.999969
  0
LINE
  8
0
 10
-104.873535
 20
118.458969
 11
-104.873535
 21
109.540970
  0
LINE
  8
0
 10
-104.332527
 20
108.999969
 11
-100.873535
 21
108.999969
  0
LINE
  8
0
 10
-104.873535
 20
109.540970
 11
-100.873535
 21
109.540970
  0
LINE
  8
0
 10
-104.873550
 20
109.541000
 11
-104.332527
 21
108.999977
  0
LINE
  8
0
 10
-104.873535
 20
118.458969
 11
-100.873535
 21
118.458969
  0
LINE
  8
0
 10
-104.332527
 20
118.999969
 11
-100.873535
 21
118.999969
  0
LINE
  8
0
 10
-104.873573
 20
118.459000
 11
-104.332558
 21
119.000000
  0
LINE
  8
0
 10
-104.332527
 20
108.999969
 11
-104.332527
 21
118.999969
  0
LINE
  8
0
 10
-103.373535
 20
108.999969
 11
-103.373535
 21
103.499969
  0
LINE
  8
0
 10
-100.873535
 20
89.999969
 11
-83.873535
 21
89.999969
  0
LINE
  8
0
 10
-100.873535
 20
89.999969
 11
-100.873535
 21
125.999969
  0
LINE
  8
0
 10
-83.873535
 20
89.999969
 11
-83.873535
 21
125.999969
  0
LINE
  8
0
 10
-100.873535
 20
125.999969
 11
-83.873535
 21
125.999969
  0
LINE
  8
0
  6
CENTER
 10
-106.373535
 20
106.999969
 11
-97.873535
 21
106.999969
  0
LINE
  8
0
  6
CENTER
 10
-106.373535
 20
118.999969
 11
-97.873535
 21
118.999969
  0
LINE
  8
0
 10
-103.373535
 20
103.499969
 11
-100.873535
 21
103.499969
  0
LINE
  8
0
 10
-103.060928
 20
106.999969
 11
-101.186142
 21
106.999969
  0
LINE
  8
0
 10
-103.373535
 20
118.999969
 11
-103.373535
 21
122.499969
  0
LINE
  8
0
 10
-103.373535
 20
122.499969
 11
-100.873535
 21
122.499969
  0
LINE
  8
0
  6
CENTER
 10
102.126465
 20
113.999969
 11
75.126465
 21
113.999969
  0
LINE
  8
0
 10
99.126465
 20
118.458969
 11
99.126465
 21
109.540970
  0
LINE
  8
0
 10
98.585449
 20
108.999969
 11
95.126465
 21
108.999969
  0
LINE
  8
0
 10
99.126465
 20
109.540970
 11
95.126465
 21
109.540970
  0
LINE
  8
0
 10
99.126488
 20
109.540985
 11
98.585472
 21
108.999977
  0
LINE
  8
0
 10
99.126465
 20
118.458969
 11
95.126465
 21
118.458969
  0
LINE
  8
0
 10
98.585449
 20
118.999969
 11
95.126465
 21
118.999969
  0
LINE
  8
0
 10
99.126472
 20
118.458954
 11
98.585464
 21
118.999969
  0
LINE
  8
0
 10
98.585449
 20
108.999969
 11
98.585449
 21
118.999969
  0
LINE
  8
0
 10
95.126465
 20
89.999969
 11
95.126465
 21
125.999969
  0
LINE
  8
0
 10
95.126465
 20
89.999969
 11
78.126465
 21
89.999969
  0
LINE
  8
0
 10
78.126465
 20
89.999969
 11
78.126465
 21
125.999969
  0
LINE
  8
0
 10
95.126465
 20
125.999969
 11
78.126465
 21
125.999969
  0
LINE
  8
0
  6
CENTER
 10
98.126465
 20
98.999969
 11
-103.873535
 21
98.999969
  0
LINE
  8
0
 10
-83.873535
 20
124.999969
 11
78.126465
 21
124.999969
  0
LINE
  8
0
 10
78.126465
 20
92.999969
 11
-22.873535
 21
92.999969
  0
LINE
  8
0
 10
78.126465
 20
104.999969
 11
-22.873535
 21
104.999969
  0
LINE
  8
0
 10
-82.873535
 20
87.999969
 11
-82.873535
 21
123.999969
  0
LINE
  8
0
 10
-81.273537
 20
87.999969
 11
-81.273537
 21
123.999969
  0
LINE
  8
0
 10
-24.473534
 20
87.999969
 11
-24.473534
 21
123.999969
  0
LINE
  8
0
 10
-22.873535
 20
87.999969
 11
-22.873535
 21
123.999969
  0
LINE
  8
0
 10
-82.873535
 20
87.999969
 11
-22.873535
 21
87.999969
  0
LINE
  8
0
 10
-82.873535
 20
92.999969
 11
-83.873535
 21
92.999969
  0
LINE
  8
0
 10
-82.873535
 20
104.999969
 11
-83.873535
 21
104.999969
  0
LINE
  8
0
 10
-82.873535
 20
123.999969
 11
-22.873535
 21
123.999969
  0
LINE
  8
0
 10
-19.673538
 20
115.999969
 11
78.126465
 21
115.999969
  0
LINE
  8
0
 10
-9.673538
 20
114.699966
 11
78.126465
 21
114.699966
  0
LINE
  8
0
 10
-100.873535
 20
125.500015
 11
-83.873535
 21
125.500015
  0
LINE
  8
0
 10
-100.873535
 20
114.901886
 11
-83.873535
 21
114.901886
  0
LINE
  8
0
 10
-100.873535
 20
117.499969
 11
-83.873535
 21
117.499969
  0
LINE
  8
0
  6
CENTER
 10
-92.873535
 20
127.500015
 11
-92.873535
 21
115.500015
  0
LINE
  8
0
  6
CENTER
 10
-98.873535
 20
121.500015
 11
-86.873535
 21
121.500015
  0
LINE
  8
0
 10
-94.373528
 20
120.634003
 11
-92.873528
 21
119.767975
  0
LINE
  8
0
 10
-92.873535
 20
119.767998
 11
-91.373535
 21
120.634018
  0
LINE
  8
0
 10
-91.373543
 20
120.634003
 11
-91.373543
 21
122.366058
  0
LINE
  8
0
 10
-91.373558
 20
122.366051
 11
-92.873566
 21
123.232079
  0
LINE
  8
0
 10
-92.873558
 20
123.232094
 11
-94.373558
 21
122.366066
  0
LINE
  8
0
 10
-94.373528
 20
122.366028
 11
-94.373528
 21
120.633972
  0
LINE
  8
0
 10
95.126465
 20
125.500015
 11
78.126465
 21
125.500015
  0
LINE
  8
0
 10
95.126465
 20
114.901886
 11
78.126465
 21
114.901886
  0
LINE
  8
0
 10
95.126465
 20
117.499969
 11
78.126465
 21
117.499969
  0
LINE
  8
0
  6
CENTER
 10
87.126465
 20
127.500015
 11
87.126465
 21
115.500015
  0
LINE
  8
0
  6
CENTER
 10
93.126465
 20
121.500015
 11
81.126465
 21
121.500015
  0
LINE
  8
0
 10
88.626472
 20
120.634003
 11
87.126465
 21
119.767975
  0
LINE
  8
0
 10
87.126495
 20
119.768028
 11
85.626495
 21
120.634064
  0
LINE
  8
0
 10
85.626465
 20
120.634003
 11
85.626465
 21
122.366058
  0
LINE
  8
0
 10
85.626457
 20
122.366035
 11
87.126465
 21
123.232063
  0
LINE
  8
0
 10
87.126465
 20
123.232033
 11
88.626465
 21
122.366005
  0
LINE
  8
0
 10
88.626465
 20
122.366028
 11
88.626465
 21
120.633972
  0
LINE
  8
0
 10
-82.873535
 20
89.999969
 11
-22.873535
 21
89.999969
  0
LINE
  8
0
 10
-19.673538
 20
109.540970
 11
-19.673538
 21
118.458969
  0
LINE
  8
0
 10
-9.673538
 20
112.499969
 11
-9.673538
 21
115.499969
  0
LINE
  8
0
 10
-20.073532
 20
106.999969
 11
-20.073532
 21
120.999969
  0
LINE
  8
0
 10
-22.248322
 20
122.082878
 11
-20.698753
 21
122.082878
  0
LINE
  8
0
 10
-22.248322
 20
118.041420
 11
-20.698753
 21
118.041420
  0
LINE
  8
0
 10
-22.248322
 20
109.958519
 11
-20.698753
 21
109.958519
  0
LINE
  8
0
 10
-20.073526
 20
120.999969
 11
-20.698744
 21
122.082878
  0
LINE
  8
0
 10
-20.073530
 20
106.999985
 11
-20.698751
 21
105.917068
  0
LINE
  8
0
 10
-22.248322
 20
105.917061
 11
-20.698753
 21
105.917061
  0
LINE
  8
0
 10
-22.873541
 20
106.999977
 11
-22.248323
 21
105.917068
  0
LINE
  8
0
 10
-22.873537
 20
120.999962
 11
-22.248316
 21
122.082878
  0
LINE
  8
0
 10
-20.073532
 20
118.458969
 11
-19.673538
 21
118.458969
  0
LINE
  8
0
 10
-20.073532
 20
109.540970
 11
-19.673538
 21
109.540970
  0
LINE
  8
0
 10
-19.673550
 20
118.458977
 11
-20.073547
 21
118.858971
  0
LINE
  8
0
 10
-19.673532
 20
109.540970
 11
-20.073526
 21
109.140968
  0
LINE
  8
0
 10
-19.673538
 20
112.499969
 11
-9.673538
 21
112.499969
  0
LINE
  8
0
 10
-19.673538
 20
115.499969
 11
-9.673538
 21
115.499969
  0
LINE
  8
0
 10
-83.873535
 20
122.082878
 11
-82.873535
 21
122.082878
  0
LINE
  8
0
 10
-83.873535
 20
105.917061
 11
-82.873535
 21
105.917061
  0
LINE
  8
0
 10
-83.873535
 20
118.041420
 11
-82.873535
 21
118.041420
  0
LINE
  8
0
 10
-83.873535
 20
109.958519
 11
-82.873535
 21
109.958519
  0
LINE
  8
0
 10
-82.873535
 20
117.999969
 11
-22.873535
 21
117.999969
  0
LINE
  8
0
  6
CENTER
 10
275.873596
 20
-39.999985
 11
227.873581
 21
-39.999985
  0
LINE
  8
0
 10
270.873596
 20
-74.999985
 11
270.873596
 21
-15.499985
  0
LINE
  8
0
 10
234.873581
 20
-74.999985
 11
234.873581
 21
-4.999985
  0
LINE
  8
0
 10
232.873581
 20
-71.999985
 11
232.873581
 21
-46.999985
  0
LINE
  8
0
 10
270.873596
 20
-74.999985
 11
244.373581
 21
-74.999985
  0
LINE
  8
0
 10
259.775513
 20
-4.999985
 11
234.873581
 21
-4.999985
  0
LINE
  8
0
 10
232.873596
 20
-8.000018
 11
234.873596
 21
-6.000022
  0
LINE
  8
0
 10
232.873611
 20
-71.999977
 11
234.873627
 21
-73.999969
  0
LINE
  8
0
 10
232.873581
 20
-32.999985
 11
232.873581
 21
-7.999985
  0
LINE
  8
0
 10
233.373581
 20
-46.499989
 11
233.373581
 21
-33.499981
  0
LINE
  8
0
 10
232.873611
 20
-32.999969
 11
233.373596
 21
-33.499950
  0
LINE
  8
0
 10
232.873611
 20
-46.999989
 11
233.373596
 21
-46.500008
  0
LINE
  8
0
  6
CENTER
 10
243.873581
 20
-22.499985
 11
243.873581
 21
-7.499985
  0
LINE
  8
0
 10
256.373474
 20
-16.443434
 11
258.873505
 21
-17.886816
  0
LINE
  8
0
 10
258.873505
 20
-17.886715
 11
261.373505
 21
-16.443342
  0
LINE
  8
0
  6
CENTER
 10
266.373596
 20
-14.999985
 11
236.373581
 21
-14.999985
  0
LINE
  8
0
 10
261.373535
 20
-16.443359
 11
261.373535
 21
-13.556610
  0
LINE
  8
0
 10
261.373474
 20
-13.556661
 11
258.873474
 21
-12.113286
  0
LINE
  8
0
 10
258.873535
 20
-12.113233
 11
256.373535
 21
-13.556605
  0
LINE
  8
0
 10
256.373535
 20
-13.556610
 11
256.373535
 21
-16.443359
  0
LINE
  8
0
  6
CENTER
 10
258.873596
 20
-7.499985
 11
258.873596
 21
-22.499985
  0
LINE
  8
0
 10
246.373489
 20
-13.556655
 11
243.873489
 21
-12.113281
  0
LINE
  8
0
 10
246.373566
 20
-16.443359
 11
246.373566
 21
-13.556610
  0
LINE
  8
0
 10
243.873535
 20
-17.886711
 11
246.373535
 21
-16.443338
  0
LINE
  8
0
 10
241.373489
 20
-16.443417
 11
243.873489
 21
-17.886789
  0
LINE
  8
0
 10
241.373566
 20
-13.556610
 11
241.373566
 21
-16.443359
  0
LINE
  8
0
 10
243.873520
 20
-12.113217
 11
241.373520
 21
-13.556589
  0
LINE
  8
0
 10
270.373596
 20
-14.499985
 11
263.848511
 21
-14.499985
  0
LINE
  8
0
 10
270.873596
 20
-15.499985
 11
263.848511
 21
-15.499985
  0
LINE
  8
0
 10
270.373596
 20
-14.499985
 11
270.373596
 21
-9.499985
  0
LINE
  8
0
 10
270.373596
 20
-9.499985
 11
262.373596
 21
-9.499985
  0
LINE
  8
0
  6
CENTER
 10
266.373596
 20
-20.499985
 11
266.373596
 21
-1.725639
  0
LINE
  8
0
 10
262.373535
 20
-9.499996
 11
259.775482
 21
-4.999999
  0
LINE
  8
0
 10
264.373596
 20
-15.499985
 11
264.373596
 21
-14.499985
  0
LINE
  8
0
 10
268.373596
 20
-15.499985
 11
268.373596
 21
-14.499985
  0
LINE
  8
0
 10
264.752563
 20
-15.499985
 11
264.752563
 21
-14.499985
  0
LINE
  8
0
 10
267.994568
 20
-15.499985
 11
267.994568
 21
-14.499985
  0
LINE
  8
0
 10
244.373581
 20
-68.464088
 11
244.373581
 21
-74.999985
  0
LINE
  8
0
 10
243.373581
 20
-68.464088
 11
243.373581
 21
-74.999985
  0
LINE
  8
0
 10
243.373581
 20
-74.999985
 11
234.873581
 21
-74.999985
  0
LINE
  8
0
  6
CENTER
 10
243.873581
 20
-59.499985
 11
243.873581
 21
-70.499985
  0
LINE
  8
0
  6
CENTER
 10
238.373581
 20
-64.999985
 11
249.373581
 21
-64.999985
  0
LINE
  8
0
 10
262.873535
 20
-5.899985
 11
263.273529
 21
-5.499975
  0
LINE
  8
0
 10
262.873596
 20
-9.499985
 11
262.873596
 21
-5.899986
  0
LINE
  8
0
 10
269.873596
 20
-9.499985
 11
269.873596
 21
-5.899986
  0
LINE
  8
0
 10
269.473572
 20
-5.499985
 11
263.273560
 21
-5.499985
  0
LINE
  8
0
 10
269.873596
 20
-5.899986
 11
262.873596
 21
-5.899986
  0
LINE
  8
0
 10
269.873535
 20
-5.900044
 11
269.473541
 21
-5.500025
  0
LINE
  8
0
  6
CENTER
 10
231.873581
 20
-70.999985
 11
247.373581
 21
-70.999985
  0
LINE
  8
0
 10
243.373581
 20
-72.999985
 11
244.373581
 21
-72.999985
  0
LINE
  8
0
 10
243.373581
 20
-68.999985
 11
244.373581
 21
-68.999985
  0
LINE
  8
0
 10
243.373581
 20
-72.620987
 11
244.373581
 21
-72.620987
  0
LINE
  8
0
 10
243.373581
 20
-69.378983
 11
244.373581
 21
-69.378983
  0
LINE
  8
0
 10
86.126411
 20
-191.020798
 11
89.626404
 21
-193.041519
  0
LINE
  8
0
 10
89.626396
 20
-193.041519
 11
93.126389
 21
-191.020798
  0
LINE
  8
0
 10
93.126442
 20
-191.020767
 11
93.126442
 21
-186.979324
  0
LINE
  8
0
 10
93.126396
 20
-186.979324
 11
89.626404
 21
-184.958603
  0
LINE
  8
0
 10
89.626419
 20
-184.958603
 11
86.126427
 21
-186.979324
  0
LINE
  8
0
 10
86.126442
 20
-189.500046
 11
93.126442
 21
-189.500046
  0
LINE
  8
0
 10
86.126442
 20
-188.500046
 11
93.126442
 21
-188.500046
  0
LINE
  8
0
 10
86.126442
 20
-186.979324
 11
86.126442
 21
-191.020767
  0
LINE
  8
0
  6
CENTER
 10
83.626411
 20
-189.000031
 11
95.626411
 21
-189.000031
  0
LINE
  8
0
 10
86.626411
 20
-164.500046
 11
86.626411
 21
-160.900040
  0
LINE
  8
0
 10
93.626411
 20
-164.500046
 11
93.626411
 21
-160.900040
  0
LINE
  8
0
 10
93.226418
 20
-160.500046
 11
87.026405
 21
-160.500046
  0
LINE
  8
0
 10
93.626411
 20
-160.900040
 11
86.626411
 21
-160.900040
  0
LINE
  8
0
 10
93.626389
 20
-160.900070
 11
93.226395
 21
-160.500061
  0
LINE
  8
0
 10
86.626396
 20
-160.900040
 11
87.026390
 21
-160.500031
  0
LINE
  8
0
  6
CENTER
 10
-107.873589
 20
-184.000046
 11
-80.873589
 21
-184.000046
  0
LINE
  8
0
 10
-104.873589
 20
-188.459045
 11
-104.873589
 21
-179.541046
  0
LINE
  8
0
 10
-104.332581
 20
-179.000046
 11
-103.373589
 21
-179.000046
  0
LINE
  8
0
 10
-104.873589
 20
-179.541046
 11
-103.373589
 21
-179.541046
  0
LINE
  8
0
 10
-104.873596
 20
-179.541061
 11
-104.332581
 21
-179.000046
  0
LINE
  8
0
 10
-104.873589
 20
-188.459045
 11
-103.373589
 21
-188.459045
  0
LINE
  8
0
 10
-104.332581
 20
-189.000046
 11
-103.373589
 21
-189.000046
  0
LINE
  8
0
 10
-104.873619
 20
-188.459076
 11
-104.332611
 21
-189.000076
  0
LINE
  8
0
 10
-104.332581
 20
-179.000046
 11
-104.332581
 21
-189.000046
  0
LINE
  8
0
 10
-103.373589
 20
-180.500046
 11
-103.373589
 21
-173.500046
  0
LINE
  8
0
 10
-100.873589
 20
-160.000046
 11
-83.873589
 21
-160.000046
  0
LINE
  8
0
 10
-100.873589
 20
-160.000046
 11
-100.873589
 21
-196.000046
  0
LINE
  8
0
 10
-83.873589
 20
-160.000046
 11
-83.873589
 21
-196.000046
  0
LINE
  8
0
 10
-100.873589
 20
-196.000046
 11
-83.873589
 21
-196.000046
  0
LINE
  8
0
  6
CENTER
 10
-106.373589
 20
-177.000046
 11
-90.873589
 21
-177.000046
  0
LINE
  8
0
  6
CENTER
 10
-95.373589
 20
-172.500046
 11
-95.373589
 21
-181.500046
  0
LINE
  8
0
  6
CENTER
 10
-95.373589
 20
-184.500046
 11
-95.373589
 21
-193.500046
  0
LINE
  8
0
  6
CENTER
 10
-106.373589
 20
-189.000046
 11
-90.873589
 21
-189.000046
  0
LINE
  8
0
 10
-103.373589
 20
-173.500046
 11
-100.873589
 21
-173.500046
  0
LINE
  8
0
 10
-103.373589
 20
-180.500046
 11
-100.873589
 21
-180.500046
  0
LINE
  8
0
 10
-103.060982
 20
-177.000046
 11
-101.186195
 21
-177.000046
  0
LINE
  8
0
 10
-103.373589
 20
-185.500046
 11
-103.373589
 21
-192.500046
  0
LINE
  8
0
 10
-103.373589
 20
-185.500046
 11
-100.873589
 21
-185.500046
  0
LINE
  8
0
 10
-103.060982
 20
-189.000046
 11
-101.186195
 21
-189.000046
  0
LINE
  8
0
 10
-103.373589
 20
-192.500046
 11
-100.873589
 21
-192.500046
  0
LINE
  8
0
  6
CENTER
 10
102.126411
 20
-184.000046
 11
75.126411
 21
-184.000046
  0
LINE
  8
0
 10
99.126411
 20
-188.459045
 11
99.126411
 21
-179.541046
  0
LINE
  8
0
 10
98.585396
 20
-179.000046
 11
95.126411
 21
-179.000046
  0
LINE
  8
0
 10
99.126411
 20
-179.541046
 11
95.126411
 21
-179.541046
  0
LINE
  8
0
 10
99.126404
 20
-179.541061
 11
98.585388
 21
-179.000046
  0
LINE
  8
0
 10
99.126411
 20
-188.459045
 11
95.126411
 21
-188.459045
  0
LINE
  8
0
 10
98.585396
 20
-189.000046
 11
95.126411
 21
-189.000046
  0
LINE
  8
0
 10
99.126381
 20
-188.459030
 11
98.585373
 21
-189.000046
  0
LINE
  8
0
 10
98.585396
 20
-179.000046
 11
98.585396
 21
-189.000046
  0
LINE
  8
0
 10
95.126411
 20
-160.000046
 11
95.126411
 21
-196.000046
  0
LINE
  8
0
 10
95.126411
 20
-160.000046
 11
78.126411
 21
-160.000046
  0
LINE
  8
0
 10
78.126411
 20
-160.000046
 11
78.126411
 21
-196.000046
  0
LINE
  8
0
 10
95.126411
 20
-196.000046
 11
78.126411
 21
-196.000046
  0
LINE
  8
0
  6
CENTER
 10
89.626411
 20
-183.000046
 11
89.626411
 21
-195.000046
  0
LINE
  8
0
  6
CENTER
 10
98.126411
 20
-169.000046
 11
-103.873589
 21
-169.000046
  0
LINE
  8
0
 10
95.126411
 20
-169.500046
 11
78.126411
 21
-169.500046
  0
LINE
  8
0
 10
95.126411
 20
-168.500046
 11
78.126411
 21
-168.500046
  0
LINE
  8
0
  6
CENTER
 10
90.126411
 20
-157.500046
 11
90.126411
 21
-174.500046
  0
LINE
  8
0
 10
86.126411
 20
-160.000046
 11
86.126411
 21
-164.500046
  0
LINE
  8
0
 10
94.126411
 20
-160.000046
 11
94.126411
 21
-164.500046
  0
LINE
  8
0
 10
94.126411
 20
-164.500046
 11
86.126411
 21
-164.500046
  0
LINE
  8
0
 10
92.126411
 20
-168.500046
 11
92.126411
 21
-169.500046
  0
LINE
  8
0
 10
88.126411
 20
-168.500046
 11
88.126411
 21
-169.500046
  0
LINE
  8
0
 10
91.747414
 20
-168.500046
 11
91.747414
 21
-169.500046
  0
LINE
  8
0
 10
88.505409
 20
-168.500046
 11
88.505409
 21
-169.500046
  0
LINE
  8
0
 10
-83.873589
 20
-195.000046
 11
78.126411
 21
-195.000046
  0
LINE
  8
0
 10
-83.873589
 20
-177.700043
 11
78.126411
 21
-177.700043
  0
LINE
  8
0
 10
-83.873589
 20
-180.500046
 11
78.126411
 21
-180.500046
  0
LINE
  8
0
 10
-83.873589
 20
-188.700043
 11
78.126411
 21
-188.700043
  0
LINE
  8
0
 10
78.126411
 20
-163.000046
 11
-22.873589
 21
-163.000046
  0
LINE
  8
0
 10
78.126411
 20
-175.000046
 11
-22.873589
 21
-175.000046
  0
LINE
  8
0
 10
-82.873589
 20
-158.000046
 11
-82.873589
 21
-177.700043
  0
LINE
  8
0
 10
-81.273590
 20
-158.000046
 11
-81.273590
 21
-177.700043
  0
LINE
  8
0
 10
-24.473587
 20
-158.000046
 11
-24.473587
 21
-177.700043
  0
LINE
  8
0
 10
-22.873589
 20
-158.000046
 11
-22.873589
 21
-177.700043
  0
LINE
  8
0
 10
-82.873589
 20
-158.000046
 11
-22.873589
 21
-158.000046
  0
LINE
  8
0
 10
-82.873589
 20
-163.000046
 11
-83.873589
 21
-163.000046
  0
LINE
  8
0
 10
-82.873589
 20
-175.000046
 11
-83.873589
 21
-175.000046
  0
LINE
  8
0
 10
-82.873589
 20
-160.000046
 11
-22.873589
 21
-160.000046
  0
LINE
  8
0
 10
-82.873589
 20
-174.113297
 11
-22.873589
 21
-174.113297
  0
LINE
  8
0
 10
-82.873589
 20
-177.000046
 11
-22.873589
 21
-177.000046
  0
LINE
  8
0
  6
CENTER
 10
-275.873566
 20
-39.999996
 11
-227.873566
 21
-39.999996
  0
LINE
  8
0
 10
-232.873566
 20
-72.000000
 11
-232.873566
 21
-46.999996
  0
LINE
  8
0
 10
-270.873566
 20
-75.000000
 11
-234.873566
 21
-75.000000
  0
LINE
  8
0
 10
-232.873596
 20
-71.999992
 11
-234.873611
 21
-73.999985
  0
LINE
  8
0
 10
-233.373566
 20
-46.500000
 11
-233.373566
 21
-33.499992
  0
LINE
  8
0
 10
-232.873550
 20
-33.000027
 11
-233.373550
 21
-33.500015
  0
LINE
  8
0
 10
-232.873566
 20
-46.999962
 11
-233.373550
 21
-46.499973
  0
LINE
  8
0
  6
CENTER
 10
-269.873566
 20
-57.999996
 11
-245.873566
 21
-57.999996
  0
LINE
  8
0
 10
-267.373566
 20
-60.020763
 11
-263.873596
 21
-62.041485
  0
LINE
  8
0
 10
-263.873596
 20
-62.041451
 11
-260.373596
 21
-60.020729
  0
LINE
  8
0
 10
-260.373535
 20
-60.020718
 11
-260.373535
 21
-55.979275
  0
LINE
  8
0
 10
-260.373596
 20
-55.979286
 11
-263.873596
 21
-53.958565
  0
LINE
  8
0
 10
-263.873627
 20
-53.958488
 11
-267.373596
 21
-55.979202
  0
LINE
  8
0
 10
-267.373535
 20
-58.499996
 11
-260.373535
 21
-58.499996
  0
LINE
  8
0
 10
-267.373535
 20
-57.499996
 11
-260.373535
 21
-57.499996
  0
LINE
  8
0
 10
-267.373535
 20
-55.979275
 11
-267.373535
 21
-60.020718
  0
LINE
  8
0
  6
CENTER
 10
-263.873566
 20
-51.999996
 11
-263.873566
 21
-63.999996
  0
LINE
  8
0
  6
CENTER
 10
-243.873566
 20
-57.499996
 11
-243.873566
 21
-72.500000
  0
LINE
  8
0
  6
CENTER
 10
-251.373566
 20
-65.000000
 11
-236.373566
 21
-65.000000
  0
LINE
  8
0
 10
-243.873581
 20
-67.886719
 11
-241.373581
 21
-66.443344
  0
LINE
  8
0
 10
-241.373550
 20
-66.443375
 11
-241.373550
 21
-63.556622
  0
LINE
  8
0
 10
-241.373581
 20
-63.556629
 11
-243.873581
 21
-62.113255
  0
LINE
  8
0
 10
-243.873581
 20
-62.113216
 11
-246.373581
 21
-63.556591
  0
LINE
  8
0
 10
-246.373550
 20
-63.556622
 11
-246.373550
 21
-66.443375
  0
LINE
  8
0
 10
-246.373566
 20
-66.443367
 11
-243.873581
 21
-67.886742
  0
LINE
  8
0
 10
-255.373581
 20
-60.020763
 11
-251.873596
 21
-62.041485
  0
LINE
  8
0
 10
-251.873596
 20
-62.041451
 11
-248.373611
 21
-60.020729
  0
LINE
  8
0
 10
-248.373535
 20
-60.020718
 11
-248.373535
 21
-55.979275
  0
LINE
  8
0
 10
-248.373596
 20
-55.979286
 11
-251.873581
 21
-53.958565
  0
LINE
  8
0
 10
-251.873611
 20
-53.958477
 11
-255.373611
 21
-55.979198
  0
LINE
  8
0
 10
-255.373535
 20
-58.499996
 11
-248.373535
 21
-58.499996
  0
LINE
  8
0
 10
-255.373535
 20
-57.499996
 11
-248.373535
 21
-57.499996
  0
LINE
  8
0
 10
-255.373535
 20
-55.979275
 11
-255.373535
 21
-60.020718
  0
LINE
  8
0
  6
CENTER
 10
-251.873566
 20
-51.999996
 11
-251.873566
 21
-63.999996
  0
LINE
  8
0
 10
-270.873566
 20
-75.000000
 11
-270.873566
 21
-15.499996
  0
LINE
  8
0
 10
-234.873566
 20
-75.000000
 11
-234.873566
 21
-4.999996
  0
LINE
  8
0
 10
-259.775482
 20
-4.999996
 11
-234.873566
 21
-4.999996
  0
LINE
  8
0
 10
-232.873535
 20
-7.999987
 11
-234.873535
 21
-5.999985
  0
LINE
  8
0
 10
-232.873566
 20
-32.999996
 11
-232.873566
 21
-7.999996
  0
LINE
  8
0
  6
CENTER
 10
-243.873566
 20
-22.499996
 11
-243.873566
 21
-7.499996
  0
LINE
  8
0
 10
-256.373505
 20
-16.443457
 11
-258.873505
 21
-17.886831
  0
LINE
  8
0
 10
-258.873535
 20
-17.886721
 11
-261.373535
 21
-16.443348
  0
LINE
  8
0
  6
CENTER
 10
-266.373566
 20
-14.999996
 11
-236.373566
 21
-14.999996
  0
LINE
  8
0
 10
-261.373535
 20
-16.443371
 11
-261.373535
 21
-13.556622
  0
LINE
  8
0
 10
-261.373505
 20
-13.556688
 11
-258.873505
 21
-12.113315
  0
LINE
  8
0
 10
-258.873535
 20
-12.113233
 11
-256.373535
 21
-13.556605
  0
LINE
  8
0
 10
-256.373535
 20
-13.556622
 11
-256.373535
 21
-16.443371
  0
LINE
  8
0
  6
CENTER
 10
-258.873566
 20
-7.499996
 11
-258.873566
 21
-22.499996
  0
LINE
  8
0
 10
-246.373505
 20
-13.556677
 11
-243.873505
 21
-12.113303
  0
LINE
  8
0
 10
-246.373550
 20
-16.443371
 11
-246.373550
 21
-13.556622
  0
LINE
  8
0
 10
-243.873535
 20
-17.886724
 11
-246.373535
 21
-16.443352
  0
LINE
  8
0
 10
-241.373505
 20
-16.443432
 11
-243.873505
 21
-17.886805
  0
LINE
  8
0
 10
-241.373550
 20
-13.556622
 11
-241.373550
 21
-16.443371
  0
LINE
  8
0
 10
-243.873566
 20
-12.113228
 11
-241.373566
 21
-13.556601
  0
LINE
  8
0
 10
-270.373566
 20
-14.499996
 11
-263.848511
 21
-14.499996
  0
LINE
  8
0
 10
-270.873566
 20
-15.499996
 11
-263.848511
 21
-15.499996
  0
LINE
  8
0
 10
-270.373566
 20
-14.499996
 11
-270.373566
 21
-9.499996
  0
LINE
  8
0
 10
-270.373566
 20
-9.499996
 11
-262.373566
 21
-9.499996
  0
LINE
  8
0
  6
CENTER
 10
-266.373566
 20
-20.499996
 11
-266.373566
 21
-1.725651
  0
LINE
  8
0
 10
-262.373566
 20
-9.500008
 11
-259.775482
 21
-4.999998
  0
LINE
  8
0
 10
-262.873566
 20
-9.499996
 11
-262.873566
 21
-5.899998
  0
LINE
  8
0
 10
-269.873566
 20
-9.499996
 11
-269.873566
 21
-5.899998
  0
LINE
  8
0
 10
-269.473572
 20
-5.499996
 11
-263.273560
 21
-5.499996
  0
LINE
  8
0
 10
-269.873566
 20
-5.899998
 11
-262.873566
 21
-5.899998
  0
LINE
  8
0
 10
-269.873627
 20
-5.899980
 11
-269.473602
 21
-5.499973
  0
LINE
  8
0
 10
-262.873596
 20
-5.900018
 11
-263.273590
 21
-5.500012
  0
LINE
  8
0
 10
-264.373566
 20
-15.499996
 11
-264.373566
 21
-14.499996
  0
LINE
  8
0
 10
-268.373566
 20
-15.499996
 11
-268.373566
 21
-14.499996
  0
LINE
  8
0
 10
-264.752563
 20
-15.499996
 11
-264.752563
 21
-14.499996
  0
LINE
  8
0
 10
-267.994568
 20
-15.499996
 11
-267.994568
 21
-14.499996
  0
ARC
  8
0
 62
     5
 10
273.035400
 20
-235.045654
 40
2.211884
 50
0.000000
 51
90.000000
  0
ARC
  8
0
 62
     5
 10
291.283569
 20
-246.934647
 40
2.211899
 50
270.000000
 51
0.000000
  0
ARC
  8
0
 62
     5
 10
290.177551
 20
-236.151566
 40
3.317841
 50
0.000000
 51
90.000000
  0
ARC
  8
0
 62
     5
 10
310.361115
 20
-236.812775
 40
2.211890
 50
294.999969
 51
0.000000
  0
ARC
  8
0
 62
     5
 10
310.361115
 20
-235.045654
 40
2.211884
 50
0.000000
 51
90.000000
  0
ARC
  8
0
 62
     5
 10
327.503357
 20
-232.833755
 40
3.317840
 50
291.688385
 51
0.000000
  0
ARC
  8
0
 62
     5
 10
326.397308
 20
-232.083389
 40
1.105946
 50
291.688965
 51
0.000000
  0
ARC
  8
0
 10
-102.662674
 20
-54.968918
 40
1.789106
 50
325.616638
 51
0.000000
  0
ARC
  8
0
 10
-101.584473
 20
-61.031082
 40
1.789106
 50
145.616653
 51
180.000000
  0
ARC
  8
0
 10
-107.561104
 20
-58.000000
 40
6.687530
 50
342.412506
 51
17.587538
  0
CIRCLE
  8
0
 10
-89.873573
 20
-55.000000
 40
2.750000
  0
CIRCLE
  8
0
 10
-89.873573
 20
-55.000000
 40
4.750000
  0
CIRCLE
  8
0
 10
-89.873573
 20
-25.000000
 40
4.750000
  0
CIRCLE
  8
0
 10
-89.873573
 20
-25.000000
 40
2.750000
  0
CIRCLE
  8
0
 10
84.126427
 20
-55.000000
 40
2.750000
  0
CIRCLE
  8
0
 10
84.126427
 20
-55.000000
 40
4.750000
  0
CIRCLE
  8
0
 10
84.126427
 20
-25.000000
 40
4.750000
  0
CIRCLE
  8
0
 10
84.126427
 20
-25.000000
 40
2.750000
  0
ARC
  8
0
 10
90.126427
 20
-71.000000
 40
4.000000
 50
0.000000
 51
180.000000
  0
CIRCLE
  8
0
 10
90.126427
 20
-71.000000
 40
3.500000
  0
CIRCLE
  8
0
 10
-70.373573
 20
-55.000000
 40
2.500000
  0
CIRCLE
  8
0
 10
-70.373573
 20
-55.000000
 40
2.067000
  0
CIRCLE
  8
0
 10
-35.373573
 20
-55.000000
 40
2.500000
  0
CIRCLE
  8
0
 10
-35.373573
 20
-55.000000
 40
2.067000
  0
CIRCLE
  8
0
 10
-70.373573
 20
-25.000000
 40
2.500000
  0
CIRCLE
  8
0
 10
-70.373573
 20
-25.000000
 40
2.067000
  0
CIRCLE
  8
0
 10
-35.373573
 20
-25.000000
 40
2.500000
  0
CIRCLE
  8
0
 10
-35.373573
 20
-25.000000
 40
2.067000
  0
CIRCLE
  8
0
 10
-52.873573
 20
-55.000000
 40
2.500000
  0
ARC
  8
0
 10
-52.873573
 20
-24.000000
 40
2.500000
 50
0.000000
 51
179.999954
  0
ARC
  8
0
 10
-52.873573
 20
-26.000000
 40
2.500000
 50
180.000000
 51
0.000000
  0
ARC
  8
0
 10
-96.686043
 20
-58.000000
 40
6.687533
 50
184.287750
 51
197.587540
  0
ARC
  8
0
 10
-102.662674
 20
-61.031082
 40
1.789101
 50
0.000000
 51
34.383354
  0
ARC
  8
0
 10
-101.584473
 20
-54.968918
 40
1.789101
 50
180.000000
 51
214.383347
  0
ARC
  8
0
 10
-96.686043
 20
-58.000000
 40
6.687531
 50
162.412460
 51
175.712250
  0
ARC
  8
0
 10
-19.295387
 20
120.062149
 40
3.578150
 50
180.000000
 51
214.384354
  0
ARC
  8
0
 10
-9.498810
 20
113.999969
 40
13.374723
 50
162.411972
 51
197.588058
  0
ARC
  8
0
 10
-98.318787
 20
105.249969
 40
5.054744
 50
159.744263
 51
200.255539
  0
ARC
  8
0
 10
-105.928284
 20
105.249969
 40
5.054744
 50
339.744263
 51
20.255541
  0
ARC
  8
0
 10
-98.318787
 20
108.749969
 40
5.054747
 50
177.165085
 51
200.255615
  0
ARC
  8
0
 10
-105.928284
 20
108.749969
 40
5.054749
 50
339.744385
 51
2.834918
  0
ARC
  8
0
 10
-98.318787
 20
120.749969
 40
5.054749
 50
159.744385
 51
200.255615
  0
ARC
  8
0
 10
-105.928284
 20
120.749969
 40
5.054749
 50
339.744385
 51
20.255653
  0
CIRCLE
  8
0
 10
-92.873535
 20
121.500015
 40
3.500000
  0
CIRCLE
  8
0
 10
87.126465
 20
121.500015
 40
3.500000
  0
ARC
  8
0
 10
-23.651688
 20
120.062149
 40
3.578150
 50
325.615662
 51
0.000000
  0
ARC
  8
0
 10
-33.448257
 20
113.999969
 40
13.374723
 50
342.411957
 51
17.588032
  0
ARC
  8
0
 10
-23.651688
 20
107.937790
 40
3.578150
 50
0.000000
 51
34.384315
  0
ARC
  8
0
 10
-19.295387
 20
107.937790
 40
3.578147
 50
145.615784
 51
180.000122
  0
ARC
  8
0
 10
243.873581
 20
-64.999985
 40
3.500002
 50
278.213196
 51
261.786804
  0
CIRCLE
  8
0
 10
243.873581
 20
-64.999985
 40
3.000000
  0
CIRCLE
  8
0
 10
243.873581
 20
-14.999985
 40
5.000000
  0
CIRCLE
  8
0
 10
258.873596
 20
-14.999985
 40
5.000000
  0
CIRCLE
  8
0
 10
258.873596
 20
-14.999985
 40
4.459000
  0
ARC
  8
0
 10
89.626411
 20
-189.000046
 40
3.500002
 50
188.213211
 51
351.786804
  0
ARC
  8
0
 10
89.626411
 20
-189.000046
 40
3.500002
 50
8.213206
 51
171.786789
  0
CIRCLE
  8
0
 10
-95.373589
 20
-177.000046
 40
2.500000
  0
CIRCLE
  8
0
 10
-95.373589
 20
-177.000046
 40
2.067000
  0
CIRCLE
  8
0
 10
-95.373589
 20
-189.000046
 40
2.500000
  0
CIRCLE
  8
0
 10
-95.373589
 20
-189.000046
 40
2.067000
  0
ARC
  8
0
 10
-98.318840
 20
-175.250046
 40
5.054749
 50
159.744385
 51
200.255615
  0
ARC
  8
0
 10
-105.928337
 20
-175.250046
 40
5.054749
 50
339.744385
 51
20.255653
  0
ARC
  8
0
 10
-98.318840
 20
-178.750046
 40
5.054741
 50
159.744354
 51
200.255615
  0
ARC
  8
0
 10
-105.928337
 20
-178.750046
 40
5.054741
 50
339.744354
 51
20.255461
  0
ARC
  8
0
 10
-98.318840
 20
-187.250046
 40
5.054749
 50
159.744385
 51
200.255615
  0
ARC
  8
0
 10
-105.928337
 20
-187.250046
 40
5.054749
 50
339.744385
 51
20.255653
  0
ARC
  8
0
 10
-98.318840
 20
-190.750046
 40
5.054741
 50
159.744354
 51
200.255615
  0
ARC
  8
0
 10
-105.928337
 20
-190.750046
 40
5.054741
 50
339.744354
 51
20.255461
  0
ARC
  8
0
 10
-263.873566
 20
-57.999996
 40
3.500010
 50
188.213181
 51
351.786804
  0
ARC
  8
0
 10
-263.873566
 20
-57.999996
 40
3.500010
 50
8.213188
 51
171.786819
  0
CIRCLE
  8
0
 10
-243.873566
 20
-65.000000
 40
5.000000
  0
ARC
  8
0
 10
-251.873566
 20
-57.999996
 40
3.499995
 50
8.213223
 51
171.786774
  0
ARC
  8
0
 10
-251.873566
 20
-57.999996
 40
3.499995
 50
188.213226
 51
351.786774
  0
CIRCLE
  8
0
 10
-243.873566
 20
-14.999996
 40
5.000000
  0
CIRCLE
  8
0
 10
-258.873566
 20
-14.999996
 40
5.000000
  0
CIRCLE
  8
0
 10
-258.873566
 20
-14.999996
 40
4.459000
  0
TEXT
  8
0
 10
226.462494
 20
233.607468
 40
8.500000
  1
DATE : NOV ,1991
 50
0.000000
 41
1.052631
 51
0.000000
  7
STANDARD
  0
TEXT
  8
0
 10
-366.896820
 20
232.257462
 40
10.000000
  1
RODLESS CYLINDER
 50
0.000000
 41
0.937799
 51
0.000000
  7
STANDARD
  0
TEXT
  8
0
 10
-347.052124
 20
187.956390
 40
10.000000
  1
MODEL : MRG* 16xSt-K(100)
 50
0.000000
 41
1.052632
 51
0.000000
  7
STANDARD
  0
TEXT
  8
0
 10
-177.872253
 20
-135.299988
 40
7.000000
  1
5-M5x0.8
 50
0.000000
 41
1.052632
 51
0.000000
  7
STANDARD
  0
TEXT
  8
0
 10
-8.642798
 20
19.699993
 40
7.000000
  1
4-M5x0.8
 50
0.000000
 41
1.052632
 51
0.000000
  7
STANDARD
  0
TEXT
  8
0
 10
-92.909302
 20
-186.300049
 40
2.000000
  1
B
 50
0.000000
 41
1.052632
 51
0.000000
  7
STANDARD
  0
TEXT
  8
0
 10
84.590698
 20
-185.300049
 40
2.000000
  1
A
 50
0.000000
 41
1.052632
 51
0.000000
  7
STANDARD
  0
TEXT
  8
0
 10
-92.909302
 20
-174.300049
 40
2.000000
  1
A
 50
0.000000
 41
1.052632
 51
0.000000
  7
STANDARD
  0
TEXT
  8
0
 10
-248.173569
 20
-52.464283
 40
2.000000
  1
A
 50
-90.000000
 41
1.052632
 51
0.000000
  7
STANDARD
  0
TEXT
  8
0
 10
-260.173553
 20
-52.464283
 40
2.000000
  1
B
 50
-90.000000
 41
1.052632
 51
0.000000
  7
STANDARD
  0
ENDSEC
  0
EOF
